999
DXF file: E:\BT Custom\CADOUTPUT\_TOP.dxf
999
Pro/ENGINEER 2018400 by Parametric Technology Corporation
  0
SECTION
  2
HEADER
  9
$ACADVER
  1
AC1018
  9
$DWGCODEPAGE
  3
ANSI_1252
  9
$EXTMAX
 10
22.0
 20
17.0
 30
0.0
  9
$EXTMIN
 10
0.0
 20
0.0
 30
0.0
  9
$LIMMIN
 10
0.0
 20
0.0
  9
$LIMMAX
 10
22.0
 20
17.0
  9
$VIEWCTR
 10
11.0
 20
8.5
  9
$VIEWSIZE
 40
17.0
  9
$CLAYER
  8
0
  9
$LTSCALE
 40
1.21
  9
$CELTYPE
  6
BYLAYER
  9
$DIMSCALE
 40
1.0
  9
$DIMASZ
 40
0.1
  9
$DIMEXO
 40
0.0625
  9
$DIMDLI
 40
0.836
  9
$DIMEXE
 40
0.125
  9
$DIMCEN
 40
0.198
  9
$DIMLFAC
 40
1.0
  9
$DIMBLK
  1
_FILLED
  9
$DIMALT
 70
1
  9
$DIMALTD
 70
2
  9
$DIMALTTD
 70
2
  9
$DIMALTF
 40
25.4
  9
$DIMTXT
 40
0.08
  9
$DIMTOL
 70
1
  9
$DIMLIM
 70
0
  9
$DIMTFAC
 40
1.0
  9
$DIMTP
 40
0.001
  9
$DIMTM
 40
0.001
  9
$DIMGAP
 40
0.09
  9
$DIMDSEP
 70
46
  9
$AUNITS
 70
0
  9
$PDMODE
 70
3
  9
$PDSIZE
 40
0.06
  9
$HANDSEED
  5
238
  9
$TILEMODE
 70
1
  9
$MEASUREMENT
 70
0
  9
$INSUNITS
 70
1
  0
ENDSEC
  0
SECTION
  2
CLASSES
  0
CLASS
  1
ACDBDICTIONARYWDFLT
  2
AcDbDictionaryWithDefault
  3
AutoCAD 2000
 90
0
 91
1
280
0
281
0
  0
CLASS
  1
ACDBPLACEHOLDER
  2
AcDbPlaceHolder
  3
AutoCAD 2000
 90
0
 91
1
280
0
281
0
  0
CLASS
  1
LAYOUT
  2
AcDbLayout
  3
AutoCAD 2000
 90
0
 91
0
280
0
281
0
  0
ENDSEC
  0
SECTION
  2
TABLES
  0
TABLE
  2
VPORT
  5
8
100
AcDbSymbolTable
 70
2
  0
VPORT
  5
1F4
100
AcDbSymbolTableRecord
100
AcDbViewportTableRecord
  2
*ACTIVE
 70
0
 10
0.0
 20
0.0
 11
1.0
 21
1.0
 12
11.0
 22
8.5
 13
0.0
 23
0.0
 14
1.0
 24
1.0
 15
0.0
 25
0.0
 16
0.0
 26
0.0
 36
1.0
 17
0.0
 27
0.0
 37
0.0
 40
17.0
 41
1.2941176471
 42
50.0
 43
0.0
 44
0.0
 50
0.0
 51
0.0
 71
0
 72
100
 73
1
 74
1
 75
0
 76
0
 77
0
 78
0
  0
ENDTAB
  0
TABLE
  2
LTYPE
  5
5
100
AcDbSymbolTable
 70
6
  0
LTYPE
  5
14
100
AcDbSymbolTableRecord
100
AcDbLinetypeTableRecord
  2
BYBLOCK
 70
0
  3

 72
65
 73
0
 40
0.0
  0
LTYPE
  5
15
100
AcDbSymbolTableRecord
100
AcDbLinetypeTableRecord
  2
BYLAYER
 70
0
  3

 72
65
 73
0
 40
0.0
  0
LTYPE
  5
16
100
AcDbSymbolTableRecord
100
AcDbLinetypeTableRecord
  2
CONTINUOUS
 70
64
  3
Solid line
 72
65
 73
0
 40
0.0
  0
LTYPE
  5
1F5
100
AcDbSymbolTableRecord
100
AcDbLinetypeTableRecord
  2
CENTER
 70
64
  3
____ _ ____ _ ____ _ ____ _ ____ _ ____ _ ____
 72
65
 73
4
 40
0.6
 49
0.375
 74
0
 49
-0.075
 74
0
 49
0.075
 74
0
 49
-0.075
 74
0
  0
LTYPE
  5
1F6
100
AcDbSymbolTableRecord
100
AcDbLinetypeTableRecord
  2
HIDDEN
 70
64
  3
- - - - - - - - - - - - - - - - - - - -
 72
65
 73
2
 40
0.2
 49
0.1
 74
0
 49
-0.1
 74
0
  0
LTYPE
  5
1F7
100
AcDbSymbolTableRecord
100
AcDbLinetypeTableRecord
  2
PHANTOM
 70
64
  3
_____ _ _ _____ _ _ _____ _ _ _____
 72
65
 73
6
 40
0.8
 49
0.45
 74
0
 49
-0.05
 74
0
 49
0.1
 74
0
 49
-0.05
 74
0
 49
0.1
 74
0
 49
-0.05
 74
0
  0
LTYPE
  5
1F8
100
AcDbSymbolTableRecord
100
AcDbLinetypeTableRecord
  2
DOT
 70
64
  3
. . . . . . . . . . . . . . . . . . . .
 72
65
 73
2
 40
0.2
 49
0.1
 74
0
 49
-0.1
 74
0
  0
LTYPE
  5
1F9
100
AcDbSymbolTableRecord
100
AcDbLinetypeTableRecord
  2
DASHED
 70
64
  3
- - - - - - - - - - - - - - - - - - - -
 72
65
 73
2
 40
0.2
 49
0.1
 74
0
 49
-0.1
 74
0
  0
ENDTAB
  0
TABLE
  2
LAYER
  5
2
100
AcDbSymbolTable
 70
36
  0
LAYER
  5
10
100
AcDbSymbolTableRecord
100
AcDbLayerTableRecord
  2
0
 70
0
 62
7
  6
CONTINUOUS
370
-3
390
F
  0
LAYER
  5
1FA
100
AcDbSymbolTableRecord
100
AcDbLayerTableRecord
  2
DEFAULT_1
 70
0
 62
7
  6
CENTER
370
-3
390
F
  0
LAYER
  5
1FB
100
AcDbSymbolTableRecord
100
AcDbLayerTableRecord
  2
DEFAULT_2
 70
0
 62
8
  6
HIDDEN
370
-3
390
F
  0
LAYER
  5
1FC
100
AcDbSymbolTableRecord
100
AcDbLayerTableRecord
  2
DEFAULT_3
 70
0
 62
7
  6
PHANTOM
370
-3
390
F
  0
LAYER
  5
1FD
100
AcDbSymbolTableRecord
100
AcDbLayerTableRecord
  2
ALL_FEATURES
 70
0
 62
7
  6
CONTINUOUS
370
-3
390
F
  0
LAYER
  5
1FE
100
AcDbSymbolTableRecord
100
AcDbLayerTableRecord
  2
AXES_FEATURES
 70
0
 62
7
  6
CONTINUOUS
370
-3
390
F
  0
LAYER
  5
1FF
100
AcDbSymbolTableRecord
100
AcDbLayerTableRecord
  2
DEFAULT_COORDINATE_SYSTEM
 70
0
 62
7
  6
CONTINUOUS
370
-3
390
F
  0
LAYER
  5
200
100
AcDbSymbolTableRecord
100
AcDbLayerTableRecord
  2
DEFAULT_DATUM_AXES
 70
0
 62
7
  6
CONTINUOUS
370
-3
390
F
  0
LAYER
  5
201
100
AcDbSymbolTableRecord
100
AcDbLayerTableRecord
  2
DEFAULT_DATUM_PLANES
 70
0
 62
7
  6
CONTINUOUS
370
-3
390
F
  0
LAYER
  5
202
100
AcDbSymbolTableRecord
100
AcDbLayerTableRecord
  2
DIMENSIONS
 70
0
 62
7
  6
CONTINUOUS
370
-3
390
F
  0
ENDTAB
  0
TABLE
  2
STYLE
  5
3
100
AcDbSymbolTable
 70
1
  0
STYLE
  5
11
100
AcDbSymbolTableRecord
100
AcDbTextStyleTableRecord
  2
STANDARD
 70
0
 40
0.0
 41
0.8
 50
0.0
 71
0
 42
0.2
  3
txt
  4

  0
STYLE
  5
203
100
AcDbSymbolTableRecord
100
AcDbTextStyleTableRecord
  2
TEXTSTYLE_1
 70
0
 40
0.0
 41
0.8
 50
0.0
 71
0
 42
0.2
  3
gdt
  4

  0
ENDTAB
  0
TABLE
  2
VIEW
  5
6
100
AcDbSymbolTable
 70
0
  0
ENDTAB
  0
TABLE
  2
UCS
  5
7
100
AcDbSymbolTable
 70
0
  0
ENDTAB
  0
TABLE
  2
APPID
  5
9
100
AcDbSymbolTable
 70
1
  0
APPID
  5
204
100
AcDbSymbolTableRecord
100
AcDbRegAppTableRecord
  2
ACAD
 70
0
  0
ENDTAB
  0
TABLE
  2
BLOCK_RECORD
  5
1
100
AcDbSymbolTable
 70
0
  0
BLOCK_RECORD
  5
205
100
AcDbSymbolTableRecord
100
AcDbBlockTableRecord
  2
*Model_Space
  0
BLOCK_RECORD
  5
206
100
AcDbSymbolTableRecord
100
AcDbBlockTableRecord
  2
*Paper_Space
  0
BLOCK_RECORD
  5
207
100
AcDbSymbolTableRecord
100
AcDbBlockTableRecord
  2
_FILLED
  0
ENDTAB
  0
TABLE
  2
DIMSTYLE
  5
A
100
AcDbSymbolTable
 70
1
100
AcDbDimStyleTable
 71
0
  0
DIMSTYLE
105
208
100
AcDbSymbolTableRecord
100
AcDbDimStyleTableRecord
  2
STANDARD
 70
0
  3

  4

 40
1.0
 41
0.1
 42
0.0625
 43
0.38
 44
0.125
 45
0.0
 46
0.0
 47
0.001
 48
0.001
140
0.08
141
0.09
142
0.0
143
25.4
144
1.0
145
0.0
146
1.0
147
0.09
 71
1.0
 72
0.0
 73
1
 74
1
 75
0
 76
0
 77
0
 78
4
 79
1
170
1
171
2
172
0
173
0
174
0
175
0
176
0
177
0
178
0
270
2
179
3
271
3
272
3
273
2
274
2
275
0
280
0
281
0
282
0
283
1
284
4
285
0
286
0
287
3
288
0
340
11
278
46
341
207
342
207
343
207
344
207
  0
ENDTAB
  0
ENDSEC
  0
SECTION
  2
BLOCKS
  0
BLOCK
  5
20
100
AcDbEntity
  8
0
100
AcDbBlockBegin
  2
*Model_Space
 70
0
 10
0.0
 20
0.0
 30
0.0
  3
*Model_Space
  1

  0
ENDBLK
  5
21
100
AcDbEntity
  8
0
100
AcDbBlockEnd
  0
BLOCK
  5
1C
100
AcDbEntity
  8
0
100
AcDbBlockBegin
  2
*Paper_Space
 70
0
 10
0.0
 20
0.0
 30
0.0
  3
*Paper_Space
  1

  0
ENDBLK
  5
1D
100
AcDbEntity
  8
0
100
AcDbBlockEnd
  0
BLOCK
  5
209
100
AcDbEntity
  8
0
100
AcDbBlockBegin
  2
_FILLED
 70
64
 10
0.0
 20
0.0
  3
_FILLED
  1

  0
SOLID
  5
20A
100
AcDbEntity
  8
0
  6
BYBLOCK
 62
0
100
AcDbTrace
 10
0.0
 20
0.0
 11
-1.0
 21
0.2
 12
-1.0
 22
-0.2
 13
-1.0
 23
-0.2
  0
ENDBLK
  5
20B
100
AcDbEntity
  8
0
  6
BYBLOCK
 62
0
100
AcDbBlockEnd
  0
ENDSEC
  0
SECTION
  2
ENTITIES
  0
LINE
  5
20C
100
AcDbEntity
  8
0
100
AcDbLine
 62
7
  6
CONTINUOUS
 10
-8.4526816617
 20
8.8573318604
 11
-8.4526816617
 21
8.6286814185
  0
LINE
  5
20D
100
AcDbEntity
  8
0
100
AcDbLine
 62
7
  6
CONTINUOUS
 10
-7.8276816617
 20
8.3323318604
 11
-7.8276816617
 21
8.3173318604
  0
LINE
  5
20E
100
AcDbEntity
  8
0
100
AcDbLine
 62
7
  6
CONTINUOUS
 10
-6.0776816617
 20
8.3173318604
 11
-6.0776816617
 21
8.3323318604
  0
LINE
  5
20F
100
AcDbEntity
  8
0
100
AcDbLine
 62
7
  6
CONTINUOUS
 10
-5.4526816617
 20
8.8573318604
 11
-5.4526816617
 21
8.6286814185
  0
LINE
  5
210
100
AcDbEntity
  8
0
100
AcDbLine
 62
9
  6
CONTINUOUS
 10
-5.3276816617
 20
7.3573318604
 11
-5.3276816617
 21
6.1073318604
  0
LINE
  5
211
100
AcDbEntity
  8
0
100
AcDbLine
 62
7
  6
CONTINUOUS
 10
-5.3276816617
 20
6.1073318604
 11
27.4223183383
 21
6.1073318604
  0
LINE
  5
212
100
AcDbEntity
  8
0
100
AcDbLine
 62
7
  6
CONTINUOUS
 10
-5.3276816617
 20
7.3573318604
 11
27.4223183383
 21
7.3573318604
  0
LINE
  5
213
100
AcDbEntity
  8
0
100
AcDbLine
 62
7
  6
CONTINUOUS
 10
29.8623183383
 20
8.2573318604
 11
28.2323183383
 21
8.2573318604
  0
LINE
  5
214
100
AcDbEntity
  8
0
100
AcDbLine
 62
7
  6
CONTINUOUS
 10
-6.1376816617
 20
8.2573318604
 11
-7.7676816617
 21
8.2573318604
  0
LINE
  5
215
100
AcDbEntity
  8
0
100
AcDbLine
 62
9
  6
CONTINUOUS
 10
29.9223183383
 20
8.3173318604
 11
28.1723183383
 21
8.3173318604
  0
LINE
  5
216
100
AcDbEntity
  8
0
100
AcDbLine
 62
9
  6
CONTINUOUS
 10
-6.0776816617
 20
8.3173318604
 11
-7.8276816617
 21
8.3173318604
  0
LINE
  5
217
100
AcDbEntity
  8
0
100
AcDbLine
 62
7
  6
CONTINUOUS
 10
30.0921571039
 20
8.3323318604
 11
28.0024795727
 21
8.3323318604
  0
LINE
  5
218
100
AcDbEntity
  8
0
100
AcDbLine
 62
7
  6
CONTINUOUS
 10
-5.9078428961
 20
8.3323318604
 11
-7.9975204273
 21
8.3323318604
  0
LINE
  5
219
100
AcDbEntity
  8
0
100
AcDbLine
 62
7
  6
CONTINUOUS
 10
30.5473183383
 20
8.8573318604
 11
27.5473183383
 21
8.8573318604
  0
LINE
  5
21A
100
AcDbEntity
  8
0
100
AcDbLine
 62
7
  6
CONTINUOUS
 10
-5.4526816617
 20
8.8573318604
 11
-8.4526816617
 21
8.8573318604
  0
LINE
  5
21B
100
AcDbEntity
  8
0
100
AcDbLine
 62
9
  6
CONTINUOUS
 10
27.4223183383
 20
7.3573318604
 11
27.4223183383
 21
6.1073318604
  0
LINE
  5
21C
100
AcDbEntity
  8
0
100
AcDbLine
 62
7
  6
CONTINUOUS
 10
27.5473183383
 20
8.8573318604
 11
27.5473183383
 21
8.6286814185
  0
LINE
  5
21D
100
AcDbEntity
  8
0
100
AcDbLine
 62
7
  6
CONTINUOUS
 10
28.1723183383
 20
8.3323318604
 11
28.1723183383
 21
8.3173318604
  0
LINE
  5
21E
100
AcDbEntity
  8
0
100
AcDbLine
 62
7
  6
CONTINUOUS
 10
29.9223183383
 20
8.3173318604
 11
29.9223183383
 21
8.3323318604
  0
LINE
  5
21F
100
AcDbEntity
  8
0
100
AcDbLine
 62
7
  6
CONTINUOUS
 10
30.5473183383
 20
8.8573318604
 11
30.5473183383
 21
8.6286814185
  0
ARC
  5
220
100
AcDbEntity
  8
0
100
AcDbCircle
 62
7
  6
CONTINUOUS
 10
-5.3276816617
 20
8.3573318604
 40
2.25
100
AcDbArc
 50
182.5473181826
 51
270.0
  0
ARC
  5
221
100
AcDbEntity
  8
0
100
AcDbCircle
 62
7
  6
CONTINUOUS
 10
27.4223183383
 20
8.3573318604
 40
2.25
100
AcDbArc
 50
270.0
 51
357.4526818174
  0
ARC
  5
222
100
AcDbEntity
  8
0
100
AcDbCircle
 62
7
  6
CONTINUOUS
 10
-5.3276816617
 20
8.3573318604
 40
1.0
100
AcDbArc
 50
185.7391704773
 51
270.0
  0
ARC
  5
223
100
AcDbEntity
  8
0
100
AcDbCircle
 62
7
  6
CONTINUOUS
 10
27.4223183383
 20
8.3573318604
 40
1.0
100
AcDbArc
 50
270.0
 51
354.2608295227
  0
ARC
  5
224
100
AcDbEntity
  8
0
100
AcDbCircle
 62
7
  6
CONTINUOUS
 10
-7.7676816617
 20
8.3173318604
 40
0.06
100
AcDbArc
 50
180.0
 51
270.0
  0
ARC
  5
225
100
AcDbEntity
  8
0
100
AcDbCircle
 62
7
  6
CONTINUOUS
 10
-6.1376816617
 20
8.3173318604
 40
0.06
100
AcDbArc
 50
270.0
 51
360.0
  0
ARC
  5
226
100
AcDbEntity
  8
0
100
AcDbCircle
 62
7
  6
CONTINUOUS
 10
28.2323183383
 20
8.3173318604
 40
0.06
100
AcDbArc
 50
180.0
 51
270.0
  0
ARC
  5
227
100
AcDbEntity
  8
0
100
AcDbCircle
 62
7
  6
CONTINUOUS
 10
29.8623183383
 20
8.3173318604
 40
0.06
100
AcDbArc
 50
270.0
 51
360.0
  0
SPLINE
  5
228
100
AcDbEntity
  8
0
100
AcDbSpline
 62
7
  6
CONTINUOUS
 70
0
 71
3
 72
13
 73
9
 74
0
 42
0.0000001
 43
0.0000001
 44
0.0000000001
 40
0.0
 40
0.0
 40
0.0
 40
0.0
 40
0.2499696724
 40
0.4999299602
 40
0.6249486556
 40
0.7499647019
 40
0.8749853232
 40
1.0
 40
1.0
 40
1.0
 40
1.0
 10
-8.4526816617
 20
8.6286814185
 30
0.0
 10
-8.4104159313
 20
8.6117024655
 30
0.0
 10
-8.3274116229
 20
8.5737965626
 30
0.0
 10
-8.2286763819
 20
8.5166755458
 30
0.0
 10
-8.153423018
 20
8.4652599239
 30
0.0
 10
-8.0990091864
 20
8.4238592212
 30
0.0
 10
-8.0468311171
 20
8.3796782866
 30
0.0
 10
-8.0136619243
 20
8.3484057204
 30
0.0
 10
-7.9975204273
 20
8.3323318604
 30
0.0
  0
SPLINE
  5
229
100
AcDbEntity
  8
0
100
AcDbSpline
 62
7
  6
CONTINUOUS
 70
0
 71
3
 72
13
 73
9
 74
0
 42
0.0000001
 43
0.0000001
 44
0.0000000001
 40
0.0
 40
0.0
 40
0.0
 40
0.0
 40
0.2499696714
 40
0.4999299829
 40
0.6249486776
 40
0.7499647043
 40
0.8749853152
 40
1.0
 40
1.0
 40
1.0
 40
1.0
 10
-5.4526816617
 20
8.6286814185
 30
0.0
 10
-5.4949473919
 20
8.6117024656
 30
0.0
 10
-5.577951704
 20
8.5737965609
 30
0.0
 10
-5.6766869485
 20
8.5166755418
 30
0.0
 10
-5.7519403121
 20
8.4652599186
 30
0.0
 10
-5.8063541396
 20
8.4238592196
 30
0.0
 10
-5.8585322052
 20
8.3796782869
 30
0.0
 10
-5.8917013981
 20
8.3484057214
 30
0.0
 10
-5.9078428961
 20
8.3323318604
 30
0.0
  0
SPLINE
  5
22A
100
AcDbEntity
  8
0
100
AcDbSpline
 62
7
  6
CONTINUOUS
 70
0
 71
3
 72
13
 73
9
 74
0
 42
0.0000001
 43
0.0000001
 44
0.0000000001
 40
0.0
 40
0.0
 40
0.0
 40
0.0
 40
0.2499696724
 40
0.4999299602
 40
0.6249486556
 40
0.7499647019
 40
0.8749853232
 40
1.0
 40
1.0
 40
1.0
 40
1.0
 10
27.5473183383
 20
8.6286814185
 30
0.0
 10
27.5895840687
 20
8.6117024655
 30
0.0
 10
27.6725883771
 20
8.5737965626
 30
0.0
 10
27.7713236181
 20
8.5166755458
 30
0.0
 10
27.846576982
 20
8.4652599239
 30
0.0
 10
27.9009908136
 20
8.4238592212
 30
0.0
 10
27.9531688829
 20
8.3796782866
 30
0.0
 10
27.9863380757
 20
8.3484057204
 30
0.0
 10
28.0024795727
 20
8.3323318604
 30
0.0
  0
SPLINE
  5
22B
100
AcDbEntity
  8
0
100
AcDbSpline
 62
7
  6
CONTINUOUS
 70
0
 71
3
 72
13
 73
9
 74
0
 42
0.0000001
 43
0.0000001
 44
0.0000000001
 40
0.0
 40
0.0
 40
0.0
 40
0.0
 40
0.2499696714
 40
0.4999299829
 40
0.6249486776
 40
0.7499647043
 40
0.8749853152
 40
1.0
 40
1.0
 40
1.0
 40
1.0
 10
30.5473183383
 20
8.6286814185
 30
0.0
 10
30.5050526081
 20
8.6117024656
 30
0.0
 10
30.422048296
 20
8.5737965609
 30
0.0
 10
30.3233130515
 20
8.5166755418
 30
0.0
 10
30.2480596879
 20
8.4652599186
 30
0.0
 10
30.1936458604
 20
8.4238592196
 30
0.0
 10
30.1414677948
 20
8.3796782869
 30
0.0
 10
30.1082986019
 20
8.3484057214
 30
0.0
 10
30.0921571039
 20
8.3323318604
 30
0.0
  0
SPLINE
  5
22C
100
AcDbEntity
  8
0
100
AcDbSpline
 62
7
  6
CONTINUOUS
 70
0
 71
3
 72
14
 73
10
 74
0
 42
0.0000001
 43
0.0000001
 44
0.0000000001
 40
0.0
 40
0.0
 40
0.0
 40
0.0
 40
0.2237172292
 40
0.3417743409
 40
0.4641994662
 40
0.59114405
 40
0.7227170656
 40
0.8589973565
 40
1.0
 40
1.0
 40
1.0
 40
1.0
 10
-7.7026816617
 20
8.6286814185
 30
0.0
 10
-7.6808007101
 20
8.6111014243
 30
0.0
 10
-7.64915949
 20
8.5819470379
 30
0.0
 10
-7.6098959237
 20
8.5389094527
 30
0.0
 10
-7.5807571994
 20
8.503154545
 30
0.0
 10
-7.5525554496
 20
8.4645423417
 30
0.0
 10
-7.5253776516
 20
8.4231071618
 30
0.0
 10
-7.4993216999
 20
8.3789002619
 30
0.0
 10
-7.4830391592
 20
8.3481415644
 30
0.0
 10
-7.4751010445
 20
8.3323318604
 30
0.0
  0
SPLINE
  5
22D
100
AcDbEntity
  8
0
100
AcDbSpline
 62
7
  6
CONTINUOUS
 70
0
 71
3
 72
14
 73
10
 74
0
 42
0.0000001
 43
0.0000001
 44
0.0000000001
 40
0.0
 40
0.0
 40
0.0
 40
0.0
 40
0.2237172292
 40
0.3417743409
 40
0.4641994662
 40
0.59114405
 40
0.7227170656
 40
0.8589973565
 40
1.0
 40
1.0
 40
1.0
 40
1.0
 10
28.2973183383
 20
8.6286814185
 30
0.0
 10
28.3191992899
 20
8.6111014243
 30
0.0
 10
28.35084051
 20
8.5819470379
 30
0.0
 10
28.3901040763
 20
8.5389094527
 30
0.0
 10
28.4192428006
 20
8.503154545
 30
0.0
 10
28.4474445504
 20
8.4645423417
 30
0.0
 10
28.4746223484
 20
8.4231071618
 30
0.0
 10
28.5006783001
 20
8.3789002619
 30
0.0
 10
28.5169608408
 20
8.3481415644
 30
0.0
 10
28.5248989555
 20
8.3323318604
 30
0.0
  0
SPLINE
  5
22E
100
AcDbEntity
  8
0
100
AcDbSpline
 62
7
  6
CONTINUOUS
 70
0
 71
3
 72
37
 73
33
 74
0
 42
0.0000001
 43
0.0000001
 44
0.0000000001
 40
0.0
 40
0.0
 40
0.0
 40
0.0
 40
0.1070706569
 40
0.2094766983
 40
0.3067646148
 40
0.3533583113
 40
0.3985183935
 40
0.4843486463
 40
0.5639041163
 40
0.6368615942
 40
0.6707751285
 40
0.7029344328
 40
0.7333101289
 40
0.7618778322
 40
0.7886173734
 40
0.8135164099
 40
0.8365707976
 40
0.8577903269
 40
0.8772018358
 40
0.8948596775
 40
0.9108551676
 40
0.9253366427
 40
0.9385292987
 40
0.9447463104
 40
0.9507743098
 40
0.9566717868
 40
0.9625038686
 40
0.9683403732
 40
0.9742526179
 40
0.9803109558
 40
0.9865827817
 40
1.0
 40
1.0
 40
1.0
 40
1.0
 10
-6.2026816617
 20
8.6286814185
 30
0.0
 10
-6.1754550154
 20
8.6359730618
 30
0.0
 10
-6.121846065
 20
8.6489901798
 30
0.0
 10
-6.0426240822
 20
8.6647476362
 30
0.0
 10
-5.9786011972
 20
8.6750634675
 30
0.0
 10
-5.9292892958
 20
8.6817744137
 30
0.0
 10
-5.8828754254
 20
8.6873718194
 30
0.0
 10
-5.8277120669
 20
8.6928383049
 30
0.0
 10
-5.7651248625
 20
8.6973560144
 30
0.0
 10
-5.7160932081
 20
8.6996032684
 30
0.0
 10
-5.67950321
 20
8.7004853146
 30
0.0
 10
-5.6541131674
 20
8.7007056463
 30
0.0
 10
-5.6301300831
 20
8.7005092194
 30
0.0
 10
-5.6075811544
 20
8.6998890731
 30
0.0
 10
-5.5864910603
 20
8.6988393826
 30
0.0
 10
-5.5668827768
 20
8.6973401692
 30
0.0
 10
-5.5487760326
 20
8.695371671
 30
0.0
 10
-5.5321886187
 20
8.6929010061
 30
0.0
 10
-5.517133813
 20
8.6898936658
 30
0.0
 10
-5.5036223331
 20
8.6863027343
 30
0.0
 10
-5.4916585065
 20
8.6820747171
 30
0.0
 10
-5.4812474952
 20
8.6771434506
 30
0.0
 10
-5.4737227938
 20
8.6722825838
 30
0.0
 10
-5.4685863095
 20
8.6679745083
 30
0.0
 10
-5.4652085408
 20
8.6645883612
 30
0.0
 10
-5.4622315367
 20
8.6609746476
 30
0.0
 10
-5.4596565037
 20
8.6571242516
 30
0.0
 10
-5.4574840692
 20
8.6530286186
 30
0.0
 10
-5.4557140081
 20
8.6486796278
 30
0.0
 10
-5.4543454071
 20
8.6440686066
 30
0.0
 10
-5.4530227928
 20
8.6374134051
 30
0.0
 10
-5.4526816617
 20
8.6322134745
 30
0.0
 10
-5.4526816617
 20
8.6286814185
 30
0.0
  0
SPLINE
  5
22F
100
AcDbEntity
  8
0
100
AcDbSpline
 62
7
  6
CONTINUOUS
 70
0
 71
3
 72
37
 73
33
 74
0
 42
0.0000001
 43
0.0000001
 44
0.0000000001
 40
0.0
 40
0.0
 40
0.0
 40
0.0
 40
0.1070706569
 40
0.2094766983
 40
0.3067646148
 40
0.3533583113
 40
0.3985183935
 40
0.4843486463
 40
0.5639041163
 40
0.6368615942
 40
0.6707751285
 40
0.7029344328
 40
0.7333101289
 40
0.7618778322
 40
0.7886173734
 40
0.8135164099
 40
0.8365707976
 40
0.8577903269
 40
0.8772018358
 40
0.8948596775
 40
0.9108551676
 40
0.9253366427
 40
0.9385292987
 40
0.9447463104
 40
0.9507743098
 40
0.9566717868
 40
0.9625038686
 40
0.9683403732
 40
0.9742526179
 40
0.9803109558
 40
0.9865827817
 40
1.0
 40
1.0
 40
1.0
 40
1.0
 10
29.7973183383
 20
8.6286814185
 30
0.0
 10
29.8245449846
 20
8.6359730618
 30
0.0
 10
29.878153935
 20
8.6489901798
 30
0.0
 10
29.9573759178
 20
8.6647476362
 30
0.0
 10
30.0213988028
 20
8.6750634675
 30
0.0
 10
30.0707107042
 20
8.6817744137
 30
0.0
 10
30.1171245746
 20
8.6873718194
 30
0.0
 10
30.1722879331
 20
8.6928383049
 30
0.0
 10
30.2348751375
 20
8.6973560144
 30
0.0
 10
30.2839067919
 20
8.6996032684
 30
0.0
 10
30.32049679
 20
8.7004853146
 30
0.0
 10
30.3458868326
 20
8.7007056463
 30
0.0
 10
30.3698699169
 20
8.7005092194
 30
0.0
 10
30.3924188456
 20
8.6998890731
 30
0.0
 10
30.4135089397
 20
8.6988393826
 30
0.0
 10
30.4331172232
 20
8.6973401692
 30
0.0
 10
30.4512239674
 20
8.695371671
 30
0.0
 10
30.4678113813
 20
8.6929010061
 30
0.0
 10
30.482866187
 20
8.6898936658
 30
0.0
 10
30.4963776669
 20
8.6863027343
 30
0.0
 10
30.5083414935
 20
8.6820747171
 30
0.0
 10
30.5187525048
 20
8.6771434506
 30
0.0
 10
30.5262772062
 20
8.6722825838
 30
0.0
 10
30.5314136905
 20
8.6679745083
 30
0.0
 10
30.5347914592
 20
8.6645883612
 30
0.0
 10
30.5377684633
 20
8.6609746476
 30
0.0
 10
30.5403434963
 20
8.6571242516
 30
0.0
 10
30.5425159308
 20
8.6530286186
 30
0.0
 10
30.5442859919
 20
8.6486796278
 30
0.0
 10
30.5456545929
 20
8.6440686066
 30
0.0
 10
30.5469772072
 20
8.6374134051
 30
0.0
 10
30.5473183383
 20
8.6322134745
 30
0.0
 10
30.5473183383
 20
8.6286814185
 30
0.0
  0
SPLINE
  5
230
100
AcDbEntity
  8
0
100
AcDbSpline
 62
7
  6
CONTINUOUS
 70
0
 71
3
 72
23
 73
19
 74
0
 42
0.0000001
 43
0.0000001
 44
0.0000000001
 40
0.0
 40
0.0
 40
0.0
 40
0.0
 40
0.0579798181
 40
0.1176548675
 40
0.1788762263
 40
0.2414374203
 40
0.3050976987
 40
0.3695951943
 40
0.4346560542
 40
0.5
 40
0.5653439459
 40
0.6304048057
 40
0.6949023013
 40
0.7585625798
 40
0.8211237737
 40
0.8823451326
 40
0.9420201819
 40
1.0
 40
1.0
 40
1.0
 40
1.0
 10
28.2973183383
 20
8.6286814185
 30
0.0
 10
28.3255214461
 20
8.6362345707
 30
0.0
 10
28.383276538
 20
8.6496412726
 30
0.0
 10
28.4720170713
 20
8.6652804173
 30
0.0
 10
28.5636292613
 20
8.6773801532
 30
0.0
 10
28.6575941843
 20
8.6864925664
 30
0.0
 10
28.7534186782
 20
8.6930842061
 30
0.0
 10
28.8506239619
 20
8.6975244128
 30
0.0
 10
28.9487435175
 20
8.7000806608
 30
0.0
 10
29.0473183383
 20
8.7009146954
 30
0.0
 10
29.1458931591
 20
8.7000806608
 30
0.0
 10
29.2440127147
 20
8.6975244128
 30
0.0
 10
29.3412179984
 20
8.6930842061
 30
0.0
 10
29.4370424923
 20
8.6864925664
 30
0.0
 10
29.5310074153
 20
8.6773801532
 30
0.0
 10
29.6226196052
 20
8.6652804173
 30
0.0
 10
29.7113601386
 20
8.6496412726
 30
0.0
 10
29.7691152305
 20
8.6362345707
 30
0.0
 10
29.7973183383
 20
8.6286814185
 30
0.0
  0
SPLINE
  5
231
100
AcDbEntity
  8
0
100
AcDbSpline
 62
7
  6
CONTINUOUS
 70
0
 71
3
 72
37
 73
33
 74
0
 42
0.0000001
 43
0.0000001
 44
0.0000000001
 40
0.0
 40
0.0
 40
0.0
 40
0.0
 40
0.0134172183
 40
0.0196890442
 40
0.0257473821
 40
0.0316596268
 40
0.0374961314
 40
0.0433282132
 40
0.0492256902
 40
0.0552536896
 40
0.0614707014
 40
0.0746633573
 40
0.0891448324
 40
0.1051403225
 40
0.1227981642
 40
0.1422096731
 40
0.1634292025
 40
0.1864835901
 40
0.2113826266
 40
0.2381221679
 40
0.2666898712
 40
0.2970655673
 40
0.3292248715
 40
0.3631384059
 40
0.4360958837
 40
0.5156513539
 40
0.6014816066
 40
0.6466416888
 40
0.6932353852
 40
0.7905233017
 40
0.8929293431
 40
1.0
 40
1.0
 40
1.0
 40
1.0
 10
27.5473183383
 20
8.6286814185
 30
0.0
 10
27.5473183383
 20
8.6322134745
 30
0.0
 10
27.5476594694
 20
8.6374134051
 30
0.0
 10
27.5489820837
 20
8.6440686066
 30
0.0
 10
27.5503506847
 20
8.6486796278
 30
0.0
 10
27.5521207457
 20
8.6530286186
 30
0.0
 10
27.5542931802
 20
8.6571242516
 30
0.0
 10
27.5568682133
 20
8.6609746476
 30
0.0
 10
27.5598452174
 20
8.6645883613
 30
0.0
 10
27.5632229861
 20
8.6679745083
 30
0.0
 10
27.5683594703
 20
8.6722825838
 30
0.0
 10
27.5758841718
 20
8.6771434506
 30
0.0
 10
27.5862951831
 20
8.6820747171
 30
0.0
 10
27.5982590097
 20
8.6863027343
 30
0.0
 10
27.6117704896
 20
8.6898936659
 30
0.0
 10
27.6268252953
 20
8.6929010061
 30
0.0
 10
27.6434127092
 20
8.695371671
 30
0.0
 10
27.6615194534
 20
8.6973401692
 30
0.0
 10
27.681127737
 20
8.6988393826
 30
0.0
 10
27.7022178311
 20
8.6998890731
 30
0.0
 10
27.7247667598
 20
8.7005092194
 30
0.0
 10
27.748749844
 20
8.7007056463
 30
0.0
 10
27.7741398866
 20
8.7004853146
 30
0.0
 10
27.8107298847
 20
8.6996032684
 30
0.0
 10
27.8597615392
 20
8.6973560144
 30
0.0
 10
27.9223487436
 20
8.6928383049
 30
0.0
 10
27.977512102
 20
8.6873718194
 30
0.0
 10
28.0239259724
 20
8.6817744137
 30
0.0
 10
28.0732378738
 20
8.6750634675
 30
0.0
 10
28.1372607588
 20
8.6647476362
 30
0.0
 10
28.2164827415
 20
8.6489901798
 30
0.0
 10
28.2700916919
 20
8.6359730618
 30
0.0
 10
28.2973183383
 20
8.6286814185
 30
0.0
  0
SPLINE
  5
232
100
AcDbEntity
  8
0
100
AcDbSpline
 62
7
  6
CONTINUOUS
 70
0
 71
3
 72
37
 73
33
 74
0
 42
0.0000001
 43
0.0000001
 44
0.0000000001
 40
0.0
 40
0.0
 40
0.0
 40
0.0
 40
0.0134172183
 40
0.0196890442
 40
0.0257473821
 40
0.0316596268
 40
0.0374961314
 40
0.0433282132
 40
0.0492256902
 40
0.0552536896
 40
0.0614707014
 40
0.0746633573
 40
0.0891448324
 40
0.1051403225
 40
0.1227981642
 40
0.1422096731
 40
0.1634292025
 40
0.1864835901
 40
0.2113826266
 40
0.2381221679
 40
0.2666898712
 40
0.2970655673
 40
0.3292248715
 40
0.3631384059
 40
0.4360958837
 40
0.5156513539
 40
0.6014816066
 40
0.6466416888
 40
0.6932353852
 40
0.7905233017
 40
0.8929293431
 40
1.0
 40
1.0
 40
1.0
 40
1.0
 10
-8.4526816617
 20
8.6286814185
 30
0.0
 10
-8.4526816617
 20
8.6322134745
 30
0.0
 10
-8.4523405306
 20
8.6374134051
 30
0.0
 10
-8.4510179163
 20
8.6440686066
 30
0.0
 10
-8.4496493153
 20
8.6486796278
 30
0.0
 10
-8.4478792543
 20
8.6530286186
 30
0.0
 10
-8.4457068198
 20
8.6571242516
 30
0.0
 10
-8.4431317867
 20
8.6609746476
 30
0.0
 10
-8.4401547826
 20
8.6645883613
 30
0.0
 10
-8.4367770139
 20
8.6679745083
 30
0.0
 10
-8.4316405297
 20
8.6722825838
 30
0.0
 10
-8.4241158282
 20
8.6771434506
 30
0.0
 10
-8.4137048169
 20
8.6820747171
 30
0.0
 10
-8.4017409903
 20
8.6863027343
 30
0.0
 10
-8.3882295104
 20
8.6898936659
 30
0.0
 10
-8.3731747047
 20
8.6929010061
 30
0.0
 10
-8.3565872908
 20
8.695371671
 30
0.0
 10
-8.3384805466
 20
8.6973401692
 30
0.0
 10
-8.318872263
 20
8.6988393826
 30
0.0
 10
-8.2977821689
 20
8.6998890731
 30
0.0
 10
-8.2752332402
 20
8.7005092194
 30
0.0
 10
-8.251250156
 20
8.7007056463
 30
0.0
 10
-8.2258601134
 20
8.7004853146
 30
0.0
 10
-8.1892701153
 20
8.6996032684
 30
0.0
 10
-8.1402384608
 20
8.6973560144
 30
0.0
 10
-8.0776512564
 20
8.6928383049
 30
0.0
 10
-8.022487898
 20
8.6873718194
 30
0.0
 10
-7.9760740276
 20
8.6817744137
 30
0.0
 10
-7.9267621262
 20
8.6750634675
 30
0.0
 10
-7.8627392412
 20
8.6647476362
 30
0.0
 10
-7.7835172585
 20
8.6489901798
 30
0.0
 10
-7.7299083081
 20
8.6359730618
 30
0.0
 10
-7.7026816617
 20
8.6286814185
 30
0.0
  0
SPLINE
  5
233
100
AcDbEntity
  8
0
100
AcDbSpline
 62
7
  6
CONTINUOUS
 70
0
 71
3
 72
14
 73
10
 74
0
 42
0.0000001
 43
0.0000001
 44
0.0000000001
 40
0.0
 40
0.0
 40
0.0
 40
0.0
 40
0.2237172292
 40
0.3417743409
 40
0.4641994662
 40
0.59114405
 40
0.7227170656
 40
0.8589973565
 40
1.0
 40
1.0
 40
1.0
 40
1.0
 10
29.7973183383
 20
8.6286814185
 30
0.0
 10
29.7754373867
 20
8.6111014243
 30
0.0
 10
29.7437961665
 20
8.5819470379
 30
0.0
 10
29.7045326003
 20
8.5389094527
 30
0.0
 10
29.675393876
 20
8.503154545
 30
0.0
 10
29.6471921262
 20
8.4645423417
 30
0.0
 10
29.6200143282
 20
8.4231071618
 30
0.0
 10
29.5939583764
 20
8.3789002619
 30
0.0
 10
29.5776758358
 20
8.3481415644
 30
0.0
 10
29.5697377211
 20
8.3323318604
 30
0.0
  0
SPLINE
  5
234
100
AcDbEntity
  8
0
100
AcDbSpline
 62
7
  6
CONTINUOUS
 70
0
 71
3
 72
23
 73
19
 74
0
 42
0.0000001
 43
0.0000001
 44
0.0000000001
 40
0.0
 40
0.0
 40
0.0
 40
0.0
 40
0.0579798181
 40
0.1176548675
 40
0.1788762263
 40
0.2414374203
 40
0.3050976987
 40
0.3695951943
 40
0.4346560542
 40
0.5
 40
0.5653439459
 40
0.6304048057
 40
0.6949023013
 40
0.7585625798
 40
0.8211237737
 40
0.8823451326
 40
0.9420201819
 40
1.0
 40
1.0
 40
1.0
 40
1.0
 10
-7.7026816617
 20
8.6286814185
 30
0.0
 10
-7.6744785539
 20
8.6362345707
 30
0.0
 10
-7.616723462
 20
8.6496412726
 30
0.0
 10
-7.5279829287
 20
8.6652804173
 30
0.0
 10
-7.4363707387
 20
8.6773801532
 30
0.0
 10
-7.3424058157
 20
8.6864925664
 30
0.0
 10
-7.2465813218
 20
8.6930842061
 30
0.0
 10
-7.1493760381
 20
8.6975244128
 30
0.0
 10
-7.0512564825
 20
8.7000806608
 30
0.0
 10
-6.9526816617
 20
8.7009146954
 30
0.0
 10
-6.8541068409
 20
8.7000806608
 30
0.0
 10
-6.7559872853
 20
8.6975244128
 30
0.0
 10
-6.6587820016
 20
8.6930842061
 30
0.0
 10
-6.5629575077
 20
8.6864925664
 30
0.0
 10
-6.4689925847
 20
8.6773801532
 30
0.0
 10
-6.3773803948
 20
8.6652804173
 30
0.0
 10
-6.2886398614
 20
8.6496412726
 30
0.0
 10
-6.2308847695
 20
8.6362345707
 30
0.0
 10
-6.2026816617
 20
8.6286814185
 30
0.0
  0
SPLINE
  5
235
100
AcDbEntity
  8
0
100
AcDbSpline
 62
7
  6
CONTINUOUS
 70
0
 71
3
 72
14
 73
10
 74
0
 42
0.0000001
 43
0.0000001
 44
0.0000000001
 40
0.0
 40
0.0
 40
0.0
 40
0.0
 40
0.2237172292
 40
0.3417743409
 40
0.4641994662
 40
0.59114405
 40
0.7227170656
 40
0.8589973565
 40
1.0
 40
1.0
 40
1.0
 40
1.0
 10
-6.2026816617
 20
8.6286814185
 30
0.0
 10
-6.2245626133
 20
8.6111014243
 30
0.0
 10
-6.2562038335
 20
8.5819470379
 30
0.0
 10
-6.2954673997
 20
8.5389094527
 30
0.0
 10
-6.324606124
 20
8.503154545
 30
0.0
 10
-6.3528078738
 20
8.4645423417
 30
0.0
 10
-6.3799856718
 20
8.4231071618
 30
0.0
 10
-6.4060416236
 20
8.3789002619
 30
0.0
 10
-6.4223241642
 20
8.3481415644
 30
0.0
 10
-6.4302622789
 20
8.3323318604
 30
0.0
  0
ENDSEC
  0
SECTION
  2
OBJECTS
  0
DICTIONARY
  5
C
100
AcDbDictionary
280
0
281
1
  3
ACAD_GROUP
350
D
  3
ACAD_MLINESTYLE
350
17
  3
ACAD_LAYOUT
350
1A
  3
ACAD_PLOTSETTINGS
350
19
  3
ACAD_PLOTSTYLENAME
350
E
  0
DICTIONARY
  5
D
102
{ACAD_REACTORS
330
C
102
}
100
AcDbDictionary
280
0
281
1
  0
ACDBDICTIONARYWDFLT
  5
E
102
{ACAD_REACTORS
330
C
102
}
100
AcDbDictionary
281
1
  3
Normal
350
F
100
AcDbDictionaryWithDefault
340
F
  0
DICTIONARY
  5
17
102
{ACAD_REACTORS
330
C
102
}
100
AcDbDictionary
280
0
281
1
  3
Standard
350
18
  0
DICTIONARY
  5
19
102
{ACAD_REACTORS
330
C
102
}
100
AcDbDictionary
281
1
  0
DICTIONARY
  5
1A
102
{ACAD_REACTORS
330
C
102
}
100
AcDbDictionary
281
1
  3
Model
350
236
  3
Layout1
350
237
  0
ACDBPLACEHOLDER
  5
F
102
{ACAD_REACTORS
330
E
102
}
  0
MLINESTYLE
  5
18
102
{ACAD_REACTORS
330
17
102
}
100
AcDbMlineStyle
  2
STANDARD
 70
0
  3

 62
256
 51
90.0
 52
90.0
 71
2
 49
0.5
 62
256
  6
BYLAYER
 49
-0.5
 62
256
  6
BYLAYER
  0
LAYOUT
  5
236
102
{ACAD_REACTORS
330
1A
102
}
100
AcDbPlotSettings
  1

  2
none_device
  4
ANSI_C_(22.00_x_17.00_Inches)
  6

 40
0.0
 41
0.0
 42
0.0
 43
0.0
 44
558.8
 45
431.8
 46
0.0
 47
0.0
 48
0.0
 49
0.0
140
0.0
141
0.0
142
1.0
143
1.0
 70
1024
 72
0
 73
0
 74
0
  7

 75
0
147
1.0
148
0.0
149
0.0
100
AcDbLayout
  1
Model
 70
0
 71
0
 10
0.0
 20
0.0
 11
22.0
 21
17.0
 12
0.0
 22
0.0
 32
0.0
 14
0.0
 24
0.0
 34
0.0
 15
0.0
 25
0.0
 35
0.0
146
0.0
 13
0.0
 23
0.0
 33
0.0
 16
1.0
 26
0.0
 36
0.0
 17
0.0
 27
1.0
 37
0.0
 76
0
330
205
345
0
346
0
  0
LAYOUT
  5
237
102
{ACAD_REACTORS
330
1A
102
}
100
AcDbPlotSettings
  1

  2
none_device
  4
ANSI_C_(22.00_x_17.00_Inches)
  6

 40
0.0
 41
0.0
 42
0.0
 43
0.0
 44
558.8
 45
431.8
 46
0.0
 47
0.0
 48
0.0
 49
0.0
140
0.0
141
0.0
142
1.0
143
1.0
 70
0
 72
0
 73
0
 74
0
  7

 75
0
147
1.0
148
0.0
149
0.0
100
AcDbLayout
  1
Layout1
 70
0
 71
1
 10
0.0
 20
0.0
 11
22.0
 21
17.0
 12
0.0
 22
0.0
 32
0.0
 14
0.0
 24
0.0
 34
0.0
 15
0.0
 25
0.0
 35
0.0
146
0.0
 13
0.0
 23
0.0
 33
0.0
 16
1.0
 26
0.0
 36
0.0
 17
0.0
 27
1.0
 37
0.0
 76
0
330
206
345
0
346
0
  0
ENDSEC
  0
EOF
