999
DXF file: E:\BT Custom\CADOUTPUT\_FRONT.dxf
999
Pro/ENGINEER 2018400 by Parametric Technology Corporation
  0
SECTION
  2
HEADER
  9
$ACADVER
  1
AC1018
  9
$DWGCODEPAGE
  3
ANSI_1252
  9
$EXTMAX
 10
22.0
 20
17.0
 30
0.0
  9
$EXTMIN
 10
0.0
 20
0.0
 30
0.0
  9
$LIMMIN
 10
0.0
 20
0.0
  9
$LIMMAX
 10
22.0
 20
17.0
  9
$VIEWCTR
 10
11.0
 20
8.5
  9
$VIEWSIZE
 40
17.0
  9
$CLAYER
  8
0
  9
$LTSCALE
 40
1.21
  9
$CELTYPE
  6
BYLAYER
  9
$DIMSCALE
 40
1.0
  9
$DIMASZ
 40
0.1
  9
$DIMEXO
 40
0.0625
  9
$DIMDLI
 40
0.836
  9
$DIMEXE
 40
0.125
  9
$DIMCEN
 40
0.198
  9
$DIMLFAC
 40
1.0
  9
$DIMBLK
  1
_FILLED
  9
$DIMALT
 70
1
  9
$DIMALTD
 70
2
  9
$DIMALTTD
 70
2
  9
$DIMALTF
 40
25.4
  9
$DIMTXT
 40
0.08
  9
$DIMTOL
 70
1
  9
$DIMLIM
 70
0
  9
$DIMTFAC
 40
1.0
  9
$DIMTP
 40
0.001
  9
$DIMTM
 40
0.001
  9
$DIMGAP
 40
0.09
  9
$DIMDSEP
 70
46
  9
$AUNITS
 70
0
  9
$PDMODE
 70
3
  9
$PDSIZE
 40
0.06
  9
$HANDSEED
  5
242
  9
$TILEMODE
 70
1
  9
$MEASUREMENT
 70
0
  9
$INSUNITS
 70
1
  0
ENDSEC
  0
SECTION
  2
CLASSES
  0
CLASS
  1
ACDBDICTIONARYWDFLT
  2
AcDbDictionaryWithDefault
  3
AutoCAD 2000
 90
0
 91
1
280
0
281
0
  0
CLASS
  1
ACDBPLACEHOLDER
  2
AcDbPlaceHolder
  3
AutoCAD 2000
 90
0
 91
1
280
0
281
0
  0
CLASS
  1
LAYOUT
  2
AcDbLayout
  3
AutoCAD 2000
 90
0
 91
0
280
0
281
0
  0
ENDSEC
  0
SECTION
  2
TABLES
  0
TABLE
  2
VPORT
  5
8
100
AcDbSymbolTable
 70
2
  0
VPORT
  5
1F4
100
AcDbSymbolTableRecord
100
AcDbViewportTableRecord
  2
*ACTIVE
 70
0
 10
0.0
 20
0.0
 11
1.0
 21
1.0
 12
11.0
 22
8.5
 13
0.0
 23
0.0
 14
1.0
 24
1.0
 15
0.0
 25
0.0
 16
0.0
 26
0.0
 36
1.0
 17
0.0
 27
0.0
 37
0.0
 40
17.0
 41
1.2941176471
 42
50.0
 43
0.0
 44
0.0
 50
0.0
 51
0.0
 71
0
 72
100
 73
1
 74
1
 75
0
 76
0
 77
0
 78
0
  0
ENDTAB
  0
TABLE
  2
LTYPE
  5
5
100
AcDbSymbolTable
 70
6
  0
LTYPE
  5
14
100
AcDbSymbolTableRecord
100
AcDbLinetypeTableRecord
  2
BYBLOCK
 70
0
  3

 72
65
 73
0
 40
0.0
  0
LTYPE
  5
15
100
AcDbSymbolTableRecord
100
AcDbLinetypeTableRecord
  2
BYLAYER
 70
0
  3

 72
65
 73
0
 40
0.0
  0
LTYPE
  5
16
100
AcDbSymbolTableRecord
100
AcDbLinetypeTableRecord
  2
CONTINUOUS
 70
64
  3
Solid line
 72
65
 73
0
 40
0.0
  0
LTYPE
  5
1F5
100
AcDbSymbolTableRecord
100
AcDbLinetypeTableRecord
  2
CENTER
 70
64
  3
____ _ ____ _ ____ _ ____ _ ____ _ ____ _ ____
 72
65
 73
4
 40
0.6
 49
0.375
 74
0
 49
-0.075
 74
0
 49
0.075
 74
0
 49
-0.075
 74
0
  0
LTYPE
  5
1F6
100
AcDbSymbolTableRecord
100
AcDbLinetypeTableRecord
  2
HIDDEN
 70
64
  3
- - - - - - - - - - - - - - - - - - - -
 72
65
 73
2
 40
0.2
 49
0.1
 74
0
 49
-0.1
 74
0
  0
LTYPE
  5
1F7
100
AcDbSymbolTableRecord
100
AcDbLinetypeTableRecord
  2
PHANTOM
 70
64
  3
_____ _ _ _____ _ _ _____ _ _ _____
 72
65
 73
6
 40
0.8
 49
0.45
 74
0
 49
-0.05
 74
0
 49
0.1
 74
0
 49
-0.05
 74
0
 49
0.1
 74
0
 49
-0.05
 74
0
  0
LTYPE
  5
1F8
100
AcDbSymbolTableRecord
100
AcDbLinetypeTableRecord
  2
DOT
 70
64
  3
. . . . . . . . . . . . . . . . . . . .
 72
65
 73
2
 40
0.2
 49
0.1
 74
0
 49
-0.1
 74
0
  0
LTYPE
  5
1F9
100
AcDbSymbolTableRecord
100
AcDbLinetypeTableRecord
  2
DASHED
 70
64
  3
- - - - - - - - - - - - - - - - - - - -
 72
65
 73
2
 40
0.2
 49
0.1
 74
0
 49
-0.1
 74
0
  0
ENDTAB
  0
TABLE
  2
LAYER
  5
2
100
AcDbSymbolTable
 70
36
  0
LAYER
  5
10
100
AcDbSymbolTableRecord
100
AcDbLayerTableRecord
  2
0
 70
0
 62
7
  6
CONTINUOUS
370
-3
390
F
  0
LAYER
  5
1FA
100
AcDbSymbolTableRecord
100
AcDbLayerTableRecord
  2
DEFAULT_1
 70
0
 62
7
  6
CENTER
370
-3
390
F
  0
LAYER
  5
1FB
100
AcDbSymbolTableRecord
100
AcDbLayerTableRecord
  2
DEFAULT_2
 70
0
 62
8
  6
HIDDEN
370
-3
390
F
  0
LAYER
  5
1FC
100
AcDbSymbolTableRecord
100
AcDbLayerTableRecord
  2
DEFAULT_3
 70
0
 62
7
  6
PHANTOM
370
-3
390
F
  0
LAYER
  5
1FD
100
AcDbSymbolTableRecord
100
AcDbLayerTableRecord
  2
ALL_FEATURES
 70
0
 62
7
  6
CONTINUOUS
370
-3
390
F
  0
LAYER
  5
1FE
100
AcDbSymbolTableRecord
100
AcDbLayerTableRecord
  2
AXES_FEATURES
 70
0
 62
7
  6
CONTINUOUS
370
-3
390
F
  0
LAYER
  5
1FF
100
AcDbSymbolTableRecord
100
AcDbLayerTableRecord
  2
DEFAULT_COORDINATE_SYSTEM
 70
0
 62
7
  6
CONTINUOUS
370
-3
390
F
  0
LAYER
  5
200
100
AcDbSymbolTableRecord
100
AcDbLayerTableRecord
  2
DEFAULT_DATUM_AXES
 70
0
 62
7
  6
CONTINUOUS
370
-3
390
F
  0
LAYER
  5
201
100
AcDbSymbolTableRecord
100
AcDbLayerTableRecord
  2
DEFAULT_DATUM_PLANES
 70
0
 62
7
  6
CONTINUOUS
370
-3
390
F
  0
LAYER
  5
202
100
AcDbSymbolTableRecord
100
AcDbLayerTableRecord
  2
DIMENSIONS
 70
0
 62
7
  6
CONTINUOUS
370
-3
390
F
  0
ENDTAB
  0
TABLE
  2
STYLE
  5
3
100
AcDbSymbolTable
 70
1
  0
STYLE
  5
11
100
AcDbSymbolTableRecord
100
AcDbTextStyleTableRecord
  2
STANDARD
 70
0
 40
0.0
 41
0.8
 50
0.0
 71
0
 42
0.2
  3
txt
  4

  0
STYLE
  5
203
100
AcDbSymbolTableRecord
100
AcDbTextStyleTableRecord
  2
TEXTSTYLE_1
 70
0
 40
0.0
 41
0.8
 50
0.0
 71
0
 42
0.2
  3
gdt
  4

  0
ENDTAB
  0
TABLE
  2
VIEW
  5
6
100
AcDbSymbolTable
 70
0
  0
ENDTAB
  0
TABLE
  2
UCS
  5
7
100
AcDbSymbolTable
 70
0
  0
ENDTAB
  0
TABLE
  2
APPID
  5
9
100
AcDbSymbolTable
 70
1
  0
APPID
  5
204
100
AcDbSymbolTableRecord
100
AcDbRegAppTableRecord
  2
ACAD
 70
0
  0
ENDTAB
  0
TABLE
  2
BLOCK_RECORD
  5
1
100
AcDbSymbolTable
 70
0
  0
BLOCK_RECORD
  5
205
100
AcDbSymbolTableRecord
100
AcDbBlockTableRecord
  2
*Model_Space
  0
BLOCK_RECORD
  5
206
100
AcDbSymbolTableRecord
100
AcDbBlockTableRecord
  2
*Paper_Space
  0
BLOCK_RECORD
  5
207
100
AcDbSymbolTableRecord
100
AcDbBlockTableRecord
  2
_FILLED
  0
ENDTAB
  0
TABLE
  2
DIMSTYLE
  5
A
100
AcDbSymbolTable
 70
1
100
AcDbDimStyleTable
 71
0
  0
DIMSTYLE
105
208
100
AcDbSymbolTableRecord
100
AcDbDimStyleTableRecord
  2
STANDARD
 70
0
  3

  4

 40
1.0
 41
0.1
 42
0.0625
 43
0.38
 44
0.125
 45
0.0
 46
0.0
 47
0.001
 48
0.001
140
0.08
141
0.09
142
0.0
143
25.4
144
1.0
145
0.0
146
1.0
147
0.09
 71
1.0
 72
0.0
 73
1
 74
1
 75
0
 76
0
 77
0
 78
4
 79
1
170
1
171
2
172
0
173
0
174
0
175
0
176
0
177
0
178
0
270
2
179
3
271
3
272
3
273
2
274
2
275
0
280
0
281
0
282
0
283
1
284
4
285
0
286
0
287
3
288
0
340
11
278
46
341
207
342
207
343
207
344
207
  0
ENDTAB
  0
ENDSEC
  0
SECTION
  2
BLOCKS
  0
BLOCK
  5
20
100
AcDbEntity
  8
0
100
AcDbBlockBegin
  2
*Model_Space
 70
0
 10
0.0
 20
0.0
 30
0.0
  3
*Model_Space
  1

  0
ENDBLK
  5
21
100
AcDbEntity
  8
0
100
AcDbBlockEnd
  0
BLOCK
  5
1C
100
AcDbEntity
  8
0
100
AcDbBlockBegin
  2
*Paper_Space
 70
0
 10
0.0
 20
0.0
 30
0.0
  3
*Paper_Space
  1

  0
ENDBLK
  5
1D
100
AcDbEntity
  8
0
100
AcDbBlockEnd
  0
BLOCK
  5
209
100
AcDbEntity
  8
0
100
AcDbBlockBegin
  2
_FILLED
 70
64
 10
0.0
 20
0.0
  3
_FILLED
  1

  0
SOLID
  5
20A
100
AcDbEntity
  8
0
  6
BYBLOCK
 62
0
100
AcDbTrace
 10
0.0
 20
0.0
 11
-1.0
 21
0.2
 12
-1.0
 22
-0.2
 13
-1.0
 23
-0.2
  0
ENDBLK
  5
20B
100
AcDbEntity
  8
0
  6
BYBLOCK
 62
0
100
AcDbBlockEnd
  0
ENDSEC
  0
SECTION
  2
ENTITIES
  0
LINE
  5
20C
100
AcDbEntity
  8
0
100
AcDbLine
 62
9
  6
CONTINUOUS
 10
-8.4373076573
 20
9.8926695021
 11
-8.4373076573
 21
8.6426695021
  0
LINE
  5
20D
100
AcDbEntity
  8
0
100
AcDbLine
 62
7
  6
CONTINUOUS
 10
-10.58472704
 20
10.172526416
 11
-11.1071464228
 21
9.2676695021
  0
LINE
  5
20E
100
AcDbEntity
  8
0
100
AcDbLine
 62
7
  6
CONTINUOUS
 10
-11.1071464228
 20
9.2676695021
 11
-10.58472704
 21
8.3628125883
  0
LINE
  5
20F
100
AcDbEntity
  8
0
100
AcDbLine
 62
7
  6
CONTINUOUS
 10
-9.5398882745
 20
8.3628125883
 11
-9.3783128099
 21
8.6426695021
  0
LINE
  5
210
100
AcDbEntity
  8
0
100
AcDbLine
 62
7
  6
CONTINUOUS
 10
-9.3783128099
 20
9.8926695021
 11
-9.5398882745
 21
10.172526416
  0
LINE
  5
211
100
AcDbEntity
  8
0
100
AcDbLine
 62
7
  6
CONTINUOUS
 10
10.41527296
 20
10.172526416
 11
10.2536974954
 21
9.8926695021
  0
LINE
  5
212
100
AcDbEntity
  8
0
100
AcDbLine
 62
7
  6
CONTINUOUS
 10
-10.58472704
 20
8.3628125883
 11
-9.5398882745
 21
8.3628125883
  0
LINE
  5
213
100
AcDbEntity
  8
0
100
AcDbLine
 62
7
  6
CONTINUOUS
 10
10.41527296
 20
8.3628125883
 11
11.4601117255
 21
8.3628125883
  0
LINE
  5
214
100
AcDbEntity
  8
0
100
AcDbLine
 62
7
  6
CONTINUOUS
 10
31.41527296
 20
8.3628125883
 11
32.4601117255
 21
8.3628125883
  0
LINE
  5
215
100
AcDbEntity
  8
0
100
AcDbLine
 62
7
  6
CONTINUOUS
 10
-10.0592278156
 20
8.6426695021
 11
31.9346125011
 21
8.6426695021
  0
LINE
  5
216
100
AcDbEntity
  8
0
100
AcDbLine
 62
7
  6
CONTINUOUS
 10
10.2536974954
 20
8.6426695021
 11
10.41527296
 21
8.3628125883
  0
LINE
  5
217
100
AcDbEntity
  8
0
100
AcDbLine
 62
7
  6
CONTINUOUS
 10
11.4601117255
 20
8.3628125883
 11
11.6216871901
 21
8.6426695021
  0
LINE
  5
218
100
AcDbEntity
  8
0
100
AcDbLine
 62
7
  6
CONTINUOUS
 10
-10.0592278156
 20
9.8926695021
 11
31.9346125011
 21
9.8926695021
  0
LINE
  5
219
100
AcDbEntity
  8
0
100
AcDbLine
 62
7
  6
CONTINUOUS
 10
32.4601117255
 20
10.172526416
 11
31.41527296
 21
10.172526416
  0
LINE
  5
21A
100
AcDbEntity
  8
0
100
AcDbLine
 62
7
  6
CONTINUOUS
 10
11.4601117255
 20
10.172526416
 11
10.41527296
 21
10.172526416
  0
LINE
  5
21B
100
AcDbEntity
  8
0
100
AcDbLine
 62
7
  6
CONTINUOUS
 10
-9.5398882745
 20
10.172526416
 11
-10.58472704
 21
10.172526416
  0
LINE
  5
21C
100
AcDbEntity
  8
0
100
AcDbLine
 62
7
  6
CONTINUOUS
 10
11.6216871901
 20
9.8926695021
 11
11.4601117255
 21
10.172526416
  0
LINE
  5
21D
100
AcDbEntity
  8
0
100
AcDbLine
 62
7
  6
CONTINUOUS
 10
31.41527296
 20
10.172526416
 11
31.2536974954
 21
9.8926695021
  0
LINE
  5
21E
100
AcDbEntity
  8
0
100
AcDbLine
 62
7
  6
CONTINUOUS
 10
31.2536974954
 20
8.6426695021
 11
31.41527296
 21
8.3628125883
  0
LINE
  5
21F
100
AcDbEntity
  8
0
100
AcDbLine
 62
9
  6
CONTINUOUS
 10
30.3126923427
 20
9.8926695021
 11
30.3126923427
 21
8.6426695021
  0
LINE
  5
220
100
AcDbEntity
  8
0
100
AcDbLine
 62
7
  6
CONTINUOUS
 10
32.4601117255
 20
8.3628125883
 11
32.9825311083
 21
9.2676695021
  0
LINE
  5
221
100
AcDbEntity
  8
0
100
AcDbLine
 62
7
  6
CONTINUOUS
 10
32.9825311083
 20
9.2676695021
 11
32.4601117255
 21
10.172526416
  0
ARC
  5
222
100
AcDbEntity
  8
0
100
AcDbCircle
 62
7
  6
CONTINUOUS
 10
31.9376923427
 20
9.2676695021
 40
1.5
100
AcDbArc
 50
204.6312737332
 51
155.3687264888
  0
ARC
  5
223
100
AcDbEntity
  8
0
100
AcDbCircle
 62
7
  6
CONTINUOUS
 10
10.9376923427
 20
9.2676695021
 40
1.5
100
AcDbArc
 50
24.6312738173
 51
155.3687264888
  0
ARC
  5
224
100
AcDbEntity
  8
0
100
AcDbCircle
 62
7
  6
CONTINUOUS
 10
10.9376923427
 20
9.2676695021
 40
1.5
100
AcDbArc
 50
204.6312737332
 51
335.3687266162
  0
ARC
  5
225
100
AcDbEntity
  8
0
100
AcDbCircle
 62
7
  6
CONTINUOUS
 10
-10.0623076573
 20
9.2676695021
 40
1.5
100
AcDbArc
 50
24.6312738173
 51
335.3687266162
  0
ARC
  5
226
100
AcDbEntity
  8
0
100
AcDbCircle
 62
7
  6
CONTINUOUS
 10
31.9376923427
 20
9.2676695021
 40
0.875
100
AcDbArc
 50
225.6907249491
 51
134.3092750457
  0
ARC
  5
227
100
AcDbEntity
  8
0
100
AcDbCircle
 62
7
  6
CONTINUOUS
 10
10.9376923427
 20
9.2676695021
 40
0.875
100
AcDbArc
 50
225.6061109423
 51
314.3938890539
  0
ARC
  5
228
100
AcDbEntity
  8
0
100
AcDbCircle
 62
7
  6
CONTINUOUS
 10
10.9376923427
 20
9.2676695021
 40
0.875
100
AcDbArc
 50
45.6061109423
 51
134.3938890539
  0
ARC
  5
229
100
AcDbEntity
  8
0
100
AcDbCircle
 62
7
  6
CONTINUOUS
 10
-10.0623076573
 20
9.2676695021
 40
0.875
100
AcDbArc
 50
45.5956680294
 51
314.4043319727
  0
ARC
  5
22A
100
AcDbEntity
  8
0
100
AcDbCircle
 62
9
  6
CONTINUOUS
 10
10.9376923427
 20
9.2676695021
 40
0.815
100
AcDbArc
 50
230.0987061414
 51
309.9012938693
  0
ARC
  5
22B
100
AcDbEntity
  8
0
100
AcDbCircle
 62
9
  6
CONTINUOUS
 10
10.9376923427
 20
9.2676695021
 40
0.815
100
AcDbArc
 50
50.0987061414
 51
129.9012938693
  0
ARC
  5
22C
100
AcDbEntity
  8
0
100
AcDbCircle
 62
9
  6
CONTINUOUS
 10
31.9376923427
 20
9.2676695021
 40
0.815
100
AcDbArc
 50
230.0946256179
 51
129.9053743625
  0
ARC
  5
22D
100
AcDbEntity
  8
0
100
AcDbCircle
 62
9
  6
CONTINUOUS
 10
-10.0623076573
 20
9.2676695021
 40
0.815
100
AcDbArc
 50
50.0986392328
 51
309.9013607598
  0
SPLINE
  5
22E
100
AcDbEntity
  8
0
100
AcDbSpline
 62
7
  6
CONTINUOUS
 70
0
 71
3
 72
31
 73
27
 74
0
 42
0.0000001
 43
0.0000001
 44
0.0000000001
 40
0.0
 40
0.0
 40
0.0
 40
0.0
 40
0.0312536746
 40
0.0625098374
 40
0.0937640669
 40
0.1250187502
 40
0.1875093265
 40
0.2499998567
 40
0.2812545603
 40
0.3125092607
 40
0.3437639685
 40
0.3750186742
 40
0.4375092255
 40
0.4999997926
 40
0.5624903737
 40
0.6249809678
 40
0.6562356781
 40
0.687490391
 40
0.718745097
 40
0.7499998103
 40
0.8124904599
 40
0.8749811377
 40
0.9062358495
 40
0.9374905666
 40
0.9687452833
 40
1.0
 40
1.0
 40
1.0
 40
1.0
 10
-10.6850843366
 20
9.2676695021
 30
0.0
 10
-10.6850843366
 20
9.2574369938
 30
0.0
 10
-10.6845808741
 20
9.2369675661
 30
0.0
 10
-10.6823180545
 20
9.2063409043
 30
0.0
 10
-10.6785520892
 20
9.1758607405
 30
0.0
 10
-10.6715417185
 20
9.1355266791
 30
0.0
 10
-10.6590723898
 20
9.0858272484
 30
0.0
 10
-10.6417820119
 20
9.0375929095
 30
0.0
 10
-10.6251668364
 20
9.0001771704
 30
0.0
 10
-10.6113389735
 20
8.9727550371
 30
0.0
 10
-10.5961803224
 20
8.9460454503
 30
0.0
 10
-10.5742497099
 20
8.9114762551
 30
0.0
 10
-10.5436884776
 20
8.8703458379
 30
0.0
 10
-10.5023591973
 20
8.824836054
 30
0.0
 10
-10.4567674455
 20
8.7835972753
 30
0.0
 10
-10.4155785258
 20
8.7531152178
 30
0.0
 10
-10.3809693951
 20
8.7312477354
 30
0.0
 10
-10.3542334425
 20
8.7161357152
 30
0.0
 10
-10.3267886068
 20
8.7023530746
 30
0.0
 10
-10.2893474021
 20
8.6857954098
 30
0.0
 10
-10.2410902429
 20
8.6685700687
 30
0.0
 10
-10.191378525
 20
8.6561520814
 30
0.0
 10
-10.1510391187
 20
8.6491719792
 30
0.0
 10
-10.1205572724
 20
8.6454230553
 30
0.0
 10
-10.0899299336
 20
8.6431704601
 30
0.0
 10
-10.0694606651
 20
8.6426695028
 30
0.0
 10
-10.0592278156
 20
8.6426695021
 30
0.0
  0
SPLINE
  5
22F
100
AcDbEntity
  8
0
100
AcDbSpline
 62
7
  6
CONTINUOUS
 70
0
 71
3
 72
31
 73
27
 74
0
 42
0.0000001
 43
0.0000001
 44
0.0000000001
 40
0.0
 40
0.0
 40
0.0
 40
0.0
 40
0.0312536752
 40
0.0625098391
 40
0.0937640687
 40
0.1250187515
 40
0.1875093283
 40
0.2499998582
 40
0.2812545621
 40
0.3125092622
 40
0.34376397
 40
0.3750186758
 40
0.437509227
 40
0.4999997942
 40
0.5624903752
 40
0.6249809693
 40
0.6562356797
 40
0.6874903927
 40
0.7187450986
 40
0.7499998118
 40
0.8124904615
 40
0.8749811388
 40
0.9062358505
 40
0.9374905675
 40
0.9687452838
 40
1.0
 40
1.0
 40
1.0
 40
1.0
 10
32.560469022
 20
9.2676695021
 30
0.0
 10
32.560469022
 20
9.2779020107
 30
0.0
 10
32.5599655595
 20
9.298371439
 30
0.0
 10
32.5577027399
 20
9.3289981013
 30
0.0
 10
32.5539367745
 20
9.3594782654
 30
0.0
 10
32.5469264036
 20
9.3998123267
 30
0.0
 10
32.5344570749
 20
9.4495117574
 30
0.0
 10
32.5171666967
 20
9.4977460963
 30
0.0
 10
32.5005515213
 20
9.5351618353
 30
0.0
 10
32.4867236582
 20
9.5625839686
 30
0.0
 10
32.4715650071
 20
9.5892935553
 30
0.0
 10
32.4496343946
 20
9.6238627505
 30
0.0
 10
32.4190731621
 20
9.6649931676
 30
0.0
 10
32.3777438817
 20
9.7105029514
 30
0.0
 10
32.3321521298
 20
9.7517417299
 30
0.0
 10
32.29096321
 20
9.7822237874
 30
0.0
 10
32.2563540792
 20
9.8040912697
 30
0.0
 10
32.2296181266
 20
9.8192032899
 30
0.0
 10
32.2021732908
 20
9.8329859303
 30
0.0
 10
32.1647320861
 20
9.849543595
 30
0.0
 10
32.116474927
 20
9.8667689359
 30
0.0
 10
32.0667632094
 20
9.8791869232
 30
0.0
 10
32.0264238032
 20
9.8861670252
 30
0.0
 10
31.9959419571
 20
9.889915949
 30
0.0
 10
31.9653146186
 20
9.8921685443
 30
0.0
 10
31.9448453504
 20
9.8926695015
 30
0.0
 10
31.9346125011
 20
9.8926695021
 30
0.0
  0
SPLINE
  5
230
100
AcDbEntity
  8
0
100
AcDbSpline
 62
7
  6
CONTINUOUS
 70
0
 71
3
 72
31
 73
27
 74
0
 42
0.0000001
 43
0.0000001
 44
0.0000000001
 40
0.0
 40
0.0
 40
0.0
 40
0.0
 40
0.0312547167
 40
0.0625094334
 40
0.0937641505
 40
0.1250188623
 40
0.1875095401
 40
0.2500001897
 40
0.281254903
 40
0.312509609
 40
0.3437643219
 40
0.3750190322
 40
0.4375096263
 40
0.5000002074
 40
0.5624907745
 40
0.6249813258
 40
0.6562360315
 40
0.6874907393
 40
0.7187454397
 40
0.7500001433
 40
0.8124906735
 40
0.8749812498
 40
0.9062359331
 40
0.9374901626
 40
0.9687463254
 40
1.0
 40
1.0
 40
1.0
 40
1.0
 10
31.9346125011
 20
8.6426695021
 30
0.0
 10
31.9448453506
 20
8.6426695028
 30
0.0
 10
31.9653146191
 20
8.6431704601
 30
0.0
 10
31.9959419579
 20
8.6454230553
 30
0.0
 10
32.0264238041
 20
8.6491719792
 30
0.0
 10
32.0667632105
 20
8.6561520814
 30
0.0
 10
32.1164749284
 20
8.6685700687
 30
0.0
 10
32.1647320876
 20
8.6857954098
 30
0.0
 10
32.2021732923
 20
8.7023530746
 30
0.0
 10
32.229618128
 20
8.7161357152
 30
0.0
 10
32.2563540805
 20
8.7312477354
 30
0.0
 10
32.2909632113
 20
8.7531152178
 30
0.0
 10
32.332152131
 20
8.7835972753
 30
0.0
 10
32.3777438828
 20
8.824836054
 30
0.0
 10
32.4190731631
 20
8.8703458379
 30
0.0
 10
32.4496343954
 20
8.9114762551
 30
0.0
 10
32.4715650079
 20
8.9460454503
 30
0.0
 10
32.486723659
 20
8.9727550371
 30
0.0
 10
32.5005515219
 20
9.0001771704
 30
0.0
 10
32.5171666974
 20
9.0375929095
 30
0.0
 10
32.5344570752
 20
9.0858272484
 30
0.0
 10
32.5469264039
 20
9.1355266791
 30
0.0
 10
32.5539367747
 20
9.1758607405
 30
0.0
 10
32.55770274
 20
9.2063409043
 30
0.0
 10
32.5599655596
 20
9.2369675661
 30
0.0
 10
32.560469022
 20
9.2574369938
 30
0.0
 10
32.560469022
 20
9.2676695021
 30
0.0
  0
LINE
  5
231
100
AcDbEntity
  8
0
100
AcDbLine
 62
7
  6
CONTINUOUS
 10
31.1876923427
 20
10.5667076078
 11
31.41527296
 21
10.172526416
  0
LINE
  5
232
100
AcDbEntity
  8
0
100
AcDbLine
 62
7
  6
CONTINUOUS
 10
32.4601117255
 20
10.172526416
 11
32.6876923427
 21
10.5667076078
  0
LINE
  5
233
100
AcDbEntity
  8
0
100
AcDbLine
 62
7
  6
CONTINUOUS
 10
31.1876923427
 20
7.9686313965
 11
31.41527296
 21
8.3628125883
  0
LINE
  5
234
100
AcDbEntity
  8
0
100
AcDbLine
 62
7
  6
CONTINUOUS
 10
32.6876923427
 20
7.9686313965
 11
32.4601117255
 21
8.3628125883
  0
LINE
  5
235
100
AcDbEntity
  8
0
100
AcDbLine
 62
7
  6
CONTINUOUS
 10
33.4376923427
 20
9.2676695021
 11
32.9825311083
 21
9.2676695021
  0
LINE
  5
236
100
AcDbEntity
  8
0
100
AcDbLine
 62
7
  6
CONTINUOUS
 10
10.1876923427
 20
10.5667076078
 11
10.41527296
 21
10.172526416
  0
LINE
  5
237
100
AcDbEntity
  8
0
100
AcDbLine
 62
7
  6
CONTINUOUS
 10
11.4601117255
 20
10.172526416
 11
11.6876923427
 21
10.5667076078
  0
LINE
  5
238
100
AcDbEntity
  8
0
100
AcDbLine
 62
7
  6
CONTINUOUS
 10
10.1876923427
 20
7.9686313965
 11
10.41527296
 21
8.3628125883
  0
LINE
  5
239
100
AcDbEntity
  8
0
100
AcDbLine
 62
7
  6
CONTINUOUS
 10
11.6876923427
 20
7.9686313965
 11
11.4601117255
 21
8.3628125883
  0
SPLINE
  5
23A
100
AcDbEntity
  8
0
100
AcDbSpline
 62
7
  6
CONTINUOUS
 70
0
 71
3
 72
31
 73
27
 74
0
 42
0.0000001
 43
0.0000001
 44
0.0000000001
 40
0.0
 40
0.0
 40
0.0
 40
0.0
 40
0.0312547162
 40
0.0625094325
 40
0.0937641495
 40
0.1250188612
 40
0.1875095385
 40
0.2500001882
 40
0.2812549014
 40
0.3125096073
 40
0.3437643203
 40
0.3750190307
 40
0.4375096248
 40
0.5000002058
 40
0.562490773
 40
0.6249813242
 40
0.65623603
 40
0.6874907378
 40
0.7187454379
 40
0.7500001418
 40
0.8124906717
 40
0.8749812485
 40
0.9062359313
 40
0.9374901609
 40
0.9687463248
 40
1.0
 40
1.0
 40
1.0
 40
1.0
 10
-10.0592278156
 20
9.8926695021
 30
0.0
 10
-10.0694606649
 20
9.8926695015
 30
0.0
 10
-10.0899299331
 20
9.8921685443
 30
0.0
 10
-10.1205572716
 20
9.889915949
 30
0.0
 10
-10.1510391177
 20
9.8861670252
 30
0.0
 10
-10.1913785239
 20
9.8791869232
 30
0.0
 10
-10.2410902415
 20
9.8667689359
 30
0.0
 10
-10.2893474007
 20
9.849543595
 30
0.0
 10
-10.3267886054
 20
9.8329859303
 30
0.0
 10
-10.3542334411
 20
9.8192032899
 30
0.0
 10
-10.3809693937
 20
9.8040912697
 30
0.0
 10
-10.4155785246
 20
9.7822237874
 30
0.0
 10
-10.4567674443
 20
9.7517417299
 30
0.0
 10
-10.5023591963
 20
9.7105029514
 30
0.0
 10
-10.5436884766
 20
9.6649931676
 30
0.0
 10
-10.5742497091
 20
9.6238627505
 30
0.0
 10
-10.5961803216
 20
9.5892935553
 30
0.0
 10
-10.6113389727
 20
9.5625839686
 30
0.0
 10
-10.6251668358
 20
9.5351618353
 30
0.0
 10
-10.6417820112
 20
9.4977460963
 30
0.0
 10
-10.6590723894
 20
9.4495117574
 30
0.0
 10
-10.6715417181
 20
9.3998123267
 30
0.0
 10
-10.678552089
 20
9.3594782654
 30
0.0
 10
-10.6823180544
 20
9.3289981013
 30
0.0
 10
-10.684580874
 20
9.298371439
 30
0.0
 10
-10.6850843366
 20
9.2779020107
 30
0.0
 10
-10.6850843366
 20
9.2676695021
 30
0.0
  0
LINE
  5
23B
100
AcDbEntity
  8
0
100
AcDbLine
 62
7
  6
CONTINUOUS
 10
-10.8123076573
 20
10.5667076078
 11
-10.58472704
 21
10.172526416
  0
LINE
  5
23C
100
AcDbEntity
  8
0
100
AcDbLine
 62
7
  6
CONTINUOUS
 10
-9.5398882745
 20
10.172526416
 11
-9.3123076573
 21
10.5667076078
  0
LINE
  5
23D
100
AcDbEntity
  8
0
100
AcDbLine
 62
7
  6
CONTINUOUS
 10
-11.5623076573
 20
9.2676695021
 11
-11.1071464228
 21
9.2676695021
  0
LINE
  5
23E
100
AcDbEntity
  8
0
100
AcDbLine
 62
7
  6
CONTINUOUS
 10
-10.8123076573
 20
7.9686313965
 11
-10.58472704
 21
8.3628125883
  0
LINE
  5
23F
100
AcDbEntity
  8
0
100
AcDbLine
 62
7
  6
CONTINUOUS
 10
-9.3123076573
 20
7.9686313965
 11
-9.5398882745
 21
8.3628125883
  0
ENDSEC
  0
SECTION
  2
OBJECTS
  0
DICTIONARY
  5
C
100
AcDbDictionary
280
0
281
1
  3
ACAD_GROUP
350
D
  3
ACAD_MLINESTYLE
350
17
  3
ACAD_LAYOUT
350
1A
  3
ACAD_PLOTSETTINGS
350
19
  3
ACAD_PLOTSTYLENAME
350
E
  0
DICTIONARY
  5
D
102
{ACAD_REACTORS
330
C
102
}
100
AcDbDictionary
280
0
281
1
  0
ACDBDICTIONARYWDFLT
  5
E
102
{ACAD_REACTORS
330
C
102
}
100
AcDbDictionary
281
1
  3
Normal
350
F
100
AcDbDictionaryWithDefault
340
F
  0
DICTIONARY
  5
17
102
{ACAD_REACTORS
330
C
102
}
100
AcDbDictionary
280
0
281
1
  3
Standard
350
18
  0
DICTIONARY
  5
19
102
{ACAD_REACTORS
330
C
102
}
100
AcDbDictionary
281
1
  0
DICTIONARY
  5
1A
102
{ACAD_REACTORS
330
C
102
}
100
AcDbDictionary
281
1
  3
Model
350
240
  3
Layout1
350
241
  0
ACDBPLACEHOLDER
  5
F
102
{ACAD_REACTORS
330
E
102
}
  0
MLINESTYLE
  5
18
102
{ACAD_REACTORS
330
17
102
}
100
AcDbMlineStyle
  2
STANDARD
 70
0
  3

 62
256
 51
90.0
 52
90.0
 71
2
 49
0.5
 62
256
  6
BYLAYER
 49
-0.5
 62
256
  6
BYLAYER
  0
LAYOUT
  5
240
102
{ACAD_REACTORS
330
1A
102
}
100
AcDbPlotSettings
  1

  2
none_device
  4
ANSI_C_(22.00_x_17.00_Inches)
  6

 40
0.0
 41
0.0
 42
0.0
 43
0.0
 44
558.8
 45
431.8
 46
0.0
 47
0.0
 48
0.0
 49
0.0
140
0.0
141
0.0
142
1.0
143
1.0
 70
1024
 72
0
 73
0
 74
0
  7

 75
0
147
1.0
148
0.0
149
0.0
100
AcDbLayout
  1
Model
 70
0
 71
0
 10
0.0
 20
0.0
 11
22.0
 21
17.0
 12
0.0
 22
0.0
 32
0.0
 14
0.0
 24
0.0
 34
0.0
 15
0.0
 25
0.0
 35
0.0
146
0.0
 13
0.0
 23
0.0
 33
0.0
 16
1.0
 26
0.0
 36
0.0
 17
0.0
 27
1.0
 37
0.0
 76
0
330
205
345
0
346
0
  0
LAYOUT
  5
241
102
{ACAD_REACTORS
330
1A
102
}
100
AcDbPlotSettings
  1

  2
none_device
  4
ANSI_C_(22.00_x_17.00_Inches)
  6

 40
0.0
 41
0.0
 42
0.0
 43
0.0
 44
558.8
 45
431.8
 46
0.0
 47
0.0
 48
0.0
 49
0.0
140
0.0
141
0.0
142
1.0
143
1.0
 70
0
 72
0
 73
0
 74
0
  7

 75
0
147
1.0
148
0.0
149
0.0
100
AcDbLayout
  1
Layout1
 70
0
 71
1
 10
0.0
 20
0.0
 11
22.0
 21
17.0
 12
0.0
 22
0.0
 32
0.0
 14
0.0
 24
0.0
 34
0.0
 15
0.0
 25
0.0
 35
0.0
146
0.0
 13
0.0
 23
0.0
 33
0.0
 16
1.0
 26
0.0
 36
0.0
 17
0.0
 27
1.0
 37
0.0
 76
0
330
206
345
0
346
0
  0
ENDSEC
  0
EOF
