999
DXF file: E:\BT Custom\CADOUTPUT\_TOP.dxf
999
Pro/ENGINEER 2018400 by Parametric Technology Corporation
  0
SECTION
  2
HEADER
  9
$ACADVER
  1
AC1018
  9
$DWGCODEPAGE
  3
ANSI_1252
  9
$EXTMAX
 10
22.0
 20
17.0
 30
0.0
  9
$EXTMIN
 10
0.0
 20
0.0
 30
0.0
  9
$LIMMIN
 10
0.0
 20
0.0
  9
$LIMMAX
 10
22.0
 20
17.0
  9
$VIEWCTR
 10
11.0
 20
8.5
  9
$VIEWSIZE
 40
17.0
  9
$CLAYER
  8
0
  9
$LTSCALE
 40
1.21
  9
$CELTYPE
  6
BYLAYER
  9
$DIMSCALE
 40
1.0
  9
$DIMASZ
 40
0.1
  9
$DIMEXO
 40
0.0625
  9
$DIMDLI
 40
0.836
  9
$DIMEXE
 40
0.125
  9
$DIMCEN
 40
0.198
  9
$DIMLFAC
 40
1.0
  9
$DIMBLK
  1
_FILLED
  9
$DIMALT
 70
1
  9
$DIMALTD
 70
2
  9
$DIMALTTD
 70
2
  9
$DIMALTF
 40
25.4
  9
$DIMTXT
 40
0.08
  9
$DIMTOL
 70
1
  9
$DIMLIM
 70
0
  9
$DIMTFAC
 40
1.0
  9
$DIMTP
 40
0.001
  9
$DIMTM
 40
0.001
  9
$DIMGAP
 40
0.09
  9
$DIMDSEP
 70
46
  9
$AUNITS
 70
0
  9
$PDMODE
 70
3
  9
$PDSIZE
 40
0.06
  9
$HANDSEED
  5
252
  9
$TILEMODE
 70
1
  9
$MEASUREMENT
 70
0
  9
$INSUNITS
 70
1
  0
ENDSEC
  0
SECTION
  2
CLASSES
  0
CLASS
  1
ACDBDICTIONARYWDFLT
  2
AcDbDictionaryWithDefault
  3
AutoCAD 2000
 90
0
 91
1
280
0
281
0
  0
CLASS
  1
ACDBPLACEHOLDER
  2
AcDbPlaceHolder
  3
AutoCAD 2000
 90
0
 91
1
280
0
281
0
  0
CLASS
  1
LAYOUT
  2
AcDbLayout
  3
AutoCAD 2000
 90
0
 91
0
280
0
281
0
  0
ENDSEC
  0
SECTION
  2
TABLES
  0
TABLE
  2
VPORT
  5
8
100
AcDbSymbolTable
 70
2
  0
VPORT
  5
1F4
100
AcDbSymbolTableRecord
100
AcDbViewportTableRecord
  2
*ACTIVE
 70
0
 10
0.0
 20
0.0
 11
1.0
 21
1.0
 12
11.0
 22
8.5
 13
0.0
 23
0.0
 14
1.0
 24
1.0
 15
0.0
 25
0.0
 16
0.0
 26
0.0
 36
1.0
 17
0.0
 27
0.0
 37
0.0
 40
17.0
 41
1.2941176471
 42
50.0
 43
0.0
 44
0.0
 50
0.0
 51
0.0
 71
0
 72
100
 73
1
 74
1
 75
0
 76
0
 77
0
 78
0
  0
ENDTAB
  0
TABLE
  2
LTYPE
  5
5
100
AcDbSymbolTable
 70
6
  0
LTYPE
  5
14
100
AcDbSymbolTableRecord
100
AcDbLinetypeTableRecord
  2
BYBLOCK
 70
0
  3

 72
65
 73
0
 40
0.0
  0
LTYPE
  5
15
100
AcDbSymbolTableRecord
100
AcDbLinetypeTableRecord
  2
BYLAYER
 70
0
  3

 72
65
 73
0
 40
0.0
  0
LTYPE
  5
16
100
AcDbSymbolTableRecord
100
AcDbLinetypeTableRecord
  2
CONTINUOUS
 70
64
  3
Solid line
 72
65
 73
0
 40
0.0
  0
LTYPE
  5
1F5
100
AcDbSymbolTableRecord
100
AcDbLinetypeTableRecord
  2
CENTER
 70
64
  3
____ _ ____ _ ____ _ ____ _ ____ _ ____ _ ____
 72
65
 73
4
 40
0.6
 49
0.375
 74
0
 49
-0.075
 74
0
 49
0.075
 74
0
 49
-0.075
 74
0
  0
LTYPE
  5
1F6
100
AcDbSymbolTableRecord
100
AcDbLinetypeTableRecord
  2
HIDDEN
 70
64
  3
- - - - - - - - - - - - - - - - - - - -
 72
65
 73
2
 40
0.2
 49
0.1
 74
0
 49
-0.1
 74
0
  0
LTYPE
  5
1F7
100
AcDbSymbolTableRecord
100
AcDbLinetypeTableRecord
  2
PHANTOM
 70
64
  3
_____ _ _ _____ _ _ _____ _ _ _____
 72
65
 73
6
 40
0.8
 49
0.45
 74
0
 49
-0.05
 74
0
 49
0.1
 74
0
 49
-0.05
 74
0
 49
0.1
 74
0
 49
-0.05
 74
0
  0
LTYPE
  5
1F8
100
AcDbSymbolTableRecord
100
AcDbLinetypeTableRecord
  2
DOT
 70
64
  3
. . . . . . . . . . . . . . . . . . . .
 72
65
 73
2
 40
0.2
 49
0.1
 74
0
 49
-0.1
 74
0
  0
LTYPE
  5
1F9
100
AcDbSymbolTableRecord
100
AcDbLinetypeTableRecord
  2
DASHED
 70
64
  3
- - - - - - - - - - - - - - - - - - - -
 72
65
 73
2
 40
0.2
 49
0.1
 74
0
 49
-0.1
 74
0
  0
ENDTAB
  0
TABLE
  2
LAYER
  5
2
100
AcDbSymbolTable
 70
36
  0
LAYER
  5
10
100
AcDbSymbolTableRecord
100
AcDbLayerTableRecord
  2
0
 70
0
 62
7
  6
CONTINUOUS
370
-3
390
F
  0
LAYER
  5
1FA
100
AcDbSymbolTableRecord
100
AcDbLayerTableRecord
  2
DEFAULT_1
 70
0
 62
7
  6
CENTER
370
-3
390
F
  0
LAYER
  5
1FB
100
AcDbSymbolTableRecord
100
AcDbLayerTableRecord
  2
DEFAULT_2
 70
0
 62
8
  6
HIDDEN
370
-3
390
F
  0
LAYER
  5
1FC
100
AcDbSymbolTableRecord
100
AcDbLayerTableRecord
  2
DEFAULT_3
 70
0
 62
7
  6
PHANTOM
370
-3
390
F
  0
LAYER
  5
1FD
100
AcDbSymbolTableRecord
100
AcDbLayerTableRecord
  2
ALL_FEATURES
 70
0
 62
7
  6
CONTINUOUS
370
-3
390
F
  0
LAYER
  5
1FE
100
AcDbSymbolTableRecord
100
AcDbLayerTableRecord
  2
AXES_FEATURES
 70
0
 62
7
  6
CONTINUOUS
370
-3
390
F
  0
LAYER
  5
1FF
100
AcDbSymbolTableRecord
100
AcDbLayerTableRecord
  2
DEFAULT_COORDINATE_SYSTEM
 70
0
 62
7
  6
CONTINUOUS
370
-3
390
F
  0
LAYER
  5
200
100
AcDbSymbolTableRecord
100
AcDbLayerTableRecord
  2
DEFAULT_DATUM_AXES
 70
0
 62
7
  6
CONTINUOUS
370
-3
390
F
  0
LAYER
  5
201
100
AcDbSymbolTableRecord
100
AcDbLayerTableRecord
  2
DEFAULT_DATUM_PLANES
 70
0
 62
7
  6
CONTINUOUS
370
-3
390
F
  0
LAYER
  5
202
100
AcDbSymbolTableRecord
100
AcDbLayerTableRecord
  2
DIMENSIONS
 70
0
 62
7
  6
CONTINUOUS
370
-3
390
F
  0
ENDTAB
  0
TABLE
  2
STYLE
  5
3
100
AcDbSymbolTable
 70
1
  0
STYLE
  5
11
100
AcDbSymbolTableRecord
100
AcDbTextStyleTableRecord
  2
STANDARD
 70
0
 40
0.0
 41
0.8
 50
0.0
 71
0
 42
0.2
  3
txt
  4

  0
STYLE
  5
203
100
AcDbSymbolTableRecord
100
AcDbTextStyleTableRecord
  2
TEXTSTYLE_1
 70
0
 40
0.0
 41
0.8
 50
0.0
 71
0
 42
0.2
  3
gdt
  4

  0
ENDTAB
  0
TABLE
  2
VIEW
  5
6
100
AcDbSymbolTable
 70
0
  0
ENDTAB
  0
TABLE
  2
UCS
  5
7
100
AcDbSymbolTable
 70
0
  0
ENDTAB
  0
TABLE
  2
APPID
  5
9
100
AcDbSymbolTable
 70
1
  0
APPID
  5
204
100
AcDbSymbolTableRecord
100
AcDbRegAppTableRecord
  2
ACAD
 70
0
  0
ENDTAB
  0
TABLE
  2
BLOCK_RECORD
  5
1
100
AcDbSymbolTable
 70
0
  0
BLOCK_RECORD
  5
205
100
AcDbSymbolTableRecord
100
AcDbBlockTableRecord
  2
*Model_Space
  0
BLOCK_RECORD
  5
206
100
AcDbSymbolTableRecord
100
AcDbBlockTableRecord
  2
*Paper_Space
  0
BLOCK_RECORD
  5
207
100
AcDbSymbolTableRecord
100
AcDbBlockTableRecord
  2
_FILLED
  0
ENDTAB
  0
TABLE
  2
DIMSTYLE
  5
A
100
AcDbSymbolTable
 70
1
100
AcDbDimStyleTable
 71
0
  0
DIMSTYLE
105
208
100
AcDbSymbolTableRecord
100
AcDbDimStyleTableRecord
  2
STANDARD
 70
0
  3

  4

 40
1.0
 41
0.1
 42
0.0625
 43
0.38
 44
0.125
 45
0.0
 46
0.0
 47
0.001
 48
0.001
140
0.08
141
0.09
142
0.0
143
25.4
144
1.0
145
0.0
146
1.0
147
0.09
 71
1.0
 72
0.0
 73
1
 74
1
 75
0
 76
0
 77
0
 78
4
 79
1
170
1
171
2
172
0
173
0
174
0
175
0
176
0
177
0
178
0
270
2
179
3
271
3
272
3
273
2
274
2
275
0
280
0
281
0
282
0
283
1
284
4
285
0
286
0
287
3
288
0
340
11
278
46
341
207
342
207
343
207
344
207
  0
ENDTAB
  0
ENDSEC
  0
SECTION
  2
BLOCKS
  0
BLOCK
  5
20
100
AcDbEntity
  8
0
100
AcDbBlockBegin
  2
*Model_Space
 70
0
 10
0.0
 20
0.0
 30
0.0
  3
*Model_Space
  1

  0
ENDBLK
  5
21
100
AcDbEntity
  8
0
100
AcDbBlockEnd
  0
BLOCK
  5
1C
100
AcDbEntity
  8
0
100
AcDbBlockBegin
  2
*Paper_Space
 70
0
 10
0.0
 20
0.0
 30
0.0
  3
*Paper_Space
  1

  0
ENDBLK
  5
1D
100
AcDbEntity
  8
0
100
AcDbBlockEnd
  0
BLOCK
  5
209
100
AcDbEntity
  8
0
100
AcDbBlockBegin
  2
_FILLED
 70
64
 10
0.0
 20
0.0
  3
_FILLED
  1

  0
SOLID
  5
20A
100
AcDbEntity
  8
0
  6
BYBLOCK
 62
0
100
AcDbTrace
 10
0.0
 20
0.0
 11
-1.0
 21
0.2
 12
-1.0
 22
-0.2
 13
-1.0
 23
-0.2
  0
ENDBLK
  5
20B
100
AcDbEntity
  8
0
  6
BYBLOCK
 62
0
100
AcDbBlockEnd
  0
ENDSEC
  0
SECTION
  2
ENTITIES
  0
LINE
  5
20C
100
AcDbEntity
  8
0
100
AcDbLine
 62
7
  6
CONTINUOUS
 10
-11.4526816617
 20
8.8572030757
 11
-11.4526816617
 21
8.6285526337
  0
LINE
  5
20D
100
AcDbEntity
  8
0
100
AcDbLine
 62
7
  6
CONTINUOUS
 10
-10.8276816617
 20
8.3322030757
 11
-10.8276816617
 21
8.3172030757
  0
LINE
  5
20E
100
AcDbEntity
  8
0
100
AcDbLine
 62
7
  6
CONTINUOUS
 10
-9.0776816617
 20
8.3172030757
 11
-9.0776816617
 21
8.3322030757
  0
LINE
  5
20F
100
AcDbEntity
  8
0
100
AcDbLine
 62
7
  6
CONTINUOUS
 10
-8.4526816617
 20
8.8572030757
 11
-8.4526816617
 21
8.6285526337
  0
LINE
  5
210
100
AcDbEntity
  8
0
100
AcDbLine
 62
9
  6
CONTINUOUS
 10
-8.3276816617
 20
7.3572030757
 11
-8.3276816617
 21
6.1072030757
  0
LINE
  5
211
100
AcDbEntity
  8
0
100
AcDbLine
 62
7
  6
CONTINUOUS
 10
9.5473183383
 20
8.8572030757
 11
9.5473183383
 21
8.6285526337
  0
LINE
  5
212
100
AcDbEntity
  8
0
100
AcDbLine
 62
7
  6
CONTINUOUS
 10
-8.3276816617
 20
6.1072030757
 11
30.4223183383
 21
6.1072030757
  0
LINE
  5
213
100
AcDbEntity
  8
0
100
AcDbLine
 62
7
  6
CONTINUOUS
 10
10.1723183383
 20
8.3322030757
 11
10.1723183383
 21
8.3172030757
  0
LINE
  5
214
100
AcDbEntity
  8
0
100
AcDbLine
 62
7
  6
CONTINUOUS
 10
10.6223183383
 20
8.1264606452
 11
10.6223183383
 21
7.3572030757
  0
LINE
  5
215
100
AcDbEntity
  8
0
100
AcDbLine
 62
7
  6
CONTINUOUS
 10
11.6719251024
 20
8.2572030757
 11
11.4723183383
 21
8.1264606452
  0
LINE
  5
216
100
AcDbEntity
  8
0
100
AcDbLine
 62
7
  6
CONTINUOUS
 10
-8.3276816617
 20
7.3572030757
 11
10.6223183383
 21
7.3572030757
  0
LINE
  5
217
100
AcDbEntity
  8
0
100
AcDbLine
 62
7
  6
CONTINUOUS
 10
11.4723183383
 20
7.3572030757
 11
30.4223183383
 21
7.3572030757
  0
LINE
  5
218
100
AcDbEntity
  8
0
100
AcDbLine
 62
7
  6
CONTINUOUS
 10
11.4723183383
 20
8.1264606452
 11
11.4723183383
 21
7.3572030757
  0
LINE
  5
219
100
AcDbEntity
  8
0
100
AcDbLine
 62
7
  6
CONTINUOUS
 10
11.9223183383
 20
8.3172030757
 11
11.9223183383
 21
8.3322030757
  0
LINE
  5
21A
100
AcDbEntity
  8
0
100
AcDbLine
 62
7
  6
CONTINUOUS
 10
12.5473183383
 20
8.8572030757
 11
12.5473183383
 21
8.6285526337
  0
LINE
  5
21B
100
AcDbEntity
  8
0
100
AcDbLine
 62
7
  6
CONTINUOUS
 10
10.6223183383
 20
8.1264606452
 11
11.4723183383
 21
8.1264606452
  0
LINE
  5
21C
100
AcDbEntity
  8
0
100
AcDbLine
 62
7
  6
CONTINUOUS
 10
32.8623183383
 20
8.2572030757
 11
31.2323183383
 21
8.2572030757
  0
LINE
  5
21D
100
AcDbEntity
  8
0
100
AcDbLine
 62
7
  6
CONTINUOUS
 10
11.8623183383
 20
8.2572030757
 11
10.2323183383
 21
8.2572030757
  0
LINE
  5
21E
100
AcDbEntity
  8
0
100
AcDbLine
 62
7
  6
CONTINUOUS
 10
-9.1376816617
 20
8.2572030757
 11
-10.7676816617
 21
8.2572030757
  0
LINE
  5
21F
100
AcDbEntity
  8
0
100
AcDbLine
 62
9
  6
CONTINUOUS
 10
32.9223183383
 20
8.3172030757
 11
31.1723183383
 21
8.3172030757
  0
LINE
  5
220
100
AcDbEntity
  8
0
100
AcDbLine
 62
9
  6
CONTINUOUS
 10
11.9223183383
 20
8.3172030757
 11
10.1723183383
 21
8.3172030757
  0
LINE
  5
221
100
AcDbEntity
  8
0
100
AcDbLine
 62
9
  6
CONTINUOUS
 10
-9.0776816617
 20
8.3172030757
 11
-10.8276816617
 21
8.3172030757
  0
LINE
  5
222
100
AcDbEntity
  8
0
100
AcDbLine
 62
7
  6
CONTINUOUS
 10
33.0921571039
 20
8.3322030757
 11
31.0024795727
 21
8.3322030757
  0
LINE
  5
223
100
AcDbEntity
  8
0
100
AcDbLine
 62
7
  6
CONTINUOUS
 10
12.0921571039
 20
8.3322030757
 11
10.0024795727
 21
8.3322030757
  0
LINE
  5
224
100
AcDbEntity
  8
0
100
AcDbLine
 62
7
  6
CONTINUOUS
 10
-8.9078428961
 20
8.3322030757
 11
-10.9975204273
 21
8.3322030757
  0
LINE
  5
225
100
AcDbEntity
  8
0
100
AcDbLine
 62
7
  6
CONTINUOUS
 10
-11.4526816617
 20
8.8572030757
 11
-8.4526816617
 21
8.8572030757
  0
LINE
  5
226
100
AcDbEntity
  8
0
100
AcDbLine
 62
7
  6
CONTINUOUS
 10
9.5473183383
 20
8.8572030757
 11
12.5473183383
 21
8.8572030757
  0
LINE
  5
227
100
AcDbEntity
  8
0
100
AcDbLine
 62
7
  6
CONTINUOUS
 10
30.5473183383
 20
8.8572030757
 11
33.5473183383
 21
8.8572030757
  0
LINE
  5
228
100
AcDbEntity
  8
0
100
AcDbLine
 62
7
  6
CONTINUOUS
 10
10.4293829443
 20
8.8574606452
 11
11.6321867147
 21
8.8574606452
  0
LINE
  5
229
100
AcDbEntity
  8
0
100
AcDbLine
 62
7
  6
CONTINUOUS
 10
10.4227115742
 20
8.2572030757
 11
10.6223183383
 21
8.1264606452
  0
LINE
  5
22A
100
AcDbEntity
  8
0
100
AcDbLine
 62
9
  6
CONTINUOUS
 10
30.4223183383
 20
7.3572030757
 11
30.4223183383
 21
6.1072030757
  0
LINE
  5
22B
100
AcDbEntity
  8
0
100
AcDbLine
 62
7
  6
CONTINUOUS
 10
30.5473183383
 20
8.8572030757
 11
30.5473183383
 21
8.6285526337
  0
LINE
  5
22C
100
AcDbEntity
  8
0
100
AcDbLine
 62
7
  6
CONTINUOUS
 10
31.1723183383
 20
8.3322030757
 11
31.1723183383
 21
8.3172030757
  0
LINE
  5
22D
100
AcDbEntity
  8
0
100
AcDbLine
 62
7
  6
CONTINUOUS
 10
32.9223183383
 20
8.3172030757
 11
32.9223183383
 21
8.3322030757
  0
LINE
  5
22E
100
AcDbEntity
  8
0
100
AcDbLine
 62
7
  6
CONTINUOUS
 10
33.5473183383
 20
8.8572030757
 11
33.5473183383
 21
8.6285526337
  0
ARC
  5
22F
100
AcDbEntity
  8
0
100
AcDbCircle
 62
7
  6
CONTINUOUS
 10
30.4223183383
 20
8.3572030757
 40
2.25
100
AcDbArc
 50
270.0
 51
357.4526818174
  0
ARC
  5
230
100
AcDbEntity
  8
0
100
AcDbCircle
 62
7
  6
CONTINUOUS
 10
-8.3276816617
 20
8.3572030757
 40
2.25
100
AcDbArc
 50
182.5473181826
 51
270.0
  0
ARC
  5
231
100
AcDbEntity
  8
0
100
AcDbCircle
 62
7
  6
CONTINUOUS
 10
30.4223183383
 20
8.3572030757
 40
1.0
100
AcDbArc
 50
270.0
 51
354.2608295227
  0
ARC
  5
232
100
AcDbEntity
  8
0
100
AcDbCircle
 62
7
  6
CONTINUOUS
 10
-8.3276816617
 20
8.3572030757
 40
1.0
100
AcDbArc
 50
185.7391704773
 51
270.0
  0
ARC
  5
233
100
AcDbEntity
  8
0
100
AcDbCircle
 62
7
  6
CONTINUOUS
 10
31.2323183383
 20
8.3172030757
 40
0.06
100
AcDbArc
 50
180.0
 51
270.0
  0
ARC
  5
234
100
AcDbEntity
  8
0
100
AcDbCircle
 62
7
  6
CONTINUOUS
 10
32.8623183383
 20
8.3172030757
 40
0.06
100
AcDbArc
 50
270.0
 51
360.0
  0
ARC
  5
235
100
AcDbEntity
  8
0
100
AcDbCircle
 62
7
  6
CONTINUOUS
 10
10.2323183383
 20
8.3172030757
 40
0.06
100
AcDbArc
 50
180.0
 51
270.0
  0
ARC
  5
236
100
AcDbEntity
  8
0
100
AcDbCircle
 62
7
  6
CONTINUOUS
 10
11.8623183383
 20
8.3172030757
 40
0.06
100
AcDbArc
 50
270.0
 51
360.0
  0
ARC
  5
237
100
AcDbEntity
  8
0
100
AcDbCircle
 62
7
  6
CONTINUOUS
 10
-10.7676816617
 20
8.3172030757
 40
0.06
100
AcDbArc
 50
180.0
 51
270.0
  0
ARC
  5
238
100
AcDbEntity
  8
0
100
AcDbCircle
 62
7
  6
CONTINUOUS
 10
-9.1376816617
 20
8.3172030757
 40
0.06
100
AcDbArc
 50
270.0
 51
360.0
  0
SPLINE
  5
239
100
AcDbEntity
  8
0
100
AcDbSpline
 62
7
  6
CONTINUOUS
 70
0
 71
3
 72
13
 73
9
 74
0
 42
0.0000001
 43
0.0000001
 44
0.0000000001
 40
0.0
 40
0.0
 40
0.0
 40
0.0
 40
0.2499691292
 40
0.4999306683
 40
0.6249487521
 40
0.7499659146
 40
0.8749837725
 40
1.0
 40
1.0
 40
1.0
 40
1.0
 10
30.5473183383
 20
8.6285526337
 30
0.0
 10
30.5895839769
 20
8.6115737176
 30
0.0
 10
30.6725883946
 20
8.5736677412
 30
0.0
 10
30.771323647
 20
8.5165467154
 30
0.0
 10
30.8465773169
 20
8.4651309681
 30
0.0
 10
30.9009907261
 20
8.4237303936
 30
0.0
 10
30.9531689324
 20
8.3795496489
 30
0.0
 10
30.9863378755
 20
8.3482771351
 30
0.0
 10
31.0024795727
 20
8.3322030757
 30
0.0
  0
SPLINE
  5
23A
100
AcDbEntity
  8
0
100
AcDbSpline
 62
7
  6
CONTINUOUS
 70
0
 71
3
 72
13
 73
9
 74
0
 42
0.0000001
 43
0.0000001
 44
0.0000000001
 40
0.0
 40
0.0
 40
0.0
 40
0.0
 40
0.249969138
 40
0.4999306492
 40
0.624948744
 40
0.749965904
 40
0.8749837811
 40
1.0
 40
1.0
 40
1.0
 40
1.0
 10
33.5473183383
 20
8.6285526337
 30
0.0
 10
33.5050526982
 20
8.611573717
 30
0.0
 10
33.4220482836
 20
8.5736677419
 30
0.0
 10
33.323313033
 20
8.5165467163
 30
0.0
 10
33.2480593648
 20
8.4651309726
 30
0.0
 10
33.1936459521
 20
8.4237303944
 30
0.0
 10
33.1414677442
 20
8.3795496495
 30
0.0
 10
33.1082988
 20
8.348277134
 30
0.0
 10
33.0921571039
 20
8.3322030757
 30
0.0
  0
SPLINE
  5
23B
100
AcDbEntity
  8
0
100
AcDbSpline
 62
7
  6
CONTINUOUS
 70
0
 71
3
 72
13
 73
9
 74
0
 42
0.0000001
 43
0.0000001
 44
0.0000000001
 40
0.0
 40
0.0
 40
0.0
 40
0.0
 40
0.249969138
 40
0.4999306492
 40
0.624948744
 40
0.749965904
 40
0.8749837811
 40
1.0
 40
1.0
 40
1.0
 40
1.0
 10
-8.4526816617
 20
8.6285526337
 30
0.0
 10
-8.4949473018
 20
8.611573717
 30
0.0
 10
-8.5779517164
 20
8.5736677419
 30
0.0
 10
-8.676686967
 20
8.5165467163
 30
0.0
 10
-8.7519406352
 20
8.4651309726
 30
0.0
 10
-8.8063540479
 20
8.4237303944
 30
0.0
 10
-8.8585322558
 20
8.3795496495
 30
0.0
 10
-8.8917012
 20
8.348277134
 30
0.0
 10
-8.9078428961
 20
8.3322030757
 30
0.0
  0
SPLINE
  5
23C
100
AcDbEntity
  8
0
100
AcDbSpline
 62
7
  6
CONTINUOUS
 70
0
 71
3
 72
13
 73
9
 74
0
 42
0.0000001
 43
0.0000001
 44
0.0000000001
 40
0.0
 40
0.0
 40
0.0
 40
0.0
 40
0.2499691292
 40
0.4999306683
 40
0.6249487521
 40
0.7499659146
 40
0.8749837725
 40
1.0
 40
1.0
 40
1.0
 40
1.0
 10
9.5473183383
 20
8.6285526337
 30
0.0
 10
9.5895839769
 20
8.6115737176
 30
0.0
 10
9.6725883946
 20
8.5736677412
 30
0.0
 10
9.771323647
 20
8.5165467154
 30
0.0
 10
9.8465773169
 20
8.4651309681
 30
0.0
 10
9.9009907261
 20
8.4237303936
 30
0.0
 10
9.9531689324
 20
8.3795496489
 30
0.0
 10
9.9863378755
 20
8.3482771351
 30
0.0
 10
10.0024795727
 20
8.3322030757
 30
0.0
  0
SPLINE
  5
23D
100
AcDbEntity
  8
0
100
AcDbSpline
 62
7
  6
CONTINUOUS
 70
0
 71
3
 72
13
 73
9
 74
0
 42
0.0000001
 43
0.0000001
 44
0.0000000001
 40
0.0
 40
0.0
 40
0.0
 40
0.0
 40
0.2499691292
 40
0.4999306683
 40
0.6249487521
 40
0.7499659146
 40
0.8749837725
 40
1.0
 40
1.0
 40
1.0
 40
1.0
 10
-11.4526816617
 20
8.6285526337
 30
0.0
 10
-11.4104160231
 20
8.6115737176
 30
0.0
 10
-11.3274116054
 20
8.5736677412
 30
0.0
 10
-11.228676353
 20
8.5165467154
 30
0.0
 10
-11.1534226831
 20
8.4651309681
 30
0.0
 10
-11.0990092739
 20
8.4237303936
 30
0.0
 10
-11.0468310676
 20
8.3795496489
 30
0.0
 10
-11.0136621245
 20
8.3482771351
 30
0.0
 10
-10.9975204273
 20
8.3322030757
 30
0.0
  0
SPLINE
  5
23E
100
AcDbEntity
  8
0
100
AcDbSpline
 62
7
  6
CONTINUOUS
 70
0
 71
3
 72
13
 73
9
 74
0
 42
0.0000001
 43
0.0000001
 44
0.0000000001
 40
0.0
 40
0.0
 40
0.0
 40
0.0
 40
0.249969138
 40
0.4999306492
 40
0.624948744
 40
0.749965904
 40
0.8749837811
 40
1.0
 40
1.0
 40
1.0
 40
1.0
 10
12.5473183383
 20
8.6285526337
 30
0.0
 10
12.5050526982
 20
8.611573717
 30
0.0
 10
12.4220482836
 20
8.5736677419
 30
0.0
 10
12.323313033
 20
8.5165467163
 30
0.0
 10
12.2480593648
 20
8.4651309726
 30
0.0
 10
12.1936459521
 20
8.4237303944
 30
0.0
 10
12.1414677442
 20
8.3795496495
 30
0.0
 10
12.1082988
 20
8.348277134
 30
0.0
 10
12.0921571039
 20
8.3322030757
 30
0.0
  0
SPLINE
  5
23F
100
AcDbEntity
  8
0
100
AcDbSpline
 62
7
  6
CONTINUOUS
 70
0
 71
3
 72
22
 73
18
 74
0
 42
0.0000001
 43
0.0000001
 44
0.0000000001
 40
0.0
 40
0.0
 40
0.0
 40
0.0
 40
0.0227493407
 40
0.0881526796
 40
0.1893380515
 40
0.2508907195
 40
0.3185378425
 40
0.3914940239
 40
0.4690774886
 40
0.5506952731
 40
0.6358150906
 40
0.7239213373
 40
0.8144526034
 40
0.8604343219
 40
0.9067585105
 40
0.953320513
 40
1.0
 40
1.0
 40
1.0
 40
1.0
 10
10.6223183383
 20
7.3572030757
 30
0.0
 10
10.6252243023
 20
7.3552270384
 30
0.0
 10
10.6365043789
 20
7.3475987616
 30
0.0
 10
10.6609009118
 20
7.3314650803
 30
0.0
 10
10.6907182405
 20
7.3126685589
 30
0.0
 10
10.7213015337
 20
7.2944654948
 30
0.0
 10
10.7484955954
 20
7.2791076737
 30
0.0
 10
10.7783020066
 20
7.2633627434
 30
0.0
 10
10.8105790274
 20
7.2477131959
 30
0.0
 10
10.8452161875
 20
7.2326907217
 30
0.0
 10
10.8821086688
 20
7.2188945748
 30
0.0
 10
10.9211082936
 20
7.2070005595
 30
0.0
 10
10.9549866185
 20
7.1993222424
 30
0.0
 10
10.982875149
 20
7.194811252
 30
0.0
 10
11.0041891019
 20
7.1923207881
 30
0.0
 10
11.025701975
 20
7.1908012123
 30
0.0
 10
11.0401076058
 20
7.1904606452
 30
0.0
 10
11.0473183384
 20
7.1904606452
 30
0.0
  0
SPLINE
  5
240
100
AcDbEntity
  8
0
100
AcDbSpline
 62
7
  6
CONTINUOUS
 70
0
 71
3
 72
40
 73
36
 74
0
 42
0.0000001
 43
0.0000001
 44
0.0000000001
 40
0.0
 40
0.0
 40
0.0
 40
0.0
 40
0.1070691459
 40
0.2094737807
 40
0.3067605644
 40
0.3985107603
 40
0.4843401123
 40
0.5249237018
 40
0.5638965845
 40
0.6012195254
 40
0.6368551082
 40
0.6707684222
 40
0.702927355
 40
0.7333028385
 40
0.7618701727
 40
0.7886095837
 40
0.813508206
 40
0.8365625608
 40
0.8577816533
 40
0.8771931352
 40
0.8948506323
 40
0.9030503372
 40
0.9108502501
 40
0.9182709804
 40
0.925337659
 40
0.9385302473
 40
0.9447472463
 40
0.9507748928
 40
0.9566724205
 40
0.962504794
 40
0.9683410802
 40
0.9742528571
 40
0.9803108473
 40
0.9865824639
 40
1.0
 40
1.0
 40
1.0
 40
1.0
 10
32.7973183383
 20
8.6285526337
 30
0.0
 10
32.824544905
 20
8.6358442557
 30
0.0
 10
32.8781536222
 20
8.6488613866
 30
0.0
 10
32.9573757535
 20
8.6646188476
 30
0.0
 10
33.0331363031
 20
8.6768259159
 30
0.0
 10
33.1049177695
 20
8.6860331626
 30
0.0
 10
33.1620773291
 20
8.691698275
 30
0.0
 10
33.2054828694
 20
8.6951048553
 30
0.0
 10
33.2361872073
 20
8.6971071252
 30
0.0
 10
33.2656145056
 20
8.698634619
 30
0.0
 10
33.2937288898
 20
8.6997118081
 30
0.0
 10
33.3204967886
 20
8.7003560267
 30
0.0
 10
33.345886871
 20
8.7005771022
 30
0.0
 10
33.3698699698
 20
8.7003799765
 30
0.0
 10
33.392418991
 20
8.6997606229
 30
0.0
 10
33.4135090215
 20
8.6987100035
 30
0.0
 10
33.4331174788
 20
8.6972118069
 30
0.0
 10
33.451224008
 20
8.6952422654
 30
0.0
 10
33.4678118343
 20
8.6927725069
 30
0.0
 10
33.4828657511
 20
8.6897644681
 30
0.0
 10
33.4943943595
 20
8.6867015349
 30
0.0
 10
33.5028035118
 20
8.6839021117
 30
0.0
 10
33.5085602907
 20
8.6816884373
 30
0.0
 10
33.51392342
 20
8.6793006865
 30
0.0
 10
33.5203977708
 20
8.6759523033
 30
0.0
 10
33.5262775946
 20
8.6721535193
 30
0.0
 10
33.5314138093
 20
8.6678456301
 30
0.0
 10
33.5347915688
 20
8.6644594378
 30
0.0
 10
33.5377685465
 20
8.6608456595
 30
0.0
 10
33.5403436743
 20
8.6569952207
 30
0.0
 10
33.5425160126
 20
8.6528995896
 30
0.0
 10
33.5442858955
 20
8.6485507756
 30
0.0
 10
33.5456547644
 20
8.6439400642
 30
0.0
 10
33.5469774499
 20
8.6372848453
 30
0.0
 10
33.5473183383
 20
8.6320848129
 30
0.0
 10
33.5473183383
 20
8.6285526337
 30
0.0
  0
SPLINE
  5
241
100
AcDbEntity
  8
0
100
AcDbSpline
 62
7
  6
CONTINUOUS
 70
0
 71
3
 72
40
 73
36
 74
0
 42
0.0000001
 43
0.0000001
 44
0.0000000001
 40
0.0
 40
0.0
 40
0.0
 40
0.0
 40
0.1070691459
 40
0.2094737807
 40
0.3067605644
 40
0.3985107603
 40
0.4843401123
 40
0.5249237018
 40
0.5638965845
 40
0.6012195254
 40
0.6368551082
 40
0.6707684222
 40
0.702927355
 40
0.7333028385
 40
0.7618701727
 40
0.7886095837
 40
0.813508206
 40
0.8365625608
 40
0.8577816533
 40
0.8771931352
 40
0.8948506323
 40
0.9030503372
 40
0.9108502501
 40
0.9182709804
 40
0.925337659
 40
0.9385302473
 40
0.9447472463
 40
0.9507748928
 40
0.9566724205
 40
0.962504794
 40
0.9683410802
 40
0.9742528571
 40
0.9803108473
 40
0.9865824639
 40
1.0
 40
1.0
 40
1.0
 40
1.0
 10
11.7973183383
 20
8.6285526337
 30
0.0
 10
11.824544905
 20
8.6358442557
 30
0.0
 10
11.8781536222
 20
8.6488613866
 30
0.0
 10
11.9573757535
 20
8.6646188476
 30
0.0
 10
12.0331363031
 20
8.6768259159
 30
0.0
 10
12.1049177695
 20
8.6860331626
 30
0.0
 10
12.1620773291
 20
8.691698275
 30
0.0
 10
12.2054828694
 20
8.6951048553
 30
0.0
 10
12.2361872073
 20
8.6971071252
 30
0.0
 10
12.2656145056
 20
8.698634619
 30
0.0
 10
12.2937288898
 20
8.6997118081
 30
0.0
 10
12.3204967886
 20
8.7003560267
 30
0.0
 10
12.345886871
 20
8.7005771022
 30
0.0
 10
12.3698699698
 20
8.7003799765
 30
0.0
 10
12.392418991
 20
8.6997606229
 30
0.0
 10
12.4135090215
 20
8.6987100035
 30
0.0
 10
12.4331174788
 20
8.6972118069
 30
0.0
 10
12.451224008
 20
8.6952422654
 30
0.0
 10
12.4678118343
 20
8.6927725069
 30
0.0
 10
12.4828657511
 20
8.6897644681
 30
0.0
 10
12.4943943595
 20
8.6867015349
 30
0.0
 10
12.5028035118
 20
8.6839021117
 30
0.0
 10
12.5085602907
 20
8.6816884373
 30
0.0
 10
12.51392342
 20
8.6793006865
 30
0.0
 10
12.5203977708
 20
8.6759523033
 30
0.0
 10
12.5262775946
 20
8.6721535193
 30
0.0
 10
12.5314138093
 20
8.6678456301
 30
0.0
 10
12.5347915688
 20
8.6644594378
 30
0.0
 10
12.5377685465
 20
8.6608456595
 30
0.0
 10
12.5403436743
 20
8.6569952207
 30
0.0
 10
12.5425160126
 20
8.6528995896
 30
0.0
 10
12.5442858955
 20
8.6485507756
 30
0.0
 10
12.5456547644
 20
8.6439400642
 30
0.0
 10
12.5469774499
 20
8.6372848453
 30
0.0
 10
12.5473183383
 20
8.6320848129
 30
0.0
 10
12.5473183383
 20
8.6285526337
 30
0.0
  0
SPLINE
  5
242
100
AcDbEntity
  8
0
100
AcDbSpline
 62
7
  6
CONTINUOUS
 70
0
 71
3
 72
37
 73
33
 74
0
 42
0.0000001
 43
0.0000001
 44
0.0000000001
 40
0.0
 40
0.0
 40
0.0
 40
0.0
 40
0.028773103
 40
0.0579840289
 40
0.087618435
 40
0.1176610518
 40
0.1480907947
 40
0.1788829381
 40
0.2100103653
 40
0.2414437608
 40
0.27315206
 40
0.3051030104
 40
0.3372633616
 40
0.3695991093
 40
0.4020757529
 40
0.4346583663
 40
0.5
 40
0.5653416337
 40
0.5979242471
 40
0.6304008908
 40
0.6627366384
 40
0.6948969896
 40
0.72684794
 40
0.7585562393
 40
0.7899896347
 40
0.8211170619
 40
0.8519092053
 40
0.8823389482
 40
0.912381565
 40
0.9420159711
 40
0.971226897
 40
1.0
 40
1.0
 40
1.0
 40
1.0
 10
10.2973183383
 20
8.6285526337
 30
0.0
 10
10.3113149527
 20
8.6323011057
 30
0.0
 10
10.3396491526
 20
8.6393838607
 30
0.0
 10
10.3827622427
 20
8.6487998324
 30
0.0
 10
10.4267407714
 20
8.6571707304
 30
0.0
 10
10.4715132467
 20
8.6645766009
 30
0.0
 10
10.517012129
 20
8.671093166
 30
0.0
 10
10.5631705466
 20
8.6767918453
 30
0.0
 10
10.6099232633
 20
8.6817397672
 30
0.0
 10
10.6572067466
 20
8.6859974365
 30
0.0
 10
10.7049586583
 20
8.6896209534
 30
0.0
 10
10.7531179268
 20
8.6926596861
 30
0.0
 10
10.8016245432
 20
8.6951564301
 30
0.0
 10
10.8504192891
 20
8.6971489986
 30
0.0
 10
10.8994437865
 20
8.6986667986
 30
0.0
 10
10.9650977929
 20
8.7000907531
 30
0.0
 10
11.0473183383
 20
8.7007855766
 30
0.0
 10
11.1295388837
 20
8.7000907531
 30
0.0
 10
11.1951928901
 20
8.6986667986
 30
0.0
 10
11.2442173875
 20
8.6971489986
 30
0.0
 10
11.2930121334
 20
8.6951564301
 30
0.0
 10
11.3415187498
 20
8.6926596861
 30
0.0
 10
11.3896780183
 20
8.6896209534
 30
0.0
 10
11.43742993
 20
8.6859974365
 30
0.0
 10
11.4847134133
 20
8.6817397672
 30
0.0
 10
11.53146613
 20
8.6767918453
 30
0.0
 10
11.5776245475
 20
8.671093166
 30
0.0
 10
11.6231234299
 20
8.6645766009
 30
0.0
 10
11.6678959052
 20
8.6571707304
 30
0.0
 10
11.7118744339
 20
8.6487998324
 30
0.0
 10
11.754987524
 20
8.6393838607
 30
0.0
 10
11.7833217239
 20
8.6323011057
 30
0.0
 10
11.7973183383
 20
8.6285526337
 30
0.0
  0
SPLINE
  5
243
100
AcDbEntity
  8
0
100
AcDbSpline
 62
7
  6
CONTINUOUS
 70
0
 71
3
 72
40
 73
36
 74
0
 42
0.0000001
 43
0.0000001
 44
0.0000000001
 40
0.0
 40
0.0
 40
0.0
 40
0.0
 40
0.0134175361
 40
0.0196891527
 40
0.0257471429
 40
0.0316589198
 40
0.037495206
 40
0.0433275795
 40
0.0492251072
 40
0.0552527537
 40
0.0614697527
 40
0.074662341
 40
0.0817290196
 40
0.08914975
 40
0.0969496628
 40
0.1051493677
 40
0.1228068649
 40
0.1422183467
 40
0.1634374393
 40
0.186491794
 40
0.2113904164
 40
0.2381298273
 40
0.2666971615
 40
0.2970726451
 40
0.3292315778
 40
0.3631448919
 40
0.3987804747
 40
0.4361034155
 40
0.4750762982
 40
0.5156598878
 40
0.6014892397
 40
0.6932394356
 40
0.7905262192
 40
0.892930854
 40
1.0
 40
1.0
 40
1.0
 40
1.0
 10
9.5473183383
 20
8.6285526337
 30
0.0
 10
9.5473183383
 20
8.6320848129
 30
0.0
 10
9.5476592267
 20
8.6372848453
 30
0.0
 10
9.5489819122
 20
8.6439400642
 30
0.0
 10
9.5503507811
 20
8.6485507756
 30
0.0
 10
9.5521206639
 20
8.6528995896
 30
0.0
 10
9.5542930023
 20
8.6569952207
 30
0.0
 10
9.5568681301
 20
8.6608456595
 30
0.0
 10
9.5598451078
 20
8.6644594378
 30
0.0
 10
9.5632228673
 20
8.6678456301
 30
0.0
 10
9.568359082
 20
8.6721535193
 30
0.0
 10
9.5742389057
 20
8.6759523033
 30
0.0
 10
9.5807132566
 20
8.6793006866
 30
0.0
 10
9.5860763859
 20
8.6816884373
 30
0.0
 10
9.5918331647
 20
8.6839021117
 30
0.0
 10
9.600242317
 20
8.6867015349
 30
0.0
 10
9.6117709255
 20
8.6897644681
 30
0.0
 10
9.6268248423
 20
8.6927725069
 30
0.0
 10
9.6434126686
 20
8.6952422654
 30
0.0
 10
9.6615191978
 20
8.6972118069
 30
0.0
 10
9.6811276551
 20
8.6987100035
 30
0.0
 10
9.7022176856
 20
8.6997606229
 30
0.0
 10
9.7247667068
 20
8.7003799765
 30
0.0
 10
9.7487498056
 20
8.7005771022
 30
0.0
 10
9.7741398879
 20
8.7003560267
 30
0.0
 10
9.8009077868
 20
8.6997118081
 30
0.0
 10
9.829022171
 20
8.698634619
 30
0.0
 10
9.8584494693
 20
8.6971071251
 30
0.0
 10
9.8891538072
 20
8.6951048553
 30
0.0
 10
9.9325593475
 20
8.691698275
 30
0.0
 10
9.989718907
 20
8.6860331626
 30
0.0
 10
10.0615003735
 20
8.6768259159
 30
0.0
 10
10.1372609231
 20
8.6646188476
 30
0.0
 10
10.2164830544
 20
8.6488613866
 30
0.0
 10
10.2700917716
 20
8.6358442557
 30
0.0
 10
10.2973183383
 20
8.6285526337
 30
0.0
  0
SPLINE
  5
244
100
AcDbEntity
  8
0
100
AcDbSpline
 62
7
  6
CONTINUOUS
 70
0
 71
3
 72
37
 73
33
 74
0
 42
0.0000001
 43
0.0000001
 44
0.0000000001
 40
0.0
 40
0.0
 40
0.0
 40
0.0
 40
0.028773103
 40
0.0579840289
 40
0.087618435
 40
0.1176610518
 40
0.1480907947
 40
0.1788829381
 40
0.2100103653
 40
0.2414437608
 40
0.27315206
 40
0.3051030104
 40
0.3372633616
 40
0.3695991093
 40
0.4020757529
 40
0.4346583663
 40
0.5
 40
0.5653416337
 40
0.5979242471
 40
0.6304008908
 40
0.6627366384
 40
0.6948969896
 40
0.72684794
 40
0.7585562393
 40
0.7899896347
 40
0.8211170619
 40
0.8519092053
 40
0.8823389482
 40
0.912381565
 40
0.9420159711
 40
0.971226897
 40
1.0
 40
1.0
 40
1.0
 40
1.0
 10
31.2973183383
 20
8.6285526337
 30
0.0
 10
31.3113149527
 20
8.6323011057
 30
0.0
 10
31.3396491526
 20
8.6393838607
 30
0.0
 10
31.3827622427
 20
8.6487998324
 30
0.0
 10
31.4267407714
 20
8.6571707304
 30
0.0
 10
31.4715132467
 20
8.6645766009
 30
0.0
 10
31.517012129
 20
8.671093166
 30
0.0
 10
31.5631705466
 20
8.6767918453
 30
0.0
 10
31.6099232633
 20
8.6817397672
 30
0.0
 10
31.6572067466
 20
8.6859974365
 30
0.0
 10
31.7049586583
 20
8.6896209534
 30
0.0
 10
31.7531179268
 20
8.6926596861
 30
0.0
 10
31.8016245432
 20
8.6951564301
 30
0.0
 10
31.8504192891
 20
8.6971489986
 30
0.0
 10
31.8994437865
 20
8.6986667986
 30
0.0
 10
31.9650977929
 20
8.7000907531
 30
0.0
 10
32.0473183383
 20
8.7007855766
 30
0.0
 10
32.1295388837
 20
8.7000907531
 30
0.0
 10
32.1951928901
 20
8.6986667986
 30
0.0
 10
32.2442173875
 20
8.6971489986
 30
0.0
 10
32.2930121334
 20
8.6951564301
 30
0.0
 10
32.3415187498
 20
8.6926596861
 30
0.0
 10
32.3896780183
 20
8.6896209534
 30
0.0
 10
32.43742993
 20
8.6859974365
 30
0.0
 10
32.4847134133
 20
8.6817397672
 30
0.0
 10
32.53146613
 20
8.6767918453
 30
0.0
 10
32.5776245475
 20
8.671093166
 30
0.0
 10
32.6231234299
 20
8.6645766009
 30
0.0
 10
32.6678959052
 20
8.6571707304
 30
0.0
 10
32.7118744339
 20
8.6487998324
 30
0.0
 10
32.754987524
 20
8.6393838607
 30
0.0
 10
32.7833217239
 20
8.6323011057
 30
0.0
 10
32.7973183383
 20
8.6285526337
 30
0.0
  0
SPLINE
  5
245
100
AcDbEntity
  8
0
100
AcDbSpline
 62
7
  6
CONTINUOUS
 70
0
 71
3
 72
40
 73
36
 74
0
 42
0.0000001
 43
0.0000001
 44
0.0000000001
 40
0.0
 40
0.0
 40
0.0
 40
0.0
 40
0.0134175361
 40
0.0196891527
 40
0.0257471429
 40
0.0316589198
 40
0.037495206
 40
0.0433275795
 40
0.0492251072
 40
0.0552527537
 40
0.0614697527
 40
0.074662341
 40
0.0817290196
 40
0.08914975
 40
0.0969496628
 40
0.1051493677
 40
0.1228068649
 40
0.1422183467
 40
0.1634374393
 40
0.186491794
 40
0.2113904164
 40
0.2381298273
 40
0.2666971615
 40
0.2970726451
 40
0.3292315778
 40
0.3631448919
 40
0.3987804747
 40
0.4361034155
 40
0.4750762982
 40
0.5156598878
 40
0.6014892397
 40
0.6932394356
 40
0.7905262192
 40
0.892930854
 40
1.0
 40
1.0
 40
1.0
 40
1.0
 10
30.5473183383
 20
8.6285526337
 30
0.0
 10
30.5473183383
 20
8.6320848129
 30
0.0
 10
30.5476592267
 20
8.6372848453
 30
0.0
 10
30.5489819122
 20
8.6439400642
 30
0.0
 10
30.5503507811
 20
8.6485507756
 30
0.0
 10
30.5521206639
 20
8.6528995896
 30
0.0
 10
30.5542930023
 20
8.6569952207
 30
0.0
 10
30.5568681301
 20
8.6608456595
 30
0.0
 10
30.5598451078
 20
8.6644594378
 30
0.0
 10
30.5632228673
 20
8.6678456301
 30
0.0
 10
30.568359082
 20
8.6721535193
 30
0.0
 10
30.5742389057
 20
8.6759523033
 30
0.0
 10
30.5807132566
 20
8.6793006866
 30
0.0
 10
30.5860763859
 20
8.6816884373
 30
0.0
 10
30.5918331647
 20
8.6839021117
 30
0.0
 10
30.600242317
 20
8.6867015349
 30
0.0
 10
30.6117709255
 20
8.6897644681
 30
0.0
 10
30.6268248423
 20
8.6927725069
 30
0.0
 10
30.6434126686
 20
8.6952422654
 30
0.0
 10
30.6615191978
 20
8.6972118069
 30
0.0
 10
30.6811276551
 20
8.6987100035
 30
0.0
 10
30.7022176856
 20
8.6997606229
 30
0.0
 10
30.7247667068
 20
8.7003799765
 30
0.0
 10
30.7487498056
 20
8.7005771022
 30
0.0
 10
30.7741398879
 20
8.7003560267
 30
0.0
 10
30.8009077868
 20
8.6997118081
 30
0.0
 10
30.829022171
 20
8.698634619
 30
0.0
 10
30.8584494693
 20
8.6971071251
 30
0.0
 10
30.8891538072
 20
8.6951048553
 30
0.0
 10
30.9325593475
 20
8.691698275
 30
0.0
 10
30.989718907
 20
8.6860331626
 30
0.0
 10
31.0615003735
 20
8.6768259159
 30
0.0
 10
31.1372609231
 20
8.6646188476
 30
0.0
 10
31.2164830544
 20
8.6488613866
 30
0.0
 10
31.2700917716
 20
8.6358442557
 30
0.0
 10
31.2973183383
 20
8.6285526337
 30
0.0
  0
SPLINE
  5
246
100
AcDbEntity
  8
0
100
AcDbSpline
 62
7
  6
CONTINUOUS
 70
0
 71
3
 72
22
 73
18
 74
0
 42
0.0000001
 43
0.0000001
 44
0.0000000001
 40
0.0
 40
0.0
 40
0.0
 40
0.0
 40
0.0466794914
 40
0.0932414887
 40
0.1395656679
 40
0.1855473822
 40
0.2760786469
 40
0.3641848904
 40
0.4493047003
 40
0.53092249
 40
0.6085059675
 40
0.6814621556
 40
0.7491092783
 40
0.8106619499
 40
0.9118473238
 40
0.9772506535
 40
1.0
 40
1.0
 40
1.0
 40
1.0
 10
11.0473183384
 20
7.1904606452
 30
0.0
 10
11.0545290718
 20
7.1904606452
 30
0.0
 10
11.0689347023
 20
7.1908012129
 30
0.0
 10
11.090447574
 20
7.1923207874
 30
0.0
 10
11.1117615239
 20
7.1948112517
 30
0.0
 10
11.1396500521
 20
7.1993222414
 30
0.0
 10
11.1735283759
 20
7.2070005576
 30
0.0
 10
11.2125279989
 20
7.2188945718
 30
0.0
 10
11.2494204796
 20
7.2326907179
 30
0.0
 10
11.2840576413
 20
7.2477131923
 30
0.0
 10
11.3163346656
 20
7.2633627412
 30
0.0
 10
11.3461410795
 20
7.2791076728
 30
0.0
 10
11.3733351426
 20
7.2944654946
 30
0.0
 10
11.4039184365
 20
7.3126685591
 30
0.0
 10
11.4337357646
 20
7.3314650803
 30
0.0
 10
11.4581322974
 20
7.3475987614
 30
0.0
 10
11.4694123735
 20
7.3552270379
 30
0.0
 10
11.4723183383
 20
7.3572030757
 30
0.0
  0
SPLINE
  5
247
100
AcDbEntity
  8
0
100
AcDbSpline
 62
7
  6
CONTINUOUS
 70
0
 71
3
 72
14
 73
10
 74
0
 42
0.0000001
 43
0.0000001
 44
0.0000000001
 40
0.0
 40
0.0
 40
0.0
 40
0.0
 40
0.2237167546
 40
0.3417749319
 40
0.4642001524
 40
0.5911440991
 40
0.7227183899
 40
0.8589955511
 40
1.0
 40
1.0
 40
1.0
 40
1.0
 10
10.2973183383
 20
8.6285526337
 30
0.0
 10
10.3191992435
 20
8.6109726768
 30
0.0
 10
10.3508404987
 20
8.5818182212
 30
0.0
 10
10.390104149
 20
8.5387805951
 30
0.0
 10
10.4192428924
 20
8.5030256188
 30
0.0
 10
10.4474447324
 20
8.4644133659
 30
0.0
 10
10.4746222697
 20
8.42297839
 30
0.0
 10
10.5006783542
 20
8.3787715765
 30
0.0
 10
10.5169607391
 20
8.3480129821
 30
0.0
 10
10.5248989555
 20
8.3322030757
 30
0.0
  0
SPLINE
  5
248
100
AcDbEntity
  8
0
100
AcDbSpline
 62
7
  6
CONTINUOUS
 70
0
 71
3
 72
14
 73
10
 74
0
 42
0.0000001
 43
0.0000001
 44
0.0000000001
 40
0.0
 40
0.0
 40
0.0
 40
0.0
 40
0.1410044395
 40
0.2772816212
 40
0.4088559095
 40
0.5357998662
 40
0.6582250809
 40
0.7762832371
 40
1.0
 40
1.0
 40
1.0
 40
1.0
 10
11.5697377211
 20
8.3322030757
 30
0.0
 10
11.5776759369
 20
8.348012981
 30
0.0
 10
11.5939583223
 20
8.3787715768
 30
0.0
 10
11.6200144078
 20
8.422978391
 30
0.0
 10
11.6471919465
 20
8.4644133702
 30
0.0
 10
11.6753937877
 20
8.5030256224
 30
0.0
 10
11.7045325291
 20
8.5387805976
 30
0.0
 10
11.7437961787
 20
8.5818182211
 30
0.0
 10
11.7754374323
 20
8.6109726762
 30
0.0
 10
11.7973183383
 20
8.6285526337
 30
0.0
  0
SPLINE
  5
249
100
AcDbEntity
  8
0
100
AcDbSpline
 62
7
  6
CONTINUOUS
 70
0
 71
3
 72
14
 73
10
 74
0
 42
0.0000001
 43
0.0000001
 44
0.0000000001
 40
0.0
 40
0.0
 40
0.0
 40
0.0
 40
0.2237167546
 40
0.3417749319
 40
0.4642001524
 40
0.5911440991
 40
0.7227183899
 40
0.8589955511
 40
1.0
 40
1.0
 40
1.0
 40
1.0
 10
31.2973183383
 20
8.6285526337
 30
0.0
 10
31.3191992435
 20
8.6109726768
 30
0.0
 10
31.3508404987
 20
8.5818182212
 30
0.0
 10
31.390104149
 20
8.5387805951
 30
0.0
 10
31.4192428924
 20
8.5030256188
 30
0.0
 10
31.4474447324
 20
8.4644133659
 30
0.0
 10
31.4746222697
 20
8.42297839
 30
0.0
 10
31.5006783542
 20
8.3787715765
 30
0.0
 10
31.5169607391
 20
8.3480129821
 30
0.0
 10
31.5248989555
 20
8.3322030757
 30
0.0
  0
SPLINE
  5
24A
100
AcDbEntity
  8
0
100
AcDbSpline
 62
7
  6
CONTINUOUS
 70
0
 71
3
 72
14
 73
10
 74
0
 42
0.0000001
 43
0.0000001
 44
0.0000000001
 40
0.0
 40
0.0
 40
0.0
 40
0.0
 40
0.1410044395
 40
0.2772816212
 40
0.4088559095
 40
0.5357998662
 40
0.6582250809
 40
0.7762832371
 40
1.0
 40
1.0
 40
1.0
 40
1.0
 10
-9.4302622789
 20
8.3322030757
 30
0.0
 10
-9.4223240631
 20
8.348012981
 30
0.0
 10
-9.4060416777
 20
8.3787715768
 30
0.0
 10
-9.3799855922
 20
8.422978391
 30
0.0
 10
-9.3528080535
 20
8.4644133702
 30
0.0
 10
-9.3246062123
 20
8.5030256224
 30
0.0
 10
-9.2954674709
 20
8.5387805976
 30
0.0
 10
-9.2562038213
 20
8.5818182211
 30
0.0
 10
-9.2245625677
 20
8.6109726762
 30
0.0
 10
-9.2026816617
 20
8.6285526337
 30
0.0
  0
SPLINE
  5
24B
100
AcDbEntity
  8
0
100
AcDbSpline
 62
7
  6
CONTINUOUS
 70
0
 71
3
 72
14
 73
10
 74
0
 42
0.0000001
 43
0.0000001
 44
0.0000000001
 40
0.0
 40
0.0
 40
0.0
 40
0.0
 40
0.2237167546
 40
0.3417749319
 40
0.4642001524
 40
0.5911440991
 40
0.7227183899
 40
0.8589955511
 40
1.0
 40
1.0
 40
1.0
 40
1.0
 10
-10.7026816617
 20
8.6285526337
 30
0.0
 10
-10.6808007565
 20
8.6109726768
 30
0.0
 10
-10.6491595013
 20
8.5818182212
 30
0.0
 10
-10.609895851
 20
8.5387805951
 30
0.0
 10
-10.5807571076
 20
8.5030256188
 30
0.0
 10
-10.5525552676
 20
8.4644133659
 30
0.0
 10
-10.5253777303
 20
8.42297839
 30
0.0
 10
-10.4993216458
 20
8.3787715765
 30
0.0
 10
-10.4830392609
 20
8.3480129821
 30
0.0
 10
-10.4751010445
 20
8.3322030757
 30
0.0
  0
SPLINE
  5
24C
100
AcDbEntity
  8
0
100
AcDbSpline
 62
7
  6
CONTINUOUS
 70
0
 71
3
 72
14
 73
10
 74
0
 42
0.0000001
 43
0.0000001
 44
0.0000000001
 40
0.0
 40
0.0
 40
0.0
 40
0.0
 40
0.1410044395
 40
0.2772816212
 40
0.4088559095
 40
0.5357998662
 40
0.6582250809
 40
0.7762832371
 40
1.0
 40
1.0
 40
1.0
 40
1.0
 10
32.5697377211
 20
8.3322030757
 30
0.0
 10
32.5776759369
 20
8.348012981
 30
0.0
 10
32.5939583223
 20
8.3787715768
 30
0.0
 10
32.6200144078
 20
8.422978391
 30
0.0
 10
32.6471919465
 20
8.4644133702
 30
0.0
 10
32.6753937877
 20
8.5030256224
 30
0.0
 10
32.7045325291
 20
8.5387805976
 30
0.0
 10
32.7437961787
 20
8.5818182211
 30
0.0
 10
32.7754374323
 20
8.6109726762
 30
0.0
 10
32.7973183383
 20
8.6285526337
 30
0.0
  0
SPLINE
  5
24D
100
AcDbEntity
  8
0
100
AcDbSpline
 62
7
  6
CONTINUOUS
 70
0
 71
3
 72
40
 73
36
 74
0
 42
0.0000001
 43
0.0000001
 44
0.0000000001
 40
0.0
 40
0.0
 40
0.0
 40
0.0
 40
0.1070691459
 40
0.2094737807
 40
0.3067605644
 40
0.3985107603
 40
0.4843401123
 40
0.5249237018
 40
0.5638965845
 40
0.6012195254
 40
0.6368551082
 40
0.6707684222
 40
0.702927355
 40
0.7333028385
 40
0.7618701727
 40
0.7886095837
 40
0.813508206
 40
0.8365625608
 40
0.8577816533
 40
0.8771931352
 40
0.8948506323
 40
0.9030503372
 40
0.9108502501
 40
0.9182709804
 40
0.925337659
 40
0.9385302473
 40
0.9447472463
 40
0.9507748928
 40
0.9566724205
 40
0.962504794
 40
0.9683410802
 40
0.9742528571
 40
0.9803108473
 40
0.9865824639
 40
1.0
 40
1.0
 40
1.0
 40
1.0
 10
-9.2026816617
 20
8.6285526337
 30
0.0
 10
-9.175455095
 20
8.6358442557
 30
0.0
 10
-9.1218463778
 20
8.6488613866
 30
0.0
 10
-9.0426242465
 20
8.6646188476
 30
0.0
 10
-8.9668636969
 20
8.6768259159
 30
0.0
 10
-8.8950822305
 20
8.6860331626
 30
0.0
 10
-8.8379226709
 20
8.691698275
 30
0.0
 10
-8.7945171306
 20
8.6951048553
 30
0.0
 10
-8.7638127927
 20
8.6971071252
 30
0.0
 10
-8.7343854944
 20
8.698634619
 30
0.0
 10
-8.7062711102
 20
8.6997118081
 30
0.0
 10
-8.6795032114
 20
8.7003560267
 30
0.0
 10
-8.654113129
 20
8.7005771022
 30
0.0
 10
-8.6301300302
 20
8.7003799765
 30
0.0
 10
-8.607581009
 20
8.6997606229
 30
0.0
 10
-8.5864909785
 20
8.6987100035
 30
0.0
 10
-8.5668825212
 20
8.6972118069
 30
0.0
 10
-8.548775992
 20
8.6952422654
 30
0.0
 10
-8.5321881657
 20
8.6927725069
 30
0.0
 10
-8.5171342489
 20
8.6897644681
 30
0.0
 10
-8.5056056405
 20
8.6867015349
 30
0.0
 10
-8.4971964882
 20
8.6839021117
 30
0.0
 10
-8.4914397093
 20
8.6816884373
 30
0.0
 10
-8.48607658
 20
8.6793006865
 30
0.0
 10
-8.4796022292
 20
8.6759523033
 30
0.0
 10
-8.4737224054
 20
8.6721535193
 30
0.0
 10
-8.4685861907
 20
8.6678456301
 30
0.0
 10
-8.4652084312
 20
8.6644594378
 30
0.0
 10
-8.4622314535
 20
8.6608456595
 30
0.0
 10
-8.4596563257
 20
8.6569952207
 30
0.0
 10
-8.4574839874
 20
8.6528995896
 30
0.0
 10
-8.4557141045
 20
8.6485507756
 30
0.0
 10
-8.4543452356
 20
8.6439400642
 30
0.0
 10
-8.4530225501
 20
8.6372848453
 30
0.0
 10
-8.4526816617
 20
8.6320848129
 30
0.0
 10
-8.4526816617
 20
8.6285526337
 30
0.0
  0
SPLINE
  5
24E
100
AcDbEntity
  8
0
100
AcDbSpline
 62
7
  6
CONTINUOUS
 70
0
 71
3
 72
37
 73
33
 74
0
 42
0.0000001
 43
0.0000001
 44
0.0000000001
 40
0.0
 40
0.0
 40
0.0
 40
0.0
 40
0.028773103
 40
0.0579840289
 40
0.087618435
 40
0.1176610518
 40
0.1480907947
 40
0.1788829381
 40
0.2100103653
 40
0.2414437608
 40
0.27315206
 40
0.3051030104
 40
0.3372633616
 40
0.3695991093
 40
0.4020757529
 40
0.4346583663
 40
0.5
 40
0.5653416337
 40
0.5979242471
 40
0.6304008908
 40
0.6627366384
 40
0.6948969896
 40
0.72684794
 40
0.7585562393
 40
0.7899896347
 40
0.8211170619
 40
0.8519092053
 40
0.8823389482
 40
0.912381565
 40
0.9420159711
 40
0.971226897
 40
1.0
 40
1.0
 40
1.0
 40
1.0
 10
-10.7026816617
 20
8.6285526337
 30
0.0
 10
-10.6886850473
 20
8.6323011057
 30
0.0
 10
-10.6603508474
 20
8.6393838607
 30
0.0
 10
-10.6172377573
 20
8.6487998324
 30
0.0
 10
-10.5732592286
 20
8.6571707304
 30
0.0
 10
-10.5284867533
 20
8.6645766009
 30
0.0
 10
-10.482987871
 20
8.671093166
 30
0.0
 10
-10.4368294534
 20
8.6767918453
 30
0.0
 10
-10.3900767367
 20
8.6817397672
 30
0.0
 10
-10.3427932534
 20
8.6859974365
 30
0.0
 10
-10.2950413417
 20
8.6896209534
 30
0.0
 10
-10.2468820732
 20
8.6926596861
 30
0.0
 10
-10.1983754568
 20
8.6951564301
 30
0.0
 10
-10.1495807109
 20
8.6971489986
 30
0.0
 10
-10.1005562135
 20
8.6986667986
 30
0.0
 10
-10.0349022071
 20
8.7000907531
 30
0.0
 10
-9.9526816617
 20
8.7007855766
 30
0.0
 10
-9.8704611163
 20
8.7000907531
 30
0.0
 10
-9.8048071099
 20
8.6986667986
 30
0.0
 10
-9.7557826125
 20
8.6971489986
 30
0.0
 10
-9.7069878666
 20
8.6951564301
 30
0.0
 10
-9.6584812502
 20
8.6926596861
 30
0.0
 10
-9.6103219817
 20
8.6896209534
 30
0.0
 10
-9.56257007
 20
8.6859974365
 30
0.0
 10
-9.5152865867
 20
8.6817397672
 30
0.0
 10
-9.46853387
 20
8.6767918453
 30
0.0
 10
-9.4223754525
 20
8.671093166
 30
0.0
 10
-9.3768765701
 20
8.6645766009
 30
0.0
 10
-9.3321040948
 20
8.6571707304
 30
0.0
 10
-9.2881255661
 20
8.6487998324
 30
0.0
 10
-9.245012476
 20
8.6393838607
 30
0.0
 10
-9.2166782761
 20
8.6323011057
 30
0.0
 10
-9.2026816617
 20
8.6285526337
 30
0.0
  0
SPLINE
  5
24F
100
AcDbEntity
  8
0
100
AcDbSpline
 62
7
  6
CONTINUOUS
 70
0
 71
3
 72
40
 73
36
 74
0
 42
0.0000001
 43
0.0000001
 44
0.0000000001
 40
0.0
 40
0.0
 40
0.0
 40
0.0
 40
0.0134175361
 40
0.0196891527
 40
0.0257471429
 40
0.0316589198
 40
0.037495206
 40
0.0433275795
 40
0.0492251072
 40
0.0552527537
 40
0.0614697527
 40
0.074662341
 40
0.0817290196
 40
0.08914975
 40
0.0969496628
 40
0.1051493677
 40
0.1228068649
 40
0.1422183467
 40
0.1634374393
 40
0.186491794
 40
0.2113904164
 40
0.2381298273
 40
0.2666971615
 40
0.2970726451
 40
0.3292315778
 40
0.3631448919
 40
0.3987804747
 40
0.4361034155
 40
0.4750762982
 40
0.5156598878
 40
0.6014892397
 40
0.6932394356
 40
0.7905262192
 40
0.892930854
 40
1.0
 40
1.0
 40
1.0
 40
1.0
 10
-11.4526816617
 20
8.6285526337
 30
0.0
 10
-11.4526816617
 20
8.6320848129
 30
0.0
 10
-11.4523407733
 20
8.6372848453
 30
0.0
 10
-11.4510180878
 20
8.6439400642
 30
0.0
 10
-11.4496492189
 20
8.6485507756
 30
0.0
 10
-11.4478793361
 20
8.6528995896
 30
0.0
 10
-11.4457069977
 20
8.6569952207
 30
0.0
 10
-11.4431318699
 20
8.6608456595
 30
0.0
 10
-11.4401548922
 20
8.6644594378
 30
0.0
 10
-11.4367771327
 20
8.6678456301
 30
0.0
 10
-11.431640918
 20
8.6721535193
 30
0.0
 10
-11.4257610943
 20
8.6759523033
 30
0.0
 10
-11.4192867434
 20
8.6793006866
 30
0.0
 10
-11.4139236141
 20
8.6816884373
 30
0.0
 10
-11.4081668353
 20
8.6839021117
 30
0.0
 10
-11.399757683
 20
8.6867015349
 30
0.0
 10
-11.3882290745
 20
8.6897644681
 30
0.0
 10
-11.3731751577
 20
8.6927725069
 30
0.0
 10
-11.3565873314
 20
8.6952422654
 30
0.0
 10
-11.3384808022
 20
8.6972118069
 30
0.0
 10
-11.3188723449
 20
8.6987100035
 30
0.0
 10
-11.2977823144
 20
8.6997606229
 30
0.0
 10
-11.2752332932
 20
8.7003799765
 30
0.0
 10
-11.2512501944
 20
8.7005771022
 30
0.0
 10
-11.2258601121
 20
8.7003560267
 30
0.0
 10
-11.1990922132
 20
8.6997118081
 30
0.0
 10
-11.170977829
 20
8.698634619
 30
0.0
 10
-11.1415505307
 20
8.6971071251
 30
0.0
 10
-11.1108461928
 20
8.6951048553
 30
0.0
 10
-11.0674406525
 20
8.691698275
 30
0.0
 10
-11.010281093
 20
8.6860331626
 30
0.0
 10
-10.9384996265
 20
8.6768259159
 30
0.0
 10
-10.8627390769
 20
8.6646188476
 30
0.0
 10
-10.7835169456
 20
8.6488613866
 30
0.0
 10
-10.7299082284
 20
8.6358442557
 30
0.0
 10
-10.7026816617
 20
8.6285526337
 30
0.0
  0
ENDSEC
  0
SECTION
  2
OBJECTS
  0
DICTIONARY
  5
C
100
AcDbDictionary
280
0
281
1
  3
ACAD_GROUP
350
D
  3
ACAD_MLINESTYLE
350
17
  3
ACAD_LAYOUT
350
1A
  3
ACAD_PLOTSETTINGS
350
19
  3
ACAD_PLOTSTYLENAME
350
E
  0
DICTIONARY
  5
D
102
{ACAD_REACTORS
330
C
102
}
100
AcDbDictionary
280
0
281
1
  0
ACDBDICTIONARYWDFLT
  5
E
102
{ACAD_REACTORS
330
C
102
}
100
AcDbDictionary
281
1
  3
Normal
350
F
100
AcDbDictionaryWithDefault
340
F
  0
DICTIONARY
  5
17
102
{ACAD_REACTORS
330
C
102
}
100
AcDbDictionary
280
0
281
1
  3
Standard
350
18
  0
DICTIONARY
  5
19
102
{ACAD_REACTORS
330
C
102
}
100
AcDbDictionary
281
1
  0
DICTIONARY
  5
1A
102
{ACAD_REACTORS
330
C
102
}
100
AcDbDictionary
281
1
  3
Model
350
250
  3
Layout1
350
251
  0
ACDBPLACEHOLDER
  5
F
102
{ACAD_REACTORS
330
E
102
}
  0
MLINESTYLE
  5
18
102
{ACAD_REACTORS
330
17
102
}
100
AcDbMlineStyle
  2
STANDARD
 70
0
  3

 62
256
 51
90.0
 52
90.0
 71
2
 49
0.5
 62
256
  6
BYLAYER
 49
-0.5
 62
256
  6
BYLAYER
  0
LAYOUT
  5
250
102
{ACAD_REACTORS
330
1A
102
}
100
AcDbPlotSettings
  1

  2
none_device
  4
ANSI_C_(22.00_x_17.00_Inches)
  6

 40
0.0
 41
0.0
 42
0.0
 43
0.0
 44
558.8
 45
431.8
 46
0.0
 47
0.0
 48
0.0
 49
0.0
140
0.0
141
0.0
142
1.0
143
1.0
 70
1024
 72
0
 73
0
 74
0
  7

 75
0
147
1.0
148
0.0
149
0.0
100
AcDbLayout
  1
Model
 70
0
 71
0
 10
0.0
 20
0.0
 11
22.0
 21
17.0
 12
0.0
 22
0.0
 32
0.0
 14
0.0
 24
0.0
 34
0.0
 15
0.0
 25
0.0
 35
0.0
146
0.0
 13
0.0
 23
0.0
 33
0.0
 16
1.0
 26
0.0
 36
0.0
 17
0.0
 27
1.0
 37
0.0
 76
0
330
205
345
0
346
0
  0
LAYOUT
  5
251
102
{ACAD_REACTORS
330
1A
102
}
100
AcDbPlotSettings
  1

  2
none_device
  4
ANSI_C_(22.00_x_17.00_Inches)
  6

 40
0.0
 41
0.0
 42
0.0
 43
0.0
 44
558.8
 45
431.8
 46
0.0
 47
0.0
 48
0.0
 49
0.0
140
0.0
141
0.0
142
1.0
143
1.0
 70
0
 72
0
 73
0
 74
0
  7

 75
0
147
1.0
148
0.0
149
0.0
100
AcDbLayout
  1
Layout1
 70
0
 71
1
 10
0.0
 20
0.0
 11
22.0
 21
17.0
 12
0.0
 22
0.0
 32
0.0
 14
0.0
 24
0.0
 34
0.0
 15
0.0
 25
0.0
 35
0.0
146
0.0
 13
0.0
 23
0.0
 33
0.0
 16
1.0
 26
0.0
 36
0.0
 17
0.0
 27
1.0
 37
0.0
 76
0
330
206
345
0
346
0
  0
ENDSEC
  0
EOF
