999
DXF file: E:\BT Custom\CADOUTPUT\_RIGHT.dxf
999
Pro/ENGINEER 2018400 by Parametric Technology Corporation
  0
SECTION
  2
HEADER
  9
$ACADVER
  1
AC1018
  9
$DWGCODEPAGE
  3
ANSI_1252
  9
$EXTMAX
 10
22.0
 20
17.0
 30
0.0
  9
$EXTMIN
 10
0.0
 20
0.0
 30
0.0
  9
$LIMMIN
 10
0.0
 20
0.0
  9
$LIMMAX
 10
22.0
 20
17.0
  9
$VIEWCTR
 10
11.0
 20
8.5
  9
$VIEWSIZE
 40
17.0
  9
$CLAYER
  8
0
  9
$LTSCALE
 40
1.21
  9
$CELTYPE
  6
BYLAYER
  9
$DIMSCALE
 40
1.0
  9
$DIMASZ
 40
0.1
  9
$DIMEXO
 40
0.0625
  9
$DIMDLI
 40
0.836
  9
$DIMEXE
 40
0.125
  9
$DIMCEN
 40
0.198
  9
$DIMLFAC
 40
1.0
  9
$DIMBLK
  1
_FILLED
  9
$DIMALT
 70
1
  9
$DIMALTD
 70
2
  9
$DIMALTTD
 70
2
  9
$DIMALTF
 40
25.4
  9
$DIMTXT
 40
0.08
  9
$DIMTOL
 70
1
  9
$DIMLIM
 70
0
  9
$DIMTFAC
 40
1.0
  9
$DIMTP
 40
0.001
  9
$DIMTM
 40
0.001
  9
$DIMGAP
 40
0.09
  9
$DIMDSEP
 70
46
  9
$AUNITS
 70
0
  9
$PDMODE
 70
3
  9
$PDSIZE
 40
0.06
  9
$HANDSEED
  5
3DD
  9
$TILEMODE
 70
1
  9
$MEASUREMENT
 70
0
  9
$INSUNITS
 70
1
  0
ENDSEC
  0
SECTION
  2
CLASSES
  0
CLASS
  1
ACDBDICTIONARYWDFLT
  2
AcDbDictionaryWithDefault
  3
AutoCAD 2000
 90
0
 91
1
280
0
281
0
  0
CLASS
  1
ACDBPLACEHOLDER
  2
AcDbPlaceHolder
  3
AutoCAD 2000
 90
0
 91
1
280
0
281
0
  0
CLASS
  1
LAYOUT
  2
AcDbLayout
  3
AutoCAD 2000
 90
0
 91
0
280
0
281
0
  0
ENDSEC
  0
SECTION
  2
TABLES
  0
TABLE
  2
VPORT
  5
8
100
AcDbSymbolTable
 70
2
  0
VPORT
  5
1F4
100
AcDbSymbolTableRecord
100
AcDbViewportTableRecord
  2
*ACTIVE
 70
0
 10
0.0
 20
0.0
 11
1.0
 21
1.0
 12
11.0
 22
8.5
 13
0.0
 23
0.0
 14
1.0
 24
1.0
 15
0.0
 25
0.0
 16
0.0
 26
0.0
 36
1.0
 17
0.0
 27
0.0
 37
0.0
 40
17.0
 41
1.2941176471
 42
50.0
 43
0.0
 44
0.0
 50
0.0
 51
0.0
 71
0
 72
100
 73
1
 74
1
 75
0
 76
0
 77
0
 78
0
  0
ENDTAB
  0
TABLE
  2
LTYPE
  5
5
100
AcDbSymbolTable
 70
6
  0
LTYPE
  5
14
100
AcDbSymbolTableRecord
100
AcDbLinetypeTableRecord
  2
BYBLOCK
 70
0
  3

 72
65
 73
0
 40
0.0
  0
LTYPE
  5
15
100
AcDbSymbolTableRecord
100
AcDbLinetypeTableRecord
  2
BYLAYER
 70
0
  3

 72
65
 73
0
 40
0.0
  0
LTYPE
  5
16
100
AcDbSymbolTableRecord
100
AcDbLinetypeTableRecord
  2
CONTINUOUS
 70
64
  3
Solid line
 72
65
 73
0
 40
0.0
  0
LTYPE
  5
1F5
100
AcDbSymbolTableRecord
100
AcDbLinetypeTableRecord
  2
CENTER
 70
64
  3
____ _ ____ _ ____ _ ____ _ ____ _ ____ _ ____
 72
65
 73
4
 40
0.6
 49
0.375
 74
0
 49
-0.075
 74
0
 49
0.075
 74
0
 49
-0.075
 74
0
  0
LTYPE
  5
1F6
100
AcDbSymbolTableRecord
100
AcDbLinetypeTableRecord
  2
HIDDEN
 70
64
  3
- - - - - - - - - - - - - - - - - - - -
 72
65
 73
2
 40
0.2
 49
0.1
 74
0
 49
-0.1
 74
0
  0
LTYPE
  5
1F7
100
AcDbSymbolTableRecord
100
AcDbLinetypeTableRecord
  2
PHANTOM
 70
64
  3
_____ _ _ _____ _ _ _____ _ _ _____
 72
65
 73
6
 40
0.8
 49
0.45
 74
0
 49
-0.05
 74
0
 49
0.1
 74
0
 49
-0.05
 74
0
 49
0.1
 74
0
 49
-0.05
 74
0
  0
LTYPE
  5
1F8
100
AcDbSymbolTableRecord
100
AcDbLinetypeTableRecord
  2
DOT
 70
64
  3
. . . . . . . . . . . . . . . . . . . .
 72
65
 73
2
 40
0.2
 49
0.1
 74
0
 49
-0.1
 74
0
  0
LTYPE
  5
1F9
100
AcDbSymbolTableRecord
100
AcDbLinetypeTableRecord
  2
DASHED
 70
64
  3
- - - - - - - - - - - - - - - - - - - -
 72
65
 73
2
 40
0.2
 49
0.1
 74
0
 49
-0.1
 74
0
  0
ENDTAB
  0
TABLE
  2
LAYER
  5
2
100
AcDbSymbolTable
 70
36
  0
LAYER
  5
10
100
AcDbSymbolTableRecord
100
AcDbLayerTableRecord
  2
0
 70
0
 62
7
  6
CONTINUOUS
370
-3
390
F
  0
LAYER
  5
1FA
100
AcDbSymbolTableRecord
100
AcDbLayerTableRecord
  2
DEFAULT_1
 70
0
 62
7
  6
CENTER
370
-3
390
F
  0
LAYER
  5
1FB
100
AcDbSymbolTableRecord
100
AcDbLayerTableRecord
  2
DEFAULT_2
 70
0
 62
8
  6
HIDDEN
370
-3
390
F
  0
LAYER
  5
1FC
100
AcDbSymbolTableRecord
100
AcDbLayerTableRecord
  2
DEFAULT_3
 70
0
 62
7
  6
PHANTOM
370
-3
390
F
  0
LAYER
  5
1FD
100
AcDbSymbolTableRecord
100
AcDbLayerTableRecord
  2
ALL_FEATURES
 70
0
 62
7
  6
CONTINUOUS
370
-3
390
F
  0
LAYER
  5
1FE
100
AcDbSymbolTableRecord
100
AcDbLayerTableRecord
  2
AXES_FEATURES
 70
0
 62
7
  6
CONTINUOUS
370
-3
390
F
  0
LAYER
  5
1FF
100
AcDbSymbolTableRecord
100
AcDbLayerTableRecord
  2
DIMENSIONS
 70
0
 62
7
  6
CONTINUOUS
370
-3
390
F
  0
ENDTAB
  0
TABLE
  2
STYLE
  5
3
100
AcDbSymbolTable
 70
1
  0
STYLE
  5
11
100
AcDbSymbolTableRecord
100
AcDbTextStyleTableRecord
  2
STANDARD
 70
0
 40
0.0
 41
0.8
 50
0.0
 71
0
 42
0.2
  3
txt
  4

  0
STYLE
  5
200
100
AcDbSymbolTableRecord
100
AcDbTextStyleTableRecord
  2
TEXTSTYLE_1
 70
0
 40
0.0
 41
0.8
 50
0.0
 71
0
 42
0.2
  3
gdt
  4

  0
ENDTAB
  0
TABLE
  2
VIEW
  5
6
100
AcDbSymbolTable
 70
0
  0
ENDTAB
  0
TABLE
  2
UCS
  5
7
100
AcDbSymbolTable
 70
0
  0
ENDTAB
  0
TABLE
  2
APPID
  5
9
100
AcDbSymbolTable
 70
1
  0
APPID
  5
201
100
AcDbSymbolTableRecord
100
AcDbRegAppTableRecord
  2
ACAD
 70
0
  0
ENDTAB
  0
TABLE
  2
BLOCK_RECORD
  5
1
100
AcDbSymbolTable
 70
0
  0
BLOCK_RECORD
  5
202
100
AcDbSymbolTableRecord
100
AcDbBlockTableRecord
  2
*Model_Space
  0
BLOCK_RECORD
  5
203
100
AcDbSymbolTableRecord
100
AcDbBlockTableRecord
  2
*Paper_Space
  0
BLOCK_RECORD
  5
204
100
AcDbSymbolTableRecord
100
AcDbBlockTableRecord
  2
_FILLED
  0
ENDTAB
  0
TABLE
  2
DIMSTYLE
  5
A
100
AcDbSymbolTable
 70
1
100
AcDbDimStyleTable
 71
0
  0
DIMSTYLE
105
205
100
AcDbSymbolTableRecord
100
AcDbDimStyleTableRecord
  2
STANDARD
 70
0
  3

  4

 40
1.0
 41
0.1
 42
0.0625
 43
0.38
 44
0.125
 45
0.0
 46
0.0
 47
0.001
 48
0.001
140
0.08
141
0.09
142
0.0
143
25.4
144
1.0
145
0.0
146
1.0
147
0.09
 71
1.0
 72
0.0
 73
1
 74
1
 75
0
 76
0
 77
0
 78
4
 79
1
170
1
171
2
172
0
173
0
174
0
175
0
176
0
177
0
178
0
270
2
179
3
271
3
272
3
273
2
274
2
275
0
280
0
281
0
282
0
283
1
284
4
285
0
286
0
287
3
288
0
340
11
278
46
341
204
342
204
343
204
344
204
  0
ENDTAB
  0
ENDSEC
  0
SECTION
  2
BLOCKS
  0
BLOCK
  5
20
100
AcDbEntity
  8
0
100
AcDbBlockBegin
  2
*Model_Space
 70
0
 10
0.0
 20
0.0
 30
0.0
  3
*Model_Space
  1

  0
ENDBLK
  5
21
100
AcDbEntity
  8
0
100
AcDbBlockEnd
  0
BLOCK
  5
1C
100
AcDbEntity
  8
0
100
AcDbBlockBegin
  2
*Paper_Space
 70
0
 10
0.0
 20
0.0
 30
0.0
  3
*Paper_Space
  1

  0
ENDBLK
  5
1D
100
AcDbEntity
  8
0
100
AcDbBlockEnd
  0
BLOCK
  5
206
100
AcDbEntity
  8
0
100
AcDbBlockBegin
  2
_FILLED
 70
64
 10
0.0
 20
0.0
  3
_FILLED
  1

  0
SOLID
  5
207
100
AcDbEntity
  8
0
  6
BYBLOCK
 62
0
100
AcDbTrace
 10
0.0
 20
0.0
 11
-1.0
 21
0.2
 12
-1.0
 22
-0.2
 13
-1.0
 23
-0.2
  0
ENDBLK
  5
208
100
AcDbEntity
  8
0
  6
BYBLOCK
 62
0
100
AcDbBlockEnd
  0
ENDSEC
  0
SECTION
  2
ENTITIES
  0
LINE
  5
209
100
AcDbEntity
  8
0
100
AcDbLine
 62
7
  6
CONTINUOUS
 10
13.4210662733
 20
1.0942249834
 11
16.1610662733
 21
1.0942249834
  0
LINE
  5
20A
100
AcDbEntity
  8
0
100
AcDbLine
 62
9
  6
CONTINUOUS
 10
16.1610662733
 20
1.3442249834
 11
13.4210662733
 21
1.3442249834
  0
LINE
  5
20B
100
AcDbEntity
  8
0
100
AcDbLine
 62
7
  6
CONTINUOUS
 10
16.1110662733
 20
1.3942249834
 11
13.4710800761
 21
1.3942249834
  0
LINE
  5
20C
100
AcDbEntity
  8
0
100
AcDbLine
 62
9
  6
CONTINUOUS
 10
16.0600662733
 20
1.4256595875
 11
13.5220662733
 21
1.4256595875
  0
LINE
  5
20D
100
AcDbEntity
  8
0
100
AcDbLine
 62
9
  6
CONTINUOUS
 10
16.0482144215
 20
1.4675622116
 11
13.5339181252
 21
1.4675622116
  0
LINE
  5
20E
100
AcDbEntity
  8
0
100
AcDbLine
 62
7
  6
CONTINUOUS
 10
6.1198999854
 20
12.9622972218
 11
6.1161159978
 21
12.9375852523
  0
LWPOLYLINE
  5
20F
100
AcDbEntity
  8
0
100
AcDbPolyline
 62
7
  6
CONTINUOUS
 90
4
 70
0
 10
5.5184324251
 20
10.7371006989
 10
5.4772336411
 20
10.6735047788
 10
5.4188867325
 20
10.62518031
 10
5.3781191374
 20
10.605538363
  0
LINE
  5
210
100
AcDbEntity
  8
0
100
AcDbLine
 62
7
  6
CONTINUOUS
 10
5.3564593477
 20
10.5913351229
 11
5.3468252773
 21
10.5783298225
  0
LINE
  5
211
100
AcDbEntity
  8
0
100
AcDbLine
 62
7
  6
CONTINUOUS
 10
5.930014289
 20
12.2876714331
 11
5.9300753915
 21
12.2090628982
  0
LINE
  5
212
100
AcDbEntity
  8
0
100
AcDbLine
 62
7
  6
CONTINUOUS
 10
5.7846509305
 20
10.2305674961
 11
5.7827287122
 21
10.2008886791
  0
LINE
  5
213
100
AcDbEntity
  8
0
100
AcDbLine
 62
7
  6
CONTINUOUS
 10
5.8080757871
 20
10.197007445
 11
5.8099980052
 21
10.2266862589
  0
LINE
  5
214
100
AcDbEntity
  8
0
100
AcDbLine
 62
7
  6
CONTINUOUS
 10
5.8810597801
 20
10.1858318678
 11
5.8829819982
 21
10.2155106817
  0
LINE
  5
215
100
AcDbEntity
  8
0
100
AcDbLine
 62
7
  6
CONTINUOUS
 10
5.9928777446
 20
10.1687098901
 11
5.9947999627
 21
10.198388704
  0
LINE
  5
216
100
AcDbEntity
  8
0
100
AcDbLine
 62
7
  6
CONTINUOUS
 10
6.1300427838
 20
10.1477066752
 11
6.1319650019
 21
10.1773854891
  0
LINE
  5
217
100
AcDbEntity
  8
0
100
AcDbLine
 62
7
  6
CONTINUOUS
 10
6.2760107697
 20
10.1253555208
 11
6.2780406814
 21
10.1566971106
  0
LINE
  5
218
100
AcDbEntity
  8
0
100
AcDbLine
 62
9
  6
CONTINUOUS
 10
6.3290002545
 20
10.6148475314
 11
6.3010353805
 21
10.4322178772
  0
LINE
  5
219
100
AcDbEntity
  8
0
100
AcDbLine
 62
7
  6
CONTINUOUS
 10
5.9841074521
 20
10.1700528295
 11
5.9911541394
 21
10.1989469659
  0
LINE
  5
21A
100
AcDbEntity
  8
0
100
AcDbLine
 62
7
  6
CONTINUOUS
 10
6.0959254166
 20
10.1529308519
 11
6.1029721039
 21
10.1818249882
  0
LINE
  5
21B
100
AcDbEntity
  8
0
100
AcDbLine
 62
7
  6
CONTINUOUS
 10
6.2330904558
 20
10.131927637
 11
6.2405319386
 21
10.1624405871
  0
LINE
  5
21C
100
AcDbEntity
  8
0
100
AcDbLine
 62
7
  6
CONTINUOUS
 10
6.3790584418
 20
10.1095764825
 11
6.386105129
 21
10.1384706188
  0
LINE
  5
21D
100
AcDbEntity
  8
0
100
AcDbLine
 62
7
  6
CONTINUOUS
 10
6.4131758089
 20
10.1043523059
 11
6.4150980271
 21
10.1340311197
  0
LINE
  5
21E
100
AcDbEntity
  8
0
100
AcDbLine
 62
7
  6
CONTINUOUS
 10
6.5249937734
 20
10.0872303282
 11
6.5269159916
 21
10.1169091421
  0
LINE
  5
21F
100
AcDbEntity
  8
0
100
AcDbLine
 62
7
  6
CONTINUOUS
 10
7.2271661477
 20
12.76745717
 11
7.2309501353
 21
12.7921691396
  0
LINE
  5
220
100
AcDbEntity
  8
0
100
AcDbLine
 62
7
  6
CONTINUOUS
 10
6.516223481
 20
10.0885732676
 11
6.5232701683
 21
10.1174674039
  0
LINE
  5
221
100
AcDbEntity
  8
0
100
AcDbLine
 62
7
  6
CONTINUOUS
 10
6.6280414455
 20
10.0714512899
 11
6.6350881327
 21
10.1003454262
  0
LINE
  5
222
100
AcDbEntity
  8
0
100
AcDbLine
 62
7
  6
CONTINUOUS
 10
6.7010254384
 20
10.0602757127
 11
6.7080721257
 21
10.089169849
  0
LINE
  5
223
100
AcDbEntity
  8
0
100
AcDbLine
 62
7
  6
CONTINUOUS
 10
6.7334192005
 20
10.0852886118
 11
6.7263725124
 21
10.0563944724
  0
LINE
  5
224
100
AcDbEntity
  8
0
100
AcDbLine
 62
7
  6
CONTINUOUS
 10
14.6452474328
 20
4.8116360839
 11
14.936884632
 21
4.8116359304
  0
LINE
  5
225
100
AcDbEntity
  8
0
100
AcDbLine
 62
9
  6
CONTINUOUS
 10
15.0642327966
 20
5.0845777423
 11
14.5178993272
 21
5.0845780299
  0
LINE
  5
226
100
AcDbEntity
  8
0
100
AcDbLine
 62
9
  6
CONTINUOUS
 10
15.1064636258
 20
5.23483178
 11
14.4756686562
 21
5.2348321121
  0
LWPOLYLINE
  5
227
100
AcDbEntity
  8
0
100
AcDbPolyline
 62
7
  6
CONTINUOUS
 90
3
 70
0
 10
5.3783217756
 20
10.6056142534
 10
5.3749117226
 20
10.604212749
 10
5.3564593477
 20
10.5913351229
  0
LINE
  5
228
100
AcDbEntity
  8
0
100
AcDbLine
 62
7
  6
CONTINUOUS
 10
15.089285456
 20
5.2650655242
 11
15.0639308096
 21
5.2650652174
  0
LINE
  5
229
100
AcDbEntity
  8
0
100
AcDbLine
 62
7
  6
CONTINUOUS
 10
14.4928521137
 20
5.2650658382
 11
14.5182015053
 21
5.265066145
  0
LINE
  5
22A
100
AcDbEntity
  8
0
100
AcDbLine
 62
7
  6
CONTINUOUS
 10
15.0319407815
 20
5.2650650837
 11
14.8239393277
 21
5.2650648712
  0
LINE
  5
22B
100
AcDbEntity
  8
0
100
AcDbLine
 62
7
  6
CONTINUOUS
 10
14.7592629188
 20
5.2650649041
 11
14.5510746692
 21
5.2650653349
  0
LINE
  5
22C
100
AcDbEntity
  8
0
100
AcDbLine
 62
9
  6
CONTINUOUS
 10
15.0440483286
 20
5.2883705388
 11
15.0455588672
 21
5.2883707284
  0
LINE
  5
22D
100
AcDbEntity
  8
0
100
AcDbLine
 62
9
  6
CONTINUOUS
 10
14.8146268557
 20
5.2883702337
 11
15.0204879251
 21
5.2883704423
  0
LINE
  5
22E
100
AcDbEntity
  8
0
100
AcDbLine
 62
9
  6
CONTINUOUS
 10
14.5616446972
 20
5.2883706827
 11
14.7675059815
 21
5.2883702588
  0
LINE
  5
22F
100
AcDbEntity
  8
0
100
AcDbLine
 62
9
  6
CONTINUOUS
 10
14.5365734712
 20
5.2883709964
 11
14.5380842229
 21
5.2883708046
  0
LINE
  5
230
100
AcDbEntity
  8
0
100
AcDbLine
 62
7
  6
CONTINUOUS
 10
15.0637060103
 20
5.2650658837
 11
15.0601950276
 21
5.2653836714
  0
LWPOLYLINE
  5
231
100
AcDbEntity
  8
0
100
AcDbPolyline
 62
7
  6
CONTINUOUS
 90
3
 70
0
 10
5.8852649422
 20
12.4099260345
 10
5.9087041813
 20
12.3655391324
 10
5.930014289
 20
12.2876714331
  0
LWPOLYLINE
  5
232
100
AcDbEntity
  8
0
100
AcDbPolyline
 62
7
  6
CONTINUOUS
 90
4
 70
0
 10
7.2552453239
 20
10.2861055312
 10
7.2499442739
 20
10.3013977522
 10
7.2361907647
 20
10.3192068616
 10
7.2333563323
 20
10.3215645445
  0
LINE
  5
233
100
AcDbEntity
  8
0
100
AcDbLine
 62
7
  6
CONTINUOUS
 10
7.1592915446
 20
10.4159418405
 11
7.1390103307
 21
10.4889518537
  0
LWPOLYLINE
  5
234
100
AcDbEntity
  8
0
100
AcDbPolyline
 62
7
  6
CONTINUOUS
 90
3
 70
0
 10
15.0652321577
 20
5.265065565
 10
15.0541120667
 20
5.2684766424
 10
15.0467845313
 20
5.2774645809
  0
LWPOLYLINE
  5
235
100
AcDbEntity
  8
0
100
AcDbPolyline
 62
7
  6
CONTINUOUS
 90
5
 70
0
 10
14.545882039
 20
5.0434064468
 10
14.5580260758
 20
5.0376669899
 10
14.5908693548
 20
5.012035844
 10
14.6134745335
 20
4.9770138177
 10
14.6215693672
 20
4.9437101159
  0
LINE
  5
236
100
AcDbEntity
  8
0
100
AcDbLine
 62
9
  6
CONTINUOUS
 10
14.4623626369
 20
7.6015626579
 11
14.4783737358
 21
7.6015626604
  0
LINE
  5
237
100
AcDbEntity
  8
0
100
AcDbLine
 62
9
  6
CONTINUOUS
 10
15.2251399088
 20
7.6015633389
 11
15.6899900208
 21
7.60156336
  0
LINE
  5
238
100
AcDbEntity
  8
0
100
AcDbLine
 62
9
  6
CONTINUOUS
 10
15.1037746348
 20
7.6015621766
 11
15.1197633618
 21
7.6015621485
  0
LINE
  5
239
100
AcDbEntity
  8
0
100
AcDbLine
 62
7
  6
CONTINUOUS
 10
13.8981007117
 20
7.6572331807
 11
14.487673012
 21
7.6572331807
  0
LINE
  5
23A
100
AcDbEntity
  8
0
100
AcDbLine
 62
7
  6
CONTINUOUS
 10
15.0944489612
 20
7.6572331807
 11
15.6839601274
 21
7.6572331807
  0
LINE
  5
23B
100
AcDbEntity
  8
0
100
AcDbLine
 62
9
  6
CONTINUOUS
 10
15.5636675692
 20
7.7622331807
 11
15.0749764991
 21
7.7622331807
  0
LINE
  5
23C
100
AcDbEntity
  8
0
100
AcDbLine
 62
9
  6
CONTINUOUS
 10
14.5071475106
 20
7.7622331807
 11
14.0184649775
 21
7.7622331807
  0
LINE
  5
23D
100
AcDbEntity
  8
0
100
AcDbLine
 62
9
  6
CONTINUOUS
 10
14.043805435
 20
7.7800174615
 11
14.5104459864
 21
7.7800174615
  0
LINE
  5
23E
100
AcDbEntity
  8
0
100
AcDbLine
 62
9
  6
CONTINUOUS
 10
15.0716783683
 20
7.7800174615
 11
15.5383271117
 21
7.7800174615
  0
LINE
  5
23F
100
AcDbEntity
  8
0
100
AcDbLine
 62
9
  6
CONTINUOUS
 10
13.8920709035
 20
7.6016260139
 11
14.35699164
 21
7.6015677418
  0
LWPOLYLINE
  5
240
100
AcDbEntity
  8
0
100
AcDbPolyline
 62
7
  6
CONTINUOUS
 90
3
 70
0
 10
7.2335269771
 20
10.3214314957
 10
7.200504854
 20
10.3523723569
 10
7.1592915446
 20
10.4159418405
  0
LINE
  5
241
100
AcDbEntity
  8
0
100
AcDbLine
 62
9
  6
CONTINUOUS
 10
14.0918560625
 20
7.8400451311
 11
14.5215794032
 21
7.8400451311
  0
LINE
  5
242
100
AcDbEntity
  8
0
100
AcDbLine
 62
9
  6
CONTINUOUS
 10
15.0605461157
 20
7.8400451311
 11
15.4902764841
 21
7.8400451311
  0
LINE
  5
243
100
AcDbEntity
  8
0
100
AcDbLine
 62
9
  6
CONTINUOUS
 10
14.6413860177
 20
8.3552255959
 11
14.7673661859
 21
8.3552254883
  0
LINE
  5
244
100
AcDbEntity
  8
0
100
AcDbLine
 62
9
  6
CONTINUOUS
 10
14.8147697073
 20
8.3552252772
 11
14.9407514872
 21
8.3552249516
  0
LINE
  5
245
100
AcDbEntity
  8
0
100
AcDbLine
 62
7
  6
CONTINUOUS
 10
14.9162577297
 20
8.3942342083
 11
14.6664548773
 21
8.3942341471
  0
LINE
  5
246
100
AcDbEntity
  8
0
100
AcDbLine
 62
9
  6
CONTINUOUS
 10
14.231446384
 20
9.1681165077
 11
15.3506861627
 21
9.1681165077
  0
LINE
  5
247
100
AcDbEntity
  8
0
100
AcDbLine
 62
9
  6
CONTINUOUS
 10
14.1959678843
 20
9.2376376083
 11
15.3861646624
 21
9.2376376083
  0
LINE
  5
248
100
AcDbEntity
  8
0
100
AcDbLine
 62
9
  6
CONTINUOUS
 10
15.423127173
 20
9.2884831807
 11
14.1590053737
 21
9.2884831807
  0
LINE
  5
249
100
AcDbEntity
  8
0
100
AcDbLine
 62
7
  6
CONTINUOUS
 10
15.3767345927
 20
9.3572331807
 11
14.205397954
 21
9.3572331807
  0
LINE
  5
24A
100
AcDbEntity
  8
0
100
AcDbLine
 62
7
  6
CONTINUOUS
 10
14.2210662733
 20
9.3772331807
 11
15.3610662733
 21
9.3772331807
  0
LINE
  5
24B
100
AcDbEntity
  8
0
100
AcDbLine
 62
7
  6
CONTINUOUS
 10
6.5026197672
 20
10.0797490279
 11
6.4235157199
 21
10.0918617303
  0
LINE
  5
24C
100
AcDbEntity
  8
0
100
AcDbLine
 62
7
  6
CONTINUOUS
 10
6.3651899517
 20
10.1007927863
 11
6.2866154569
 21
10.1128244017
  0
LINE
  5
24D
100
AcDbEntity
  8
0
100
AcDbLine
 62
7
  6
CONTINUOUS
 10
5.7925331957
 20
10.1884800934
 11
5.970693225
 21
10.1611995749
  0
LINE
  5
24E
100
AcDbEntity
  8
0
100
AcDbLine
 62
7
  6
CONTINUOUS
 10
6.0033219381
 20
10.1562033465
 11
6.0826482706
 21
10.1440566069
  0
LINE
  5
24F
100
AcDbEntity
  8
0
100
AcDbLine
 62
7
  6
CONTINUOUS
 10
6.1400436331
 20
10.1352680181
 11
6.2198258037
 21
10.1230514789
  0
LINE
  5
250
100
AcDbEntity
  8
0
100
AcDbLine
 62
7
  6
CONTINUOUS
 10
6.5350027177
 20
10.0747904315
 11
6.7133042271
 21
10.0474882491
  0
LINE
  5
251
100
AcDbEntity
  8
0
100
AcDbLine
 62
9
  6
CONTINUOUS
 10
5.7827287122
 20
10.2008886791
 11
5.9841074514
 21
10.1700528265
  0
LINE
  5
252
100
AcDbEntity
  8
0
100
AcDbLine
 62
9
  6
CONTINUOUS
 10
5.9928777444
 20
10.168709887
 11
6.0959254159
 21
10.1529308488
  0
LINE
  5
253
100
AcDbEntity
  8
0
100
AcDbLine
 62
9
  6
CONTINUOUS
 10
6.1300427836
 20
10.147706672
 11
6.2330904551
 21
10.1319276339
  0
LINE
  5
254
100
AcDbEntity
  8
0
100
AcDbLine
 62
9
  6
CONTINUOUS
 10
6.2760107695
 20
10.1253555176
 11
6.3789395177
 21
10.1095946894
  0
LINE
  5
255
100
AcDbEntity
  8
0
100
AcDbLine
 62
9
  6
CONTINUOUS
 10
6.4131758087
 20
10.1043523027
 11
6.5162234802
 21
10.0885732645
  0
LINE
  5
256
100
AcDbEntity
  8
0
100
AcDbLine
 62
9
  6
CONTINUOUS
 10
6.5249937732
 20
10.087230325
 11
6.7263266223
 21
10.0564014992
  0
LINE
  5
257
100
AcDbEntity
  8
0
100
AcDbLine
 62
7
  6
CONTINUOUS
 10
5.5245644454
 20
10.2703928946
 11
6.9935056855
 21
10.0454632133
  0
LINE
  5
258
100
AcDbEntity
  8
0
100
AcDbLine
 62
7
  6
CONTINUOUS
 10
7.2562359575
 20
10.1365555766
 11
5.3011300042
 21
10.4359285855
  0
LINE
  5
259
100
AcDbEntity
  8
0
100
AcDbLine
 62
9
  6
CONTINUOUS
 10
5.2726232483
 20
10.5194295109
 11
7.3084226428
 21
10.2077004257
  0
LINE
  5
25A
100
AcDbEntity
  8
0
100
AcDbLine
 62
9
  6
CONTINUOUS
 10
5.3248282638
 20
10.5574661436
 11
7.2699913814
 21
10.2596156183
  0
LINE
  5
25B
100
AcDbEntity
  8
0
100
AcDbLine
 62
7
  6
CONTINUOUS
 10
14.9386451303
 20
8.3889419941
 11
14.9162573456
 21
8.3942342083
  0
LWPOLYLINE
  5
25C
100
AcDbEntity
  8
0
100
AcDbPolyline
 62
7
  6
CONTINUOUS
 90
4
 70
0
 10
7.2669190789
 20
12.3058628817
 10
7.2507356287
 20
12.3143009188
 10
7.236958563
 20
12.3310649079
 10
7.2319245841
 20
12.3476089303
  0
LINE
  5
25D
100
AcDbEntity
  8
0
100
AcDbLine
 62
7
  6
CONTINUOUS
 10
15.5383271117
 20
7.7800174615
 11
15.5636675692
 21
7.7622331807
  0
LINE
  5
25E
100
AcDbEntity
  8
0
100
AcDbLine
 62
9
  6
CONTINUOUS
 10
14.5929138592
 20
4.7626516426
 11
14.5739666456
 21
4.7978796429
  0
LWPOLYLINE
  5
25F
100
AcDbEntity
  8
0
100
AcDbPolyline
 62
7
  6
CONTINUOUS
 90
3
 70
0
 10
7.3162230261
 20
12.2934692628
 10
7.2883228873
 20
12.2998255167
 10
7.2668802927
 20
12.3058747635
  0
LINE
  5
260
100
AcDbEntity
  8
0
100
AcDbLine
 62
9
  6
CONTINUOUS
 10
14.617243906
 20
8.3558423972
 11
14.6177146959
 21
8.3553603444
  0
LINE
  5
261
100
AcDbEntity
  8
0
100
AcDbLine
 62
7
  6
CONTINUOUS
 10
13.4210662733
 20
1.0942249834
 11
13.4210662733
 21
1.3442249834
  0
LINE
  5
262
100
AcDbEntity
  8
0
100
AcDbLine
 62
7
  6
CONTINUOUS
 10
13.5220662733
 20
1.4256595875
 11
13.5220662733
 21
1.3942249834
  0
LINE
  5
263
100
AcDbEntity
  8
0
100
AcDbLine
 62
7
  6
CONTINUOUS
 10
14.043805435
 20
7.7800174615
 11
14.0184649775
 21
7.7622331807
  0
LINE
  5
264
100
AcDbEntity
  8
0
100
AcDbLine
 62
9
  6
CONTINUOUS
 10
15.3609659076
 20
12.2772331807
 11
14.2211666391
 21
12.2772331807
  0
LINE
  5
265
100
AcDbEntity
  8
0
100
AcDbLine
 62
9
  6
CONTINUOUS
 10
5.882101186
 20
12.4356912897
 11
7.185196495
 21
12.2361565469
  0
LINE
  5
266
100
AcDbEntity
  8
0
100
AcDbLine
 62
9
  6
CONTINUOUS
 10
5.9528328578
 20
12.505315945
 11
7.1970272706
 21
12.3148003239
  0
LINE
  5
267
100
AcDbEntity
  8
0
100
AcDbLine
 62
9
  6
CONTINUOUS
 10
5.982950532
 20
12.5318744497
 11
7.1784514435
 21
12.3488149565
  0
LINE
  5
268
100
AcDbEntity
  8
0
100
AcDbLine
 62
7
  6
CONTINUOUS
 10
6.0536941374
 20
12.8547534045
 11
7.2619419932
 21
12.6697420523
  0
LINE
  5
269
100
AcDbEntity
  8
0
100
AcDbLine
 62
9
  6
CONTINUOUS
 10
7.3265700795
 20
12.7078788718
 11
6.0034390019
 21
12.9104815651
  0
LINE
  5
26A
100
AcDbEntity
  8
0
100
AcDbLine
 62
7
  6
CONTINUOUS
 10
7.3068597488
 20
12.7552541929
 11
6.0364223967
 21
12.9497882294
  0
LINE
  5
26B
100
AcDbEntity
  8
0
100
AcDbLine
 62
7
  6
CONTINUOUS
 10
6.1119921551
 20
12.9635080978
 11
7.2388579656
 21
12.7909582635
  0
LINE
  5
26C
100
AcDbEntity
  8
0
100
AcDbLine
 62
7
  6
CONTINUOUS
 10
14.6227832682
 20
4.944005168
 11
14.6263551049
 21
4.8929251
  0
LINE
  5
26D
100
AcDbEntity
  8
0
100
AcDbLine
 62
9
  6
CONTINUOUS
 10
14.663271715
 20
4.9356280597
 11
14.6662574709
 21
4.892928287
  0
LINE
  5
26E
100
AcDbEntity
  8
0
100
AcDbLine
 62
7
  6
CONTINUOUS
 10
14.2211666391
 20
12.2772331807
 11
14.2211666391
 21
9.3772331807
  0
LINE
  5
26F
100
AcDbEntity
  8
0
100
AcDbLine
 62
7
  6
CONTINUOUS
 10
14.4535662733
 20
4.0617331807
 11
14.4535662733
 21
4.0890912259
  0
LINE
  5
270
100
AcDbEntity
  8
0
100
AcDbLine
 62
9
  6
CONTINUOUS
 10
14.4623662094
 20
7.6572328183
 11
14.4623618753
 21
7.6015624079
  0
LINE
  5
271
100
AcDbEntity
  8
0
100
AcDbLine
 62
9
  6
CONTINUOUS
 10
14.964451472
 20
8.3552230012
 11
14.9648889047
 21
8.3558508412
  0
LWPOLYLINE
  5
272
100
AcDbEntity
  8
0
100
AcDbPolyline
 62
7
  6
CONTINUOUS
 90
3
 70
0
 10
14.9648891304
 20
8.3558509141
 10
14.9562810758
 20
8.3742025171
 10
14.9386451303
 20
8.3889419941
  0
LINE
  5
273
100
AcDbEntity
  8
0
100
AcDbLine
 62
7
  6
CONTINUOUS
 10
15.0467845313
 20
5.2774645809
 11
15.0455588672
 21
5.2883707284
  0
LINE
  5
274
100
AcDbEntity
  8
0
100
AcDbLine
 62
9
  6
CONTINUOUS
 10
14.7910664267
 20
5.264842215
 11
14.7910664241
 21
5.2883635428
  0
LINE
  5
275
100
AcDbEntity
  8
0
100
AcDbLine
 62
9
  6
CONTINUOUS
 10
14.7910662733
 20
3.7242331807
 11
14.7910662733
 21
3.7027068945
  0
LINE
  5
276
100
AcDbEntity
  8
0
100
AcDbLine
 62
9
  6
CONTINUOUS
 10
14.7910661003
 20
4.9268447269
 11
14.7910662509
 21
5.0408750099
  0
LINE
  5
277
100
AcDbEntity
  8
0
100
AcDbLine
 62
9
  6
CONTINUOUS
 10
15.1197585346
 20
7.6572328183
 11
15.1197633803
 21
7.6015630061
  0
LINE
  5
278
100
AcDbEntity
  8
0
100
AcDbLine
 62
7
  6
CONTINUOUS
 10
15.1285662733
 20
4.0870789289
 11
15.1285662733
 21
4.0617331807
  0
LINE
  5
279
100
AcDbEntity
  8
0
100
AcDbLine
 62
9
  6
CONTINUOUS
 10
14.9158748599
 20
4.8929305883
 11
14.9188604959
 21
4.9356279251
  0
LINE
  5
27A
100
AcDbEntity
  8
0
100
AcDbLine
 62
7
  6
CONTINUOUS
 10
14.9557769833
 20
4.8929249128
 11
14.9593488814
 21
4.9440049938
  0
LINE
  5
27B
100
AcDbEntity
  8
0
100
AcDbLine
 62
7
  6
CONTINUOUS
 10
14.5365734712
 20
5.2883709964
 11
14.5353479362
 21
5.2774651924
  0
LINE
  5
27C
100
AcDbEntity
  8
0
100
AcDbLine
 62
7
  6
CONTINUOUS
 10
13.8543027795
 20
2.8641595463
 11
13.6722605062
 21
1.5760576229
  0
LINE
  5
27D
100
AcDbEntity
  8
0
100
AcDbLine
 62
7
  6
CONTINUOUS
 10
13.6711871284
 20
1.5698460899
 11
13.6722605062
 21
1.5760576229
  0
LWPOLYLINE
  5
27E
100
AcDbEntity
  8
0
100
AcDbPolyline
 62
7
  6
CONTINUOUS
 90
5
 70
0
 10
14.6172466144
 20
8.3558508193
 10
14.4791425063
 20
7.6112395398
 10
14.4167899736
 20
6.8263786256
 10
14.4379109973
 20
6.0386350806
 10
14.5365758593
 20
5.2883716411
  0
LINE
  5
27F
100
AcDbEntity
  8
0
100
AcDbLine
 62
7
  6
CONTINUOUS
 10
15.3609659076
 20
12.2772331807
 11
15.3609659076
 21
9.3772331807
  0
LWPOLYLINE
  5
280
100
AcDbEntity
  8
0
100
AcDbPolyline
 62
7
  6
CONTINUOUS
 90
5
 70
0
 10
15.0455564791
 20
5.2883713731
 10
15.1442012505
 20
6.0383737974
 10
15.1653531371
 20
6.8260292671
 10
15.1030269486
 20
7.6109786976
 10
14.9648889047
 20
8.3558508412
  0
LWPOLYLINE
  5
281
100
AcDbEntity
  8
0
100
AcDbPolyline
 62
7
  6
CONTINUOUS
 90
5
 70
0
 10
14.9605626184
 20
4.9437099803
 10
14.9686574729
 20
4.9770136211
 10
14.9912626816
 20
5.0120356212
 10
15.0241059873
 20
5.0376667385
 10
15.0362500415
 20
5.0434061886
  0
LWPOLYLINE
  5
282
100
AcDbEntity
  8
0
100
AcDbPolyline
 62
7
  6
CONTINUOUS
 90
4
 70
0
 10
14.5303629297
 20
5.2690653287
 10
14.5261445179
 20
5.2666377921
 10
14.5218787936
 20
5.2653728
 10
14.5184337146
 20
5.2650655287
  0
LINE
  5
283
100
AcDbEntity
  8
0
100
AcDbLine
 62
7
  6
CONTINUOUS
 10
14.5280206708
 20
5.2684772023
 11
14.5169006939
 21
5.2650658551
  0
LINE
  5
284
100
AcDbEntity
  8
0
100
AcDbLine
 62
7
  6
CONTINUOUS
 10
16.0600662733
 20
1.4256595875
 11
16.0600662733
 21
1.3942249834
  0
LINE
  5
285
100
AcDbEntity
  8
0
100
AcDbLine
 62
7
  6
CONTINUOUS
 10
16.1610662733
 20
1.0942249834
 11
16.1610662733
 21
1.3442249834
  0
LINE
  5
286
100
AcDbEntity
  8
0
100
AcDbLine
 62
7
  6
CONTINUOUS
 10
13.6780429522
 20
1.6093806781
 11
13.6682459865
 21
1.5811841103
  0
LINE
  5
287
100
AcDbEntity
  8
0
100
AcDbLine
 62
9
  6
CONTINUOUS
 10
14.9892181541
 20
4.762651434
 11
15.0081653331
 21
4.7978794143
  0
LINE
  5
288
100
AcDbEntity
  8
0
100
AcDbLine
 62
7
  6
CONTINUOUS
 10
14.5353479362
 20
5.2774651924
 11
14.5280206708
 21
5.2684772023
  0
LWPOLYLINE
  5
289
100
AcDbEntity
  8
0
100
AcDbPolyline
 62
7
  6
CONTINUOUS
 90
4
 70
0
 10
13.6682459865
 20
1.5811841103
 10
13.6487237731
 20
1.5553365564
 10
13.6208016352
 20
1.5365528983
 10
13.6147318694
 20
1.534055834
  0
ARC
  5
28A
100
AcDbEntity
  8
0
100
AcDbCircle
 62
9
  6
CONTINUOUS
 10
-36.6792529792
 20
5.2024011639
 40
51.0926067765
100
AcDbArc
 50
0.1870581386
 51
2.6914707592
  0
ARC
  5
28B
100
AcDbEntity
  8
0
100
AcDbCircle
 62
9
  6
CONTINUOUS
 10
-35.9936061976
 20
5.2252851384
 40
50.5121178992
100
AcDbArc
 50
2.5444357123
 51
2.6964125947
  0
ARC
  5
28C
100
AcDbEntity
  8
0
100
AcDbCircle
 62
9
  6
CONTINUOUS
 10
-35.6720347224
 20
5.1596200207
 40
50.1895809427
100
AcDbArc
 50
355.8984593897
 51
357.9852364211
  0
ARC
  5
28D
100
AcDbEntity
  8
0
100
AcDbCircle
 62
9
  6
CONTINUOUS
 10
-35.7324861306
 20
5.1593654196
 40
50.1451158107
100
AcDbArc
 50
355.8951393307
 51
358.0224413858
  0
ARC
  5
28E
100
AcDbEntity
  8
0
100
AcDbCircle
 62
9
  6
CONTINUOUS
 10
-16.7204606236
 20
6.9823092918
 40
24.0671758041
100
AcDbArc
 50
12.3207105913
 51
12.7162420093
  0
ARC
  5
28F
100
AcDbEntity
  8
0
100
AcDbCircle
 62
7
  6
CONTINUOUS
 10
13.6710662733
 20
1.3832331807
 40
0.161
100
AcDbArc
 50
110.4813942043
 51
148.4136619034
  0
ARC
  5
290
100
AcDbEntity
  8
0
100
AcDbCircle
 62
7
  6
CONTINUOUS
 10
13.5774775775
 20
1.6287705103
 40
0.1024325033
100
AcDbArc
 50
330.6284037676
 51
345.7333561341
  0
ARC
  5
291
100
AcDbEntity
  8
0
100
AcDbCircle
 62
7
  6
CONTINUOUS
 10
13.5781310461
 20
1.6283103282
 40
0.101637359
100
AcDbArc
 50
328.4998257717
 51
330.6737956967
  0
ARC
  5
292
100
AcDbEntity
  8
0
100
AcDbCircle
 62
7
  6
CONTINUOUS
 10
13.5839210063
 20
1.6270726218
 40
0.0957693925
100
AcDbArc
 50
345.7678398592
 51
349.3544258246
  0
ARC
  5
293
100
AcDbEntity
  8
0
100
AcDbCircle
 62
7
  6
CONTINUOUS
 10
13.6020662733
 20
1.4256595875
 40
0.08
100
AcDbArc
 50
148.4136619035
 51
180.0
  0
ARC
  5
294
100
AcDbEntity
  8
0
100
AcDbCircle
 62
7
  6
CONTINUOUS
 10
13.4710662733
 20
1.3442249834
 40
0.05
100
AcDbArc
 50
90.0
 51
180.0
  0
ARC
  5
295
100
AcDbEntity
  8
0
100
AcDbCircle
 62
7
  6
CONTINUOUS
 10
14.7910662733
 20
4.3942331807
 40
1.05
100
AcDbArc
 50
104.9581563224
 51
75.0417316481
  0
ARC
  5
296
100
AcDbEntity
  8
0
100
AcDbCircle
 62
9
  6
CONTINUOUS
 10
14.7910662733
 20
4.3942331807
 40
1.0173333333
100
AcDbArc
 50
105.1988601566
 51
74.7994465403
  0
ARC
  5
297
100
AcDbEntity
  8
0
100
AcDbCircle
 62
7
  6
CONTINUOUS
 10
14.7910662733
 20
4.3942331807
 40
0.98
100
AcDbArc
 50
105.4939023869
 51
74.5032683455
  0
ARC
  5
298
100
AcDbEntity
  8
0
100
AcDbCircle
 62
9
  6
CONTINUOUS
 10
14.7910662733
 20
4.3942331807
 40
0.9699285456
100
AcDbArc
 50
105.5810400688
 51
74.4217451171
  0
ARC
  5
299
100
AcDbEntity
  8
0
100
AcDbCircle
 62
9
  6
CONTINUOUS
 10
14.7910662733
 20
4.3942331807
 40
0.7311699667
100
AcDbArc
 50
111.6031372591
 51
68.396885788
  0
ARC
  5
29A
100
AcDbEntity
  8
0
100
AcDbCircle
 62
9
  6
CONTINUOUS
 10
14.7910662733
 20
4.3942331807
 40
0.7115985391
100
AcDbArc
 50
111.6260725794
 51
68.3739511015
  0
ARC
  5
29B
100
AcDbEntity
  8
0
100
AcDbCircle
 62
7
  6
CONTINUOUS
 10
14.7910657769
 20
4.3942340399
 40
0.458325
100
AcDbArc
 50
118.2734035475
 51
61.7265361284
  0
ARC
  5
29C
100
AcDbEntity
  8
0
100
AcDbCircle
 62
9
  6
CONTINUOUS
 10
14.7910658127
 20
4.3942339328
 40
0.418325
100
AcDbArc
 50
118.2734035497
 51
61.7265361263
  0
CIRCLE
  5
29D
100
AcDbEntity
  8
0
100
AcDbCircle
 62
7
  6
CONTINUOUS
 10
14.7911623905
 20
4.3940668184
 40
0.385
  0
ARC
  5
29E
100
AcDbEntity
  8
0
100
AcDbCircle
 62
9
  6
CONTINUOUS
 10
14.7910658192
 20
4.0693435277
 40
0.3666366332
100
AcDbArc
 50
270.0000709695
 51
270.3060199594
  0
CIRCLE
  5
29F
100
AcDbEntity
  8
0
100
AcDbCircle
 62
9
  6
CONTINUOUS
 10
14.7911624641
 20
4.3940665984
 40
0.342
  0
ARC
  5
2A0
100
AcDbEntity
  8
0
100
AcDbCircle
 62
7
  6
CONTINUOUS
 10
14.7910662733
 20
4.0617331807
 40
0.3375
100
AcDbArc
 50
180.0
 51
360.0
  0
ARC
  5
2A1
100
AcDbEntity
  8
0
100
AcDbCircle
 62
7
  6
CONTINUOUS
 10
-7.3920815412
 20
5.2060987499
 40
21.3751554032
100
AcDbArc
 50
359.5602976272
 51
6.4346138109
  0
ARC
  5
2A2
100
AcDbEntity
  8
0
100
AcDbCircle
 62
7
  6
CONTINUOUS
 10
-7.3799608552
 20
5.2063889616
 40
21.363050503
100
AcDbArc
 50
353.7054832441
 51
356.2522018136
  0
ARC
  5
2A3
100
AcDbEntity
  8
0
100
AcDbCircle
 62
9
  6
CONTINUOUS
 10
-7.3036066698
 20
5.2058267424
 40
21.3306520218
100
AcDbArc
 50
359.7371823169
 51
6.4488310273
  0
ARC
  5
2A4
100
AcDbEntity
  8
0
100
AcDbCircle
 62
9
  6
CONTINUOUS
 10
-7.2957829952
 20
5.2069965743
 40
21.3228553339
100
AcDbArc
 50
353.6783251481
 51
356.0614840728
  0
ARC
  5
2A5
100
AcDbEntity
  8
0
100
AcDbCircle
 62
7
  6
CONTINUOUS
 10
-7.3174601809
 20
5.1992967814
 40
21.300149037
100
AcDbArc
 50
350.3009014471
 51
353.7060128941
  0
ARC
  5
2A6
100
AcDbEntity
  8
0
100
AcDbCircle
 62
9
  6
CONTINUOUS
 10
-7.2096959222
 20
5.1964622938
 40
21.2361318145
100
AcDbArc
 50
350.1670829323
 51
353.6809993052
  0
ARC
  5
2A7
100
AcDbEntity
  8
0
100
AcDbCircle
 62
7
  6
CONTINUOUS
 10
14.2179169515
 20
5.0813262206
 40
0.3
100
AcDbArc
 50
0.6210619928
 51
30.7762190841
  0
ARC
  5
2A8
100
AcDbEntity
  8
0
100
AcDbCircle
 62
9
  6
CONTINUOUS
 10
14.526598737
 20
4.8859492686
 40
0.14
100
AcDbArc
 50
298.2734035409
 51
327.9398699825
  0
ARC
  5
2A9
100
AcDbEntity
  8
0
100
AcDbCircle
 62
7
  6
CONTINUOUS
 10
14.5265987012
 20
4.8859493757
 40
0.1
100
AcDbArc
 50
298.2734035474
 51
3.9999652117
  0
ARC
  5
2AA
100
AcDbEntity
  8
0
100
AcDbCircle
 62
7
  6
CONTINUOUS
 10
13.995761979
 20
7.8677205193
 40
0.1
100
AcDbArc
 50
298.7137876359
 51
343.933438613
  0
ARC
  5
2AB
100
AcDbEntity
  8
0
100
AcDbCircle
 62
7
  6
CONTINUOUS
 10
14.0581512471
 20
7.7172331807
 40
0.06
100
AcDbArc
 50
131.4096221093
 51
270.0
  0
ARC
  5
2AC
100
AcDbEntity
  8
0
100
AcDbCircle
 62
7
  6
CONTINUOUS
 10
13.8980953495
 20
7.6072331807
 40
0.0499979142
100
AcDbArc
 50
89.9841054598
 51
186.439154964
  0
ARC
  5
2AD
100
AcDbEntity
  8
0
100
AcDbCircle
 62
7
  6
CONTINUOUS
 10
14.5628966836
 20
5.0850658013
 40
0.045
100
AcDbArc
 50
180.6210619927
 51
247.7256968628
  0
ARC
  5
2AE
100
AcDbEntity
  8
0
100
AcDbCircle
 62
7
  6
CONTINUOUS
 10
14.4928521032
 20
5.2450658382
 40
0.02
100
AcDbArc
 50
90.0581905595
 51
210.7762190842
  0
ARC
  5
2AF
100
AcDbEntity
  8
0
100
AcDbCircle
 62
7
  6
CONTINUOUS
 10
5.7285777428
 20
10.7501014874
 40
0.5213016706
100
AcDbArc
 50
217.3351927014
 51
246.9549954034
  0
ARC
  5
2B0
100
AcDbEntity
  8
0
100
AcDbCircle
 62
7
  6
CONTINUOUS
 10
5.4030884988
 20
10.3952106841
 40
0.1801429947
100
AcDbArc
 50
115.7492815176
 51
136.4049640719
  0
ARC
  5
2B1
100
AcDbEntity
  8
0
100
AcDbCircle
 62
7
  6
CONTINUOUS
 10
5.3032103444
 20
10.6022861655
 40
0.0497611173
100
AcDbArc
 50
295.7492815177
 51
331.2211476312
  0
ARC
  5
2B2
100
AcDbEntity
  8
0
100
AcDbCircle
 62
7
  6
CONTINUOUS
 10
5.3086618223
 20
10.4851163941
 40
0.0497611173
100
AcDbArc
 50
136.4049640719
 51
261.2942799924
  0
ARC
  5
2B3
100
AcDbEntity
  8
0
100
AcDbCircle
 62
7
  6
CONTINUOUS
 10
6.2877970985
 20
10.1245921515
 40
0.0118110236
100
AcDbArc
 50
176.2942954639
 51
261.2942799925
  0
ARC
  5
2B4
100
AcDbEntity
  8
0
100
AcDbCircle
 62
7
  6
CONTINUOUS
 10
6.2216157456
 20
10.1347260835
 40
0.0118110236
100
AcDbArc
 50
261.2942799924
 51
346.2942645209
  0
ARC
  5
2B5
100
AcDbEntity
  8
0
100
AcDbCircle
 62
7
  6
CONTINUOUS
 10
6.1418291126
 20
10.1469433059
 40
0.0118110236
100
AcDbArc
 50
176.2942954639
 51
261.2942799925
  0
ARC
  5
2B6
100
AcDbEntity
  8
0
100
AcDbCircle
 62
7
  6
CONTINUOUS
 10
6.0844507063
 20
10.1557292984
 40
0.0118110236
100
AcDbArc
 50
261.2942799924
 51
346.2942645208
  0
ARC
  5
2B7
100
AcDbEntity
  8
0
100
AcDbCircle
 62
7
  6
CONTINUOUS
 10
6.0046640733
 20
10.1679465209
 40
0.0118110236
100
AcDbArc
 50
176.2942954639
 51
261.2942799924
  0
ARC
  5
2B8
100
AcDbEntity
  8
0
100
AcDbCircle
 62
7
  6
CONTINUOUS
 10
5.9726327418
 20
10.1728512761
 40
0.0118110236
100
AcDbArc
 50
261.2942799924
 51
346.2942645218
  0
ARC
  5
2B9
100
AcDbEntity
  8
0
100
AcDbCircle
 62
7
  6
CONTINUOUS
 10
5.8928461089
 20
10.1850684985
 40
0.0118110236
100
AcDbArc
 50
176.2942954632
 51
261.2942799924
  0
ARC
  5
2BA
100
AcDbEntity
  8
0
100
AcDbCircle
 62
7
  6
CONTINUOUS
 10
5.8198621159
 20
10.1962440758
 40
0.0118110236
100
AcDbArc
 50
176.2942954638
 51
261.2942799924
  0
ARC
  5
2BB
100
AcDbEntity
  8
0
100
AcDbCircle
 62
7
  6
CONTINUOUS
 10
5.7945150412
 20
10.200125313
 40
0.0118110236
100
AcDbArc
 50
176.294295464
 51
261.2943803759
  0
ARC
  5
2BC
100
AcDbEntity
  8
0
100
AcDbCircle
 62
7
  6
CONTINUOUS
 10
6.9423839881
 20
10.5642390142
 40
0.5213016706
100
AcDbArc
 50
275.6335645815
 51
305.2533672835
  0
ARC
  5
2BD
100
AcDbEntity
  8
0
100
AcDbCircle
 62
7
  6
CONTINUOUS
 10
7.1467650686
 20
10.1282125194
 40
0.1801429947
100
AcDbArc
 50
26.183595913
 51
46.839278467
  0
ARC
  5
2BE
100
AcDbEntity
  8
0
100
AcDbCircle
 62
7
  6
CONTINUOUS
 10
7.1754765909
 20
10.9695669893
 40
0.05
100
AcDbArc
 50
324.8205395562
 51
7.1248294656
  0
ARC
  5
2BF
100
AcDbEntity
  8
0
100
AcDbCircle
 62
7
  6
CONTINUOUS
 10
7.3040303348
 20
10.2959132552
 40
0.0497611173
100
AcDbArc
 50
191.3674123559
 51
226.8392784667
  0
ARC
  5
2C0
100
AcDbEntity
  8
0
100
AcDbCircle
 62
7
  6
CONTINUOUS
 10
7.2637677756
 20
10.1857433852
 40
0.0497611173
100
AcDbArc
 50
261.2942799926
 51
26.1835959128
  0
ARC
  5
2C1
100
AcDbEntity
  8
0
100
AcDbCircle
 62
7
  6
CONTINUOUS
 10
6.6895507282
 20
10.0630741592
 40
0.0118110236
100
AcDbArc
 50
261.2942799924
 51
346.2942645211
  0
ARC
  5
2C2
100
AcDbEntity
  8
0
100
AcDbCircle
 62
7
  6
CONTINUOUS
 10
6.6165667352
 20
10.0742497364
 40
0.0118110236
100
AcDbArc
 50
261.2942799924
 51
346.2942645217
  0
ARC
  5
2C3
100
AcDbEntity
  8
0
100
AcDbCircle
 62
7
  6
CONTINUOUS
 10
6.5367801022
 20
10.0864669589
 40
0.0118110236
100
AcDbArc
 50
176.2942954631
 51
261.2942799924
  0
ARC
  5
2C4
100
AcDbEntity
  8
0
100
AcDbCircle
 62
7
  6
CONTINUOUS
 10
6.5047487707
 20
10.0913717141
 40
0.0118110236
100
AcDbArc
 50
261.2942799924
 51
346.2942645217
  0
ARC
  5
2C5
100
AcDbEntity
  8
0
100
AcDbCircle
 62
7
  6
CONTINUOUS
 10
6.4249621377
 20
10.1035889366
 40
0.0118110236
100
AcDbArc
 50
176.2942954632
 51
261.2942799924
  0
ARC
  5
2C6
100
AcDbEntity
  8
0
100
AcDbCircle
 62
7
  6
CONTINUOUS
 10
6.3675837315
 20
10.112374929
 40
0.0118110236
100
AcDbArc
 50
261.2942799924
 51
346.2942645209
  0
ARC
  5
2C7
100
AcDbEntity
  8
0
100
AcDbCircle
 62
7
  6
CONTINUOUS
 10
6.7148978029
 20
10.059192922
 40
0.0118110236
100
AcDbArc
 50
261.294179609
 51
346.2942645209
  0
ARC
  5
2C8
100
AcDbEntity
  8
0
100
AcDbCircle
 62
9
  6
CONTINUOUS
 10
6.9251500788
 20
12.2856851434
 40
0.4020254398
100
AcDbArc
 50
340.8052976641
 51
344.6902765277
  0
ARC
  5
2C9
100
AcDbEntity
  8
0
100
AcDbCircle
 62
9
  6
CONTINUOUS
 10
6.9847783771
 20
12.2689714759
 40
0.3401003796
100
AcDbArc
 50
344.7537014102
 51
346.9538690522
  0
ARC
  5
2CA
100
AcDbEntity
  8
0
100
AcDbCircle
 62
7
  6
CONTINUOUS
 10
7.3065108758
 20
12.2444215839
 40
0.05
100
AcDbArc
 50
341.1382407283
 51
80.1964820499
  0
ARC
  5
2CB
100
AcDbEntity
  8
0
100
AcDbCircle
 62
9
  6
CONTINUOUS
 10
6.5245943065
 20
16.3944893057
 40
5.927410892
100
AcDbArc
 50
261.2830530795
 51
263.5088579678
  0
ARC
  5
2CC
100
AcDbEntity
  8
0
100
AcDbCircle
 62
7
  6
CONTINUOUS
 10
0.5900457636
 20
12.9088599699
 40
5.3856921224
100
AcDbArc
 50
335.8852988058
 51
352.9635346594
  0
ARC
  5
2CD
100
AcDbEntity
  8
0
100
AcDbCircle
 62
9
  6
CONTINUOUS
 10
0.6345502734
 20
12.9021295753
 40
5.3641081073
100
AcDbArc
 50
336.1219406553
 51
352.9693650917
  0
ARC
  5
2CE
100
AcDbEntity
  8
0
100
AcDbCircle
 62
9
  6
CONTINUOUS
 10
0.6865699793
 20
12.8806679181
 40
5.3078456624
100
AcDbArc
 50
335.8021195336
 51
336.1064785555
  0
ARC
  5
2CF
100
AcDbEntity
  8
0
100
AcDbCircle
 62
7
  6
CONTINUOUS
 10
5.2936988367
 20
12.85208079
 40
0.76
100
AcDbArc
 50
335.0817862636
 51
0.2014866348
  0
ARC
  5
2D0
100
AcDbEntity
  8
0
100
AcDbCircle
 62
9
  6
CONTINUOUS
 10
7.396994639
 20
12.7681062382
 40
0.4814445024
100
AcDbArc
 50
253.0595057302
 51
260.1971422166
  0
ARC
  5
2D1
100
AcDbEntity
  8
0
100
AcDbCircle
 62
7
  6
CONTINUOUS
 10
5.9863340883
 20
12.40054158
 40
0.11
100
AcDbArc
 50
107.7314923356
 51
161.3647214258
  0
ARC
  5
2D2
100
AcDbEntity
  8
0
100
AcDbCircle
 62
7
  6
CONTINUOUS
 10
7.2499011597
 20
12.7639759014
 40
0.095
100
AcDbArc
 50
277.2815741086
 51
323.8078537435
  0
ARC
  5
2D3
100
AcDbEntity
  8
0
100
AcDbCircle
 62
7
  6
CONTINUOUS
 10
6.0933809858
 20
12.9410665208
 40
0.095
100
AcDbArc
 50
198.7807062412
 51
245.3069858754
  0
ARC
  5
2D4
100
AcDbEntity
  8
0
100
AcDbCircle
 62
7
  6
CONTINUOUS
 10
5.9376050258
 20
12.5529406563
 40
0.05
100
AcDbArc
 50
287.7314923342
 51
335.0817862542
  0
ARC
  5
2D5
100
AcDbEntity
  8
0
100
AcDbCircle
 62
7
  6
CONTINUOUS
 10
7.3023588416
 20
12.7255937233
 40
0.03
100
AcDbArc
 50
323.8078537515
 51
81.2942799924
  0
ARC
  5
2D6
100
AcDbEntity
  8
0
100
AcDbCircle
 62
7
  6
CONTINUOUS
 10
6.0318417336
 20
12.9201399722
 40
0.03
100
AcDbArc
 50
81.2942799924
 51
198.7807062315
  0
ARC
  5
2D7
100
AcDbEntity
  8
0
100
AcDbCircle
 62
7
  6
CONTINUOUS
 10
5.9105283412
 20
12.4261050052
 40
0.03
100
AcDbArc
 50
161.3647214275
 51
212.6359648874
  0
ARC
  5
2D8
100
AcDbEntity
  8
0
100
AcDbCircle
 62
9
  6
CONTINUOUS
 10
12.4248383433
 20
11.0922045388
 40
5.3420021357
100
AcDbArc
 50
182.526049361
 51
184.8555757626
  0
ARC
  5
2D9
100
AcDbEntity
  8
0
100
AcDbCircle
 62
7
  6
CONTINUOUS
 10
12.4389341247
 20
11.082746615
 40
5.3331108837
100
AcDbArc
 50
184.7421500356
 51
186.729327127
  0
ARC
  5
2DA
100
AcDbEntity
  8
0
100
AcDbCircle
 62
9
  6
CONTINUOUS
 10
12.4100889621
 20
11.091052317
 40
5.3272081586
100
AcDbArc
 50
184.8566552246
 51
185.2199372154
  0
ARC
  5
2DB
100
AcDbEntity
  8
0
100
AcDbCircle
 62
9
  6
CONTINUOUS
 10
12.3997747127
 20
11.0900808066
 40
5.3168482411
100
AcDbArc
 50
185.3690313715
 51
186.4964220052
  0
ARC
  5
2DC
100
AcDbEntity
  8
0
100
AcDbCircle
 62
9
  6
CONTINUOUS
 10
12.3879086572
 20
11.0887674116
 40
5.3049097796
100
AcDbArc
 50
186.4968278639
 51
186.793576032
  0
ARC
  5
2DD
100
AcDbEntity
  8
0
100
AcDbCircle
 62
9
  6
CONTINUOUS
 10
11.4483119465
 20
10.9411189209
 40
4.5405775231
100
AcDbArc
 50
166.19974236
 51
169.1748824878
  0
ARC
  5
2DE
100
AcDbEntity
  8
0
100
AcDbCircle
 62
7
  6
CONTINUOUS
 10
10.421062072
 20
8.8972449605
 40
3.82
100
AcDbArc
 50
343.933438613
 51
4.066186307
  0
ARC
  5
2DF
100
AcDbEntity
  8
0
100
AcDbCircle
 62
9
  6
CONTINUOUS
 10
10.0912827087
 20
11.3494182264
 40
2.9212576974
100
AcDbArc
 50
177.2477244853
 51
185.687521613
  0
ARC
  5
2E0
100
AcDbEntity
  8
0
100
AcDbCircle
 62
9
  6
CONTINUOUS
 10
10.0769794816
 20
11.3034029698
 40
2.9117946333
100
AcDbArc
 50
167.8812333683
 51
171.3234637289
  0
ARC
  5
2E1
100
AcDbEntity
  8
0
100
AcDbCircle
 62
7
  6
CONTINUOUS
 10
10.0034696925
 20
11.3230567587
 40
2.8
100
AcDbArc
 50
161.1382469141
 51
187.1248227714
  0
ARC
  5
2E2
100
AcDbEntity
  8
0
100
AcDbCircle
 62
9
  6
CONTINUOUS
 10
9.5442592198
 20
11.3820442481
 40
2.3733107003
100
AcDbArc
 50
171.2601449384
 51
177.4003400401
  0
ARC
  5
2E3
100
AcDbEntity
  8
0
100
AcDbCircle
 62
7
  6
CONTINUOUS
 10
7.6871951235
 20
10.6582544249
 40
0.5624261295
100
AcDbArc
 50
184.1976580564
 51
185.1071872112
  0
ARC
  5
2E4
100
AcDbEntity
  8
0
100
AcDbCircle
 62
7
  6
CONTINUOUS
 10
7.6745225415
 20
10.6572747447
 40
0.5497165843
100
AcDbArc
 50
181.625435521
 51
185.1226680733
  0
ARC
  5
2E5
100
AcDbEntity
  8
0
100
AcDbCircle
 62
7
  6
CONTINUOUS
 10
7.6700891375
 20
10.6570780401
 40
0.5452799282
100
AcDbArc
 50
181.6179849477
 51
184.205946983
  0
ARC
  5
2E6
100
AcDbEntity
  8
0
100
AcDbCircle
 62
7
  6
CONTINUOUS
 10
7.6601723943
 20
10.6275044794
 40
0.543242611
100
AcDbArc
 50
144.7854842987
 51
149.7209685017
  0
ARC
  5
2E7
100
AcDbEntity
  8
0
100
AcDbCircle
 62
7
  6
CONTINUOUS
 10
14.2795185991
 20
9.3372331807
 40
0.13
100
AcDbArc
 50
202.024312837
 51
230.0067164255
  0
ARC
  5
2E8
100
AcDbEntity
  8
0
100
AcDbCircle
 62
7
  6
CONTINUOUS
 10
14.1316981036
 20
9.1610256295
 40
0.1
100
AcDbArc
 50
4.0661863071
 51
50.0067164254
  0
ARC
  5
2E9
100
AcDbEntity
  8
0
100
AcDbCircle
 62
7
  6
CONTINUOUS
 10
14.6658777451
 20
8.3442342137
 40
0.0500000023
100
AcDbArc
 50
89.9999698378
 51
166.5755111515
  0
ARC
  5
2EA
100
AcDbEntity
  8
0
100
AcDbCircle
 62
7
  6
CONTINUOUS
 10
14.2053566143
 20
9.3072331807
 40
0.05
100
AcDbArc
 50
90.0
 51
202.024312837
  0
ARC
  5
2EB
100
AcDbEntity
  8
0
100
AcDbCircle
 62
9
  6
CONTINUOUS
 10
14.6664555197
 20
8.3442415073
 40
0.0499910887
100
AcDbArc
 50
89.9999453758
 51
167.1494917719
  0
ARC
  5
2EC
100
AcDbEntity
  8
0
100
AcDbCircle
 62
7
  6
CONTINUOUS
 10
7.9863150363
 20
12.4397775018
 40
0.76
100
AcDbArc
 50
162.3870733502
 51
186.9656596074
  0
ARC
  5
2ED
100
AcDbEntity
  8
0
100
AcDbCircle
 62
9
  6
CONTINUOUS
 10
27.2070546704
 20
0.2677955261
 40
24.0345602336
100
AcDbArc
 50
149.8717556972
 51
150.2678390292
  0
ARC
  5
2EE
100
AcDbEntity
  8
0
100
AcDbCircle
 62
7
  6
CONTINUOUS
 10
15.9110662733
 20
1.3832331807
 40
0.161
100
AcDbArc
 50
31.5863380966
 51
69.5510161521
  0
ARC
  5
2EF
100
AcDbEntity
  8
0
100
AcDbCircle
 62
7
  6
CONTINUOUS
 10
16.0045724477
 20
1.6288367208
 40
0.1024899728
100
AcDbArc
 50
194.0196770031
 51
211.5111704155
  0
ARC
  5
2F0
100
AcDbEntity
  8
0
100
AcDbCircle
 62
7
  6
CONTINUOUS
 10
15.997241042
 20
1.6269412257
 40
0.0949177782
100
AcDbArc
 50
189.7770125045
 51
193.981670441
  0
ARC
  5
2F1
100
AcDbEntity
  8
0
100
AcDbCircle
 62
7
  6
CONTINUOUS
 10
15.9800662733
 20
1.4256595875
 40
0.08
100
AcDbArc
 50
0.0
 51
31.5863380966
  0
ARC
  5
2F2
100
AcDbEntity
  8
0
100
AcDbCircle
 62
7
  6
CONTINUOUS
 10
16.1110662733
 20
1.3442249834
 40
0.05
100
AcDbArc
 50
0.0
 51
90.0
  0
ARC
  5
2F3
100
AcDbEntity
  8
0
100
AcDbCircle
 62
9
  6
CONTINUOUS
 10
36.7803624933
 20
5.1998845132
 40
21.227004145
100
AcDbArc
 50
173.503435633
 51
180.243541084
  0
ARC
  5
2F4
100
AcDbEntity
  8
0
100
AcDbCircle
 62
7
  6
CONTINUOUS
 10
36.7696687059
 20
5.2009050595
 40
21.1725699011
100
AcDbArc
 50
183.7726865401
 51
189.8748351708
  0
ARC
  5
2F5
100
AcDbEntity
  8
0
100
AcDbCircle
 62
7
  6
CONTINUOUS
 10
36.7696687059
 20
5.2009050595
 40
21.1725699011
100
AcDbArc
 50
173.4894999626
 51
180.4225165081
  0
ARC
  5
2F6
100
AcDbEntity
  8
0
100
AcDbCircle
 62
9
  6
CONTINUOUS
 10
36.6580597807
 20
5.1974705587
 40
21.1046617897
100
AcDbArc
 50
183.9595063522
 51
189.8974625961
  0
ARC
  5
2F7
100
AcDbEntity
  8
0
100
AcDbCircle
 62
7
  6
CONTINUOUS
 10
15.3642151689
 20
5.0813256172
 40
0.3
100
AcDbArc
 50
149.2237205916
 51
179.3788776829
  0
ARC
  5
2F8
100
AcDbEntity
  8
0
100
AcDbCircle
 62
9
  6
CONTINUOUS
 10
15.0555334061
 20
4.8859489902
 40
0.14
100
AcDbArc
 50
212.0600696967
 51
241.7265361344
  0
ARC
  5
2F9
100
AcDbEntity
  8
0
100
AcDbCircle
 62
7
  6
CONTINUOUS
 10
15.0555333728
 20
4.8859490896
 40
0.1
100
AcDbArc
 50
175.9999655725
 51
241.7265361283
  0
ARC
  5
2FA
100
AcDbEntity
  8
0
100
AcDbCircle
 62
7
  6
CONTINUOUS
 10
15.5863705677
 20
7.8677205193
 40
0.1
100
AcDbArc
 50
196.066561387
 51
241.2862123641
  0
ARC
  5
2FB
100
AcDbEntity
  8
0
100
AcDbCircle
 62
7
  6
CONTINUOUS
 10
15.5239812996
 20
7.7172331807
 40
0.06
100
AcDbArc
 50
270.0
 51
48.5903778907
  0
ARC
  5
2FC
100
AcDbEntity
  8
0
100
AcDbCircle
 62
7
  6
CONTINUOUS
 10
15.6839627687
 20
7.6072331807
 40
0.0499989702
100
AcDbArc
 50
353.488385689
 51
90.0078323975
  0
ARC
  5
2FD
100
AcDbEntity
  8
0
100
AcDbCircle
 62
7
  6
CONTINUOUS
 10
15.0192354407
 20
5.0850655611
 40
0.045
100
AcDbArc
 50
292.2742428126
 51
359.378877683
  0
ARC
  5
2FE
100
AcDbEntity
  8
0
100
AcDbCircle
 62
7
  6
CONTINUOUS
 10
15.0892801896
 20
5.2450655242
 40
0.02
100
AcDbArc
 50
329.2237205915
 51
89.9417493481
  0
ARC
  5
2FF
100
AcDbEntity
  8
0
100
AcDbCircle
 62
9
  6
CONTINUOUS
 10
66.2798179636
 20
5.2030469878
 40
51.1109870162
100
AcDbArc
 50
177.3102585107
 51
179.813748974
  0
ARC
  5
300
100
AcDbEntity
  8
0
100
AcDbCircle
 62
9
  6
CONTINUOUS
 10
65.5638353621
 20
5.2310764271
 40
50.5002039182
100
AcDbArc
 50
177.3095154
 51
177.4612062791
  0
ARC
  5
301
100
AcDbEntity
  8
0
100
AcDbCircle
 62
9
  6
CONTINUOUS
 10
65.3170797341
 20
5.1584782876
 40
50.1475056947
100
AcDbArc
 50
181.9764387771
 51
184.1036365578
  0
ARC
  5
302
100
AcDbEntity
  8
0
100
AcDbCircle
 62
9
  6
CONTINUOUS
 10
64.717318219
 20
5.1610741104
 40
49.6536933763
100
AcDbArc
 50
182.0382824424
 51
184.1475186996
  0
ARC
  5
303
100
AcDbEntity
  8
0
100
AcDbCircle
 62
9
  6
CONTINUOUS
 10
19.5201089877
 20
10.0045500212
 40
12.8453577973
100
AcDbArc
 50
170.5694876817
 51
177.6653798774
  0
ARC
  5
304
100
AcDbEntity
  8
0
100
AcDbCircle
 62
7
  6
CONTINUOUS
 10
19.1610704746
 20
8.8972449605
 40
3.82
100
AcDbArc
 50
175.933813693
 51
196.066561387
  0
ARC
  5
305
100
AcDbEntity
  8
0
100
AcDbCircle
 62
7
  6
CONTINUOUS
 10
15.3026139476
 20
9.3372331807
 40
0.13
100
AcDbArc
 50
309.9932835745
 51
337.975687163
  0
ARC
  5
306
100
AcDbEntity
  8
0
100
AcDbCircle
 62
7
  6
CONTINUOUS
 10
15.4504344431
 20
9.1610256295
 40
0.1
100
AcDbArc
 50
129.9932835746
 51
175.9338136929
  0
ARC
  5
307
100
AcDbEntity
  8
0
100
AcDbCircle
 62
7
  6
CONTINUOUS
 10
15.3767759324
 20
9.3072331807
 40
0.05
100
AcDbArc
 50
337.975687163
 51
90.0
  0
SPLINE
  5
308
100
AcDbEntity
  8
0
100
AcDbSpline
 62
7
  6
CONTINUOUS
 70
0
 71
3
 72
11
 73
7
 74
0
 42
0.0000001
 43
0.0000001
 44
0.0000000001
 40
0.0
 40
0.0
 40
0.0
 40
0.0
 40
0.2536174232
 40
0.5068888719
 40
0.7570206914
 40
1.0
 40
1.0
 40
1.0
 40
1.0
 10
15.9171958225
 20
1.5752688211
 30
0.0
 10
15.9201098549
 20
1.5705125951
 30
0.0
 10
15.9267465305
 20
1.5614720339
 30
0.0
 10
15.9388627643
 20
1.5499395007
 30
0.0
 10
15.9524567953
 20
1.540624571
 30
0.0
 10
15.9623081944
 20
1.5359546444
 30
0.0
 10
15.9673153974
 20
1.5340876129
 30
0.0
  0
LINE
  5
309
100
AcDbEntity
  8
0
100
AcDbLine
 62
7
  6
CONTINUOUS
 10
14.7910664266
 20
5.2648422064
 11
14.8245673719
 21
5.2650626956
  0
SPLINE
  5
30A
100
AcDbEntity
  8
0
100
AcDbSpline
 62
7
  6
CONTINUOUS
 70
0
 71
3
 72
9
 73
5
 74
0
 42
0.0000001
 43
0.0000001
 44
0.0000000001
 40
0.0
 40
0.0
 40
0.0
 40
0.0
 40
0.4801416252
 40
1.0
 40
1.0
 40
1.0
 40
1.0
 10
15.0440169344
 20
5.2884059645
 30
0.0
 10
15.0436916919
 20
5.2864841137
 30
0.0
 10
15.0437353204
 20
5.282355043
 30
0.0
 10
15.0448708028
 20
5.27839723
 30
0.0
 10
15.045747108
 20
5.2764773538
 30
0.0
  0
SPLINE
  5
30B
100
AcDbEntity
  8
0
100
AcDbSpline
 62
7
  6
CONTINUOUS
 70
0
 71
3
 72
11
 73
7
 74
0
 42
0.0000001
 43
0.0000001
 44
0.0000000001
 40
0.0
 40
0.0
 40
0.0
 40
0.0
 40
0.2573066664
 40
0.514591888
 40
0.7669159542
 40
1.0
 40
1.0
 40
1.0
 40
1.0
 10
15.045747108
 20
5.2764773538
 30
0.0
 10
15.0465434322
 20
5.2747327063
 30
0.0
 10
15.0486516507
 20
5.2714351627
 30
0.0
 10
15.0532228616
 20
5.2678573121
 30
0.0
 10
15.058352501
 20
5.2656548363
 30
0.0
 10
15.0619774438
 20
5.265065242
 30
0.0
 10
15.0637146968
 20
5.265065236
 30
0.0
  0
LINE
  5
30C
100
AcDbEntity
  8
0
100
AcDbLine
 62
7
  6
CONTINUOUS
 10
14.7593643303
 20
5.265064904
 11
14.7910664266
 21
5.2648422064
  0
SPLINE
  5
30D
100
AcDbEntity
  8
0
100
AcDbSpline
 62
7
  6
CONTINUOUS
 70
0
 71
3
 72
13
 73
9
 74
0
 42
0.0000001
 43
0.0000001
 44
0.0000000001
 40
0.0
 40
0.0
 40
0.0
 40
0.0
 40
0.1195565031
 40
0.2444736797
 40
0.4999862949
 40
0.7555082653
 40
0.8804342154
 40
1.0
 40
1.0
 40
1.0
 40
1.0
 10
14.9156864935
 20
8.3942340155
 30
0.0
 10
14.9183636087
 20
8.3942336546
 30
0.0
 10
14.9238480382
 20
8.3937308525
 30
0.0
 10
14.9347198912
 20
8.3909446665
 30
0.0
 10
14.9475909749
 20
8.3841344093
 30
0.0
 10
14.9570612229
 20
8.3730726571
 30
0.0
 10
14.9621674089
 20
8.3630776485
 30
0.0
 10
14.9638627488
 20
8.3578372327
 30
0.0
 10
14.9644512432
 20
8.355225388
 30
0.0
  0
SPLINE
  5
30E
100
AcDbEntity
  8
0
100
AcDbSpline
 62
7
  6
CONTINUOUS
 70
0
 71
3
 72
11
 73
7
 74
0
 42
0.0000001
 43
0.0000001
 44
0.0000000001
 40
0.0
 40
0.0
 40
0.0
 40
0.0
 40
0.2536252069
 40
0.5068973225
 40
0.7570243016
 40
1.0
 40
1.0
 40
1.0
 40
1.0
 10
13.6647909791
 20
1.5752046904
 30
0.0
 10
13.6618793424
 20
1.5704538222
 30
0.0
 10
13.6552488227
 20
1.561423598
 30
0.0
 10
13.6431470806
 20
1.5499020983
 30
0.0
 10
13.6295708449
 20
1.5405930601
 30
0.0
 10
13.6197325196
 20
1.5359235977
 30
0.0
 10
13.6147318248
 20
1.5340557701
 30
0.0
  0
LINE
  5
30F
100
AcDbEntity
  8
0
100
AcDbLine
 62
7
  6
CONTINUOUS
 10
13.6782270786
 20
1.6107782149
 11
13.6722586974
 21
1.5760455897
  0
LINE
  5
310
100
AcDbEntity
  8
0
100
AcDbLine
 62
7
  6
CONTINUOUS
 10
13.6722586974
 20
1.5760455897
 11
13.6711871284
 21
1.5698460899
  0
SPLINE
  5
311
100
AcDbEntity
  8
0
100
AcDbSpline
 62
7
  6
CONTINUOUS
 70
0
 71
3
 72
8
 73
4
 74
0
 42
0.0000001
 43
0.0000001
 44
0.0000000001
 40
0.0
 40
0.0
 40
0.0
 40
0.0
 40
1.0
 40
1.0
 40
1.0
 40
1.0
 10
7.1910388673
 20
10.9014137129
 30
0.0
 10
7.1444135668
 20
10.8214509571
 30
0.0
 10
7.1224094723
 20
10.7348736712
 30
0.0
 10
7.1250266117
 20
10.641681837
 30
0.0
  0
SPLINE
  5
312
100
AcDbEntity
  8
0
100
AcDbSpline
 62
7
  6
CONTINUOUS
 70
0
 71
3
 72
8
 73
4
 74
0
 42
0.0000001
 43
0.0000001
 44
0.0000000001
 40
0.0
 40
0.0
 40
0.0
 40
0.0
 40
1.0
 40
1.0
 40
1.0
 40
1.0
 10
7.2163440056
 20
10.9407608308
 30
0.0
 10
7.1524149903
 20
10.8500656906
 30
0.0
 10
7.1219760389
 20
10.7503726856
 30
0.0
 10
7.1250271515
 20
10.6416818158
 30
0.0
  0
SPLINE
  5
313
100
AcDbEntity
  8
0
100
AcDbSpline
 62
7
  6
CONTINUOUS
 70
0
 71
3
 72
87
 73
83
 74
0
 42
0.0000001
 43
0.0000001
 44
0.0000000001
 40
0.0
 40
0.0
 40
0.0
 40
0.0
 40
0.0138678707
 40
0.0282365513
 40
0.0430625429
 40
0.0506330522
 40
0.0583023639
 40
0.0660725583
 40
0.0739532565
 40
0.0819563476
 40
0.0900831099
 40
0.0982487492
 40
0.1063391796
 40
0.1142620337
 40
0.1220189318
 40
0.1258661767
 40
0.1297091227
 40
0.1374047685
 40
0.1451373259
 40
0.1529207871
 40
0.1607529603
 40
0.1686315709
 40
0.1845103234
 40
0.2004764154
 40
0.2164485645
 40
0.2244341527
 40
0.2324204145
 40
0.2404119965
 40
0.248416234
 40
0.2564407988
 40
0.2644955634
 40
0.2807489599
 40
0.2888976671
 40
0.2970149404
 40
0.3050941452
 40
0.3131282149
 40
0.3290507265
 40
0.3369483927
 40
0.3448080173
 40
0.3604267946
 40
0.3759345648
 40
0.3913511275
 40
0.4066906958
 40
0.4219805622
 40
0.4296207143
 40
0.4372640453
 40
0.4525744958
 40
0.4679390861
 40
0.498822638
 40
0.5143263995
 40
0.5298586801
 40
0.560985947
 40
0.5765851982
 40
0.5922083396
 40
0.6078601833
 40
0.6235487784
 40
0.6392772399
 40
0.6550425627
 40
0.6629398516
 40
0.6708451744
 40
0.6866591454
 40
0.7024501
 40
0.7182213634
 40
0.749754237
 40
0.7813252484
 40
0.7971346086
 40
0.8129582936
 40
0.8287981941
 40
0.8446564074
 40
0.8605374703
 40
0.8684897178
 40
0.8764509955
 40
0.8844171541
 40
0.8923737861
 40
0.9003051517
 40
0.9081962905
 40
0.9238492254
 40
0.9393507993
 40
0.9547149846
 40
0.9699465549
 40
0.985044083
 40
1.0
 40
1.0
 40
1.0
 40
1.0
 10
6.1119921551
 20
12.9635080978
 30
0.0
 10
6.1218691413
 20
13.0280114855
 30
0.0
 10
6.1420770715
 20
13.1593339104
 30
0.0
 10
6.1753840188
 20
13.3592168801
 30
0.0
 10
6.2076470812
 20
13.5292062368
 30
0.0
 10
6.2374352623
 20
13.6675163371
 30
0.0
 10
6.2622308354
 20
13.7729200753
 30
0.0
 10
6.289678008
 20
13.8791753731
 30
0.0
 10
6.3201961776
 20
13.9862268758
 30
0.0
 10
6.3541824924
 20
14.0939924016
 30
0.0
 10
6.3918700836
 20
14.2019434373
 30
0.0
 10
6.4331503471
 20
14.3090173616
 30
0.0
 10
6.4777350816
 20
14.4137131497
 30
0.0
 10
6.5244840683
 20
14.5153392704
 30
0.0
 10
6.5649760877
 20
14.5978305029
 30
0.0
 10
6.5980917328
 20
14.6625359005
 30
0.0
 10
6.6317116321
 20
14.7266554189
 30
0.0
 10
6.6750323029
 20
14.8063267871
 30
0.0
 10
6.7292849385
 20
14.9011326233
 30
0.0
 10
6.7860312643
 20
14.9952195034
 30
0.0
 10
6.8454091004
 20
15.0884861986
 30
0.0
 10
6.9284094013
 20
15.2118158644
 30
0.0
 10
7.0390088999
 20
15.3626264778
 30
0.0
 10
7.1818872909
 20
15.5365876518
 30
0.0
 10
7.3092592411
 20
15.6748273541
 30
0.0
 10
7.4157163697
 20
15.7809662712
 30
0.0
 10
7.4977850841
 20
15.8583163736
 30
0.0
 10
7.5820796444
 20
15.9333659746
 30
0.0
 10
7.6686385372
 20
16.006073363
 30
0.0
 10
7.7575134943
 20
16.0764136665
 30
0.0
 10
7.8795458287
 20
16.167298312
 30
0.0
 10
8.0062668632
 20
16.2527699293
 30
0.0
 10
8.1372068587
 20
16.3319938911
 30
0.0
 10
8.2371218956
 20
16.3880723776
 30
0.0
 10
8.3382520618
 20
16.4407662976
 30
0.0
 10
8.4739758838
 20
16.5064023502
 30
0.0
 10
8.6116849891
 20
16.5658233613
 30
0.0
 10
8.7508307378
 20
16.6193375031
 30
0.0
 10
8.8899573713
 20
16.6687906531
 30
0.0
 10
9.0650718421
 20
16.7237258001
 30
0.0
 10
9.276995995
 20
16.7792786488
 30
0.0
 10
9.4899100949
 20
16.8249815818
 30
0.0
 10
9.7035371233
 20
16.8615121152
 30
0.0
 10
9.8821425895
 20
16.8848523172
 30
0.0
 10
10.0252578463
 20
16.8995613082
 30
0.0
 10
10.1687058374
 20
16.9117593282
 30
0.0
 10
10.3487510216
 20
16.9222594056
 30
0.0
 10
10.6383841301
 20
16.9288133988
 30
0.0
 10
10.9291244484
 20
16.9196706879
 30
0.0
 10
11.2194343431
 20
16.894248448
 30
0.0
 10
11.5096976164
 20
16.8576270481
 30
0.0
 10
11.7980639238
 20
16.8038389131
 30
0.0
 10
12.0826282415
 20
16.7321521098
 30
0.0
 10
12.294068934
 20
16.6691028532
 30
0.0
 10
12.502882167
 20
16.5965398891
 30
0.0
 10
12.7085839799
 20
16.5142119612
 30
0.0
 10
12.9105953168
 20
16.4219040191
 30
0.0
 10
13.0752219898
 20
16.3365422768
 30
0.0
 10
13.204353618
 20
16.2630957084
 30
0.0
 10
13.3317116188
 20
16.1861715754
 30
0.0
 10
13.487065636
 20
16.0838829903
 30
0.0
 10
13.6667455687
 20
15.9517570799
 30
0.0
 10
13.8966688674
 20
15.7637522608
 30
0.0
 10
14.1657741853
 20
15.5071715798
 30
0.0
 10
14.4077672128
 20
15.2246469834
 30
0.0
 10
14.5836977824
 20
14.9847264783
 30
0.0
 10
14.7065664765
 20
14.7980501805
 30
0.0
 10
14.8199091024
 20
14.6051769865
 30
0.0
 10
14.9232266232
 20
14.4064450448
 30
0.0
 10
15.0004797961
 20
14.2362940702
 30
0.0
 10
15.0567116362
 20
14.097637633
 30
0.0
 10
15.096045072
 20
13.9923648673
 30
0.0
 10
15.1324430951
 20
13.8860208595
 30
0.0
 10
15.1658947554
 20
13.7788616635
 30
0.0
 10
15.1963610948
 20
13.6711820908
 30
0.0
 10
15.2328513657
 20
13.527624718
 30
0.0
 10
15.2711449891
 20
13.3478438885
 30
0.0
 10
15.3064827055
 20
13.1317478417
 30
0.0
 10
15.3322227234
 20
12.9163086047
 30
0.0
 10
15.349467287
 20
12.7019430344
 30
0.0
 10
15.3591018347
 20
12.4890346015
 30
0.0
 10
15.3610662733
 20
12.3476081835
 30
0.0
 10
15.3610662733
 20
12.2772331807
 30
0.0
  0
SPLINE
  5
314
100
AcDbEntity
  8
0
100
AcDbSpline
 62
7
  6
CONTINUOUS
 70
0
 71
3
 72
73
 73
69
 74
0
 42
0.0000001
 43
0.0000001
 44
0.0000000001
 40
0.0
 40
0.0
 40
0.0
 40
0.0
 40
0.0175539168
 40
0.0346532191
 40
0.0512356439
 40
0.0672657042
 40
0.0826909043
 40
0.0901427281
 40
0.0974192078
 40
0.1046417115
 40
0.1119723357
 40
0.1195378408
 40
0.1273341131
 40
0.1352245422
 40
0.1431073834
 40
0.1509388725
 40
0.1587001856
 40
0.174030034
 40
0.1891558249
 40
0.2041926086
 40
0.2192440117
 40
0.2342947592
 40
0.2492847255
 40
0.2567303766
 40
0.2641259682
 40
0.271450823
 40
0.2787133049
 40
0.2933101697
 40
0.3081475994
 40
0.323241614
 40
0.3384945856
 40
0.3538674602
 40
0.369392987
 40
0.385101895
 40
0.4010195091
 40
0.4171444053
 40
0.4334452628
 40
0.4498650408
 40
0.4663288061
 40
0.4827947164
 40
0.4992413389
 40
0.5319911301
 40
0.5482615684
 40
0.5644354465
 40
0.5964235658
 40
0.6278669421
 40
0.6433834036
 40
0.6587864293
 40
0.6741058803
 40
0.6893969526
 40
0.7047225194
 40
0.7200873
 40
0.7354762349
 40
0.7508935137
 40
0.766340493
 40
0.7818021739
 40
0.8126896787
 40
0.8434200585
 40
0.8586701643
 40
0.8738056
 40
0.8888594976
 40
0.9040116595
 40
0.9193945269
 40
0.9350279696
 40
0.9509150147
 40
0.9670504458
 40
0.9834192339
 40
1.0
 40
1.0
 40
1.0
 40
1.0
 10
7.2388579656
 20
12.7909582635
 30
0.0
 10
7.2483418085
 20
12.8528941596
 30
0.0
 10
7.2671788748
 20
12.9751449926
 30
0.0
 10
7.2971504392
 20
13.1555635075
 30
0.0
 10
7.3301515081
 20
13.329934505
 30
0.0
 10
7.3675769116
 20
13.4973084864
 30
0.0
 10
7.4038098212
 20
13.6314405658
 30
0.0
 10
7.4360950989
 20
13.7341295228
 30
0.0
 10
7.4618531047
 20
13.8081412821
 30
0.0
 10
7.4899245757
 20
13.8808451848
 30
0.0
 10
7.5208594046
 20
13.9534985599
 30
0.0
 10
7.5547881396
 20
14.0270601824
 30
0.0
 10
7.5913962854
 20
14.1015558091
 30
0.0
 10
7.6300868457
 20
14.1762679349
 30
0.0
 10
7.6703351358
 20
14.2502958834
 30
0.0
 10
7.7119521664
 20
14.323034505
 30
0.0
 10
7.7689605661
 20
14.4175583831
 30
0.0
 10
7.8436197716
 20
14.5318034667
 30
0.0
 10
7.9396172606
 20
14.662871336
 30
0.0
 10
8.0421532808
 20
14.7876125578
 30
0.0
 10
8.1513852099
 20
14.9061709907
 30
0.0
 10
8.2669951029
 20
15.0182750306
 30
0.0
 10
8.36824858
 20
15.1058719113
 30
0.0
 10
8.4517453458
 20
15.1719716746
 30
0.0
 10
8.5152156417
 20
15.2192321082
 30
0.0
 10
8.5795685054
 20
15.2641526174
 30
0.0
 10
8.6668757542
 20
15.3210076311
 30
0.0
 10
8.7801781337
 20
15.3869382301
 30
0.0
 10
8.9223763939
 20
15.4581528336
 30
0.0
 10
9.0705707357
 20
15.5220053648
 30
0.0
 10
9.2237080109
 20
15.5786154325
 30
0.0
 10
9.3809557736
 20
15.6279352392
 30
0.0
 10
9.5419430942
 20
15.6701169276
 30
0.0
 10
9.7065586341
 20
15.7054274001
 30
0.0
 10
9.8746212986
 20
15.7341153679
 30
0.0
 10
10.045771327
 20
15.7564414361
 30
0.0
 10
10.2193992399
 20
15.7727026165
 30
0.0
 10
10.3946981452
 20
15.7829422141
 30
0.0
 10
10.5708401694
 20
15.7869399083
 30
0.0
 10
10.7471123091
 20
15.7845774479
 30
0.0
 10
10.9812353875
 20
15.7728632499
 30
0.0
 10
11.2138786284
 20
15.7481457573
 30
0.0
 10
11.4434872715
 20
15.7099859154
 30
0.0
 10
11.6687147377
 20
15.6631620107
 30
0.0
 10
11.9431217882
 20
15.5880140256
 30
0.0
 10
12.2076414459
 20
15.4895935959
 30
0.0
 10
12.4101964671
 20
15.3970894809
 30
0.0
 10
12.5567914548
 20
15.3210969864
 30
0.0
 10
12.6985622901
 20
15.2380231926
 30
0.0
 10
12.8355526665
 20
15.1477840313
 30
0.0
 10
12.9678193778
 20
15.0504840867
 30
0.0
 10
13.0952158043
 20
14.9463379575
 30
0.0
 10
13.217394432
 20
14.8356288907
 30
0.0
 10
13.3340100896
 20
14.7186619098
 30
0.0
 10
13.4447470704
 20
14.5957603921
 30
0.0
 10
13.5840335028
 20
14.4246235339
 30
0.0
 10
13.7414526207
 20
14.1983693786
 30
0.0
 10
13.874579319
 20
13.9578484381
 30
0.0
 10
13.9648381515
 20
13.7591501
 30
0.0
 10
14.0238712063
 20
13.6079893279
 30
0.0
 10
14.0742531245
 20
13.4540986667
 30
0.0
 10
14.1162796485
 20
13.2968103236
 30
0.0
 10
14.1505293562
 20
13.1355440582
 30
0.0
 10
14.1775604813
 20
12.9702643313
 30
0.0
 10
14.1977668815
 20
12.8013152704
 30
0.0
 10
14.211563266
 20
12.6290972611
 30
0.0
 10
14.2194442314
 20
12.4540376416
 30
0.0
 10
14.2210662733
 20
12.3364173588
 30
0.0
 10
14.2210662733
 20
12.2772331807
 30
0.0
  0
SPLINE
  5
315
100
AcDbEntity
  8
0
100
AcDbSpline
 62
9
  6
CONTINUOUS
 70
0
 71
3
 72
15
 73
11
 74
0
 42
0.0000001
 43
0.0000001
 44
0.0000000001
 40
0.0
 40
0.0
 40
0.0
 40
0.0
 40
0.3520452407
 40
0.5089877437
 40
0.6492500376
 40
0.770210421
 40
0.8698145801
 40
0.946664928
 40
0.9763013578
 40
1.0
 40
1.0
 40
1.0
 40
1.0
 10
14.8986962822
 20
5.0431999905
 30
0.0
 10
14.9138701486
 20
5.0441813955
 30
0.0
 10
14.9357955461
 20
5.0457934337
 30
0.0
 10
14.9637855922
 20
5.0475198868
 30
0.0
 10
14.9818322757
 20
5.0482877993
 30
0.0
 10
14.9974205471
 20
5.048462742
 30
0.0
 10
15.0102630912
 20
5.0480226922
 30
0.0
 10
15.0191358781
 20
5.0471819997
 30
0.0
 10
15.0246805004
 20
5.0462346121
 30
0.0
 10
15.0269255148
 20
5.0457050882
 30
0.0
 10
15.0279079458
 20
5.0454177315
 30
0.0
  0
SPLINE
  5
316
100
AcDbEntity
  8
0
100
AcDbSpline
 62
9
  6
CONTINUOUS
 70
0
 71
3
 72
12
 73
8
 74
0
 42
0.0000001
 43
0.0000001
 44
0.0000000001
 40
0.0
 40
0.0
 40
0.0
 40
0.0
 40
0.318034185
 40
0.6145251285
 40
0.849018253
 40
0.9359963321
 40
1.0
 40
1.0
 40
1.0
 40
1.0
 10
14.9188605774
 20
4.9356279988
 30
0.0
 10
14.9168198822
 20
4.9470499064
 30
0.0
 10
14.912836641
 20
4.9691128856
 30
0.0
 10
14.9072235106
 20
4.9995746314
 30
0.0
 10
14.9030186632
 20
5.021724336
 30
0.0
 10
14.9002912365
 20
5.0355205317
 30
0.0
 10
14.8991853969
 20
5.0409167773
 30
0.0
 10
14.8986962806
 20
5.0432000081
 30
0.0
  0
SPLINE
  5
317
100
AcDbEntity
  8
0
100
AcDbSpline
 62
9
  6
CONTINUOUS
 70
0
 71
3
 72
11
 73
7
 74
0
 42
0.0000001
 43
0.0000001
 44
0.0000000001
 40
0.0
 40
0.0
 40
0.0
 40
0.0
 40
0.2470932882
 40
0.5010148532
 40
0.7543979017
 40
1.0
 40
1.0
 40
1.0
 40
1.0
 10
14.9593488636
 20
4.9440049989
 30
0.0
 10
14.9600828378
 20
4.9545012588
 30
0.0
 10
14.964529694
 20
4.9756454207
 30
0.0
 10
14.9788908834
 20
5.0047986708
 30
0.0
 10
15.0006582248
 20
5.0288377751
 30
0.0
 10
15.0185280439
 20
5.0407922092
 30
0.0
 10
15.0279079442
 20
5.0454177294
 30
0.0
  0
SPLINE
  5
318
100
AcDbEntity
  8
0
100
AcDbSpline
 62
9
  6
CONTINUOUS
 70
0
 71
3
 72
15
 73
11
 74
0
 42
0.0000001
 43
0.0000001
 44
0.0000000001
 40
0.0
 40
0.0
 40
0.0
 40
0.0
 40
0.1555469595
 40
0.3105871354
 40
0.459026886
 40
0.5953979295
 40
0.7163757463
 40
0.8227261175
 40
0.916324287
 40
1.0
 40
1.0
 40
1.0
 40
1.0
 10
14.9407494371
 20
8.3552249031
 30
0.0
 10
14.94045209
 20
8.3577924759
 30
0.0
 10
14.9396131763
 20
8.3628936005
 30
0.0
 10
14.9376925578
 20
8.3702868612
 30
0.0
 10
14.9351481458
 20
8.3771534715
 30
0.0
 10
14.9320309929
 20
8.3831614874
 30
0.0
 10
14.9283323758
 20
8.3879873967
 30
0.0
 10
14.924267279
 20
8.3915054312
 30
0.0
 10
14.9200333627
 20
8.3936868737
 30
0.0
 10
14.9170767757
 20
8.3942332959
 30
0.0
 10
14.9156863316
 20
8.3942340144
 30
0.0
  0
SPLINE
  5
319
100
AcDbEntity
  8
0
100
AcDbSpline
 62
9
  6
CONTINUOUS
 70
0
 71
3
 72
15
 73
11
 74
0
 42
0.0000001
 43
0.0000001
 44
0.0000000001
 40
0.0
 40
0.0
 40
0.0
 40
0.0
 40
0.1020328838
 40
0.2086694335
 40
0.3224560643
 40
0.4448172021
 40
0.5757103475
 40
0.7137241089
 40
0.8564801552
 40
1.0
 40
1.0
 40
1.0
 40
1.0
 10
13.927214332
 20
7.6572310923
 30
0.0
 10
13.9247308066
 20
7.6572320653
 30
0.0
 10
13.9196255245
 20
7.6564424591
 30
0.0
 10
13.9124325197
 20
7.6530771504
 30
0.0
 10
13.9059721473
 20
7.6476699182
 30
0.0
 10
13.9004873959
 20
7.6405414301
 30
0.0
 10
13.8961904799
 20
7.6319860524
 30
0.0
 10
13.893231093
 20
7.6223669262
 30
0.0
 10
13.891770044
 20
7.6121059448
 30
0.0
 10
13.8917930098
 20
7.6051082798
 30
0.0
 10
13.8920709035
 20
7.6016260139
 30
0.0
  0
SPLINE
  5
31A
100
AcDbEntity
  8
0
100
AcDbSpline
 62
9
  6
CONTINUOUS
 70
0
 71
3
 72
15
 73
11
 74
0
 42
0.0000001
 43
0.0000001
 44
0.0000000001
 40
0.0
 40
0.0
 40
0.0
 40
0.0
 40
0.0366107861
 40
0.0630992427
 40
0.0961173879
 40
0.1829581966
 40
0.2984839781
 40
0.4422594741
 40
0.6103799162
 40
1.0
 40
1.0
 40
1.0
 40
1.0
 10
14.9644510321
 20
8.3552253409
 30
0.0
 10
14.9643509881
 20
8.3555024552
 30
0.0
 10
14.9639063344
 20
8.3558506008
 30
0.0
 10
14.9631998422
 20
8.3561382768
 30
0.0
 10
14.9620547984
 20
8.3564448262
 30
0.0
 10
14.9601705258
 20
8.3566697095
 30
0.0
 10
14.9573834616
 20
8.3567498136
 30
0.0
 10
14.9539444779
 20
8.3566298928
 30
0.0
 10
14.9483140942
 20
8.3562071653
 30
0.0
 10
14.9438559739
 20
8.3556640778
 30
0.0
 10
14.9407513788
 20
8.3552255365
 30
0.0
  0
SPLINE
  5
31B
100
AcDbEntity
  8
0
100
AcDbSpline
 62
9
  6
CONTINUOUS
 70
0
 71
3
 72
15
 73
11
 74
0
 42
0.0000001
 43
0.0000001
 44
0.0000000001
 40
0.0
 40
0.0
 40
0.0
 40
0.0
 40
0.1650576033
 40
0.3228743673
 40
0.4695309329
 40
0.6023489867
 40
0.7204483449
 40
0.8241688614
 40
0.9158581856
 40
1.0
 40
1.0
 40
1.0
 40
1.0
 10
14.7673661937
 20
8.3552254427
 30
0.0
 10
14.7676597613
 20
8.3579064297
 30
0.0
 10
14.7684588165
 20
8.3631293187
 30
0.0
 10
14.7702945551
 20
8.3705895742
 30
0.0
 10
14.7727022742
 20
8.3773330415
 30
0.0
 10
14.7756329829
 20
8.3831523599
 30
0.0
 10
14.7789961931
 20
8.3879051746
 30
0.0
 10
14.7827484358
 20
8.3914560137
 30
0.0
 10
14.7867979244
 20
8.3936926059
 30
0.0
 10
14.7896874258
 20
8.3942335577
 30
0.0
 10
14.791062288
 20
8.3942338875
 30
0.0
  0
SPLINE
  5
31C
100
AcDbEntity
  8
0
100
AcDbSpline
 62
9
  6
CONTINUOUS
 70
0
 71
3
 72
15
 73
11
 74
0
 42
0.0000001
 43
0.0000001
 44
0.0000000001
 40
0.0
 40
0.0
 40
0.0
 40
0.0
 40
0.0806632568
 40
0.1717921914
 40
0.2766508676
 40
0.3972992927
 40
0.5344774741
 40
0.6845860444
 40
0.8418752324
 40
1.0
 40
1.0
 40
1.0
 40
1.0
 10
14.7910709926
 20
8.3942338885
 30
0.0
 10
14.7923878086
 20
8.3942335147
 30
0.0
 10
14.795202989
 20
8.3936807628
 30
0.0
 10
14.799209501
 20
8.3914885018
 30
0.0
 10
14.8030492216
 20
8.3879652328
 30
0.0
 10
14.8065392833
 20
8.3831397483
 30
0.0
 10
14.8094798641
 20
8.3771385159
 30
0.0
 10
14.8118825615
 20
8.3702768607
 30
0.0
 10
14.813696861
 20
8.362886801
 30
0.0
 10
14.8144888668
 20
8.3577911934
 30
0.0
 10
14.8147698379
 20
8.3552251663
 30
0.0
  0
SPLINE
  5
31D
100
AcDbEntity
  8
0
100
AcDbSpline
 62
9
  6
CONTINUOUS
 70
0
 71
3
 72
11
 73
7
 74
0
 42
0.0000001
 43
0.0000001
 44
0.0000000001
 40
0.0
 40
0.0
 40
0.0
 40
0.0
 40
0.2393163568
 40
0.4999999132
 40
0.7606835041
 40
1.0
 40
1.0
 40
1.0
 40
1.0
 10
14.8147697065
 20
8.3552251058
 30
0.0
 10
14.811012555
 20
8.3557300955
 30
0.0
 10
14.8031187903
 20
8.3564622834
 30
0.0
 10
14.791067954
 20
8.3568494081
 30
0.0
 10
14.779017115
 20
8.3564622959
 30
0.0
 10
14.7711233468
 20
8.3557301159
 30
0.0
 10
14.7673661926
 20
8.3552251303
 30
0.0
  0
SPLINE
  5
31E
100
AcDbEntity
  8
0
100
AcDbSpline
 62
9
  6
CONTINUOUS
 70
0
 71
3
 72
14
 73
10
 74
0
 42
0.0000001
 43
0.0000001
 44
0.0000000001
 40
0.0
 40
0.0
 40
0.0
 40
0.0
 40
0.2498945615
 40
0.3750895006
 40
0.5003130062
 40
0.6254914236
 40
0.7505433362
 40
0.8753996047
 40
1.0
 40
1.0
 40
1.0
 40
1.0
 10
14.5616446159
 20
5.2883711855
 30
0.0
 10
14.5167765256
 20
5.5415845972
 30
0.0
 10
14.4712801357
 20
5.9258300212
 30
0.0
 10
14.4476905594
 20
6.4402415183
 30
0.0
 10
14.448326483
 20
6.826917906
 30
0.0
 10
14.4671461621
 20
7.2129643583
 30
0.0
 10
14.5044322083
 20
7.5973056052
 30
0.0
 10
14.5604643243
 20
7.9787508834
 30
0.0
 10
14.6115190091
 20
8.2305306079
 30
0.0
 10
14.6413864129
 20
8.355225487
 30
0.0
  0
SPLINE
  5
31F
100
AcDbEntity
  8
0
100
AcDbSpline
 62
9
  6
CONTINUOUS
 70
0
 71
3
 72
18
 73
14
 74
0
 42
0.0000001
 43
0.0000001
 44
0.0000000001
 40
0.0
 40
0.0
 40
0.0
 40
0.0
 40
0.2154566061
 40
0.4082288252
 40
0.5768572783
 40
0.7197209491
 40
0.835216612
 40
0.8821500446
 40
0.9215399127
 40
0.9531303525
 40
0.9766887223
 40
0.9921020185
 40
1.0
 40
1.0
 40
1.0
 40
1.0
 10
14.5616370954
 20
5.2883684566
 30
0.0
 10
14.5599450033
 20
5.2884469998
 30
0.0
 10
14.5567356938
 20
5.2885308261
 30
0.0
 10
14.5522001152
 20
5.2885050255
 30
0.0
 10
14.5482366851
 20
5.2884144369
 30
0.0
 10
14.5448802216
 20
5.2883442321
 30
0.0
 10
14.5424794534
 20
5.2883881786
 30
0.0
 10
14.5408945766
 20
5.2884495548
 30
0.0
 10
14.5399669879
 20
5.288488543
 30
0.0
 10
14.5392279043
 20
5.2885153321
 30
0.0
 10
14.5386638942
 20
5.288514167
 30
0.0
 10
14.5383140313
 20
5.2884905741
 30
0.0
 10
14.5381114646
 20
5.2884247269
 30
0.0
 10
14.5380849482
 20
5.2883685797
 30
0.0
  0
SPLINE
  5
320
100
AcDbEntity
  8
0
100
AcDbSpline
 62
9
  6
CONTINUOUS
 70
0
 71
3
 72
18
 73
14
 74
0
 42
0.0000001
 43
0.0000001
 44
0.0000000001
 40
0.0
 40
0.0
 40
0.0
 40
0.0
 40
0.0623523297
 40
0.1248002646
 40
0.249889975
 40
0.3751416362
 40
0.5004481608
 40
0.625704473
 40
0.7508017066
 40
0.8132625422
 40
0.8756315603
 40
0.9378957446
 40
1.0
 40
1.0
 40
1.0
 40
1.0
 10
14.5380738438
 20
5.2884336647
 30
0.0
 10
14.5276440634
 20
5.3517055054
 30
0.0
 10
14.5084933546
 20
5.4786368125
 30
0.0
 10
14.4765525504
 20
5.7336614882
 30
0.0
 10
14.4480869875
 20
6.05421627
 30
0.0
 10
14.431705955
 20
6.440330824
 30
0.0
 10
14.4329211324
 20
6.8269673424
 30
0.0
 10
14.4516916279
 20
7.2129843394
 30
0.0
 10
14.4819191451
 20
7.5333963463
 30
0.0
 10
14.5149387085
 20
7.7883210374
 30
0.0
 10
14.5441243475
 20
7.9785298417
 30
0.0
 10
14.5779345509
 20
8.1675976971
 30
0.0
 10
14.6037904483
 20
8.2928845571
 30
0.0
 10
14.6176847176
 20
8.3552255529
 30
0.0
  0
SPLINE
  5
321
100
AcDbEntity
  8
0
100
AcDbSpline
 62
9
  6
CONTINUOUS
 70
0
 71
3
 72
14
 73
10
 74
0
 42
0.0000001
 43
0.0000001
 44
0.0000000001
 40
0.0
 40
0.0
 40
0.0
 40
0.0
 40
0.1477266807
 40
0.3056169441
 40
0.4625174718
 40
0.6079272733
 40
0.734492616
 40
0.8415519478
 40
1.0
 40
1.0
 40
1.0
 40
1.0
 10
14.7675059815
 20
5.2883702588
 30
0.0
 10
14.7676123408
 20
5.2870417752
 30
0.0
 10
14.7676645438
 20
5.284279149
 30
0.0
 10
14.7673578161
 20
5.2801125759
 30
0.0
 10
14.7666537027
 20
5.2760128237
 30
0.0
 10
14.7655575326
 20
5.2722915346
 30
0.0
 10
14.7639887033
 20
5.269210384
 30
0.0
 10
14.7618020073
 20
5.2664686314
 30
0.0
 10
14.759511265
 20
5.2650649094
 30
0.0
 10
14.7580818065
 20
5.2650649033
 30
0.0
  0
SPLINE
  5
322
100
AcDbEntity
  8
0
100
AcDbSpline
 62
9
  6
CONTINUOUS
 70
0
 71
3
 72
14
 73
10
 74
0
 42
0.0000001
 43
0.0000001
 44
0.0000000001
 40
0.0
 40
0.0
 40
0.0
 40
0.0
 40
0.1664224024
 40
0.2750066227
 40
0.401313117
 40
0.5450787135
 40
0.6995973091
 40
0.8548334102
 40
1.0
 40
1.0
 40
1.0
 40
1.0
 10
14.5512622439
 20
5.2650660288
 30
0.0
 10
14.5527988989
 20
5.2650411992
 30
0.0
 10
14.5552881898
 20
5.2663602535
 30
0.0
 10
14.5577401455
 20
5.2691145388
 30
0.0
 10
14.5594762434
 20
5.2721949906
 30
0.0
 10
14.5606937502
 20
5.2759369505
 30
0.0
 10
14.561474825
 20
5.2800609232
 30
0.0
 10
14.5618173399
 20
5.2842544204
 30
0.0
 10
14.5617614883
 20
5.2870352147
 30
0.0
 10
14.5616446972
 20
5.2883706827
 30
0.0
  0
SPLINE
  5
323
100
AcDbEntity
  8
0
100
AcDbSpline
 62
9
  6
CONTINUOUS
 70
0
 71
3
 72
15
 73
11
 74
0
 42
0.0000001
 43
0.0000001
 44
0.0000000001
 40
0.0
 40
0.0
 40
0.0
 40
0.0
 40
0.1019736933
 40
0.2085830082
 40
0.3223747533
 40
0.4447566205
 40
0.5756732795
 40
0.7137089897
 40
0.8564799313
 40
1.0
 40
1.0
 40
1.0
 40
1.0
 10
14.3921197984
 20
7.6572310926
 30
0.0
 10
14.3896360495
 20
7.6572319786
 30
0.0
 10
14.3845294735
 20
7.6564407235
 30
0.0
 10
14.3773351383
 20
7.6530702821
 30
0.0
 10
14.3708733038
 20
7.6476560711
 30
0.0
 10
14.3653878668
 20
7.6405189289
 30
0.0
 10
14.3610926521
 20
7.6319536464
 30
0.0
 10
14.3581372833
 20
7.6223246648
 30
0.0
 10
14.35668235
 20
7.6120548606
 30
0.0
 10
14.3567106783
 20
7.6050521168
 30
0.0
 10
14.35699164
 20
7.6015677418
 30
0.0
  0
SPLINE
  5
324
100
AcDbEntity
  8
0
100
AcDbSpline
 62
9
  6
CONTINUOUS
 70
0
 71
3
 72
9
 73
5
 74
0
 42
0.0000001
 43
0.0000001
 44
0.0000000001
 40
0.0
 40
0.0
 40
0.0
 40
0.0
 40
0.4799049688
 40
1.0
 40
1.0
 40
1.0
 40
1.0
 10
14.5380842229
 20
5.2883708046
 30
0.0
 10
14.5383979223
 20
5.2864981352
 30
0.0
 10
14.5383667394
 20
5.2824767903
 30
0.0
 10
14.5372932157
 20
5.2786129612
 30
0.0
 10
14.5364629046
 20
5.2767301377
 30
0.0
  0
SPLINE
  5
325
100
AcDbEntity
  8
0
100
AcDbSpline
 62
9
  6
CONTINUOUS
 70
0
 71
3
 72
11
 73
7
 74
0
 42
0.0000001
 43
0.0000001
 44
0.0000000001
 40
0.0
 40
0.0
 40
0.0
 40
0.0
 40
0.2566416755
 40
0.5137293494
 40
0.7663691568
 40
1.0
 40
1.0
 40
1.0
 40
1.0
 10
14.5364629046
 20
5.2767301377
 30
0.0
 10
14.535681198
 20
5.2749575301
 30
0.0
 10
14.5335938689
 20
5.2715942929
 30
0.0
 10
14.528997234
 20
5.2679305126
 30
0.0
 10
14.5238071034
 20
5.2656722117
 30
0.0
 10
14.5201292407
 20
5.2650654872
 30
0.0
 10
14.5183656248
 20
5.2650654867
 30
0.0
  0
SPLINE
  5
326
100
AcDbEntity
  8
0
100
AcDbSpline
 62
9
  6
CONTINUOUS
 70
0
 71
3
 72
15
 73
11
 74
0
 42
0.0000001
 43
0.0000001
 44
0.0000000001
 40
0.0
 40
0.0
 40
0.0
 40
0.0
 40
0.1019771189
 40
0.2085914639
 40
0.3223884576
 40
0.4447734633
 40
0.5756899563
 40
0.7137225235
 40
0.8564877866
 40
1.0
 40
1.0
 40
1.0
 40
1.0
 10
15.1900142585
 20
7.6572323842
 30
0.0
 10
15.1924982215
 20
7.6572327601
 30
0.0
 10
15.197605103
 20
7.6564404937
 30
0.0
 10
15.2047996106
 20
7.6530687152
 30
0.0
 10
15.2112615082
 20
7.6476534217
 30
0.0
 10
15.2167469026
 20
7.6405154086
 30
0.0
 10
15.2210418699
 20
7.631949444
 30
0.0
 10
15.2239967827
 20
7.622319997
 30
0.0
 10
15.2254511175
 20
7.6120499672
 30
0.0
 10
15.2254223162
 20
7.6050471836
 30
0.0
 10
15.2251410911
 20
7.6015628375
 30
0.0
  0
SPLINE
  5
327
100
AcDbEntity
  8
0
100
AcDbSpline
 62
9
  6
CONTINUOUS
 70
0
 71
3
 72
15
 73
11
 74
0
 42
0.0000001
 43
0.0000001
 44
0.0000000001
 40
0.0
 40
0.0
 40
0.0
 40
0.0
 40
0.1020227152
 40
0.2086574218
 40
0.3224503348
 40
0.4448229941
 40
0.57572825
 40
0.7137489136
 40
0.8565009115
 40
1.0
 40
1.0
 40
1.0
 40
1.0
 10
15.6548564525
 20
7.6572323842
 30
0.0
 10
15.6573417385
 20
7.657232765
 30
0.0
 10
15.6624506812
 20
7.6564407902
 30
0.0
 10
15.6696478137
 20
7.6530693114
 30
0.0
 10
15.6761106454
 20
7.6476537248
 30
0.0
 10
15.6815958888
 20
7.6405154875
 30
0.0
 10
15.6858910094
 20
7.6319496875
 30
0.0
 10
15.6888462365
 20
7.6223203589
 30
0.0
 10
15.6903006785
 20
7.6120503843
 30
0.0
 10
15.6902718842
 20
7.6050476479
 30
0.0
 10
15.6899906736
 20
7.6015633217
 30
0.0
  0
SPLINE
  5
328
100
AcDbEntity
  8
0
100
AcDbSpline
 62
9
  6
CONTINUOUS
 70
0
 71
3
 72
10
 73
6
 74
0
 42
0.0000001
 43
0.0000001
 44
0.0000000001
 40
0.0
 40
0.0
 40
0.0
 40
0.0
 40
0.214450644
 40
0.4589952141
 40
1.0
 40
1.0
 40
1.0
 40
1.0
 10
14.3569940568
 20
7.601568128
 30
0.0
 10
14.3645245782
 20
7.601399593
 30
0.0
 10
14.3806453137
 20
7.6011689995
 30
0.0
 10
14.4157694957
 20
7.6010274177
 30
0.0
 10
14.4433618562
 20
7.6012629924
 30
0.0
 10
14.4623618572
 20
7.6015623771
 30
0.0
  0
SPLINE
  5
329
100
AcDbEntity
  8
0
100
AcDbSpline
 62
9
  6
CONTINUOUS
 70
0
 71
3
 72
15
 73
11
 74
0
 42
0.0000001
 43
0.0000001
 44
0.0000000001
 40
0.0
 40
0.0
 40
0.0
 40
0.0
 40
0.0872769394
 40
0.1814171414
 40
0.28652066
 40
0.4048765001
 40
0.5369521715
 40
0.6820310445
 40
0.8376185348
 40
1.0
 40
1.0
 40
1.0
 40
1.0
 10
14.6664554489
 20
8.3942341471
 30
0.0
 10
14.6650035832
 20
8.3942341339
 30
0.0
 10
14.6619692189
 20
8.3937014406
 30
0.0
 10
14.6576880942
 20
8.3914792319
 30
0.0
 10
14.6537114723
 20
8.3879332079
 30
0.0
 10
14.6501452028
 20
8.383178104
 30
0.0
 10
14.6470391825
 20
8.3773541659
 30
0.0
 10
14.644488389
 20
8.3706046987
 30
0.0
 10
14.642543986
 20
8.3631389526
 30
0.0
 10
14.6416971589
 20
8.3579087172
 30
0.0
 10
14.6413863896
 20
8.3552254119
 30
0.0
  0
SPLINE
  5
32A
100
AcDbEntity
  8
0
100
AcDbSpline
 62
9
  6
CONTINUOUS
 70
0
 71
3
 72
15
 73
11
 74
0
 42
0.0000001
 43
0.0000001
 44
0.0000000001
 40
0.0
 40
0.0
 40
0.0
 40
0.0
 40
0.3896166662
 40
0.5577373706
 40
0.7015137641
 40
0.8170406374
 40
0.9038824476
 40
0.936900953
 40
0.9633896036
 40
1.0
 40
1.0
 40
1.0
 40
1.0
 10
14.6413863868
 20
8.3552254035
 30
0.0
 10
14.6382815615
 20
8.3556640062
 30
0.0
 10
14.633823096
 20
8.356207177
 30
0.0
 10
14.6281922608
 20
8.3566299999
 30
0.0
 10
14.624752971
 20
8.3567499739
 30
0.0
 10
14.6219656467
 20
8.356669903
 30
0.0
 10
14.6200811927
 20
8.3564450335
 30
0.0
 10
14.6189360321
 20
8.3561384841
 30
0.0
 10
14.6182294721
 20
8.3558508051
 30
0.0
 10
14.6177847643
 20
8.3555026514
 30
0.0
 10
14.6176847055
 20
8.3552255193
 30
0.0
  0
SPLINE
  5
32B
100
AcDbEntity
  8
0
100
AcDbSpline
 62
9
  6
CONTINUOUS
 70
0
 71
3
 72
10
 73
6
 74
0
 42
0.0000001
 43
0.0000001
 44
0.0000000001
 40
0.0
 40
0.0
 40
0.0
 40
0.0
 40
0.5227983272
 40
0.7695979452
 40
1.0
 40
1.0
 40
1.0
 40
1.0
 10
14.7910662509
 20
5.0408750099
 30
0.0
 10
14.7723028338
 20
5.0408750132
 30
0.0
 10
14.7446794038
 20
5.0409615964
 30
0.0
 10
14.7087987496
 20
5.0418579469
 30
0.0
 10
14.6916881552
 20
5.0426663355
 30
0.0
 10
14.6834361891
 20
5.0432001068
 30
0.0
  0
SPLINE
  5
32C
100
AcDbEntity
  8
0
100
AcDbSpline
 62
9
  6
CONTINUOUS
 70
0
 71
3
 72
18
 73
14
 74
0
 42
0.0000001
 43
0.0000001
 44
0.0000000001
 40
0.0
 40
0.0
 40
0.0
 40
0.0
 40
0.2217632843
 40
0.4188860572
 40
0.5899023883
 40
0.7333143482
 40
0.8475949986
 40
0.8933269583
 40
0.9311916294
 40
0.9609911404
 40
0.9825262618
 40
0.9955964687
 40
1.0
 40
1.0
 40
1.0
 40
1.0
 10
14.5542242807
 20
5.0454179792
 30
0.0
 10
14.553615154
 20
5.0452398215
 30
0.0
 10
14.5524614853
 20
5.0449137589
 30
0.0
 10
14.5508287679
 20
5.0444842445
 30
0.0
 10
14.5494066798
 20
5.0441361956
 30
0.0
 10
14.5482103055
 20
5.0438643399
 30
0.0
 10
14.5473605997
 20
5.0436845034
 30
0.0
 10
14.5468052507
 20
5.0435748276
 30
0.0
 10
14.5464863191
 20
5.0435124061
 30
0.0
 10
14.5462357287
 20
5.0434701538
 30
0.0
 10
14.546053135
 20
5.0434290845
 30
0.0
 10
14.5459450211
 20
5.0434263233
 30
0.0
 10
14.5458936448
 20
5.0434015357
 30
0.0
 10
14.545882039
 20
5.0434064468
 30
0.0
  0
SPLINE
  5
32D
100
AcDbEntity
  8
0
100
AcDbSpline
 62
9
  6
CONTINUOUS
 70
0
 71
3
 72
11
 73
7
 74
0
 42
0.0000001
 43
0.0000001
 44
0.0000000001
 40
0.0
 40
0.0
 40
0.0
 40
0.0
 40
0.251046138
 40
0.503997602
 40
0.7548678614
 40
1.0
 40
1.0
 40
1.0
 40
1.0
 10
13.6711882821
 20
1.569850155
 30
0.0
 10
13.6701286476
 20
1.5637257577
 30
0.0
 10
13.666702288
 20
1.5516250502
 30
0.0
 10
13.658134984
 20
1.534876569
 30
0.0
 10
13.6464288317
 20
1.5203431649
 30
0.0
 10
13.6370083716
 20
1.5123371933
 30
0.0
 10
13.6320307851
 20
1.5088650122
 30
0.0
  0
SPLINE
  5
32E
100
AcDbEntity
  8
0
100
AcDbSpline
 62
9
  6
CONTINUOUS
 70
0
 71
3
 72
22
 73
18
 74
0
 42
0.0000001
 43
0.0000001
 44
0.0000000001
 40
0.0
 40
0.0
 40
0.0
 40
0.0
 40
0.2240382531
 40
0.4232556022
 40
0.5953026859
 40
0.6705069774
 40
0.7382930913
 40
0.7985228844
 40
0.8510588466
 40
0.8957650749
 40
0.9325379052
 40
0.9613247895
 40
0.9820884937
 40
0.9894607691
 40
0.9948392061
 40
0.9982710366
 40
1.0
 40
1.0
 40
1.0
 40
1.0
 10
15.6899886593
 20
7.6015636374
 30
0.0
 10
15.6932513434
 20
7.6014905824
 30
0.0
 10
15.6994154723
 20
7.6013624023
 30
0.0
 10
15.7080858685
 20
7.6012162606
 30
0.0
 10
15.7145890257
 20
7.6011381309
 30
0.0
 10
15.7191779902
 20
7.6011069434
 30
0.0
 10
15.7221382448
 20
7.6010989981
 30
0.0
 10
15.7247682869
 20
7.6011052977
 30
0.0
 10
15.7270621047
 20
7.6011257544
 30
0.0
 10
15.7290138818
 20
7.6011601618
 30
0.0
 10
15.7306197433
 20
7.6012082766
 30
0.0
 10
15.7318750164
 20
7.6012691496
 30
0.0
 10
15.7327034795
 20
7.6013352603
 30
0.0
 10
15.7331855714
 20
7.6013985589
 30
0.0
 10
15.7334203315
 20
7.6014472546
 30
0.0
 10
15.7335608189
 20
7.601487678
 30
0.0
 10
15.7336335564
 20
7.6015389462
 30
0.0
 10
15.7336361238
 20
7.6015640003
 30
0.0
  0
SPLINE
  5
32F
100
AcDbEntity
  8
0
100
AcDbSpline
 62
9
  6
CONTINUOUS
 70
0
 71
3
 72
21
 73
17
 74
0
 42
0.0000001
 43
0.0000001
 44
0.0000000001
 40
0.0
 40
0.0
 40
0.0
 40
0.0
 40
0.1134449171
 40
0.1620892892
 40
0.2055112405
 40
0.2446529322
 40
0.2814739527
 40
0.3190448474
 40
0.3609930421
 40
0.4104953605
 40
0.4690930196
 40
0.5370846744
 40
0.6141859897
 40
0.6998146486
 40
0.79322723
 40
1.0
 40
1.0
 40
1.0
 40
1.0
 10
15.9107764307
 20
1.5698805502
 30
0.0
 10
15.9111793789
 20
1.567568155
 30
0.0
 10
15.9115075943
 20
1.5641935774
 30
0.0
 10
15.9110543196
 20
1.5599513757
 30
0.0
 10
15.9103032267
 20
1.5573243377
 30
0.0
 10
15.9090923466
 20
1.5551394058
 30
0.0
 10
15.9073745942
 20
1.5534776306
 30
0.0
 10
15.9051452865
 20
1.5524562729
 30
0.0
 10
15.9024568963
 20
1.5521511156
 30
0.0
 10
15.8993597753
 20
1.5525645339
 30
0.0
 10
15.8958574458
 20
1.5535993374
 30
0.0
 10
15.8919552811
 20
1.5552049532
 30
0.0
 10
15.8876770151
 20
1.557328639
 30
0.0
 10
15.8830510544
 20
1.5599178553
 30
0.0
 10
15.8762269274
 20
1.5640618318
 30
0.0
 10
15.8710437208
 20
1.5674875564
 30
0.0
 10
15.8674987557
 20
1.5698826817
 30
0.0
  0
LINE
  5
330
100
AcDbEntity
  8
0
100
AcDbLine
 62
9
  6
CONTINUOUS
 10
7.2318947828
 20
12.3476721919
 11
7.2221720584
 21
12.3492633597
  0
SPLINE
  5
331
100
AcDbEntity
  8
0
100
AcDbSpline
 62
9
  6
CONTINUOUS
 70
0
 71
3
 72
10
 73
6
 74
0
 42
0.0000001
 43
0.0000001
 44
0.0000000001
 40
0.0
 40
0.0
 40
0.0
 40
0.0
 40
0.541016577
 40
0.7855592269
 40
1.0
 40
1.0
 40
1.0
 40
1.0
 10
15.1197633796
 20
7.6015632845
 30
0.0
 10
15.1387652046
 20
7.6012628456
 30
0.0
 10
15.1663599705
 20
7.6010258021
 30
0.0
 10
15.2014867965
 20
7.6011654974
 30
0.0
 10
15.2176083399
 20
7.6013952599
 30
0.0
 10
15.2251390887
 20
7.6015634021
 30
0.0
  0
LINE
  5
332
100
AcDbEntity
  8
0
100
AcDbLine
 62
9
  6
CONTINUOUS
 10
14.5185868724
 20
5.4036029751
 11
14.5184771141
 21
5.4293731805
  0
SPLINE
  5
333
100
AcDbEntity
  8
0
100
AcDbSpline
 62
9
  6
CONTINUOUS
 70
0
 71
3
 72
25
 73
21
 74
0
 42
0.0000001
 43
0.0000001
 44
0.0000000001
 40
0.0
 40
0.0
 40
0.0
 40
0.0
 40
0.0010368959
 40
0.0022910297
 40
0.0040355435
 40
0.0089952073
 40
0.0159148088
 40
0.0247932192
 40
0.0356292982
 40
0.0484219013
 40
0.0631698817
 40
0.0985273847
 40
0.1416929118
 40
0.192662477
 40
0.2514364112
 40
0.3180156587
 40
0.3924017776
 40
0.5645512512
 40
0.7673544243
 40
1.0
 40
1.0
 40
1.0
 40
1.0
 10
5.3468252204
 20
10.5783296915
 30
0.0
 10
5.3468378623
 20
10.5783380072
 30
0.0
 10
5.3468751644
 20
10.5783237382
 30
0.0
 10
5.3469320106
 20
10.5783270699
 30
0.0
 10
5.3470490621
 20
10.5783168635
 30
0.0
 10
5.3472467002
 20
10.5783075459
 30
0.0
 10
5.3475494299
 20
10.57828747
 30
0.0
 10
5.3479371805
 20
10.5782634488
 30
0.0
 10
5.3484106559
 20
10.5782330606
 30
0.0
 10
5.3489695264
 20
10.5781972534
 30
0.0
 10
5.3498855222
 20
10.5781382304
 30
0.0
 10
5.3512438136
 20
10.5780505492
 30
0.0
 10
5.3531295854
 20
10.5779285113
 30
0.0
 10
5.3553565151
 20
10.5777867784
 30
0.0
 10
5.357924827
 20
10.5776295402
 30
0.0
 10
5.3608347745
 20
10.5774606418
 30
0.0
 10
5.3653974012
 20
10.5772125305
 30
0.0
 10
5.3719473708
 20
10.5769011747
 30
0.0
 10
5.3808061752
 20
10.5765242158
 30
0.0
 10
5.3871555067
 20
10.5762654767
 30
0.0
 10
5.3905477364
 20
10.5761271638
 30
0.0
  0
SPLINE
  5
334
100
AcDbEntity
  8
0
100
AcDbSpline
 62
9
  6
CONTINUOUS
 70
0
 71
3
 72
24
 73
20
 74
0
 42
0.0000001
 43
0.0000001
 44
0.0000000001
 40
0.0
 40
0.0
 40
0.0
 40
0.0
 40
0.0010465332
 40
0.0023512648
 40
0.0041747047
 40
0.0093709177
 40
0.0166216148
 40
0.0259132761
 40
0.0372324202
 40
0.0658994036
 40
0.1025155196
 40
0.1469743562
 40
0.1991701686
 40
0.258997897
 40
0.3263531844
 40
0.401132396
 40
0.5725511131
 40
0.7724406674
 40
1.0
 40
1.0
 40
1.0
 40
1.0
 10
7.2333563323
 20
10.3215645445
 30
0.0
 10
7.2333498274
 20
10.3215739947
 30
0.0
 10
7.2333177804
 20
10.3215706859
 30
0.0
 10
7.2332773159
 20
10.3215878708
 30
0.0
 10
7.2331871041
 20
10.3216086792
 30
0.0
 10
7.2330375442
 20
10.3216513086
 30
0.0
 10
7.2328064345
 20
10.3217112882
 30
0.0
 10
7.2325112889
 20
10.321789191
 30
0.0
 10
7.2319882849
 20
10.3219247604
 30
0.0
 10
7.2311747339
 20
10.3221326599
 30
0.0
 10
7.2300075803
 20
10.3224244187
 30
0.0
 10
7.228588453
 20
10.3227715597
 30
0.0
 10
7.226920043
 20
10.3231704752
 30
0.0
 10
7.225005135
 20
10.3236176832
 30
0.0
 10
7.2228464814
 20
10.3241096622
 30
0.0
 10
7.2194910072
 20
10.3248552838
 30
0.0
 10
7.2147081938
 20
10.3258750224
 30
0.0
 10
7.2082723589
 20
10.3271717583
 30
0.0
 10
7.2036682647
 20
10.3280440983
 30
0.0
 10
7.2012146993
 20
10.3284947172
 30
0.0
  0
SPLINE
  5
335
100
AcDbEntity
  8
0
100
AcDbSpline
 62
9
  6
CONTINUOUS
 70
0
 71
3
 72
16
 73
12
 74
0
 42
0.0000001
 43
0.0000001
 44
0.0000000001
 40
0.0
 40
0.0
 40
0.0
 40
0.0
 40
0.0593126272
 40
0.1350552035
 40
0.18268687
 40
0.2374652979
 40
0.3681248599
 40
0.5243923969
 40
0.6920474352
 40
0.8546274932
 40
1.0
 40
1.0
 40
1.0
 40
1.0
 10
14.4535662733
 20
4.061733183
 30
0.0
 10
14.4535662733
 20
4.0610799002
 30
0.0
 10
14.4532300716
 20
4.059579678
 30
0.0
 10
14.4520005044
 20
4.0579263799
 30
0.0
 10
14.4505110168
 20
4.0566450544
 30
0.0
 10
14.4483600464
 20
4.0552309317
 30
0.0
 10
14.4448725566
 20
4.0537380665
 30
0.0
 10
14.4399733969
 20
4.0526230024
 30
0.0
 10
14.4346234
 20
4.0521114569
 30
0.0
 10
14.4293753239
 20
4.0523325431
 30
0.0
 10
14.4260180341
 20
4.052887522
 30
0.0
 10
14.4244621791
 20
4.0532657388
 30
0.0
  0
LINE
  5
336
100
AcDbEntity
  8
0
100
AcDbLine
 62
9
  6
CONTINUOUS
 10
14.421320462
 20
4.1295745287
 11
14.4244621792
 21
4.0532657365
  0
SPLINE
  5
337
100
AcDbEntity
  8
0
100
AcDbSpline
 62
9
  6
CONTINUOUS
 70
0
 71
3
 72
15
 73
11
 74
0
 42
0.0000001
 43
0.0000001
 44
0.0000000001
 40
0.0
 40
0.0
 40
0.0
 40
0.0
 40
0.1170740088
 40
0.2395726488
 40
0.364822289
 40
0.4913254387
 40
0.6183342397
 40
0.7455188492
 40
0.8727509894
 40
1.0
 40
1.0
 40
1.0
 40
1.0
 10
14.4244621792
 20
4.0532657365
 30
0.0
 10
14.4253372616
 20
4.0314508976
 30
0.0
 10
14.431191145
 20
3.986871332
 30
0.0
 10
14.4524176933
 20
3.921824948
 30
0.0
 10
14.4864454511
 20
3.8603915611
 30
0.0
 10
14.5321692276
 20
3.8059764331
 30
0.0
 10
14.5878001005
 20
3.7611568577
 30
0.0
 10
14.6511527622
 20
3.7278343933
 30
0.0
 10
14.7197519197
 20
3.7073224358
 30
0.0
 10
14.7673364189
 20
3.7027069114
 30
0.0
 10
14.7910662733
 20
3.7027068945
 30
0.0
  0
SPLINE
  5
338
100
AcDbEntity
  8
0
100
AcDbSpline
 62
9
  6
CONTINUOUS
 70
0
 71
3
 72
16
 73
12
 74
0
 42
0.0000001
 43
0.0000001
 44
0.0000000001
 40
0.0
 40
0.0
 40
0.0
 40
0.0
 40
0.1995917901
 40
0.3788012245
 40
0.5348948832
 40
0.666579884
 40
0.7235336324
 40
0.7748620778
 40
0.8623973669
 40
0.9351035979
 40
1.0
 40
1.0
 40
1.0
 40
1.0
 10
13.7006624915
 20
1.5088650637
 30
0.0
 10
13.6959790258
 20
1.5074679075
 30
0.0
 10
13.6870719536
 20
1.504876411
 30
0.0
 10
13.6743761565
 20
1.5016363809
 30
0.0
 10
13.6631303004
 20
1.4995049957
 30
0.0
 10
13.6546911145
 20
1.4988067434
 30
0.0
 10
13.6488105109
 20
1.4990189734
 30
0.0
 10
13.6440525028
 20
1.4996421449
 30
0.0
 10
13.6390332468
 20
1.5011845958
 30
0.0
 10
13.6344479225
 20
1.5044431449
 30
0.0
 10
13.6325926054
 20
1.5073785311
 30
0.0
 10
13.6320308783
 20
1.5088650634
 30
0.0
  0
SPLINE
  5
339
100
AcDbEntity
  8
0
100
AcDbSpline
 62
9
  6
CONTINUOUS
 70
0
 71
3
 72
11
 73
7
 74
0
 42
0.0000001
 43
0.0000001
 44
0.0000000001
 40
0.0
 40
0.0
 40
0.0
 40
0.0
 40
0.2759531061
 40
0.5390561978
 40
0.7814182162
 40
1.0
 40
1.0
 40
1.0
 40
1.0
 10
13.7144750306
 20
1.5698502643
 30
0.0
 10
13.7149929785
 20
1.5640027877
 30
0.0
 10
13.7152259725
 20
1.5524949873
 30
0.0
 10
13.7131030235
 20
1.5359307489
 30
0.0
 10
13.7083670079
 20
1.5211805219
 30
0.0
 10
13.7034732765
 20
1.5125660936
 30
0.0
 10
13.7006645784
 20
1.5088603084
 30
0.0
  0
SPLINE
  5
33A
100
AcDbEntity
  8
0
100
AcDbSpline
 62
9
  6
CONTINUOUS
 70
0
 71
3
 72
21
 73
17
 74
0
 42
0.0000001
 43
0.0000001
 44
0.0000000001
 40
0.0
 40
0.0
 40
0.0
 40
0.0
 40
0.2067657694
 40
0.3001631963
 40
0.3857727919
 40
0.4628543133
 40
0.5308288907
 40
0.5894159588
 40
0.6389181365
 40
0.6808792581
 40
0.7184751464
 40
0.7553273924
 40
0.7944981397
 40
0.8379401725
 40
0.8865913657
 40
1.0
 40
1.0
 40
1.0
 40
1.0
 10
13.7144767372
 20
1.56984698
 30
0.0
 10
13.7109337744
 20
1.5674490519
 30
0.0
 10
13.7057532109
 20
1.5640199676
 30
0.0
 10
13.6989317667
 20
1.5598729998
 30
0.0
 10
13.6943076668
 20
1.5572825861
 30
0.0
 10
13.6900308728
 20
1.5551583705
 30
0.0
 10
13.6861297019
 20
1.5535527312
 30
0.0
 10
13.6826277995
 20
1.5525182694
 30
0.0
 10
13.6795304869
 20
1.5521054381
 30
0.0
 10
13.6768413599
 20
1.5524113649
 30
0.0
 10
13.6746108484
 20
1.5534334328
 30
0.0
 10
13.672891121
 20
1.5550955908
 30
0.0
 10
13.6716773127
 20
1.5572807535
 30
0.0
 10
13.6709224766
 20
1.5599079265
 30
0.0
 10
13.6704629534
 20
1.5641492908
 30
0.0
 10
13.6707856235
 20
1.5675237927
 30
0.0
 10
13.671184762
 20
1.5698361179
 30
0.0
  0
SPLINE
  5
33B
100
AcDbEntity
  8
0
100
AcDbSpline
 62
9
  6
CONTINUOUS
 70
0
 71
3
 72
22
 73
18
 74
0
 42
0.0000001
 43
0.0000001
 44
0.0000000001
 40
0.0
 40
0.0
 40
0.0
 40
0.0
 40
0.0017146901
 40
0.0051369601
 40
0.0105080843
 40
0.0178743627
 40
0.0386287369
 40
0.0674089139
 40
0.1041772335
 40
0.1488809525
 40
0.2014162659
 40
0.261647151
 40
0.329436001
 40
0.4046445901
 40
0.5767046339
 40
0.7759399306
 40
1.0
 40
1.0
 40
1.0
 40
1.0
 10
13.8484176171
 20
7.6016265411
 30
0.0
 10
13.8484200799
 20
7.6016016807
 30
0.0
 10
13.848492958
 20
7.6015509095
 30
0.0
 10
13.8486329556
 20
7.6015110771
 30
0.0
 10
13.8488676301
 20
7.6014628667
 30
0.0
 10
13.8493495055
 20
7.6014002916
 30
0.0
 10
13.8501779012
 20
7.6013348836
 30
0.0
 10
13.8514331209
 20
7.6012746937
 30
0.0
 10
13.8530391086
 20
7.601227109
 30
0.0
 10
13.8549911456
 20
7.601193091
 30
0.0
 10
13.857285369
 20
7.6011728731
 30
0.0
 10
13.8599159534
 20
7.6011666624
 30
0.0
 10
13.8628768853
 20
7.6011745453
 30
0.0
 10
13.8674670092
 20
7.601205433
 30
0.0
 10
13.8739719156
 20
7.6012827736
 30
0.0
 10
13.882644742
 20
7.6014274115
 30
0.0
 10
13.8888106416
 20
7.6015542607
 30
0.0
 10
13.8920742767
 20
7.6016265551
 30
0.0
  0
SPLINE
  5
33C
100
AcDbEntity
  8
0
100
AcDbSpline
 62
9
  6
CONTINUOUS
 70
0
 71
3
 72
12
 73
8
 74
0
 42
0.0000001
 43
0.0000001
 44
0.0000000001
 40
0.0
 40
0.0
 40
0.0
 40
0.0
 40
0.2536917132
 40
0.505919117
 40
0.6310030814
 40
0.7551727516
 40
1.0
 40
1.0
 40
1.0
 40
1.0
 10
6.3010353337
 20
10.432217893
 30
0.0
 10
6.3246076509
 20
10.4285998979
 30
0.0
 10
6.3716454427
 20
10.4215749079
 30
0.0
 10
6.4303664586
 20
10.4131795077
 30
0.0
 10
6.4770765738
 20
10.4068123771
 30
0.0
 10
6.5231327146
 20
10.4008039988
 30
0.0
 10
6.5575660253
 20
10.3966042702
 30
0.0
 10
6.5804250423
 20
10.3939288634
 30
0.0
  0
SPLINE
  5
33D
100
AcDbEntity
  8
0
100
AcDbSpline
 62
9
  6
CONTINUOUS
 70
0
 71
3
 72
9
 73
5
 74
0
 42
0.0000001
 43
0.0000001
 44
0.0000000001
 40
0.0
 40
0.0
 40
0.0
 40
0.0
 40
0.2529867356
 40
1.0
 40
1.0
 40
1.0
 40
1.0
 10
6.580425043
 20
10.3939288876
 30
0.0
 10
6.5876972251
 20
10.3931021013
 30
0.0
 10
6.6164309973
 20
10.3897366474
 30
0.0
 10
6.6451134405
 20
10.3859069988
 30
0.0
 10
6.6664759132
 20
10.382635916
 30
0.0
  0
SPLINE
  5
33E
100
AcDbEntity
  8
0
100
AcDbSpline
 62
9
  6
CONTINUOUS
 70
0
 71
3
 72
9
 73
5
 74
0
 42
0.0000001
 43
0.0000001
 44
0.0000000001
 40
0.0
 40
0.0
 40
0.0
 40
0.0
 40
0.2535727955
 40
1.0
 40
1.0
 40
1.0
 40
1.0
 10
6.6664759131
 20
10.3826359142
 30
0.0
 10
6.673469788
 20
10.3815649921
 30
0.0
 10
6.7010243172
 20
10.3771665391
 30
0.0
 10
6.7284753418
 20
10.3721344886
 30
0.0
 10
6.7489139583
 20
10.3681289992
 30
0.0
  0
SPLINE
  5
33F
100
AcDbEntity
  8
0
100
AcDbSpline
 62
9
  6
CONTINUOUS
 70
0
 71
3
 72
11
 73
7
 74
0
 42
0.0000001
 43
0.0000001
 44
0.0000000001
 40
0.0
 40
0.0
 40
0.0
 40
0.0
 40
0.2703215926
 40
0.528093831
 40
0.7718229351
 40
1.0
 40
1.0
 40
1.0
 40
1.0
 10
6.7489139598
 20
10.3681289586
 30
0.0
 10
6.7692687228
 20
10.3641070116
 30
0.0
 10
6.8091197168
 20
10.3566890829
 30
0.0
 10
6.8674642496
 20
10.3464223504
 30
0.0
 10
6.9227065401
 20
10.3372007286
 30
0.0
 10
6.9584848284
 20
10.3315532269
 30
0.0
 10
6.9757955839
 20
10.328895797
 30
0.0
  0
SPLINE
  5
340
100
AcDbEntity
  8
0
100
AcDbSpline
 62
9
  6
CONTINUOUS
 70
0
 71
3
 72
11
 73
7
 74
0
 42
0.0000001
 43
0.0000001
 44
0.0000000001
 40
0.0
 40
0.0
 40
0.0
 40
0.0
 40
0.2884270053
 40
0.5522284718
 40
0.7898085808
 40
1.0
 40
1.0
 40
1.0
 40
1.0
 10
6.9757955839
 20
10.328895797
 30
0.0
 10
6.9918217561
 20
10.3264355557
 30
0.0
 10
7.0225309519
 20
10.321887752
 30
0.0
 10
7.0665178194
 20
10.3158434891
 30
0.0
 10
7.1062339441
 20
10.3110550824
 30
0.0
 10
7.1312982015
 20
10.3086885559
 30
0.0
 10
7.1430786074
 20
10.3077733551
 30
0.0
  0
SPLINE
  5
341
100
AcDbEntity
  8
0
100
AcDbSpline
 62
9
  6
CONTINUOUS
 70
0
 71
3
 72
9
 73
5
 74
0
 42
0.0000001
 43
0.0000001
 44
0.0000000001
 40
0.0
 40
0.0
 40
0.0
 40
0.0
 40
0.5235753246
 40
1.0
 40
1.0
 40
1.0
 40
1.0
 10
7.1430786202
 20
10.3077732872
 30
0.0
 10
7.1498671453
 20
10.3072841391
 30
0.0
 10
7.1628238875
 20
10.3062163382
 30
0.0
 10
7.1757358423
 20
10.3046562379
 30
0.0
 10
7.1818576923
 20
10.3037188682
 30
0.0
  0
SPLINE
  5
342
100
AcDbEntity
  8
0
100
AcDbSpline
 62
9
  6
CONTINUOUS
 70
0
 71
3
 72
9
 73
5
 74
0
 42
0.0000001
 43
0.0000001
 44
0.0000000001
 40
0.0
 40
0.0
 40
0.0
 40
0.0
 40
0.2715209307
 40
1.0
 40
1.0
 40
1.0
 40
1.0
 10
7.1818576926
 20
10.303718862
 30
0.0
 10
7.1846956685
 20
10.3032843148
 30
0.0
 10
7.1951230001
 20
10.3015275459
 30
0.0
 10
7.2054509942
 20
10.2991692172
 30
0.0
 10
7.2128670902
 20
10.2970868307
 30
0.0
  0
SPLINE
  5
343
100
AcDbEntity
  8
0
100
AcDbSpline
 62
9
  6
CONTINUOUS
 70
0
 71
3
 72
26
 73
22
 74
0
 42
0.0000001
 43
0.0000001
 44
0.0000000001
 40
0.0
 40
0.0
 40
0.0
 40
0.0
 40
0.2329240394
 40
0.4357531068
 40
0.607839927
 40
0.6822179886
 40
0.748800751
 40
0.8075777608
 40
0.8585381752
 40
0.9016719251
 40
0.9369778907
 40
0.9516964823
 40
0.9644593625
 40
0.9752669463
 40
0.9841196629
 40
0.9910179794
 40
0.9959624739
 40
0.9977023283
 40
0.9989542193
 40
0.9997188091
 40
1.0
 40
1.0
 40
1.0
 40
1.0
 10
7.2128670936
 20
10.297086809
 30
0.0
 10
7.2161460598
 20
10.29619094
 30
0.0
 10
7.222283357
 20
10.2945259804
 30
0.0
 10
7.2308548347
 20
10.2922423382
 30
0.0
 10
7.2372006615
 20
10.2905925797
 30
0.0
 10
7.2416283811
 20
10.2894674851
 30
0.0
 10
7.2444556686
 20
10.2887583923
 30
0.0
 10
7.246953224
 20
10.2881394377
 30
0.0
 10
7.249119881
 20
10.2876078845
 30
0.0
 10
7.2509545665
 20
10.2871607654
 30
0.0
 10
7.2522757337
 20
10.2868402055
 30
0.0
 10
7.2531662187
 20
10.2866243666
 30
0.0
 10
7.2537092691
 20
10.2864926689
 30
0.0
 10
7.2541689395
 20
10.2863807878
 30
0.0
 10
7.2545456568
 20
10.2862888098
 30
0.0
 10
7.2548381944
 20
10.2862158549
 30
0.0
 10
7.2550316565
 20
10.2861679692
 30
0.0
 10
7.2551418764
 20
10.2861373816
 30
0.0
 10
7.2551976069
 20
10.2861243316
 30
0.0
 10
7.2552244135
 20
10.2861116387
 30
0.0
 10
7.2552445224
 20
10.2861095203
 30
0.0
 10
7.2552453301
 20
10.2861054971
 30
0.0
  0
SPLINE
  5
344
100
AcDbEntity
  8
0
100
AcDbSpline
 62
9
  6
CONTINUOUS
 70
0
 71
3
 72
9
 73
5
 74
0
 42
0.0000001
 43
0.0000001
 44
0.0000000001
 40
0.0
 40
0.0
 40
0.0
 40
0.0
 40
0.2470208429
 40
1.0
 40
1.0
 40
1.0
 40
1.0
 10
7.2012150691
 20
10.3284935811
 30
0.0
 10
7.2029002614
 20
10.3262827765
 30
0.0
 10
7.2089910217
 20
10.3167951138
 30
0.0
 10
7.2122879847
 20
10.3055405231
 30
0.0
 10
7.2128674611
 20
10.2970867264
 30
0.0
  0
SPLINE
  5
345
100
AcDbEntity
  8
0
100
AcDbSpline
 62
9
  6
CONTINUOUS
 70
0
 71
3
 72
9
 73
5
 74
0
 42
0.0000001
 43
0.0000001
 44
0.0000000001
 40
0.0
 40
0.0
 40
0.0
 40
0.0
 40
0.4926300771
 40
1.0
 40
1.0
 40
1.0
 40
1.0
 10
7.1305022279
 20
10.3393225049
 30
0.0
 10
7.1339202263
 20
10.3348548516
 30
0.0
 10
7.1395054795
 20
10.324717768
 30
0.0
 10
7.142403312
 20
10.3135273614
 30
0.0
 10
7.1430785699
 20
10.3077733598
 30
0.0
  0
SPLINE
  5
346
100
AcDbEntity
  8
0
100
AcDbSpline
 62
9
  6
CONTINUOUS
 70
0
 71
3
 72
10
 73
6
 74
0
 42
0.0000001
 43
0.0000001
 44
0.0000000001
 40
0.0
 40
0.0
 40
0.0
 40
0.0
 40
0.2208800504
 40
0.4651626133
 40
1.0
 40
1.0
 40
1.0
 40
1.0
 10
6.7476029845
 20
10.3979519805
 30
0.0
 10
6.7481504353
 20
10.3958136493
 30
0.0
 10
6.7489928639
 20
10.3912291881
 30
0.0
 10
6.7498259917
 20
10.3812623221
 30
0.0
 10
6.7495040395
 20
10.3734409718
 30
0.0
 10
6.7489149952
 20
10.3681287956
 30
0.0
  0
SPLINE
  5
347
100
AcDbEntity
  8
0
100
AcDbSpline
 62
9
  6
CONTINUOUS
 70
0
 71
3
 72
10
 73
6
 74
0
 42
0.0000001
 43
0.0000001
 44
0.0000000001
 40
0.0
 40
0.0
 40
0.0
 40
0.0
 40
0.2181906913
 40
0.4620976151
 40
1.0
 40
1.0
 40
1.0
 40
1.0
 10
6.5768880257
 20
10.4240934005
 30
0.0
 10
6.5774524918
 20
10.4219533619
 30
0.0
 10
6.5784318539
 20
10.4173633645
 30
0.0
 10
6.5798863518
 20
10.4073208189
 30
0.0
 10
6.5803593158
 20
10.3993846606
 30
0.0
 10
6.580425412
 20
10.3939288166
 30
0.0
  0
SPLINE
  5
348
100
AcDbEntity
  8
0
100
AcDbSpline
 62
9
  6
CONTINUOUS
 70
0
 71
3
 72
11
 73
7
 74
0
 42
0.0000001
 43
0.0000001
 44
0.0000000001
 40
0.0
 40
0.0
 40
0.0
 40
0.0
 40
0.2448219423
 40
0.4314269883
 40
0.6199014668
 40
1.0
 40
1.0
 40
1.0
 40
1.0
 10
6.0229933618
 20
10.4792845854
 30
0.0
 10
6.0456030168
 20
10.474988283
 30
0.0
 10
6.0854864003
 20
10.4676279171
 30
0.0
 10
6.1428957984
 20
10.4576278911
 30
0.0
 10
6.2129246304
 20
10.4459851109
 30
0.0
 10
6.2657154148
 20
10.4376207325
 30
0.0
 10
6.3010353337
 20
10.432217893
 30
0.0
  0
SPLINE
  5
349
100
AcDbEntity
  8
0
100
AcDbSpline
 62
9
  6
CONTINUOUS
 70
0
 71
3
 72
9
 73
5
 74
0
 42
0.0000001
 43
0.0000001
 44
0.0000000001
 40
0.0
 40
0.0
 40
0.0
 40
0.0
 40
0.2286041689
 40
1.0
 40
1.0
 40
1.0
 40
1.0
 10
5.3905477846
 20
10.576127272
 30
0.0
 10
5.3929617975
 20
10.57605458
 30
0.0
 10
5.4035162182
 20
10.5755724066
 30
0.0
 10
5.4140379037
 20
10.574414145
 30
0.0
 10
5.4220934803
 20
10.5731806152
 30
0.0
  0
SPLINE
  5
34A
100
AcDbEntity
  8
0
100
AcDbSpline
 62
9
  6
CONTINUOUS
 70
0
 71
3
 72
9
 73
5
 74
0
 42
0.0000001
 43
0.0000001
 44
0.0000000001
 40
0.0
 40
0.0
 40
0.0
 40
0.0
 40
0.4764617935
 40
1.0
 40
1.0
 40
1.0
 40
1.0
 10
5.422093484
 20
10.5731806252
 30
0.0
 10
5.428220654
 20
10.5722423873
 30
0.0
 10
5.4410179673
 20
10.5698655539
 30
0.0
 10
5.4537107039
 20
10.5670055596
 30
0.0
 10
5.4603394386
 20
10.5654402876
 30
0.0
  0
SPLINE
  5
34B
100
AcDbEntity
  8
0
100
AcDbSpline
 62
9
  6
CONTINUOUS
 70
0
 71
3
 72
11
 73
7
 74
0
 42
0.0000001
 43
0.0000001
 44
0.0000000001
 40
0.0
 40
0.0
 40
0.0
 40
0.0
 40
0.2101354209
 40
0.4477413803
 40
0.7115657458
 40
1.0
 40
1.0
 40
1.0
 40
1.0
 10
5.4603394038
 20
10.5654402292
 30
0.0
 10
5.4718276845
 20
10.5626913403
 30
0.0
 10
5.4964757782
 20
10.5575561413
 30
0.0
 10
5.5358024308
 20
10.550248306
 30
0.0
 10
5.5795822005
 20
10.5428311144
 30
0.0
 10
5.6102493249
 20
10.5380015499
 30
0.0
 10
5.6262753482
 20
10.5355392588
 30
0.0
  0
SPLINE
  5
34C
100
AcDbEntity
  8
0
100
AcDbSpline
 62
9
  6
CONTINUOUS
 70
0
 71
3
 72
9
 73
5
 74
0
 42
0.0000001
 43
0.0000001
 44
0.0000000001
 40
0.0
 40
0.0
 40
0.0
 40
0.0
 40
0.2462931464
 40
1.0
 40
1.0
 40
1.0
 40
1.0
 10
5.8545037209
 20
10.5050846434
 30
0.0
 10
5.8613370984
 20
10.5043276159
 30
0.0
 10
5.8890692005
 20
10.5011419934
 30
0.0
 10
5.9167439621
 20
10.4974375915
 30
0.0
 10
5.9375410153
 20
10.4942530893
 30
0.0
  0
SPLINE
  5
34D
100
AcDbEntity
  8
0
100
AcDbSpline
 62
9
  6
CONTINUOUS
 70
0
 71
3
 72
9
 73
5
 74
0
 42
0.0000001
 43
0.0000001
 44
0.0000000001
 40
0.0
 40
0.0
 40
0.0
 40
0.0
 40
0.2468796226
 40
1.0
 40
1.0
 40
1.0
 40
1.0
 10
5.9375410152
 20
10.4942530889
 30
0.0
 10
5.9445982554
 20
10.4931724648
 30
0.0
 10
5.9731559932
 20
10.4886119005
 30
0.0
 10
6.0016085638
 20
10.4834118192
 30
0.0
 10
6.0229933723
 20
10.4792846133
 30
0.0
  0
SPLINE
  5
34E
100
AcDbEntity
  8
0
100
AcDbSpline
 62
9
  6
CONTINUOUS
 70
0
 71
3
 72
11
 73
7
 74
0
 42
0.0000001
 43
0.0000001
 44
0.0000000001
 40
0.0
 40
0.0
 40
0.0
 40
0.0
 40
0.246959861
 40
0.497485694
 40
0.7493008548
 40
1.0
 40
1.0
 40
1.0
 40
1.0
 10
7.2012156929
 20
10.3284932999
 30
0.0
 10
7.1933015818
 20
10.3373306371
 30
0.0
 10
7.1786765904
 20
10.3563592765
 30
0.0
 10
7.1611519077
 20
10.3879560147
 30
0.0
 10
7.1487134684
 20
10.4220735755
 30
0.0
 10
7.1439743624
 20
10.445858006
 30
0.0
 10
7.14256224
 20
10.4578175866
 30
0.0
  0
SPLINE
  5
34F
100
AcDbEntity
  8
0
100
AcDbSpline
 62
9
  6
CONTINUOUS
 70
0
 71
3
 72
15
 73
11
 74
0
 42
0.0000001
 43
0.0000001
 44
0.0000000001
 40
0.0
 40
0.0
 40
0.0
 40
0.0
 40
0.0764719778
 40
0.1680051333
 40
0.2724254256
 40
0.3908191991
 40
0.5236126569
 40
0.6699067229
 40
0.8282863187
 40
1.0
 40
1.0
 40
1.0
 40
1.0
 10
7.2012155395
 20
10.3284935011
 30
0.0
 10
7.1993978733
 20
10.3286440711
 30
0.0
 10
7.1954173497
 20
10.3291163407
 30
0.0
 10
7.1889756545
 20
10.3299613393
 30
0.0
 10
7.1815350926
 20
10.3308849137
 30
0.0
 10
7.1731397467
 20
10.3320943445
 30
0.0
 10
7.1637833185
 20
10.3336229201
 30
0.0
 10
7.1535038512
 20
10.3354110486
 30
0.0
 10
7.1422955664
 20
10.3372741026
 30
0.0
 10
7.1345351933
 20
10.3386012331
 30
0.0
 10
7.1305037135
 20
10.3393222634
 30
0.0
  0
SPLINE
  5
350
100
AcDbEntity
  8
0
100
AcDbSpline
 62
9
  6
CONTINUOUS
 70
0
 71
3
 72
11
 73
7
 74
0
 42
0.0000001
 43
0.0000001
 44
0.0000000001
 40
0.0
 40
0.0
 40
0.0
 40
0.0
 40
0.2248630691
 40
0.46848184
 40
0.7284328323
 40
1.0
 40
1.0
 40
1.0
 40
1.0
 10
7.13050348
 20
10.3393223872
 30
0.0
 10
7.1269287513
 20
10.347883339
 30
0.0
 10
7.1211356716
 20
10.366433193
 30
0.0
 10
7.1166145413
 20
10.3962430568
 30
0.0
 10
7.1161974196
 20
10.4283068685
 30
0.0
 10
7.1184846731
 20
10.4501693447
 30
0.0
 10
7.120246591
 20
10.4612341577
 30
0.0
  0
SPLINE
  5
351
100
AcDbEntity
  8
0
100
AcDbSpline
 62
9
  6
CONTINUOUS
 70
0
 71
3
 72
14
 73
10
 74
0
 42
0.0000001
 43
0.0000001
 44
0.0000000001
 40
0.0
 40
0.0
 40
0.0
 40
0.0
 40
0.098089588
 40
0.2041282895
 40
0.318125159
 40
0.4400944378
 40
0.569932585
 40
0.7070279696
 40
1.0
 40
1.0
 40
1.0
 40
1.0
 10
7.1305032598
 20
10.3393223477
 30
0.0
 10
7.1179592885
 20
10.3410771917
 30
0.0
 10
7.091843195
 20
10.3446457129
 30
0.0
 10
7.0511398765
 20
10.3501878244
 30
0.0
 10
7.0074049342
 20
10.3563193644
 30
0.0
 10
6.9606772597
 20
10.3632330807
 30
0.0
 10
6.9110779462
 20
10.3710975158
 30
0.0
 10
6.839733538
 20
10.3828106519
 30
0.0
 10
6.7849529908
 20
10.3919281081
 30
0.0
 10
6.7476049422
 20
10.3979532465
 30
0.0
  0
SPLINE
  5
352
100
AcDbEntity
  8
0
100
AcDbSpline
 62
9
  6
CONTINUOUS
 70
0
 71
3
 72
11
 73
7
 74
0
 42
0.0000001
 43
0.0000001
 44
0.0000000001
 40
0.0
 40
0.0
 40
0.0
 40
0.0
 40
0.2373496864
 40
0.4862016676
 40
0.7422022275
 40
1.0
 40
1.0
 40
1.0
 40
1.0
 10
6.747605154
 20
10.3979514444
 30
0.0
 10
6.7403397188
 20
10.4068429119
 30
0.0
 10
6.726617737
 20
10.4260287929
 30
0.0
 10
6.7092100286
 20
10.4575203595
 30
0.0
 10
6.6951663263
 20
10.4917193906
 30
0.0
 10
6.6882522817
 20
10.5156547151
 30
0.0
 10
6.6854626928
 20
10.5278103233
 30
0.0
  0
SPLINE
  5
353
100
AcDbEntity
  8
0
100
AcDbSpline
 62
9
  6
CONTINUOUS
 70
0
 71
3
 72
21
 73
17
 74
0
 42
0.0000001
 43
0.0000001
 44
0.0000000001
 40
0.0
 40
0.0
 40
0.0
 40
0.0
 40
0.0597901899
 40
0.11982109
 40
0.1802098036
 40
0.2409056681
 40
0.3018629391
 40
0.3631204814
 40
0.4865553801
 40
0.6112042155
 40
0.67413071
 40
0.7375939203
 40
0.8017260105
 40
0.8666713331
 40
0.9326466273
 40
1.0
 40
1.0
 40
1.0
 40
1.0
 10
6.6854633073
 20
10.5278104858
 30
0.0
 10
6.6941080263
 20
10.5299525309
 30
0.0
 10
6.7116460174
 20
10.5334142391
 30
0.0
 10
6.7383378821
 20
10.5364646347
 30
0.0
 10
6.765301154
 20
10.5377506747
 30
0.0
 10
6.7924261313
 20
10.5376684072
 30
0.0
 10
6.8196523547
 20
10.5364694378
 30
0.0
 10
6.85613053
 20
10.5335037994
 30
0.0
 10
6.9018477868
 20
10.5275631089
 30
0.0
 10
6.9474859562
 20
10.5194788807
 30
0.0
 10
6.9839750555
 20
10.5112723324
 30
0.0
 10
7.011438606
 20
10.5040971601
 30
0.0
 10
7.0389099447
 20
10.4958328828
 30
0.0
 10
7.066344122
 20
10.4862275031
 30
0.0
 10
7.0936333895
 20
10.4748863421
 30
0.0
 10
7.1114360876
 20
10.4660369732
 30
0.0
 10
7.1202453211
 20
10.4612355949
 30
0.0
  0
SPLINE
  5
354
100
AcDbEntity
  8
0
100
AcDbSpline
 62
9
  6
CONTINUOUS
 70
0
 71
3
 72
14
 73
10
 74
0
 42
0.0000001
 43
0.0000001
 44
0.0000000001
 40
0.0
 40
0.0
 40
0.0
 40
0.0
 40
0.1159166335
 40
0.235117438
 40
0.3568812795
 40
0.4812616279
 40
0.6081126433
 40
0.7370611099
 40
1.0
 40
1.0
 40
1.0
 40
1.0
 10
6.7476055302
 20
10.3979516015
 30
0.0
 10
6.7409928307
 20
10.3988489798
 30
0.0
 10
6.7275924999
 20
10.4007599205
 30
0.0
 10
6.7072631323
 20
10.4037327107
 30
0.0
 10
6.6864412675
 20
10.4067049703
 30
0.0
 10
6.6652024618
 20
10.4098711653
 30
0.0
 10
6.6435809559
 20
10.4132707349
 30
0.0
 10
6.6141060159
 20
10.4180736232
 30
0.0
 10
6.5918206048
 20
10.4215915785
 30
0.0
 10
6.5768913207
 20
10.4240928716
 30
0.0
  0
SPLINE
  5
355
100
AcDbEntity
  8
0
100
AcDbSpline
 62
9
  6
CONTINUOUS
 70
0
 71
3
 72
11
 73
7
 74
0
 42
0.0000001
 43
0.0000001
 44
0.0000000001
 40
0.0
 40
0.0
 40
0.0
 40
0.0
 40
0.2112639537
 40
0.4534772752
 40
0.7194682826
 40
1.0
 40
1.0
 40
1.0
 40
1.0
 10
6.5768911139
 20
10.4240929617
 30
0.0
 10
6.5810319446
 20
10.4318311731
 30
0.0
 10
6.5897082854
 20
10.4485547054
 30
0.0
 10
6.6030135904
 20
10.4753196362
 30
0.0
 10
6.6171701619
 20
10.5048709487
 30
0.0
 10
6.6267327235
 20
10.5254635444
 30
0.0
 10
6.6315827452
 20
10.5360604233
 30
0.0
  0
SPLINE
  5
356
100
AcDbEntity
  8
0
100
AcDbSpline
 62
9
  6
CONTINUOUS
 70
0
 71
3
 72
9
 73
5
 74
0
 42
0.0000001
 43
0.0000001
 44
0.0000000001
 40
0.0
 40
0.0
 40
0.0
 40
0.0
 40
0.2474131953
 40
1.0
 40
1.0
 40
1.0
 40
1.0
 10
6.5768913585
 20
10.4240930256
 30
0.0
 10
6.5545382792
 20
10.4273564929
 30
0.0
 10
6.4641652567
 20
10.4403664759
 30
0.0
 10
6.3737625271
 20
10.4531903744
 30
0.0
 10
6.3058391059
 20
10.4635897402
 30
0.0
  0
SPLINE
  5
357
100
AcDbEntity
  8
0
100
AcDbSpline
 62
9
  6
CONTINUOUS
 70
0
 71
3
 72
14
 73
10
 74
0
 42
0.0000001
 43
0.0000001
 44
0.0000000001
 40
0.0
 40
0.0
 40
0.0
 40
0.0
 40
0.1250517465
 40
0.2501118427
 40
0.3751787687
 40
0.500242898
 40
0.6252665248
 40
0.7502769499
 40
1.0
 40
1.0
 40
1.0
 40
1.0
 10
6.3289999461
 20
10.6148455133
 30
0.0
 10
6.341917136
 20
10.6128683614
 30
0.0
 10
6.3677165981
 20
10.6086752978
 30
0.0
 10
6.4062856879
 20
10.6016264308
 30
0.0
 10
6.4447015075
 20
10.5937767756
 30
0.0
 10
6.4829312938
 20
10.5850800738
 30
0.0
 10
6.5208845852
 20
10.5752481202
 30
0.0
 10
6.5709158887
 20
10.5602547128
 30
0.0
 10
6.6076769972
 20
10.5465197774
 30
0.0
 10
6.631585034
 20
10.5360612394
 30
0.0
  0
SPLINE
  5
358
100
AcDbEntity
  8
0
100
AcDbSpline
 62
9
  6
CONTINUOUS
 70
0
 71
3
 72
9
 73
5
 74
0
 42
0.0000001
 43
0.0000001
 44
0.0000000001
 40
0.0
 40
0.0
 40
0.0
 40
0.0
 40
0.2518254878
 40
1.0
 40
1.0
 40
1.0
 40
1.0
 10
6.3058391074
 20
10.4635897522
 30
0.0
 10
6.2831113328
 20
10.4670701143
 30
0.0
 10
6.1929099897
 20
10.4812226896
 30
0.0
 10
6.1028419132
 20
10.4962026278
 30
0.0
 10
6.0353907608
 20
10.5070097207
 30
0.0
  0
SPLINE
  5
359
100
AcDbEntity
  8
0
100
AcDbSpline
 62
9
  6
CONTINUOUS
 70
0
 71
3
 72
11
 73
7
 74
0
 42
0.0000001
 43
0.0000001
 44
0.0000000001
 40
0.0
 40
0.0
 40
0.0
 40
0.0
 40
0.2085436849
 40
0.4493851595
 40
0.716178491
 40
1.0
 40
1.0
 40
1.0
 40
1.0
 10
6.0353896634
 20
10.5070084095
 30
0.0
 10
6.0337750941
 20
10.5155202004
 30
0.0
 10
6.0305268729
 20
10.5339059183
 30
0.0
 10
6.0258551893
 20
10.5632902534
 30
0.0
 10
6.0211681093
 20
10.595835084
 30
0.0
 10
6.0181818481
 20
10.6185141955
 30
0.0
 10
6.0167078811
 20
10.6302125517
 30
0.0
  0
SPLINE
  5
35A
100
AcDbEntity
  8
0
100
AcDbSpline
 62
9
  6
CONTINUOUS
 70
0
 71
3
 72
14
 73
10
 74
0
 42
0.0000001
 43
0.0000001
 44
0.0000000001
 40
0.0
 40
0.0
 40
0.0
 40
0.0
 40
0.2497221956
 40
0.3747336159
 40
0.4997574769
 40
0.6248210285
 40
0.7498874836
 40
0.8749478403
 40
1.0
 40
1.0
 40
1.0
 40
1.0
 10
6.0167068688
 20
10.6302128867
 30
0.0
 10
6.0426474994
 20
10.63304908
 30
0.0
 10
6.0818351024
 20
10.6351485717
 30
0.0
 10
6.134059809
 20
10.6344786286
 30
0.0
 10
6.1732159298
 20
10.6325037718
 30
0.0
 10
6.2122961067
 20
10.629363788
 30
0.0
 10
6.2513001028
 20
10.6253572493
 30
0.0
 10
6.290210715
 20
10.620540276
 30
0.0
 10
6.3160827727
 20
10.6168224072
 30
0.0
 10
6.3289999461
 20
10.6148455133
 30
0.0
  0
SPLINE
  5
35B
100
AcDbEntity
  8
0
100
AcDbSpline
 62
9
  6
CONTINUOUS
 70
0
 71
3
 72
14
 73
10
 74
0
 42
0.0000001
 43
0.0000001
 44
0.0000000001
 40
0.0
 40
0.0
 40
0.0
 40
0.0
 40
0.2629394249
 40
0.3918869949
 40
0.518739041
 40
0.6431212715
 40
0.7648835305
 40
0.8840735413
 40
1.0
 40
1.0
 40
1.0
 40
1.0
 10
6.0353902649
 20
10.5070084829
 30
0.0
 10
6.0203940156
 20
10.5090706685
 30
0.0
 10
5.9980802528
 20
10.5124053022
 30
0.0
 10
5.9685183351
 20
10.5166396955
 30
0.0
 10
5.9468699757
 20
10.519864428
 30
0.0
 10
5.9256568831
 20
10.5231987954
 30
0.0
 10
5.9049001504
 20
10.526592196
 30
0.0
 10
5.8846139137
 20
10.5298451907
 30
0.0
 10
5.8712557983
 20
10.532031111
 30
0.0
 10
5.8646763625
 20
10.5331498143
 30
0.0
  0
SPLINE
  5
35C
100
AcDbEntity
  8
0
100
AcDbSpline
 62
9
  6
CONTINUOUS
 70
0
 71
3
 72
11
 73
7
 74
0
 42
0.0000001
 43
0.0000001
 44
0.0000000001
 40
0.0
 40
0.0
 40
0.0
 40
0.0
 40
0.2402812415
 40
0.4902650209
 40
0.7452721
 40
1.0
 40
1.0
 40
1.0
 40
1.0
 10
5.8646761968
 20
10.5331499126
 30
0.0
 10
5.8743875333
 20
10.5395378724
 30
0.0
 10
5.8933673322
 20
10.5538749912
 30
0.0
 10
5.9194686849
 20
10.5788581098
 30
0.0
 10
5.9429677463
 20
10.6072133831
 30
0.0
 10
5.956602137
 20
10.6278272106
 30
0.0
 10
5.9628260122
 20
10.6384627792
 30
0.0
  0
SPLINE
  5
35D
100
AcDbEntity
  8
0
100
AcDbSpline
 62
9
  6
CONTINUOUS
 70
0
 71
3
 72
10
 73
6
 74
0
 42
0.0000001
 43
0.0000001
 44
0.0000000001
 40
0.0
 40
0.0
 40
0.0
 40
0.0
 40
0.2197290787
 40
0.4643159758
 40
1.0
 40
1.0
 40
1.0
 40
1.0
 10
6.0353873302
 20
10.5070089231
 30
0.0
 10
6.0342007064
 20
10.5051224822
 30
0.0
 10
6.031884107
 20
10.5010153034
 30
0.0
 10
6.0274988215
 20
10.49186558
 30
0.0
 10
6.024681639
 20
10.4844490132
 30
0.0
 10
6.022994439
 20
10.4792844075
 30
0.0
  0
SPLINE
  5
35E
100
AcDbEntity
  8
0
100
AcDbSpline
 62
9
  6
CONTINUOUS
 70
0
 71
3
 72
10
 73
6
 74
0
 42
0.0000001
 43
0.0000001
 44
0.0000000001
 40
0.0
 40
0.0
 40
0.0
 40
0.0
 40
0.2193266795
 40
0.4629323148
 40
1.0
 40
1.0
 40
1.0
 40
1.0
 10
5.8646730846
 20
10.5331503315
 30
0.0
 10
5.8635194714
 20
10.5312867999
 30
0.0
 10
5.861353766
 20
10.5271848347
 30
0.0
 10
5.8575716983
 20
10.5179262067
 30
0.0
 10
5.8555347064
 20
10.5103515186
 30
0.0
 10
5.8545042181
 20
10.5050845255
 30
0.0
  0
SPLINE
  5
35F
100
AcDbEntity
  8
0
100
AcDbSpline
 62
9
  6
CONTINUOUS
 70
0
 71
3
 72
9
 73
5
 74
0
 42
0.0000001
 43
0.0000001
 44
0.0000000001
 40
0.0
 40
0.0
 40
0.0
 40
0.0
 40
0.4948136738
 40
1.0
 40
1.0
 40
1.0
 40
1.0
 10
5.4817739107
 20
10.5917801985
 30
0.0
 10
5.4771563766
 20
10.5885254134
 30
0.0
 10
5.4688000207
 20
10.5805172308
 30
0.0
 10
5.4626949355
 20
10.5707052883
 30
0.0
 10
5.4603400462
 20
10.5654401359
 30
0.0
  0
SPLINE
  5
360
100
AcDbEntity
  8
0
100
AcDbSpline
 62
9
  6
CONTINUOUS
 70
0
 71
3
 72
9
 73
5
 74
0
 42
0.0000001
 43
0.0000001
 44
0.0000000001
 40
0.0
 40
0.0
 40
0.0
 40
0.0
 40
0.245372912
 40
1.0
 40
1.0
 40
1.0
 40
1.0
 10
5.4110639586
 20
10.6026091475
 30
0.0
 10
5.4088096064
 20
10.6010146658
 30
0.0
 10
5.4001562247
 20
10.5937887606
 30
0.0
 10
5.3936367712
 20
10.5840374976
 30
0.0
 10
5.3905479708
 20
10.5761271477
 30
0.0
  0
SPLINE
  5
361
100
AcDbEntity
  8
0
100
AcDbSpline
 62
9
  6
CONTINUOUS
 70
0
 71
3
 72
15
 73
11
 74
0
 42
0.0000001
 43
0.0000001
 44
0.0000000001
 40
0.0
 40
0.0
 40
0.0
 40
0.0
 40
0.1455384511
 40
0.2863535146
 40
0.4200278046
 40
0.545523758
 40
0.6641527795
 40
0.7787125683
 40
0.890666702
 40
1.0
 40
1.0
 40
1.0
 40
1.0
 10
14.3884614333
 20
1.5698844847
 30
0.0
 10
14.3836546142
 20
1.5673779502
 30
0.0
 10
14.3740420455
 20
1.5627324941
 30
0.0
 10
14.3594225489
 20
1.5570947204
 30
0.0
 10
14.34497685
 20
1.5532950561
 30
0.0
 10
14.3309032914
 20
1.5517963694
 30
0.0
 10
14.3175152958
 20
1.5531543495
 30
0.0
 10
14.3051463665
 20
1.5569101041
 30
0.0
 10
14.2939197503
 20
1.5625437941
 30
0.0
 10
14.2871567157
 20
1.5673101268
 30
0.0
 10
14.2839924275
 20
1.5698738269
 30
0.0
  0
SPLINE
  5
362
100
AcDbEntity
  8
0
100
AcDbSpline
 62
9
  6
CONTINUOUS
 70
0
 71
3
 72
22
 73
18
 74
0
 42
0.0000001
 43
0.0000001
 44
0.0000000001
 40
0.0
 40
0.0
 40
0.0
 40
0.0
 40
0.0661607292
 40
0.1311248872
 40
0.2584773583
 40
0.3213510036
 40
0.3839101043
 40
0.446223572
 40
0.5083315762
 40
0.5702589852
 40
0.6320227206
 40
0.6936163173
 40
0.7550399224
 40
0.8163154414
 40
0.8775282361
 40
0.9387138551
 40
1.0
 40
1.0
 40
1.0
 40
1.0
 10
13.7144774873
 20
1.5698496824
 30
0.0
 10
13.7263997732
 20
1.5743996862
 30
0.0
 10
13.7504146471
 20
1.5824355779
 30
0.0
 10
13.79877023
 20
1.5947076378
 30
0.0
 10
13.8475000921
 20
1.6023557438
 30
0.0
 10
13.8960411511
 20
1.6069517403
 30
0.0
 10
13.9321865453
 20
1.6092578589
 30
0.0
 10
13.9682311112
 20
1.6105608573
 30
0.0
 10
14.004174786
 20
1.6109963526
 30
0.0
 10
14.0400122404
 20
1.6105577316
 30
0.0
 10
14.0757300278
 20
1.6092534778
 30
0.0
 10
14.1113008435
 20
1.606949242
 30
0.0
 10
14.1466899229
 20
1.6035280631
 30
0.0
 10
14.181832461
 20
1.5985992631
 30
0.0
 10
14.2166152113
 20
1.5917545205
 30
0.0
 10
14.2508527933
 20
1.5825213186
 30
0.0
 10
14.2730964067
 20
1.574450485
 30
0.0
 10
14.2839952209
 20
1.5698736585
 30
0.0
  0
SPLINE
  5
363
100
AcDbEntity
  8
0
100
AcDbSpline
 62
9
  6
CONTINUOUS
 70
0
 71
3
 72
11
 73
7
 74
0
 42
0.0000001
 43
0.0000001
 44
0.0000000001
 40
0.0
 40
0.0
 40
0.0
 40
0.0
 40
0.2599025048
 40
0.5190612156
 40
0.7681028924
 40
1.0
 40
1.0
 40
1.0
 40
1.0
 10
14.2839943974
 20
1.5698740131
 30
0.0
 10
14.2819448813
 20
1.5637355029
 30
0.0
 10
14.2769645843
 20
1.5517578226
 30
0.0
 10
14.2672993325
 20
1.5351828858
 30
0.0
 10
14.2557585719
 20
1.5207353062
 30
0.0
 10
14.2469670806
 20
1.5125225629
 30
0.0
 10
14.2424295352
 20
1.5089514337
 30
0.0
  0
SPLINE
  5
364
100
AcDbEntity
  8
0
100
AcDbSpline
 62
9
  6
CONTINUOUS
 70
0
 71
3
 72
19
 73
15
 74
0
 42
0.0000001
 43
0.0000001
 44
0.0000000001
 40
0.0
 40
0.0
 40
0.0
 40
0.0
 40
0.127077118
 40
0.2541812856
 40
0.38125507
 40
0.5081769169
 40
0.5715574409
 40
0.6347472674
 40
0.6976369654
 40
0.760090277
 40
0.821896233
 40
0.8827968137
 40
0.9423701492
 40
1.0
 40
1.0
 40
1.0
 40
1.0
 10
14.7930240366
 20
3.702712124
 30
0.0
 10
14.8166516914
 20
3.7028383136
 30
0.0
 10
14.8640135936
 20
3.7076650922
 30
0.0
 10
14.9322515267
 20
3.7283764255
 30
0.0
 10
14.9952407699
 20
3.7617764068
 30
0.0
 10
15.0414028188
 20
3.7991763462
 30
0.0
 10
15.0733976508
 20
3.8338686143
 30
0.0
 10
15.0947067818
 20
3.8619911611
 30
0.0
 10
15.1131316666
 20
3.8918764863
 30
0.0
 10
15.1284769239
 20
3.9231665315
 30
0.0
 10
15.1406814745
 20
3.9554129863
 30
0.0
 10
15.1496240594
 20
3.988157127
 30
0.0
 10
15.1553719954
 20
4.0208133215
 30
0.0
 10
15.1572408768
 20
4.0425589828
 30
0.0
 10
15.1576703675
 20
4.0532657365
 30
0.0
  0
LINE
  5
365
100
AcDbEntity
  8
0
100
AcDbLine
 62
9
  6
CONTINUOUS
 10
15.1576703675
 20
4.0532657365
 11
15.1608400123
 21
4.1302304174
  0
SPLINE
  5
366
100
AcDbEntity
  8
0
100
AcDbSpline
 62
9
  6
CONTINUOUS
 70
0
 71
3
 72
16
 73
12
 74
0
 42
0.0000001
 43
0.0000001
 44
0.0000000001
 40
0.0
 40
0.0
 40
0.0
 40
0.0
 40
0.1141941955
 40
0.1724139237
 40
0.2315698795
 40
0.352777395
 40
0.477740412
 40
0.606076349
 40
0.7369296621
 40
0.8690230101
 40
1.0
 40
1.0
 40
1.0
 40
1.0
 10
13.7006626951
 20
1.5088667626
 30
0.0
 10
13.7205561425
 20
1.5148131365
 30
0.0
 10
13.7513534416
 20
1.5213074817
 30
0.0
 10
13.7931112359
 20
1.5266961
 30
0.0
 10
13.8363272939
 20
1.5305787623
 30
0.0
 10
13.8917868601
 20
1.5334449886
 30
0.0
 10
13.9598850257
 20
1.5343707572
 30
0.0
 10
14.0297364799
 20
1.5334093897
 30
0.0
 10
14.1008134824
 20
1.5299561094
 30
0.0
 10
14.1721734182
 20
1.5234734433
 30
0.0
 10
14.2193671066
 20
1.5148908029
 30
0.0
 10
14.2424293926
 20
1.5089520454
 30
0.0
  0
SPLINE
  5
367
100
AcDbEntity
  8
0
100
AcDbSpline
 62
9
  6
CONTINUOUS
 70
0
 71
3
 72
15
 73
11
 74
0
 42
0.0000001
 43
0.0000001
 44
0.0000000001
 40
0.0
 40
0.0
 40
0.0
 40
0.0
 40
0.1217499706
 40
0.2465478241
 40
0.3729217557
 40
0.5000000989
 40
0.6270785952
 40
0.7534530261
 40
0.8782514748
 40
1.0
 40
1.0
 40
1.0
 40
1.0
 10
14.4080544336
 20
1.5089633867
 30
0.0
 10
14.4386679972
 20
1.5149483384
 30
0.0
 10
14.5013532723
 20
1.5235640252
 30
0.0
 10
14.5967015901
 20
1.530033617
 30
0.0
 10
14.6935639826
 20
1.5334642123
 30
0.0
 10
14.7910612315
 20
1.5344048189
 30
0.0
 10
14.8885586106
 20
1.5334642652
 30
0.0
 10
14.9854213113
 20
1.5300329631
 30
0.0
 10
15.0807694019
 20
1.5235611527
 30
0.0
 10
15.1434544381
 20
1.5149465017
 30
0.0
 10
15.1740680069
 20
1.5089635065
 30
0.0
  0
SPLINE
  5
368
100
AcDbEntity
  8
0
100
AcDbSpline
 62
9
  6
CONTINUOUS
 70
0
 71
3
 72
16
 73
12
 74
0
 42
0.0000001
 43
0.0000001
 44
0.0000000001
 40
0.0
 40
0.0
 40
0.0
 40
0.0
 40
0.130979999
 40
0.2630701048
 40
0.3939155475
 40
0.5222428721
 40
0.6472008436
 40
0.7684085168
 40
0.8275668659
 40
0.8857909657
 40
1.0
 40
1.0
 40
1.0
 40
1.0
 10
15.33971864
 20
1.5089646174
 30
0.0
 10
15.3627748774
 20
1.5149077392
 30
0.0
 10
15.4099573352
 20
1.5234943071
 30
0.0
 10
15.4812996883
 20
1.5299770573
 30
0.0
 10
15.5523569586
 20
1.5334343603
 30
0.0
 10
15.6221887786
 20
1.5344030848
 30
0.0
 10
15.6902693986
 20
1.5334875764
 30
0.0
 10
15.745716626
 20
1.5306318167
 30
0.0
 10
15.7889250214
 20
1.5267583112
 30
0.0
 10
15.8306786946
 20
1.5213803379
 30
0.0
 10
15.8614744398
 20
1.5148979012
 30
0.0
 10
15.8813691561
 20
1.5089625455
 30
0.0
  0
SPLINE
  5
369
100
AcDbEntity
  8
0
100
AcDbSpline
 62
9
  6
CONTINUOUS
 70
0
 71
3
 72
23
 73
19
 74
0
 42
0.0000001
 43
0.0000001
 44
0.0000000001
 40
0.0
 40
0.0
 40
0.0
 40
0.0
 40
0.2716722711
 40
0.4847722157
 40
0.6508964826
 40
0.7796019895
 40
0.8321447636
 40
0.8772975321
 40
0.9151980064
 40
0.9459736567
 40
0.9697413548
 40
0.9790309279
 40
0.9866073359
 40
0.9924820571
 40
0.9966658467
 40
0.9981268109
 40
0.9991687417
 40
1.0
 40
1.0
 40
1.0
 40
1.0
 10
15.949982048
 20
1.5089620166
 30
0.0
 10
15.9509651795
 20
1.5115840945
 30
0.0
 10
15.9529222688
 20
1.5161936126
 30
0.0
 10
15.9562230814
 20
1.5220514451
 30
0.0
 10
15.9593210548
 20
1.5262876442
 30
0.0
 10
15.9617368606
 20
1.5289358627
 30
0.0
 10
15.9633781915
 20
1.5305947862
 30
0.0
 10
15.9643824543
 20
1.5315671189
 30
0.0
 10
15.9652438921
 20
1.5323638249
 30
0.0
 10
15.9659581905
 20
1.5329948077
 30
0.0
 10
15.9664612505
 20
1.5334186278
 30
0.0
 10
15.9667867616
 20
1.5336828067
 30
0.0
 10
15.9669703125
 20
1.5338273673
 30
0.0
 10
15.9671150043
 20
1.5339406255
 30
0.0
 10
15.9672082893
 20
1.5340074531
 30
0.0
 10
15.9672659255
 20
1.5340544524
 30
0.0
 10
15.9672900047
 20
1.5340639351
 30
0.0
 10
15.9673129052
 20
1.5340958108
 30
0.0
 10
15.9673153974
 20
1.5340876129
 30
0.0
  0
SPLINE
  5
36A
100
AcDbEntity
  8
0
100
AcDbSpline
 62
9
  6
CONTINUOUS
 70
0
 71
3
 72
9
 73
5
 74
0
 42
0.0000001
 43
0.0000001
 44
0.0000000001
 40
0.0
 40
0.0
 40
0.0
 40
0.0
 40
0.2364073156
 40
1.0
 40
1.0
 40
1.0
 40
1.0
 10
7.1851965893
 20
12.2361562302
 30
0.0
 10
7.1847663019
 20
12.2357626997
 30
0.0
 10
7.1828905945
 20
12.2341588251
 30
0.0
 10
7.1808241212
 20
12.2327873662
 30
0.0
 10
7.1791950896
 20
12.2318420856
 30
0.0
  0
SPLINE
  5
36B
100
AcDbEntity
  8
0
100
AcDbSpline
 62
9
  6
CONTINUOUS
 70
0
 71
3
 72
9
 73
5
 74
0
 42
0.0000001
 43
0.0000001
 44
0.0000000001
 40
0.0
 40
0.0
 40
0.0
 40
0.0
 40
0.2384060495
 40
1.0
 40
1.0
 40
1.0
 40
1.0
 10
7.1791950967
 20
12.2318420094
 30
0.0
 10
7.1787189979
 20
12.2315657434
 30
0.0
 10
7.1767010311
 20
12.2304430992
 30
0.0
 10
7.1746087969
 20
12.2294568652
 30
0.0
 10
7.1729919256
 20
12.2287656582
 30
0.0
  0
SPLINE
  5
36C
100
AcDbEntity
  8
0
100
AcDbSpline
 62
9
  6
CONTINUOUS
 70
0
 71
3
 72
17
 73
13
 74
0
 42
0.0000001
 43
0.0000001
 44
0.0000000001
 40
0.0
 40
0.0
 40
0.0
 40
0.0
 40
0.0251006393
 40
0.0560281436
 40
0.0924873244
 40
0.1341600856
 40
0.232103345
 40
0.3484250858
 40
0.4826411698
 40
0.6351185343
 40
0.8069852054
 40
1.0
 40
1.0
 40
1.0
 40
1.0
 10
7.1729919705
 20
12.2287666211
 30
0.0
 10
7.1721915055
 20
12.2284241625
 30
0.0
 10
7.1703272972
 20
12.2278454047
 30
0.0
 10
7.167181358
 20
12.2272091791
 30
0.0
 10
7.1634303508
 20
12.2267017981
 30
0.0
 10
7.1573465249
 20
12.2261533385
 30
0.0
 10
7.1484721036
 20
12.225789711
 30
0.0
 10
7.1363838344
 20
12.2257233513
 30
0.0
 10
7.1224060976
 20
12.2259864741
 30
0.0
 10
7.1065103482
 20
12.2265634982
 30
0.0
 10
7.08858702
 20
12.2274580853
 30
0.0
 10
7.0759539914
 20
12.228230016
 30
0.0
 10
7.0692734517
 20
12.2286689029
 30
0.0
  0
SPLINE
  5
36D
100
AcDbEntity
  8
0
100
AcDbSpline
 62
9
  6
CONTINUOUS
 70
0
 71
3
 72
9
 73
5
 74
0
 42
0.0000001
 43
0.0000001
 44
0.0000000001
 40
0.0
 40
0.0
 40
0.0
 40
0.0
 40
0.494707729
 40
1.0
 40
1.0
 40
1.0
 40
1.0
 10
7.0692714216
 20
12.2286687133
 30
0.0
 10
7.0499681526
 20
12.2317356421
 30
0.0
 10
7.0110056358
 20
12.2382993397
 30
0.0
 10
6.9722116441
 20
12.2458215712
 30
0.0
 10
6.9526871114
 20
12.2499853309
 30
0.0
  0
SPLINE
  5
36E
100
AcDbEntity
  8
0
100
AcDbSpline
 62
9
  6
CONTINUOUS
 70
0
 71
3
 72
13
 73
9
 74
0
 42
0.0000001
 43
0.0000001
 44
0.0000000001
 40
0.0
 40
0.0
 40
0.0
 40
0.0
 40
0.1183502386
 40
0.2426500137
 40
0.5000244658
 40
0.7573910461
 40
0.8816724457
 40
1.0
 40
1.0
 40
1.0
 40
1.0
 10
6.7563962484
 20
12.2800419457
 30
0.0
 10
6.7430155266
 20
12.2814127101
 30
0.0
 10
6.7156118545
 20
12.2845222931
 30
0.0
 10
6.6592460822
 20
12.2917709868
 30
0.0
 10
6.5873625504
 20
12.3021755127
 30
0.0
 10
6.5156614091
 20
12.3137573762
 30
0.0
 10
6.4597147936
 20
12.3237066512
 30
0.0
 10
6.432640855
 20
12.328938769
 30
0.0
 10
6.4194655595
 20
12.3316341263
 30
0.0
  0
SPLINE
  5
36F
100
AcDbEntity
  8
0
100
AcDbSpline
 62
9
  6
CONTINUOUS
 70
0
 71
3
 72
9
 73
5
 74
0
 42
0.0000001
 43
0.0000001
 44
0.0000000001
 40
0.0
 40
0.0
 40
0.0
 40
0.0
 40
0.5082119242
 40
1.0
 40
1.0
 40
1.0
 40
1.0
 10
6.2231744834
 20
12.3616909886
 30
0.0
 10
6.200686285
 20
12.3638075413
 30
0.0
 10
6.1565205676
 20
12.3688746405
 30
0.0
 10
6.1125139405
 20
12.3751286956
 30
0.0
 10
6.0909081626
 20
12.3784371616
 30
0.0
  0
SPLINE
  5
370
100
AcDbEntity
  8
0
100
AcDbSpline
 62
9
  6
CONTINUOUS
 70
0
 71
3
 72
11
 73
7
 74
0
 42
0.0000001
 43
0.0000001
 44
0.0000000001
 40
0.0
 40
0.0
 40
0.0
 40
0.0
 40
0.2816706886
 40
0.5441552787
 40
0.7845415438
 40
1.0
 40
1.0
 40
1.0
 40
1.0
 10
6.0909081714
 20
12.378437141
 30
0.0
 10
6.0809004467
 20
12.3799696115
 30
0.0
 10
6.0615811961
 20
12.3830267526
 30
0.0
 10
6.0337933629
 20
12.3878366072
 30
0.0
 10
6.0084438437
 20
12.3927512083
 30
0.0
 10
5.9924484754
 20
12.3963212474
 30
0.0
 10
5.9849284461
 20
12.3981720755
 30
0.0
  0
SPLINE
  5
371
100
AcDbEntity
  8
0
100
AcDbSpline
 62
9
  6
CONTINUOUS
 70
0
 71
3
 72
23
 73
19
 74
0
 42
0.0000001
 43
0.0000001
 44
0.0000000001
 40
0.0
 40
0.0
 40
0.0
 40
0.0
 40
0.2203176395
 40
0.416785309
 40
0.5877380017
 40
0.6631199158
 40
0.7314882196
 40
0.7926286334
 40
0.8463257076
 40
0.8923628833
 40
0.9305225491
 40
0.9605860946
 40
0.9725132578
 40
0.9823339825
 40
0.9900206835
 40
0.9955457221
 40
0.9988814076
 40
1.0
 40
1.0
 40
1.0
 40
1.0
 10
5.9036229692
 20
12.410621368
 30
0.0
 10
5.9022775225
 20
12.4105153531
 30
0.0
 10
5.8997306546
 20
12.410334713
 30
0.0
 10
5.8961356805
 20
12.4101357079
 30
0.0
 10
5.8934253139
 20
12.4100253912
 30
0.0
 10
5.8914983595
 20
12.4099678434
 30
0.0
 10
5.8902435716
 20
12.4099388489
 30
0.0
 10
5.8891214344
 20
12.4099202962
 30
0.0
 10
5.8881360112
 20
12.4099102646
 30
0.0
 10
5.8872912603
 20
12.4099069902
 30
0.0
 10
5.8865914496
 20
12.4099082457
 30
0.0
 10
5.8861001863
 20
12.4099125565
 30
0.0
 10
5.8857832762
 20
12.4099158233
 30
0.0
 10
5.88560203
 20
12.409920022
 30
0.0
 10
5.885463453
 20
12.4099187816
 30
0.0
 10
5.885356424
 20
12.40992948
 30
0.0
 10
5.8853053512
 20
12.4099156735
 30
0.0
 10
5.8852676222
 20
12.4099321844
 30
0.0
 10
5.8852650794
 20
12.4099258214
 30
0.0
  0
SPLINE
  5
372
100
AcDbEntity
  8
0
100
AcDbSpline
 62
9
  6
CONTINUOUS
 70
0
 71
3
 72
16
 73
12
 74
0
 42
0.0000001
 43
0.0000001
 44
0.0000000001
 40
0.0
 40
0.0
 40
0.0
 40
0.0
 40
0.0664434757
 40
0.1511245269
 40
0.2039688585
 40
0.2639933461
 40
0.4026249013
 40
0.559671511
 40
0.7205430492
 40
0.8699266621
 40
1.0
 40
1.0
 40
1.0
 40
1.0
 10
15.1285662733
 20
4.0617331806
 30
0.0
 10
15.1285662733
 20
4.0610014926
 30
0.0
 10
15.1290006277
 20
4.0593250477
 30
0.0
 10
15.1304724167
 20
4.0575548579
 30
0.0
 10
15.1322028279
 20
4.0562319801
 30
0.0
 10
15.1346014629
 20
4.0548336852
 30
0.0
 10
15.1382872075
 20
4.0534283847
 30
0.0
 10
15.1432394147
 20
4.0524687877
 30
0.0
 10
15.1483864592
 20
4.0521161446
 30
0.0
 10
15.153238999
 20
4.0523956157
 30
0.0
 10
15.1562785104
 20
4.0529273863
 30
0.0
 10
15.1576703675
 20
4.0532657364
 30
0.0
  0
SPLINE
  5
373
100
AcDbEntity
  8
0
100
AcDbSpline
 62
9
  6
CONTINUOUS
 70
0
 71
3
 72
24
 73
20
 74
0
 42
0.0000001
 43
0.0000001
 44
0.0000000001
 40
0.0
 40
0.0
 40
0.0
 40
0.0
 40
0.0007913534
 40
0.0032535077
 40
0.0073974726
 40
0.0132336949
 40
0.0207732096
 40
0.0300277318
 40
0.04100967
 40
0.053732124
 40
0.0844539205
 40
0.1223118026
 40
0.1674345767
 40
0.2199611789
 40
0.2801447059
 40
0.3487085012
 40
0.5149218571
 40
0.7281654944
 40
1.0
 40
1.0
 40
1.0
 40
1.0
 10
13.6147318029
 20
1.5340558092
 30
0.0
 10
13.6147241223
 20
1.5340530433
 30
0.0
 10
13.6147840877
 20
1.5340247608
 30
0.0
 10
13.6148112865
 20
1.5339855137
 30
0.0
 10
13.6149317155
 20
1.5339023514
 30
0.0
 10
13.6150648587
 20
1.5337920736
 30
0.0
 10
13.6152498522
 20
1.5336446675
 30
0.0
 10
13.6154696992
 20
1.5334626476
 30
0.0
 10
13.6157301078
 20
1.5332434485
 30
0.0
 10
13.616155269
 20
1.5328769981
 30
0.0
 10
13.616781119
 20
1.5323184204
 30
0.0
 10
13.6176387747
 20
1.5315182389
 30
0.0
 10
13.6186397388
 20
1.5305423087
 30
0.0
 10
13.6197807906
 20
1.5293807576
 30
0.0
 10
13.621061342
 20
1.5280176161
 30
0.0
 10
13.6230534983
 20
1.5257164754
 30
0.0
 10
13.6257851121
 20
1.521975109
 30
0.0
 10
13.6290854342
 20
1.5161063214
 30
0.0
 10
13.6310457395
 20
1.511490775
 30
0.0
 10
13.6320308932
 20
1.5088653549
 30
0.0
  0
SPLINE
  5
374
100
AcDbEntity
  8
0
100
AcDbSpline
 62
9
  6
CONTINUOUS
 70
0
 71
3
 72
16
 73
12
 74
0
 42
0.0000001
 43
0.0000001
 44
0.0000000001
 40
0.0
 40
0.0
 40
0.0
 40
0.0
 40
0.064853175
 40
0.1375090988
 40
0.2250113843
 40
0.2763209006
 40
0.3332555604
 40
0.4649152454
 40
0.6210340805
 40
0.8003226396
 40
1.0
 40
1.0
 40
1.0
 40
1.0
 10
15.9499821994
 20
1.5089613378
 30
0.0
 10
15.9494210173
 20
1.5074764358
 30
0.0
 10
15.9475655356
 20
1.5045449636
 30
0.0
 10
15.942980605
 20
1.501295794
 30
0.0
 10
15.9379664268
 20
1.4997552364
 30
0.0
 10
15.9332123599
 20
1.4991303888
 30
0.0
 10
15.9273358698
 20
1.4989155293
 30
0.0
 10
15.9189002556
 20
1.4996097591
 30
0.0
 10
15.90765696
 20
1.5017401139
 30
0.0
 10
15.8949620809
 20
1.5049803389
 30
0.0
 10
15.8860538299
 20
1.5075682484
 30
0.0
 10
15.8813692632
 20
1.5089619407
 30
0.0
  0
SPLINE
  5
375
100
AcDbEntity
  8
0
100
AcDbSpline
 62
9
  6
CONTINUOUS
 70
0
 71
3
 72
11
 73
7
 74
0
 42
0.0000001
 43
0.0000001
 44
0.0000000001
 40
0.0
 40
0.0
 40
0.0
 40
0.0
 40
0.2460969116
 40
0.4972849372
 40
0.7499216756
 40
1.0
 40
1.0
 40
1.0
 40
1.0
 10
15.9107758496
 20
1.5698838841
 30
0.0
 10
15.9118215472
 20
1.5638836824
 30
0.0
 10
15.9151850192
 20
1.5519483265
 30
0.0
 10
15.9236355179
 20
1.5352871121
 30
0.0
 10
15.935365437
 20
1.5206225614
 30
0.0
 10
15.9449000487
 20
1.5124940301
 30
0.0
 10
15.9499788759
 20
1.5089568814
 30
0.0
  0
SPLINE
  5
376
100
AcDbEntity
  8
0
100
AcDbSpline
 62
9
  6
CONTINUOUS
 70
0
 71
3
 72
27
 73
23
 74
0
 42
0.0000001
 43
0.0000001
 44
0.0000000001
 40
0.0
 40
0.0
 40
0.0
 40
0.0
 40
0.0612404421
 40
0.1224032093
 40
0.1529561178
 40
0.1835189034
 40
0.2141266331
 40
0.2447950514
 40
0.3062827034
 40
0.3678881258
 40
0.4296356853
 40
0.4915659333
 40
0.553687899
 40
0.6160123178
 40
0.6785825119
 40
0.7414621825
 40
0.7730702125
 40
0.8048415369
 40
0.8368333215
 40
0.8690777092
 40
0.9342336104
 40
1.0
 40
1.0
 40
1.0
 40
1.0
 10
15.2981374558
 20
1.5698850395
 30
0.0
 10
15.3092910281
 20
1.57375575
 30
0.0
 10
15.3316509536
 20
1.5813047037
 30
0.0
 10
15.3599700626
 20
1.5895801881
 30
0.0
 10
15.3828990507
 20
1.5950759515
 30
0.0
 10
15.4002510942
 20
1.5985055653
 30
0.0
 10
15.4177436445
 20
1.601263437
 30
0.0
 10
15.4412274181
 20
1.6042245842
 30
0.0
 10
15.4707582739
 20
1.6068772046
 30
0.0
 10
15.5063203157
 20
1.609183794
 30
0.0
 10
15.5420180923
 20
1.6105508994
 30
0.0
 10
15.5778380819
 20
1.6110043544
 30
0.0
 10
15.6137691454
 20
1.6105425358
 30
0.0
 10
15.6498009847
 20
1.6091730931
 30
0.0
 10
15.6859303433
 20
1.606878397
 30
0.0
 10
15.716099325
 20
1.6042296612
 30
0.0
 10
15.7402606779
 20
1.601258244
 30
0.0
 10
15.7584393597
 20
1.5984834557
 30
0.0
 10
15.7766285542
 20
1.5950365537
 30
0.0
 10
15.8009601003
 20
1.5895209325
 30
0.0
 10
15.8313218207
 20
1.5812469877
 30
0.0
 10
15.8554227819
 20
1.5737446916
 30
0.0
 10
15.8674999037
 20
1.5698857649
 30
0.0
  0
SPLINE
  5
377
100
AcDbEntity
  8
0
100
AcDbSpline
 62
9
  6
CONTINUOUS
 70
0
 71
3
 72
11
 73
7
 74
0
 42
0.0000001
 43
0.0000001
 44
0.0000000001
 40
0.0
 40
0.0
 40
0.0
 40
0.0
 40
0.2813553185
 40
0.5458267035
 40
0.7859735204
 40
1.0
 40
1.0
 40
1.0
 40
1.0
 10
15.8675006071
 20
1.5698846902
 30
0.0
 10
15.8669795995
 20
1.5639269989
 30
0.0
 10
15.8667748775
 20
1.552281432
 30
0.0
 10
15.8689870889
 20
1.535643455
 30
0.0
 10
15.8737642032
 20
1.521040331
 30
0.0
 10
15.8786177254
 20
1.5125839349
 30
0.0
 10
15.8813702956
 20
1.5089618494
 30
0.0
  0
SPLINE
  5
378
100
AcDbEntity
  8
0
100
AcDbSpline
 62
9
  6
CONTINUOUS
 70
0
 71
3
 72
15
 73
11
 74
0
 42
0.0000001
 43
0.0000001
 44
0.0000000001
 40
0.0
 40
0.0
 40
0.0
 40
0.0
 40
0.1306025488
 40
0.2574937686
 40
0.3816713815
 40
0.5041994169
 40
0.6261850774
 40
0.7487502651
 40
0.8730011851
 40
1.0
 40
1.0
 40
1.0
 40
1.0
 10
7.2154447871
 20
10.9488443454
 30
0.0
 10
7.2068139546
 20
10.9374761577
 30
0.0
 10
7.1906816936
 20
10.9143711486
 30
0.0
 10
7.1698213952
 20
10.8781889206
 30
0.0
 10
7.1527058073
 20
10.8410544887
 30
0.0
 10
7.1393449514
 20
10.8029757574
 30
0.0
 10
7.1297440698
 20
10.7639603728
 30
0.0
 10
7.1239057449
 20
10.7240173612
 30
0.0
 10
7.1218282302
 20
10.683160416
 30
0.0
 10
7.1229329159
 20
10.655681747
 30
0.0
 10
7.1240798695
 20
10.641849768
 30
0.0
  0
SPLINE
  5
379
100
AcDbEntity
  8
0
100
AcDbSpline
 62
9
  6
CONTINUOUS
 70
0
 71
3
 72
12
 73
8
 74
0
 42
0.0000001
 43
0.0000001
 44
0.0000000001
 40
0.0
 40
0.0
 40
0.0
 40
0.0
 40
0.2781417167
 40
0.5387840018
 40
0.7782737601
 40
0.89078371
 40
1.0
 40
1.0
 40
1.0
 40
1.0
 10
7.088026723
 20
10.8567638063
 30
0.0
 10
7.091333368
 20
10.8368255616
 30
0.0
 10
7.0983197842
 20
10.7982998688
 30
0.0
 10
7.1090988231
 20
10.7427881561
 30
0.0
 10
7.1169877673
 20
10.6989668193
 30
0.0
 10
7.1217054016
 20
10.6657829711
 30
0.0
 10
7.1234230959
 20
10.6497580701
 30
0.0
 10
7.1240799061
 20
10.6418493264
 30
0.0
  0
SPLINE
  5
37A
100
AcDbEntity
  8
0
100
AcDbSpline
 62
9
  6
CONTINUOUS
 70
0
 71
3
 72
26
 73
22
 74
0
 42
0.0000001
 43
0.0000001
 44
0.0000000001
 40
0.0
 40
0.0
 40
0.0
 40
0.0
 40
0.08573911
 40
0.1652078787
 40
0.2367113653
 40
0.2986239071
 40
0.349474942
 40
0.3882017492
 40
0.4030553062
 40
0.4152951051
 40
0.4258609692
 40
0.4364431947
 40
0.4489365236
 40
0.4644752508
 40
0.4834865046
 40
0.5060674095
 40
0.5616363005
 40
0.6300912294
 40
0.7098838897
 40
0.799315429
 40
1.0
 40
1.0
 40
1.0
 40
1.0
 10
7.1425644386
 20
10.4578175623
 30
0.0
 10
7.1427823681
 20
10.4559695614
 30
0.0
 10
7.1431531815
 20
10.4524026641
 30
0.0
 10
7.1435160482
 20
10.4472768345
 30
0.0
 10
7.1436531648
 20
10.4426575434
 30
0.0
 10
7.1435535258
 20
10.4386550955
 30
0.0
 10
7.1432027826
 20
10.4353853228
 30
0.0
 10
7.1426689218
 20
10.4331616866
 30
0.0
 10
7.1420276203
 20
10.4318770897
 30
0.0
 10
7.1414994269
 20
10.431238956
 30
0.0
 10
7.1408488625
 20
10.4308704292
 30
0.0
 10
7.140093691
 20
10.4308444575
 30
0.0
 10
7.1392980367
 20
10.4311480755
 30
0.0
 10
7.1384478781
 20
10.4317213318
 30
0.0
 10
7.1375270536
 20
10.4325560331
 30
0.0
 10
7.1361035692
 20
10.4341143258
 30
0.0
 10
7.1341980994
 20
10.4366698647
 30
0.0
 10
7.1317864669
 20
10.440378964
 30
0.0
 10
7.1291502231
 20
10.4448142061
 30
0.0
 10
7.1252224823
 20
10.4518163466
 30
0.0
 10
7.1222735073
 20
10.4573802611
 30
0.0
 10
7.1202460042
 20
10.4612350574
 30
0.0
  0
SPLINE
  5
37B
100
AcDbEntity
  8
0
100
AcDbSpline
 62
9
  6
CONTINUOUS
 70
0
 71
3
 72
13
 73
9
 74
0
 42
0.0000001
 43
0.0000001
 44
0.0000000001
 40
0.0
 40
0.0
 40
0.0
 40
0.0
 40
0.2560882968
 40
0.3819806135
 40
0.5067765406
 40
0.6307630216
 40
0.7541768439
 40
1.0
 40
1.0
 40
1.0
 40
1.0
 10
6.8483146111
 20
12.1092857767
 30
0.0
 10
6.858257463
 20
12.1012372771
 30
0.0
 10
6.8740639689
 20
12.0903921377
 30
0.0
 10
6.8962569219
 20
12.078198116
 30
0.0
 10
6.913186584
 20
12.0701894551
 30
0.0
 10
6.9304412236
 20
12.0632378327
 30
0.0
 10
6.9537837535
 20
12.0553247542
 30
0.0
 10
6.9716899311
 20
12.0507576837
 30
0.0
 10
6.9837036927
 20
12.0482175255
 30
0.0
  0
SPLINE
  5
37C
100
AcDbEntity
  8
0
100
AcDbSpline
 62
9
  6
CONTINUOUS
 70
0
 71
3
 72
11
 73
7
 74
0
 42
0.0000001
 43
0.0000001
 44
0.0000000001
 40
0.0
 40
0.0
 40
0.0
 40
0.0
 40
0.2741265082
 40
0.5323083074
 40
0.7735133508
 40
1.0
 40
1.0
 40
1.0
 40
1.0
 10
6.98370669
 20
12.048216552
 30
0.0
 10
6.9891468297
 20
12.0470977658
 30
0.0
 10
6.9996476275
 20
12.0445863389
 30
0.0
 10
7.0145151312
 20
12.039530312
 30
0.0
 10
7.027757629
 20
12.0330196644
 30
0.0
 10
7.0354519422
 20
12.0273537816
 30
0.0
 10
7.03880313
 20
12.0242190751
 30
0.0
  0
SPLINE
  5
37D
100
AcDbEntity
  8
0
100
AcDbSpline
 62
9
  6
CONTINUOUS
 70
0
 71
3
 72
9
 73
5
 74
0
 42
0.0000001
 43
0.0000001
 44
0.0000000001
 40
0.0
 40
0.0
 40
0.0
 40
0.0
 40
0.2502336313
 40
1.0
 40
1.0
 40
1.0
 40
1.0
 10
6.9885321026
 20
11.7938938786
 30
0.0
 10
6.9833121254
 20
11.7665270983
 30
0.0
 10
6.965826166
 20
11.6565493791
 30
0.0
 10
6.961831127
 20
11.5443952372
 30
0.0
 10
6.9668246956
 20
11.4610682791
 30
0.0
  0
SPLINE
  5
37E
100
AcDbEntity
  8
0
100
AcDbSpline
 62
9
  6
CONTINUOUS
 70
0
 71
3
 72
9
 73
5
 74
0
 42
0.0000001
 43
0.0000001
 44
0.0000000001
 40
0.0
 40
0.0
 40
0.0
 40
0.0
 40
0.5013343506
 40
1.0
 40
1.0
 40
1.0
 40
1.0
 10
6.9668228059
 20
11.4610678366
 30
0.0
 10
6.9712764187
 20
11.3868704532
 30
0.0
 10
6.9842548406
 20
11.2390951738
 30
0.0
 10
7.0043348465
 20
11.0921428156
 30
0.0
 10
7.0158389809
 20
11.0191080597
 30
0.0
  0
SPLINE
  5
37F
100
AcDbEntity
  8
0
100
AcDbSpline
 62
9
  6
CONTINUOUS
 70
0
 71
3
 72
11
 73
7
 74
0
 42
0.0000001
 43
0.0000001
 44
0.0000000001
 40
0.0
 40
0.0
 40
0.0
 40
0.0
 40
0.2606168494
 40
0.5160927606
 40
0.7636378074
 40
1.0
 40
1.0
 40
1.0
 40
1.0
 10
7.0158404962
 20
11.0191086435
 30
0.0
 10
7.01827277
 20
11.0036669055
 30
0.0
 10
7.0249434517
 20
10.9733442379
 30
0.0
 10
7.0404078773
 20
10.9300904226
 30
0.0
 10
7.0610358972
 20
10.8906651079
 30
0.0
 10
7.0784835004
 20
10.8672470169
 30
0.0
 10
7.0880281215
 20
10.8567638892
 30
0.0
  0
LINE
  5
380
100
AcDbEntity
  8
0
100
AcDbLine
 62
9
  6
CONTINUOUS
 10
7.1049737964
 20
10.6063876458
 11
7.1062531588
 21
10.5925822861
  0
SPLINE
  5
381
100
AcDbEntity
  8
0
100
AcDbSpline
 62
9
  6
CONTINUOUS
 70
0
 71
3
 72
11
 73
7
 74
0
 42
0.0000001
 43
0.0000001
 44
0.0000000001
 40
0.0
 40
0.0
 40
0.0
 40
0.0
 40
0.2479034085
 40
0.5010114083
 40
0.7535778328
 40
1.0
 40
1.0
 40
1.0
 40
1.0
 10
6.8483118991
 20
12.1092851602
 30
0.0
 10
6.8544684159
 20
12.1224865025
 30
0.0
 10
6.8683508118
 20
12.1485139094
 30
0.0
 10
6.8929762358
 20
12.1853982774
 30
0.0
 10
6.921124051
 20
12.2195565753
 30
0.0
 10
6.941918994
 20
12.2403058407
 30
0.0
 10
6.9526863321
 20
12.2499864699
 30
0.0
  0
SPLINE
  5
382
100
AcDbEntity
  8
0
100
AcDbSpline
 62
9
  6
CONTINUOUS
 70
0
 71
3
 72
14
 73
10
 74
0
 42
0.0000001
 43
0.0000001
 44
0.0000000001
 40
0.0
 40
0.0
 40
0.0
 40
0.0
 40
0.218688623
 40
0.335267034
 40
0.4570979657
 40
0.5844040746
 40
0.7172814403
 40
0.8557740596
 40
1.0
 40
1.0
 40
1.0
 40
1.0
 10
7.0692719016
 20
12.2286709833
 30
0.0
 10
7.0739113005
 20
12.2224639467
 30
0.0
 10
7.0807728466
 20
12.2127504972
 30
0.0
 10
7.0892817559
 20
12.198962404
 30
0.0
 10
7.0956047872
 20
12.1876468486
 30
0.0
 10
7.1018689972
 20
12.1756458188
 30
0.0
 10
7.1082177229
 20
12.1630250855
 30
0.0
 10
7.1146110684
 20
12.1497572475
 30
0.0
 10
7.1186803795
 20
12.1405998465
 30
0.0
 10
7.1206635863
 20
12.1358896537
 30
0.0
  0
SPLINE
  5
383
100
AcDbEntity
  8
0
100
AcDbSpline
 62
9
  6
CONTINUOUS
 70
0
 71
3
 72
11
 73
7
 74
0
 42
0.0000001
 43
0.0000001
 44
0.0000000001
 40
0.0
 40
0.0
 40
0.0
 40
0.0
 40
0.2570070636
 40
0.5141769886
 40
0.7639487037
 40
1.0
 40
1.0
 40
1.0
 40
1.0
 10
6.9837056506
 20
12.0482171863
 30
0.0
 10
6.9869912107
 20
12.0651976208
 30
0.0
 10
6.9956957542
 20
12.0987890205
 30
0.0
 10
7.0145744587
 20
12.1467552606
 30
0.0
 10
7.038997732
 20
12.1905497635
 30
0.0
 10
7.0587382906
 20
12.2167808347
 30
0.0
 10
7.0692722365
 20
12.2286709154
 30
0.0
  0
SPLINE
  5
384
100
AcDbEntity
  8
0
100
AcDbSpline
 62
9
  6
CONTINUOUS
 70
0
 71
3
 72
11
 73
7
 74
0
 42
0.0000001
 43
0.0000001
 44
0.0000000001
 40
0.0
 40
0.0
 40
0.0
 40
0.0
 40
0.2864787682
 40
0.5485398906
 40
0.7863194672
 40
1.0
 40
1.0
 40
1.0
 40
1.0
 10
7.3048253835
 20
12.153509576
 30
0.0
 10
7.2919422687
 20
12.1601674147
 30
0.0
 10
7.2673791086
 20
12.1731207619
 30
0.0
 10
7.2325562045
 20
12.1924080582
 30
0.0
 10
7.2013978832
 20
12.2106844056
 30
0.0
 10
7.1820385649
 20
12.2228389505
 30
0.0
 10
7.1729944932
 20
12.2287723442
 30
0.0
  0
SPLINE
  5
385
100
AcDbEntity
  8
0
100
AcDbSpline
 62
9
  6
CONTINUOUS
 70
0
 71
3
 72
14
 73
10
 74
0
 42
0.0000001
 43
0.0000001
 44
0.0000000001
 40
0.0
 40
0.0
 40
0.0
 40
0.0
 40
0.3210306401
 40
0.4696500723
 40
0.6076129698
 40
0.7301642535
 40
0.8336526506
 40
0.9215778094
 40
1.0
 40
1.0
 40
1.0
 40
1.0
 10
7.1970272778
 20
12.3148003294
 30
0.0
 10
7.203269962
 20
12.3132040883
 30
0.0
 10
7.2125467511
 20
12.3114021813
 30
0.0
 10
7.224653382
 20
12.3099211439
 30
0.0
 10
7.2328371042
 20
12.3092214822
 30
0.0
 10
7.2401311113
 20
12.3087920985
 30
0.0
 10
7.246428081
 20
12.3085450545
 30
0.0
 10
7.2518368926
 20
12.3082625541
 30
0.0
 10
7.2551575276
 20
12.3078526235
 30
0.0
 10
7.2567032897
 20
12.3075555903
 30
0.0
  0
SPLINE
  5
386
100
AcDbEntity
  8
0
100
AcDbSpline
 62
9
  6
CONTINUOUS
 70
0
 71
3
 72
11
 73
7
 74
0
 42
0.0000001
 43
0.0000001
 44
0.0000000001
 40
0.0
 40
0.0
 40
0.0
 40
0.0
 40
0.2835286578
 40
0.5444129066
 40
0.7830594276
 40
1.0
 40
1.0
 40
1.0
 40
1.0
 10
7.3161002625
 20
12.1921987236
 30
0.0
 10
7.303444487
 20
12.1954464369
 30
0.0
 10
7.2792327953
 20
12.2020397655
 30
0.0
 10
7.2447686342
 20
12.2127664595
 30
0.0
 10
7.2136790345
 20
12.2239143309
 30
0.0
 10
7.1942915193
 20
12.2320062716
 30
0.0
 10
7.1851964443
 20
12.2361565688
 30
0.0
  0
SPLINE
  5
387
100
AcDbEntity
  8
0
100
AcDbSpline
 62
9
  6
CONTINUOUS
 70
0
 71
3
 72
10
 73
6
 74
0
 42
0.0000001
 43
0.0000001
 44
0.0000000001
 40
0.0
 40
0.0
 40
0.0
 40
0.0
 40
0.4980016028
 40
0.7520067286
 40
1.0
 40
1.0
 40
1.0
 40
1.0
 10
7.1970271399
 20
12.3148002886
 30
0.0
 10
7.1917977611
 20
12.3187809193
 30
0.0
 10
7.185370496
 20
12.3268530402
 30
0.0
 10
7.1802264479
 20
12.339031416
 30
0.0
 10
7.1788027028
 20
12.3455611262
 30
0.0
 10
7.1784514513
 20
12.3488149504
 30
0.0
  0
SPLINE
  5
388
100
AcDbEntity
  8
0
100
AcDbSpline
 62
9
  6
CONTINUOUS
 70
0
 71
3
 72
15
 73
11
 74
0
 42
0.0000001
 43
0.0000001
 44
0.0000000001
 40
0.0
 40
0.0
 40
0.0
 40
0.0
 40
0.0837693349
 40
0.178964442
 40
0.2861080185
 40
0.4051509102
 40
0.5358516233
 40
0.6781202449
 40
0.8324025667
 40
1.0
 40
1.0
 40
1.0
 40
1.0
 10
7.2221713616
 20
12.34926928
 30
0.0
 10
7.2209632473
 20
12.3494662852
 30
0.0
 10
7.2183461964
 20
12.3496630846
 30
0.0
 10
7.2141643627
 20
12.3495671518
 30
0.0
 10
7.2094802521
 20
12.3492148258
 30
0.0
 10
7.2042892498
 20
12.3487172666
 30
0.0
 10
7.1985850139
 20
12.3481898866
 30
0.0
 10
7.1923474007
 20
12.3478614834
 30
0.0
 10
7.1855593831
 20
12.3479601464
 30
0.0
 10
7.1808721342
 20
12.3484440632
 30
0.0
 10
7.178451361
 20
12.3488148296
 30
0.0
  0
SPLINE
  5
389
100
AcDbEntity
  8
0
100
AcDbSpline
 62
9
  6
CONTINUOUS
 70
0
 71
3
 72
15
 73
11
 74
0
 42
0.0000001
 43
0.0000001
 44
0.0000000001
 40
0.0
 40
0.0
 40
0.0
 40
0.0
 40
0.1527297165
 40
0.2889152065
 40
0.406165759
 40
0.5070164826
 40
0.6031013226
 40
0.7100692291
 40
0.8405250892
 40
1.0
 40
1.0
 40
1.0
 40
1.0
 10
14.6227832726
 20
4.9440051741
 30
0.0
 10
14.6226835614
 20
4.9454313211
 30
0.0
 10
14.6226512001
 20
4.9481451361
 30
0.0
 10
14.6231803908
 20
4.9519274804
 30
0.0
 10
14.6243119768
 20
4.9550828569
 30
0.0
 10
14.6262042689
 20
4.9574404414
 30
0.0
 10
14.6288784515
 20
4.9586766908
 30
0.0
 10
14.6320752511
 20
4.9586677954
 30
0.0
 10
14.6356408967
 20
4.9575044515
 30
0.0
 10
14.6380273091
 20
4.9561925204
 30
0.0
 10
14.6393006281
 20
4.9554134108
 30
0.0
  0
SPLINE
  5
38A
100
AcDbEntity
  8
0
100
AcDbSpline
 62
9
  6
CONTINUOUS
 70
0
 71
3
 72
10
 73
6
 74
0
 42
0.0000001
 43
0.0000001
 44
0.0000000001
 40
0.0
 40
0.0
 40
0.0
 40
0.0
 40
0.2150732867
 40
0.4605929484
 40
1.0
 40
1.0
 40
1.0
 40
1.0
 10
14.6393006281
 20
4.9554134108
 30
0.0
 10
14.6412034167
 20
4.9542491458
 30
0.0
 10
14.6450977529
 20
4.9514643542
 30
0.0
 10
14.6531046021
 20
4.9448689539
 30
0.0
 10
14.6591106349
 20
4.9393679149
 30
0.0
 10
14.6632716574
 20
4.9356280799
 30
0.0
  0
SPLINE
  5
38B
100
AcDbEntity
  8
0
100
AcDbSpline
 62
9
  6
CONTINUOUS
 70
0
 71
3
 72
14
 73
10
 74
0
 42
0.0000001
 43
0.0000001
 44
0.0000000001
 40
0.0
 40
0.0
 40
0.0
 40
0.0
 40
0.1250075949
 40
0.2500190628
 40
0.3750047867
 40
0.4999970167
 40
0.6250135443
 40
0.7500209238
 40
1.0
 40
1.0
 40
1.0
 40
1.0
 10
14.663271715
 20
4.9356280597
 30
0.0
 10
14.668551217
 20
4.9348011908
 30
0.0
 10
14.6791222072
 20
4.933220939
 30
0.0
 10
14.695023191
 20
4.9311731422
 30
0.0
 10
14.7109753924
 20
4.9295677941
 30
0.0
 10
14.7269698323
 20
4.9284639615
 30
0.0
 10
14.742984779
 20
4.9277218532
 30
0.0
 10
14.7643491129
 20
4.9270532681
 30
0.0
 10
14.7803799355
 20
4.9268620679
 30
0.0
 10
14.7910661003
 20
4.9268447269
 30
0.0
  0
SPLINE
  5
38C
100
AcDbEntity
  8
0
100
AcDbSpline
 62
9
  6
CONTINUOUS
 70
0
 71
3
 72
14
 73
10
 74
0
 42
0.0000001
 43
0.0000001
 44
0.0000000001
 40
0.0
 40
0.0
 40
0.0
 40
0.0
 40
0.2499793656
 40
0.3749862674
 40
0.5000027491
 40
0.6249954569
 40
0.7499813337
 40
0.8749925852
 40
1.0
 40
1.0
 40
1.0
 40
1.0
 10
14.7910661003
 20
4.9268447269
 30
0.0
 10
14.8017522798
 20
4.9268642094
 30
0.0
 10
14.8177830782
 20
4.9270544085
 30
0.0
 10
14.8391474559
 20
4.9277220471
 30
0.0
 10
14.8551624054
 20
4.9284642505
 30
0.0
 10
14.8711569113
 20
4.9295674237
 30
0.0
 10
14.8871093173
 20
4.9311710272
 30
0.0
 10
14.9030103324
 20
4.9332187009
 30
0.0
 10
14.9135811533
 20
4.9348000691
 30
0.0
 10
14.9188604959
 20
4.9356279251
 30
0.0
  0
SPLINE
  5
38D
100
AcDbEntity
  8
0
100
AcDbSpline
 62
9
  6
CONTINUOUS
 70
0
 71
3
 72
14
 73
10
 74
0
 42
0.0000001
 43
0.0000001
 44
0.0000000001
 40
0.0
 40
0.0
 40
0.0
 40
0.0
 40
0.2225599574
 40
0.3422657264
 40
0.4669696856
 40
0.5959663889
 40
0.7284597233
 40
0.8635249371
 40
1.0
 40
1.0
 40
1.0
 40
1.0
 10
15.3397192667
 20
1.5089628823
 30
0.0
 10
15.3277083375
 20
1.5058763784
 30
0.0
 10
15.3089559522
 20
1.5021054727
 30
0.0
 10
15.2830537293
 20
1.499459821
 30
0.0
 10
15.2622408075
 20
1.4988087404
 30
0.0
 10
15.2407191749
 20
1.4995021132
 30
0.0
 10
15.2187082841
 20
1.5015768999
 30
0.0
 10
15.1964207558
 20
1.5048007576
 30
0.0
 10
15.1815319845
 20
1.5075085185
 30
0.0
 10
15.1740679513
 20
1.508963212
 30
0.0
  0
SPLINE
  5
38E
100
AcDbEntity
  8
0
100
AcDbSpline
 62
9
  6
CONTINUOUS
 70
0
 71
3
 72
11
 73
7
 74
0
 42
0.0000001
 43
0.0000001
 44
0.0000000001
 40
0.0
 40
0.0
 40
0.0
 40
0.0
 40
0.2547579492
 40
0.5122258107
 40
0.7632592508
 40
1.0
 40
1.0
 40
1.0
 40
1.0
 10
15.2981391719
 20
1.5698859497
 30
0.0
 10
15.3001487788
 20
1.5638681348
 30
0.0
 10
15.305045082
 20
1.5520405355
 30
0.0
 10
15.3146016609
 20
1.5355393532
 30
0.0
 10
15.3261797334
 20
1.5209535227
 30
0.0
 10
15.3350830048
 20
1.5126038309
 30
0.0
 10
15.339716515
 20
1.5089581521
 30
0.0
  0
SPLINE
  5
38F
100
AcDbEntity
  8
0
100
AcDbSpline
 62
9
  6
CONTINUOUS
 70
0
 71
3
 72
10
 73
6
 74
0
 42
0.0000001
 43
0.0000001
 44
0.0000000001
 40
0.0
 40
0.0
 40
0.0
 40
0.0
 40
0.5664652041
 40
0.805349758
 40
1.0
 40
1.0
 40
1.0
 40
1.0
 10
15.1936636401
 20
1.5698862907
 30
0.0
 10
15.1902122482
 20
1.5583044281
 30
0.0
 10
15.1851674119
 20
1.5418780322
 30
0.0
 10
15.1785074689
 20
1.5216093637
 30
0.0
 10
15.1754809689
 20
1.5128685068
 30
0.0
 10
15.1740690219
 20
1.5089631679
 30
0.0
  0
SPLINE
  5
390
100
AcDbEntity
  8
0
100
AcDbSpline
 62
9
  6
CONTINUOUS
 70
0
 71
3
 72
14
 73
10
 74
0
 42
0.0000001
 43
0.0000001
 44
0.0000000001
 40
0.0
 40
0.0
 40
0.0
 40
0.0
 40
0.1364646215
 40
0.2715099055
 40
0.4040053369
 40
0.5330247261
 40
0.6577344083
 40
0.7774100502
 40
1.0
 40
1.0
 40
1.0
 40
1.0
 10
14.4080545955
 20
1.5089624821
 30
0.0
 10
14.4005940349
 20
1.5074993468
 30
0.0
 10
14.3857102529
 20
1.5047858407
 30
0.0
 10
14.3634264295
 20
1.5015711047
 30
0.0
 10
14.341417917
 20
1.4995076241
 30
0.0
 10
14.3198984766
 20
1.4988085247
 30
0.0
 10
14.2990885715
 20
1.4994504966
 30
0.0
 10
14.2731900008
 20
1.5021020774
 30
0.0
 10
14.2544447425
 20
1.5058843675
 30
0.0
 10
14.2424291405
 20
1.5089514295
 30
0.0
  0
SPLINE
  5
391
100
AcDbEntity
  8
0
100
AcDbSpline
 62
9
  6
CONTINUOUS
 70
0
 71
3
 72
10
 73
6
 74
0
 42
0.0000001
 43
0.0000001
 44
0.0000000001
 40
0.0
 40
0.0
 40
0.0
 40
0.0
 40
0.5595274467
 40
0.8009285797
 40
1.0
 40
1.0
 40
1.0
 40
1.0
 10
14.388455385
 20
1.5698827686
 30
0.0
 10
14.3918653193
 20
1.5584422751
 30
0.0
 10
14.3968821136
 20
1.5421049688
 30
0.0
 10
14.4035377836
 20
1.5218336121
 30
0.0
 10
14.4066108006
 20
1.5129516083
 30
0.0
 10
14.4080552425
 20
1.5089574577
 30
0.0
  0
SPLINE
  5
392
100
AcDbEntity
  8
0
100
AcDbSpline
 62
7
  6
CONTINUOUS
 70
0
 71
3
 72
22
 73
18
 74
0
 42
0.0000001
 43
0.0000001
 44
0.0000000001
 40
0.0
 40
0.0
 40
0.0
 40
0.0
 40
0.1943865513
 40
0.3820913257
 40
0.5547738452
 40
0.6334423752
 40
0.7060037275
 40
0.7717493531
 40
0.8301091146
 40
0.8805481581
 40
0.9225339199
 40
0.955598893
 40
0.9795259613
 40
0.9880247199
 40
0.9942071359
 40
0.9981096769
 40
1.0
 40
1.0
 40
1.0
 40
1.0
 10
14.9368838661
 20
4.8116369005
 30
0.0
 10
14.9390978084
 20
4.8129930375
 30
0.0
 10
14.9434384383
 20
4.8156769358
 30
0.0
 10
14.9497139627
 20
4.8196167335
 30
0.0
 10
14.9546614397
 20
4.8227649484
 30
0.0
 10
14.9582971213
 20
4.8251098159
 30
0.0
 10
14.9607249646
 20
4.8266922091
 30
0.0
 10
14.962917029
 20
4.8281394779
 30
0.0
 10
14.9648532616
 20
4.8294379777
 30
0.0
 10
14.9665154061
 20
4.8305749636
 30
0.0
 10
14.9678870801
 20
4.8315389319
 30
0.0
 10
14.9689535598
 20
4.8323185896
 30
0.0
 10
14.9696450375
 20
4.8328581464
 30
0.0
 10
14.970033874
 20
4.8331928661
 30
0.0
 10
14.9702129891
 20
4.8333720306
 30
0.0
 10
14.9703124169
 20
4.8334850104
 30
0.0
 10
14.9703473376
 20
4.8335721891
 30
0.0
 10
14.9703341192
 20
4.8335937
 30
0.0
  0
SPLINE
  5
393
100
AcDbEntity
  8
0
100
AcDbSpline
 62
9
  6
CONTINUOUS
 70
0
 71
3
 72
18
 73
14
 74
0
 42
0.0000001
 43
0.0000001
 44
0.0000000001
 40
0.0
 40
0.0
 40
0.0
 40
0.0
 40
0.0044034293
 40
0.0174735316
 40
0.0390085496
 40
0.0688079617
 40
0.1066725419
 40
0.1524044223
 40
0.2666849623
 40
0.4100968987
 40
0.5811133198
 40
0.778236322
 40
1.0
 40
1.0
 40
1.0
 40
1.0
 10
15.0362500415
 20
5.0434061886
 30
0.0
 10
15.0362382699
 20
5.0434016909
 30
0.0
 10
15.0361872979
 20
5.043425482
 30
0.0
 10
15.0360788017
 20
5.0434291983
 30
0.0
 10
15.0358964287
 20
5.0434697323
 30
0.0
 10
15.0356457493
 20
5.0435122194
 30
0.0
 10
15.0353268599
 20
5.043574553
 30
0.0
 10
15.0347715045
 20
5.0436842719
 30
0.0
 10
15.0339218246
 20
5.0438640833
 30
0.0
 10
15.0327254663
 20
5.0441359515
 30
0.0
 10
15.0313034031
 20
5.0444839967
 30
0.0
 10
15.0296707108
 20
5.0449135119
 30
0.0
 10
15.0285170599
 20
5.045239573
 30
0.0
 10
15.0279079424
 20
5.0454177299
 30
0.0
  0
SPLINE
  5
394
100
AcDbEntity
  8
0
100
AcDbSpline
 62
9
  6
CONTINUOUS
 70
0
 71
3
 72
27
 73
23
 74
0
 42
0.0000001
 43
0.0000001
 44
0.0000000001
 40
0.0
 40
0.0
 40
0.0
 40
0.0
 40
0.0624730367
 40
0.124982707
 40
0.1874844288
 40
0.2187281197
 40
0.2499706056
 40
0.3124714817
 40
0.3749973408
 40
0.406258639
 40
0.4375112789
 40
0.4999997722
 40
0.5624883352
 40
0.5937410594
 40
0.6250024371
 40
0.6875283026
 40
0.7500291148
 40
0.7812715926
 40
0.8125153096
 40
0.8750171037
 40
0.9375268604
 40
1.0
 40
1.0
 40
1.0
 40
1.0
 10
15.1936607681
 20
1.5698878721
 30
0.0
 10
15.1772453872
 20
1.5739083211
 30
0.0
 10
15.1442733207
 20
1.5814276551
 30
0.0
 10
15.0944431168
 20
1.590941003
 30
0.0
 10
15.0526299669
 20
1.5972369182
 30
0.0
 10
15.0190456035
 20
1.6011776392
 30
0.0
 10
14.985386086
 20
1.6044098105
 30
0.0
 10
14.9432007266
 20
1.6072844054
 30
0.0
 10
14.9009513191
 20
1.608980684
 30
0.0
 10
14.8671361874
 20
1.609864547
 30
0.0
 10
14.8333255085
 20
1.6104994931
 30
0.0
 10
14.79106088
 20
1.6108159117
 30
0.0
 10
14.7487962316
 20
1.6104992924
 30
0.0
 10
14.7149854886
 20
1.6098644168
 30
0.0
 10
14.6811703077
 20
1.6089806535
 30
0.0
 10
14.6389209165
 20
1.6072836204
 30
0.0
 10
14.5967356664
 20
1.6044075968
 30
0.0
 10
14.5630762954
 20
1.6011740159
 30
0.0
 10
14.5294920946
 20
1.5972317043
 30
0.0
 10
14.4876790781
 20
1.5909347048
 30
0.0
 10
14.4378487659
 20
1.581421653
 30
0.0
 10
14.4048763368
 20
1.5739037619
 30
0.0
 10
14.3884606649
 20
1.5698843842
 30
0.0
  0
SPLINE
  5
395
100
AcDbEntity
  8
0
100
AcDbSpline
 62
9
  6
CONTINUOUS
 70
0
 71
3
 72
14
 73
10
 74
0
 42
0.0000001
 43
0.0000001
 44
0.0000000001
 40
0.0
 40
0.0
 40
0.0
 40
0.0
 40
0.0595141107
 40
0.1376116675
 40
0.2382375487
 40
0.3616733412
 40
0.5044039622
 40
0.6616710541
 40
1.0
 40
1.0
 40
1.0
 40
1.0
 10
7.1970272764
 20
12.3148003348
 30
0.0
 10
7.1962423518
 20
12.3134247083
 30
0.0
 10
7.194998858
 20
12.3099268175
 30
0.0
 10
7.194057914
 20
12.3036461906
 30
0.0
 10
7.1935473777
 20
12.2956169877
 30
0.0
 10
7.1931563873
 20
12.2858649706
 30
0.0
 10
7.19248392
 20
12.2746129991
 30
0.0
 10
7.1906729985
 20
12.2577200522
 30
0.0
 10
7.1878826907
 20
12.2447502026
 30
0.0
 10
7.1851964676
 20
12.2361565237
 30
0.0
  0
SPLINE
  5
396
100
AcDbEntity
  8
0
100
AcDbSpline
 62
9
  6
CONTINUOUS
 70
0
 71
3
 72
11
 73
7
 74
0
 42
0.0000001
 43
0.0000001
 44
0.0000000001
 40
0.0
 40
0.0
 40
0.0
 40
0.0
 40
0.2500127634
 40
0.5001210574
 40
0.750083866
 40
1.0
 40
1.0
 40
1.0
 40
1.0
 10
14.9351814488
 20
4.8116353107
 30
0.0
 10
14.9315342718
 20
4.817685464
 30
0.0
 10
14.9252565147
 20
4.8304246071
 30
0.0
 10
14.918811905
 20
4.85069232
 30
0.0
 10
14.9154595181
 20
4.8716974097
 30
0.0
 10
14.9153822912
 20
4.8858860826
 30
0.0
 10
14.9158748599
 20
4.8929305883
 30
0.0
  0
SPLINE
  5
397
100
AcDbEntity
  8
0
100
AcDbSpline
 62
9
  6
CONTINUOUS
 70
0
 71
3
 72
18
 73
14
 74
0
 42
0.0000001
 43
0.0000001
 44
0.0000000001
 40
0.0
 40
0.0
 40
0.0
 40
0.0
 40
0.1823176144
 40
0.3678590964
 40
0.5458758407
 40
0.7044146087
 40
0.8325755409
 40
0.9248132469
 40
0.9563968984
 40
0.9787003591
 40
0.9866436177
 40
0.9926455688
 40
1.0
 40
1.0
 40
1.0
 40
1.0
 10
14.9158744088
 20
4.8929246986
 30
0.0
 10
14.9183076988
 20
4.8927553728
 30
0.0
 10
14.9232195416
 20
4.8924452751
 30
0.0
 10
14.9305138457
 20
4.8920807284
 30
0.0
 10
14.9374950938
 20
4.8918456541
 30
0.0
 10
14.9437125038
 20
4.8917503684
 30
0.0
 10
14.9487819522
 20
4.891821356
 30
0.0
 10
14.9521511984
 20
4.8919935846
 30
0.0
 10
14.9540925753
 20
4.8922403064
 30
0.0
 10
14.9549032515
 20
4.8924027497
 30
0.0
 10
14.9553662251
 20
4.8925629951
 30
0.0
 10
14.9556159836
 20
4.8926824024
 30
0.0
 10
14.9557701146
 20
4.8928266282
 30
0.0
 10
14.9557769766
 20
4.8929247814
 30
0.0
  0
SPLINE
  5
398
100
AcDbEntity
  8
0
100
AcDbSpline
 62
9
  6
CONTINUOUS
 70
0
 71
3
 72
20
 73
16
 74
0
 42
0.0000001
 43
0.0000001
 44
0.0000000001
 40
0.0
 40
0.0
 40
0.0
 40
0.0
 40
0.1860911954
 40
0.3616177725
 40
0.44143063
 40
0.5139933455
 40
0.5781196856
 40
0.6331110953
 40
0.6794215028
 40
0.7193592504
 40
0.7564248961
 40
0.7946704307
 40
0.8374753529
 40
0.8861965624
 40
1.0
 40
1.0
 40
1.0
 40
1.0
 10
14.9188605441
 20
4.9356279559
 30
0.0
 10
14.9215925297
 20
4.9380833987
 30
0.0
 10
14.9268776673
 20
4.9428801945
 30
0.0
 10
14.9334620336
 20
4.9485932078
 30
0.0
 10
14.9385712258
 20
4.9525699922
 30
0.0
 10
14.942083148
 20
4.955010651
 30
0.0
 10
14.9453605445
 20
4.9569124321
 30
0.0
 10
14.9483808223
 20
4.9581908857
 30
0.0
 10
14.95114291
 20
4.9587348331
 30
0.0
 10
14.9536096706
 20
4.9585144688
 30
0.0
 10
14.9557088192
 20
4.9575090001
 30
0.0
 10
14.9573362696
 20
4.9557761
 30
0.0
 10
14.9584664075
 20
4.9534469726
 30
0.0
 10
14.9594552302
 20
4.9494985504
 30
0.0
 10
14.9595055614
 20
4.9462459168
 30
0.0
 10
14.9593488777
 20
4.9440050092
 30
0.0
  0
SPLINE
  5
399
100
AcDbEntity
  8
0
100
AcDbSpline
 62
9
  6
CONTINUOUS
 70
0
 71
3
 72
11
 73
7
 74
0
 42
0.0000001
 43
0.0000001
 44
0.0000000001
 40
0.0
 40
0.0
 40
0.0
 40
0.0
 40
0.2440005152
 40
0.4979385477
 40
0.7530621511
 40
1.0
 40
1.0
 40
1.0
 40
1.0
 10
7.2567103179
 20
12.3075529432
 30
0.0
 10
7.2522683515
 20
12.3089042699
 30
0.0
 10
7.2436004669
 20
12.3130774073
 30
0.0
 10
7.2326984298
 20
12.322695281
 30
0.0
 10
7.2252644105
 20
12.3352515497
 30
0.0
 10
7.222719889
 20
12.3446035527
 30
0.0
 10
7.2221714691
 20
12.3492702998
 30
0.0
  0
LINE
  5
39A
100
AcDbEntity
  8
0
100
AcDbLine
 62
9
  6
CONTINUOUS
 10
7.2567103755
 20
12.3075529332
 11
7.2668811364
 21
12.3058773341
  0
SPLINE
  5
39B
100
AcDbEntity
  8
0
100
AcDbSpline
 62
7
  6
CONTINUOUS
 70
0
 71
3
 72
22
 73
18
 74
0
 42
0.0000001
 43
0.0000001
 44
0.0000000001
 40
0.0
 40
0.0
 40
0.0
 40
0.0
 40
0.1943901382
 40
0.3821012615
 40
0.5547810133
 40
0.6334449861
 40
0.7060020507
 40
0.7717450201
 40
0.8301034543
 40
0.880541793
 40
0.9225268065
 40
0.9555922196
 40
0.9795215896
 40
0.9880217689
 40
0.9942055452
 40
0.9981091838
 40
1.0
 40
1.0
 40
1.0
 40
1.0
 10
14.6452482025
 20
4.81163706
 30
0.0
 10
14.6430342756
 20
4.8129933281
 30
0.0
 10
14.6386934812
 20
4.815677238
 30
0.0
 10
14.6324176659
 20
4.8196167935
 30
0.0
 10
14.627470222
 20
4.8227650688
 30
0.0
 10
14.6238347069
 20
4.825109931
 30
0.0
 10
14.6214069996
 20
4.8266922667
 30
0.0
 10
14.6192149867
 20
4.8281394262
 30
0.0
 10
14.6172787431
 20
4.8294378093
 30
0.0
 10
14.6156165731
 20
4.8305747023
 30
0.0
 10
14.6142448887
 20
4.8315386418
 30
0.0
 10
14.6131784333
 20
4.8323183847
 30
0.0
 10
14.6124869789
 20
4.8328580695
 30
0.0
 10
14.6120981534
 20
4.8331929058
 30
0.0
 10
14.6119190303
 20
4.8333721413
 30
0.0
 10
14.6118196098
 20
4.8334851723
 30
0.0
 10
14.6117846761
 20
4.8335723717
 30
0.0
 10
14.6117978971
 20
4.8335938887
 30
0.0
  0
SPLINE
  5
39C
100
AcDbEntity
  8
0
100
AcDbSpline
 62
9
  6
CONTINUOUS
 70
0
 71
3
 72
18
 73
14
 74
0
 42
0.0000001
 43
0.0000001
 44
0.0000000001
 40
0.0
 40
0.0
 40
0.0
 40
0.0
 40
0.0073545142
 40
0.0133565271
 40
0.0212998494
 40
0.0436034318
 40
0.075187188
 40
0.1674250599
 40
0.2955860554
 40
0.4541247772
 40
0.6321413993
 40
0.8176826547
 40
1.0
 40
1.0
 40
1.0
 40
1.0
 10
14.6263551123
 20
4.8929249548
 30
0.0
 10
14.6263619769
 20
4.8928268005
 30
0.0
 10
14.6265161115
 20
4.8926825762
 30
0.0
 10
14.6267658731
 20
4.892563168
 30
0.0
 10
14.6272288511
 20
4.8924029225
 30
0.0
 10
14.6280395324
 20
4.8922404781
 30
0.0
 10
14.6299809177
 20
4.8919937544
 30
0.0
 10
14.6333501739
 20
4.8918215221
 30
0.0
 10
14.6384196334
 20
4.8917505291
 30
0.0
 10
14.6446370526
 20
4.8918458082
 30
0.0
 10
14.6516183076
 20
4.8920808752
 30
0.0
 10
14.6589126162
 20
4.8924454141
 30
0.0
 10
14.6638244611
 20
4.8927555068
 30
0.0
 10
14.6662577518
 20
4.89292483
 30
0.0
  0
SPLINE
  5
39D
100
AcDbEntity
  8
0
100
AcDbSpline
 62
9
  6
CONTINUOUS
 70
0
 71
3
 72
11
 73
7
 74
0
 42
0.0000001
 43
0.0000001
 44
0.0000000001
 40
0.0
 40
0.0
 40
0.0
 40
0.0
 40
0.2499160519
 40
0.4998788628
 40
0.7499872603
 40
1.0
 40
1.0
 40
1.0
 40
1.0
 10
14.6662574709
 20
4.892928287
 30
0.0
 10
14.6667500127
 20
4.8858839975
 30
0.0
 10
14.6666724056
 20
4.8716957411
 30
0.0
 10
14.6633196428
 20
4.8506913923
 30
0.0
 10
14.6568753053
 20
4.8304243018
 30
0.0
 10
14.6505979524
 20
4.8176854285
 30
0.0
 10
14.6469508833
 20
4.8116354624
 30
0.0
  0
SPLINE
  5
39E
100
AcDbEntity
  8
0
100
AcDbSpline
 62
9
  6
CONTINUOUS
 70
0
 71
3
 72
15
 73
11
 74
0
 42
0.0000001
 43
0.0000001
 44
0.0000000001
 40
0.0
 40
0.0
 40
0.0
 40
0.0
 40
0.109349593
 40
0.2213185171
 40
0.3358910635
 40
0.4545260693
 40
0.5800161014
 40
0.713677486
 40
0.8544772409
 40
1.0
 40
1.0
 40
1.0
 40
1.0
 10
15.2981420806
 20
1.5698829218
 30
0.0
 10
15.2949783704
 20
1.5673164821
 30
0.0
 10
15.2882150865
 20
1.5625458548
 30
0.0
 10
15.2769858385
 20
1.5569088681
 30
0.0
 10
15.2646135644
 20
1.5531522189
 30
0.0
 10
15.2512227522
 20
1.5517949147
 30
0.0
 10
15.237147505
 20
1.5532952841
 30
0.0
 10
15.222701056
 20
1.557096598
 30
0.0
 10
15.2080807782
 20
1.5627347805
 30
0.0
 10
15.1984670057
 20
1.5673789789
 30
0.0
 10
15.1936592234
 20
1.569884328
 30
0.0
  0
LINE
  5
39F
100
AcDbEntity
  8
0
100
AcDbLine
 62
9
  6
CONTINUOUS
 10
7.2163440814
 20
10.9407609377
 11
7.2154448972
 21
10.9488451731
  0
SPLINE
  5
3A0
100
AcDbEntity
  8
0
100
AcDbSpline
 62
9
  6
CONTINUOUS
 70
0
 71
3
 72
12
 73
8
 74
0
 42
0.0000001
 43
0.0000001
 44
0.0000000001
 40
0.0
 40
0.0
 40
0.0
 40
0.0
 40
0.1021041695
 40
0.215362314
 40
0.465070256
 40
0.7315438225
 40
1.0
 40
1.0
 40
1.0
 40
1.0
 10
7.2154446342
 20
10.9488458564
 30
0.0
 10
7.2152852027
 20
10.9503021309
 30
0.0
 10
7.214849405
 20
10.9533629069
 30
0.0
 10
7.2136392107
 20
10.9599260705
 30
0.0
 10
7.2115785217
 20
10.9687239178
 30
0.0
 10
7.2085461999
 20
10.9795683154
 30
0.0
 10
7.2061938222
 20
10.9868760098
 30
0.0
 10
7.204960038
 20
10.9905248328
 30
0.0
  0
SPLINE
  5
3A1
100
AcDbEntity
  8
0
100
AcDbSpline
 62
9
  6
CONTINUOUS
 70
0
 71
3
 72
9
 73
5
 74
0
 42
0.0000001
 43
0.0000001
 44
0.0000000001
 40
0.0
 40
0.0
 40
0.0
 40
0.0
 40
0.5171750019
 40
1.0
 40
1.0
 40
1.0
 40
1.0
 10
7.204960038
 20
10.9905248328
 30
0.0
 10
7.2031260689
 20
10.9959486571
 30
0.0
 10
7.1993323632
 20
11.0063522031
 30
0.0
 10
7.195309188
 20
11.0166657355
 30
0.0
 10
7.1934046279
 20
11.0216601327
 30
0.0
  0
SPLINE
  5
3A2
100
AcDbEntity
  8
0
100
AcDbSpline
 62
9
  6
CONTINUOUS
 70
0
 71
3
 72
9
 73
5
 74
0
 42
0.0000001
 43
0.0000001
 44
0.0000000001
 40
0.0
 40
0.0
 40
0.0
 40
0.0
 40
0.4778738946
 40
1.0
 40
1.0
 40
1.0
 40
1.0
 10
7.1934056236
 20
11.0216605901
 30
0.0
 10
7.1911719118
 20
11.0275196282
 30
0.0
 10
7.1874949633
 20
11.0401626931
 30
0.0
 10
7.1852455167
 20
11.0531132693
 30
0.0
 10
7.1844040124
 20
11.0599124353
 30
0.0
  0
SPLINE
  5
3A3
100
AcDbEntity
  8
0
100
AcDbSpline
 62
9
  6
CONTINUOUS
 70
0
 71
3
 72
16
 73
12
 74
0
 42
0.0000001
 43
0.0000001
 44
0.0000000001
 40
0.0
 40
0.0
 40
0.0
 40
0.0
 40
0.2025885162
 40
0.3951460166
 40
0.5701315066
 40
0.7200241568
 40
0.8385461784
 40
0.9242767347
 40
0.9772389744
 40
0.9918572698
 40
1.0
 40
1.0
 40
1.0
 40
1.0
 10
7.1844038547
 20
11.0599125181
 30
0.0
 10
7.1865264697
 20
11.0601620474
 30
0.0
 10
7.1906640289
 20
11.0606713741
 30
0.0
 10
7.1966246066
 20
11.0614758975
 30
0.0
 10
7.2020243081
 20
11.0622823907
 30
0.0
 10
7.2066357523
 20
11.0630581467
 30
0.0
 10
7.2103050937
 20
11.0637917716
 30
0.0
 10
7.2129297279
 20
11.0644385603
 30
0.0
 10
7.2144838842
 20
11.0649683567
 30
0.0
 10
7.2151702512
 20
11.065346392
 30
0.0
 10
7.2153341667
 20
11.065568739
 30
0.0
 10
7.2153262819
 20
11.0656542791
 30
0.0
  0
SPLINE
  5
3A4
100
AcDbEntity
  8
0
100
AcDbSpline
 62
9
  6
CONTINUOUS
 70
0
 71
3
 72
9
 73
5
 74
0
 42
0.0000001
 43
0.0000001
 44
0.0000000001
 40
0.0
 40
0.0
 40
0.0
 40
0.0
 40
0.5149491973
 40
1.0
 40
1.0
 40
1.0
 40
1.0
 10
7.193403488
 20
11.0216615815
 30
0.0
 10
7.1720302035
 20
10.99566006
 30
0.0
 10
7.1331964608
 20
10.9428756541
 30
0.0
 10
7.1013654957
 20
10.8855245388
 30
0.0
 10
7.0880298899
 20
10.8567613122
 30
0.0
  0
SPLINE
  5
3A5
100
AcDbEntity
  8
0
100
AcDbSpline
 62
9
  6
CONTINUOUS
 70
0
 71
3
 72
9
 73
5
 74
0
 42
0.0000001
 43
0.0000001
 44
0.0000000001
 40
0.0
 40
0.0
 40
0.0
 40
0.0
 40
0.5347462864
 40
1.0
 40
1.0
 40
1.0
 40
1.0
 10
7.1844037809
 20
11.0599165255
 30
0.0
 10
7.154179273
 20
11.0534069769
 30
0.0
 10
7.0977801034
 20
11.0406548907
 30
0.0
 10
7.0417553631
 20
11.0263182221
 30
0.0
 10
7.0158372258
 20
11.0191180002
 30
0.0
  0
SPLINE
  5
3A6
100
AcDbEntity
  8
0
100
AcDbSpline
 62
9
  6
CONTINUOUS
 70
0
 71
3
 72
10
 73
6
 74
0
 42
0.0000001
 43
0.0000001
 44
0.0000000001
 40
0.0
 40
0.0
 40
0.0
 40
0.0
 40
0.5367580702
 40
0.777528482
 40
1.0
 40
1.0
 40
1.0
 40
1.0
 10
7.173391042
 20
11.4896907242
 30
0.0
 10
7.1362844363
 20
11.485713825
 30
0.0
 10
7.0825957025
 20
11.4792948909
 30
0.0
 10
7.0138067257
 20
11.4691701159
 30
0.0
 10
6.9820420713
 20
11.4638258689
 30
0.0
 10
6.9668221863
 20
11.4610679081
 30
0.0
  0
SPLINE
  5
3A7
100
AcDbEntity
  8
0
100
AcDbSpline
 62
9
  6
CONTINUOUS
 70
0
 71
3
 72
10
 73
6
 74
0
 42
0.0000001
 43
0.0000001
 44
0.0000000001
 40
0.0
 40
0.0
 40
0.0
 40
0.0
 40
0.2141597289
 40
0.4532820856
 40
1.0
 40
1.0
 40
1.0
 40
1.0
 10
7.0388103364
 20
12.0242290146
 30
0.0
 10
7.052478197
 20
12.0164338549
 30
0.0
 10
7.0815400181
 20
12.0001682645
 30
0.0
 10
7.1457178058
 20
11.9644089722
 30
0.0
 10
7.1958174921
 20
11.935674741
 30
0.0
 10
7.2300820048
 20
11.9147128437
 30
0.0
  0
SPLINE
  5
3A8
100
AcDbEntity
  8
0
100
AcDbSpline
 62
9
  6
CONTINUOUS
 70
0
 71
3
 72
9
 73
5
 74
0
 42
0.0000001
 43
0.0000001
 44
0.0000000001
 40
0.0
 40
0.0
 40
0.0
 40
0.0
 40
0.5375286107
 40
1.0
 40
1.0
 40
1.0
 40
1.0
 10
7.1985081082
 20
11.7426643259
 30
0.0
 10
7.1606792515
 20
11.7509676439
 30
0.0
 10
7.0904437518
 20
11.7670649334
 30
0.0
 10
7.0206416661
 20
11.7849821004
 30
0.0
 10
6.9885340306
 20
11.7938939122
 30
0.0
  0
SPLINE
  5
3A9
100
AcDbEntity
  8
0
100
AcDbSpline
 62
9
  6
CONTINUOUS
 70
0
 71
3
 72
11
 73
7
 74
0
 42
0.0000001
 43
0.0000001
 44
0.0000000001
 40
0.0
 40
0.0
 40
0.0
 40
0.0
 40
0.2446330164
 40
0.4952638076
 40
0.7482732364
 40
1.0
 40
1.0
 40
1.0
 40
1.0
 10
7.0388038862
 20
12.0242185888
 30
0.0
 10
7.0439754795
 20
12.0343017157
 30
0.0
 10
7.0553393616
 20
12.0542663983
 30
0.0
 10
7.0747967575
 20
12.0829899286
 30
0.0
 10
7.09654576
 20
12.1104396992
 30
0.0
 10
7.1124183821
 20
12.1276443812
 30
0.0
 10
7.1206616568
 20
12.1358917229
 30
0.0
  0
SPLINE
  5
3AA
100
AcDbEntity
  8
0
100
AcDbSpline
 62
9
  6
CONTINUOUS
 70
0
 71
3
 72
16
 73
12
 74
0
 42
0.0000001
 43
0.0000001
 44
0.0000000001
 40
0.0
 40
0.0
 40
0.0
 40
0.0
 40
0.1093285681
 40
0.2244518768
 40
0.2840180606
 40
0.3448234549
 40
0.4697659996
 40
0.5984862065
 40
0.7302261237
 40
0.8642974271
 40
1.0
 40
1.0
 40
1.0
 40
1.0
 10
7.1206629119
 20
12.1358906096
 30
0.0
 10
7.124200302
 20
12.1276189837
 30
0.0
 10
7.1316914237
 20
12.1107351404
 30
0.0
 10
7.1415072061
 20
12.0895251927
 30
0.0
 10
7.1497426337
 20
12.0719841665
 30
0.0
 10
7.1583515109
 20
12.0537258977
 30
0.0
 10
7.1695034919
 20
12.0303754788
 30
0.0
 10
7.183545605
 20
12.0019382344
 30
0.0
 10
7.1985260166
 20
11.9731342529
 30
0.0
 10
7.2141746022
 20
11.9440356436
 30
0.0
 10
7.2247672289
 20
11.9245271598
 30
0.0
 10
7.2300737458
 20
11.9147021112
 30
0.0
  0
SPLINE
  5
3AB
100
AcDbEntity
  8
0
100
AcDbSpline
 62
9
  6
CONTINUOUS
 70
0
 71
3
 72
10
 73
6
 74
0
 42
0.0000001
 43
0.0000001
 44
0.0000000001
 40
0.0
 40
0.0
 40
0.0
 40
0.0
 40
0.2278349186
 40
0.4671841144
 40
1.0
 40
1.0
 40
1.0
 40
1.0
 10
7.2300735677
 20
11.9147021636
 30
0.0
 10
7.235735669
 20
11.932842928
 30
0.0
 10
7.2473067391
 20
11.9700534964
 30
0.0
 10
7.2721076366
 20
12.0496917781
 30
0.0
 10
7.2914354853
 20
12.111130298
 30
0.0
 10
7.3048247
 20
12.1535079679
 30
0.0
  0
SPLINE
  5
3AC
100
AcDbEntity
  8
0
100
AcDbSpline
 62
9
  6
CONTINUOUS
 70
0
 71
3
 72
17
 73
13
 74
0
 42
0.0000001
 43
0.0000001
 44
0.0000000001
 40
0.0
 40
0.0
 40
0.0
 40
0.0
 40
0.2160541432
 40
0.4137724911
 40
0.5880479846
 40
0.7337980553
 40
0.8469888629
 40
0.9276550758
 40
0.9562079757
 40
0.9772380193
 40
0.9912884682
 40
1.0
 40
1.0
 40
1.0
 40
1.0
 10
7.3048253606
 20
12.1535077278
 30
0.0
 10
7.3064481676
 20
12.1529391575
 30
0.0
 10
7.309549896
 20
12.1518325707
 30
0.0
 10
7.3139370172
 20
12.1502020153
 30
0.0
 10
7.3177757965
 20
12.148703936
 30
0.0
 10
7.3209605845
 20
12.1473812229
 30
0.0
 10
7.3234191292
 20
12.1462578706
 30
0.0
 10
7.3249897819
 20
12.1454359864
 30
0.0
 10
7.3258631019
 20
12.1448764123
 30
0.0
 10
7.3262595685
 20
12.1445578315
 30
0.0
 10
7.3264991267
 20
12.1443055205
 30
0.0
 10
7.3265556993
 20
12.1441118407
 30
0.0
 10
7.3265353692
 20
12.1440455552
 30
0.0
  0
SPLINE
  5
3AD
100
AcDbEntity
  8
0
100
AcDbSpline
 62
9
  6
CONTINUOUS
 70
0
 71
3
 72
12
 73
8
 74
0
 42
0.0000001
 43
0.0000001
 44
0.0000000001
 40
0.0
 40
0.0
 40
0.0
 40
0.0
 40
0.3196398119
 40
0.6123320049
 40
0.8458968496
 40
0.9331420583
 40
1.0
 40
1.0
 40
1.0
 40
1.0
 10
7.1985073592
 20
11.7426648061
 30
0.0
 10
7.2020582707
 20
11.74207065
 30
0.0
 10
7.2088514348
 20
11.7408747719
 30
0.0
 10
7.2182024653
 20
11.7390480877
 30
0.0
 10
7.2249515484
 20
11.7375519567
 30
0.0
 10
7.2291684204
 20
11.7364168208
 30
0.0
 10
7.2308261421
 20
11.7358984203
 30
0.0
 10
7.2315352237
 20
11.7356448484
 30
0.0
  0
SPLINE
  5
3AE
100
AcDbEntity
  8
0
100
AcDbSpline
 62
9
  6
CONTINUOUS
 70
0
 71
3
 72
12
 73
8
 74
0
 42
0.0000001
 43
0.0000001
 44
0.0000000001
 40
0.0
 40
0.0
 40
0.0
 40
0.0
 40
0.4050555757
 40
0.702206148
 40
0.8112591161
 40
0.8952143107
 40
1.0
 40
1.0
 40
1.0
 40
1.0
 10
7.2315352237
 20
11.7356448484
 30
0.0
 10
7.2318822462
 20
11.735520751
 30
0.0
 10
7.2324797652
 20
11.7352919475
 30
0.0
 10
7.2331490027
 20
11.7349821365
 30
0.0
 10
7.2335299171
 20
11.734741518
 30
0.0
 10
7.2337355383
 20
11.7345774793
 30
0.0
 10
7.2338509152
 20
11.7344106192
 30
0.0
 10
7.2338369526
 20
11.7343163067
 30
0.0
  0
SPLINE
  5
3AF
100
AcDbEntity
  8
0
100
AcDbSpline
 62
9
  6
CONTINUOUS
 70
0
 71
3
 72
18
 73
14
 74
0
 42
0.0000001
 43
0.0000001
 44
0.0000000001
 40
0.0
 40
0.0
 40
0.0
 40
0.0
 40
0.1987827164
 40
0.3901841075
 40
0.5657285014
 40
0.716959982
 40
0.836802587
 40
0.9235807154
 40
0.9545264874
 40
0.9772278858
 40
0.9855603081
 40
0.9919772106
 40
1.0
 40
1.0
 40
1.0
 40
1.0
 10
7.1733867985
 20
11.4896908031
 30
0.0
 10
7.175725835
 20
11.4895975252
 30
0.0
 10
7.1803181404
 20
11.48944076
 30
0.0
 10
7.1869787859
 20
11.4892920083
 30
0.0
 10
7.1930808647
 20
11.4892414078
 30
0.0
 10
7.1983407359
 20
11.4892928702
 30
0.0
 10
7.2025518563
 20
11.4894635429
 30
0.0
 10
7.2053420028
 20
11.4896948801
 30
0.0
 10
7.2069768968
 20
11.4899547629
 30
0.0
 10
7.2076875051
 20
11.4901190218
 30
0.0
 10
7.2081048942
 20
11.4902747835
 30
0.0
 10
7.208337371
 20
11.4903921415
 30
0.0
 10
7.2084826672
 20
11.4905306696
 30
0.0
 10
7.2084883211
 20
11.4906249778
 30
0.0
  0
SPLINE
  5
3B0
100
AcDbEntity
  8
0
100
AcDbSpline
 62
9
  6
CONTINUOUS
 70
0
 71
3
 72
26
 73
22
 74
0
 42
0.0000001
 43
0.0000001
 44
0.0000000001
 40
0.0
 40
0.0
 40
0.0
 40
0.0
 40
0.1512753021
 40
0.2918704023
 40
0.4196891525
 40
0.5334434037
 40
0.6323410535
 40
0.7162508951
 40
0.7859700494
 40
0.8425961927
 40
0.8877105382
 40
0.9230225942
 40
0.9500157816
 40
0.9699487085
 40
0.9838517731
 40
0.9887998745
 40
0.9925267192
 40
0.9951327206
 40
0.9968112719
 40
0.9981323542
 40
1.0
 40
1.0
 40
1.0
 40
1.0
 10
7.3161002631
 20
12.1921987748
 30
0.0
 10
7.3172770393
 20
12.1972972647
 30
0.0
 10
7.3193661499
 20
12.2071775626
 30
0.0
 10
7.3217606925
 20
12.2215008199
 30
0.0
 10
7.3232644144
 20
12.2346408464
 30
0.0
 10
7.3239199897
 20
12.2464067054
 30
0.0
 10
7.3238196612
 20
12.2566725586
 30
0.0
 10
7.3231034898
 20
12.2653854395
 30
0.0
 10
7.321992077
 20
12.2725792324
 30
0.0
 10
7.3206479346
 20
12.2783613159
 30
0.0
 10
7.3192448172
 20
12.2828932421
 30
0.0
 10
7.3179263203
 20
12.2863691864
 30
0.0
 10
7.3167732016
 20
12.2889710821
 30
0.0
 10
7.3158439586
 20
12.290858414
 30
0.0
 10
7.3152339633
 20
12.2920545629
 30
0.0
 10
7.3149078622
 20
12.2927628489
 30
0.0
 10
7.3147649968
 20
12.2931290896
 30
0.0
 10
7.3146973799
 20
12.293393225
 30
0.0
 10
7.314698149
 20
12.2936033088
 30
0.0
 10
7.3148480092
 20
12.293717231
 30
0.0
 10
7.3149644252
 20
12.2937006435
 30
0.0
 10
7.3150281111
 20
12.293689809
 30
0.0
  0
SPLINE
  5
3B1
100
AcDbEntity
  8
0
100
AcDbSpline
 62
9
  6
CONTINUOUS
 70
0
 71
3
 72
10
 73
6
 74
0
 42
0.0000001
 43
0.0000001
 44
0.0000000001
 40
0.0
 40
0.0
 40
0.0
 40
0.0
 40
0.2550766509
 40
0.6318585038
 40
1.0
 40
1.0
 40
1.0
 40
1.0
 10
6.7563963738
 20
12.2800421446
 30
0.0
 10
6.7651221721
 20
12.2791529546
 30
0.0
 10
6.7867292274
 20
12.2768724742
 30
0.0
 10
6.8208846205
 20
12.2728861463
 30
0.0
 10
6.8462587981
 20
12.2693604036
 30
0.0
 10
6.8587717047
 20
12.2674440562
 30
0.0
  0
SPLINE
  5
3B2
100
AcDbEntity
  8
0
100
AcDbSpline
 62
9
  6
CONTINUOUS
 70
0
 71
3
 72
9
 73
5
 74
0
 42
0.0000001
 43
0.0000001
 44
0.0000000001
 40
0.0
 40
0.0
 40
0.0
 40
0.0
 40
0.511963418
 40
1.0
 40
1.0
 40
1.0
 40
1.0
 10
6.8587717047
 20
12.2674440562
 30
0.0
 10
6.874887314
 20
12.2649759562
 30
0.0
 10
6.9062803388
 20
12.2595834987
 30
0.0
 10
6.9374862519
 20
12.2532199787
 30
0.0
 10
6.95268747
 20
12.2499853306
 30
0.0
  0
SPLINE
  5
3B3
100
AcDbEntity
  8
0
100
AcDbSpline
 62
9
  6
CONTINUOUS
 70
0
 71
3
 72
28
 73
24
 74
0
 42
0.0000001
 43
0.0000001
 44
0.0000000001
 40
0.0
 40
0.0
 40
0.0
 40
0.0
 40
0.1301024016
 40
0.1951471594
 40
0.2601702015
 40
0.3250169061
 40
0.3573014357
 40
0.3895242673
 40
0.4218512212
 40
0.4539537299
 40
0.4850832863
 40
0.5155682771
 40
0.5457794946
 40
0.575500836
 40
0.6052580764
 40
0.6353077602
 40
0.6653404879
 40
0.6954347642
 40
0.7559407787
 40
0.8167747519
 40
0.8777649426
 40
0.9388537719
 40
1.0
 40
1.0
 40
1.0
 40
1.0
 10
6.7924074862
 20
12.1178427727
 30
0.0
 10
6.794848782
 20
12.1212163922
 30
0.0
 10
6.7986020846
 20
12.1262128406
 30
0.0
 10
6.8038838898
 20
12.1326529013
 30
0.0
 10
6.8080399592
 20
12.1373088098
 30
0.0
 10
6.8117263521
 20
12.1409699347
 30
0.0
 10
6.8148560288
 20
12.1436836749
 30
0.0
 10
6.8173338649
 20
12.1455508135
 30
0.0
 10
6.8199628087
 20
12.1471912494
 30
0.0
 10
6.8227378826
 20
12.148499428
 30
0.0
 10
6.8256692069
 20
12.1492647892
 30
0.0
 10
6.8286467695
 20
12.1491843501
 30
0.0
 10
6.8314493966
 20
12.1483374816
 30
0.0
 10
6.833911348
 20
12.1468000283
 30
0.0
 10
6.8359382025
 20
12.1447498419
 30
0.0
 10
6.8376456092
 20
12.1424295449
 30
0.0
 10
6.8391405124
 20
12.1399566335
 30
0.0
 10
6.8408762607
 20
12.1365043679
 30
0.0
 10
6.8426789513
 20
12.1319966694
 30
0.0
 10
6.8444508474
 20
12.1264332539
 30
0.0
 10
6.8459446082
 20
12.1207704272
 30
0.0
 10
6.8472291512
 20
12.1150472
 30
0.0
 10
6.8479695469
 20
12.1112048335
 30
0.0
 10
6.8483157569
 20
12.1092785471
 30
0.0
  0
SPLINE
  5
3B4
100
AcDbEntity
  8
0
100
AcDbSpline
 62
9
  6
CONTINUOUS
 70
0
 71
3
 72
21
 73
17
 74
0
 42
0.0000001
 43
0.0000001
 44
0.0000000001
 40
0.0
 40
0.0
 40
0.0
 40
0.0
 40
0.1409043489
 40
0.2056368485
 40
0.2654134319
 40
0.3197944242
 40
0.3689475266
 40
0.4140578473
 40
0.4577779865
 40
0.5040569278
 40
0.555999976
 40
0.6148803642
 40
0.6808106155
 40
0.7532621062
 40
0.8313546946
 40
1.0
 40
1.0
 40
1.0
 40
1.0
 10
6.6854609948
 20
10.5278062838
 30
0.0
 10
6.683700837
 20
10.52448224
 30
0.0
 10
6.6809278924
 20
10.5197260626
 30
0.0
 10
6.6767263751
 20
10.5140129957
 30
0.0
 10
6.6735493547
 20
10.5104359408
 30
0.0
 10
6.6702638554
 20
10.5075480884
 30
0.0
 10
6.6668611842
 20
10.5054573015
 30
0.0
 10
6.6633182789
 20
10.5042961517
 30
0.0
 10
6.6596457363
 20
10.5042606157
 30
0.0
 10
6.6559991443
 20
10.5054755918
 30
0.0
 10
6.6524245033
 20
10.5077158273
 30
0.0
 10
6.6488753707
 20
10.5108466748
 30
0.0
 10
6.645342344
 20
10.5147616169
 30
0.0
 10
6.641828544
 20
10.5193549263
 30
0.0
 10
6.6370625869
 20
10.52642185
 30
0.0
 10
6.6337504735
 20
10.5321232752
 30
0.0
 10
6.6315794331
 20
10.536067005
 30
0.0
  0
SPLINE
  5
3B5
100
AcDbEntity
  8
0
100
AcDbSpline
 62
9
  6
CONTINUOUS
 70
0
 71
3
 72
11
 73
7
 74
0
 42
0.0000001
 43
0.0000001
 44
0.0000000001
 40
0.0
 40
0.0
 40
0.0
 40
0.0
 40
0.2526558879
 40
0.5044577738
 40
0.7540292908
 40
1.0
 40
1.0
 40
1.0
 40
1.0
 10
6.7924069387
 20
12.1178394656
 30
0.0
 10
6.7705243865
 20
11.9856523608
 30
0.0
 10
6.7309908308
 20
11.7210180686
 30
0.0
 10
6.6842676712
 20
11.3238241302
 30
0.0
 10
6.6503568335
 20
10.9288890118
 30
0.0
 10
6.6363257111
 20
10.6664160681
 30
0.0
 10
6.6315786266
 20
10.536061591
 30
0.0
  0
SPLINE
  5
3B6
100
AcDbEntity
  8
0
100
AcDbSpline
 62
9
  6
CONTINUOUS
 70
0
 71
3
 72
21
 73
17
 74
0
 42
0.0000001
 43
0.0000001
 44
0.0000000001
 40
0.0
 40
0.0
 40
0.0
 40
0.0
 40
0.0624979559
 40
0.1250283857
 40
0.1875324564
 40
0.2500105771
 40
0.3125070732
 40
0.3750288494
 40
0.4375340523
 40
0.5000094812
 40
0.5624874743
 40
0.6249971927
 40
0.7499848091
 40
0.8124814263
 40
0.8750040335
 40
1.0
 40
1.0
 40
1.0
 40
1.0
 10
6.7924052122
 20
12.1178397402
 30
0.0
 10
6.7827959616
 20
12.1158746738
 30
0.0
 10
6.7635023279
 20
12.1122741287
 30
0.0
 10
6.7343663548
 20
12.1080589568
 30
0.0
 10
6.7050634281
 20
12.1052158255
 30
0.0
 10
6.67565188
 20
12.1039903244
 30
0.0
 10
6.6462169773
 20
12.1043180715
 30
0.0
 10
6.6168269177
 20
12.1059907937
 30
0.0
 10
6.5875301346
 20
12.1088145731
 30
0.0
 10
6.5583643264
 20
12.1127143038
 30
0.0
 10
6.5293638244
 20
12.1177075959
 30
0.0
 10
6.4909708064
 20
12.1257904126
 30
0.0
 10
6.4530745182
 20
12.1361947311
 30
0.0
 10
6.4161334125
 20
12.149464507
 30
0.0
 10
6.3799519466
 20
12.1646787858
 30
0.0
 10
6.3536734804
 20
12.1780395838
 30
0.0
 10
6.3365682765
 20
12.1876421388
 30
0.0
  0
SPLINE
  5
3B7
100
AcDbEntity
  8
0
100
AcDbSpline
 62
9
  6
CONTINUOUS
 70
0
 71
3
 72
9
 73
5
 74
0
 42
0.0000001
 43
0.0000001
 44
0.0000000001
 40
0.0
 40
0.0
 40
0.0
 40
0.0
 40
0.4880369579
 40
1.0
 40
1.0
 40
1.0
 40
1.0
 10
6.2231744358
 20
12.361691046
 30
0.0
 10
6.2386407887
 20
12.360232823
 30
0.0
 10
6.2703069772
 20
12.3569626734
 30
0.0
 10
6.301862013
 20
12.3527188099
 30
0.0
 10
6.3179709189
 20
12.3502529242
 30
0.0
  0
SPLINE
  5
3B8
100
AcDbEntity
  8
0
100
AcDbSpline
 62
9
  6
CONTINUOUS
 70
0
 71
3
 72
9
 73
5
 74
0
 42
0.0000001
 43
0.0000001
 44
0.0000000001
 40
0.0
 40
0.0
 40
0.0
 40
0.0
 40
0.4928608476
 40
1.0
 40
1.0
 40
1.0
 40
1.0
 10
6.3179709189
 20
12.3502529242
 30
0.0
 10
6.334729535
 20
12.3476875836
 30
0.0
 10
6.3686354145
 20
12.3418430468
 30
0.0
 10
6.4023742145
 20
12.3351290838
 30
0.0
 10
6.4194655395
 20
12.3316342308
 30
0.0
  0
SPLINE
  5
3B9
100
AcDbEntity
  8
0
100
AcDbSpline
 62
9
  6
CONTINUOUS
 70
0
 71
3
 72
11
 73
7
 74
0
 42
0.0000001
 43
0.0000001
 44
0.0000000001
 40
0.0
 40
0.0
 40
0.0
 40
0.0
 40
0.2464221131
 40
0.4990025902
 40
0.752096443
 40
1.0
 40
1.0
 40
1.0
 40
1.0
 10
6.2806627289
 20
12.1962054263
 30
0.0
 10
6.2787504422
 20
12.2105577729
 30
0.0
 10
6.2733251318
 20
12.2394315078
 30
0.0
 10
6.2609184071
 20
12.2819188663
 30
0.0
 10
6.244276051
 20
12.3230263612
 30
0.0
 10
6.2305966383
 20
12.3491573019
 30
0.0
 10
6.2231750395
 20
12.3616910506
 30
0.0
  0
SPLINE
  5
3BA
100
AcDbEntity
  8
0
100
AcDbSpline
 62
9
  6
CONTINUOUS
 70
0
 71
3
 72
27
 73
23
 74
0
 42
0.0000001
 43
0.0000001
 44
0.0000000001
 40
0.0
 40
0.0
 40
0.0
 40
0.0
 40
0.061098078
 40
0.1221701077
 40
0.1831542244
 40
0.2439262787
 40
0.3044182974
 40
0.334594505
 40
0.3646543684
 40
0.3945036564
 40
0.4244843178
 40
0.4546797509
 40
0.4845790296
 40
0.5147759816
 40
0.5462683545
 40
0.5785367051
 40
0.6106813941
 40
0.675132135
 40
0.7399685592
 40
0.8049379204
 40
0.8699626623
 40
1.0
 40
1.0
 40
1.0
 40
1.0
 10
6.2806589667
 20
12.196198534
 30
0.0
 10
6.2815691424
 20
12.197929397
 30
0.0
 10
6.2834257761
 20
12.2013714048
 30
0.0
 10
6.2863590193
 20
12.206448151
 30
0.0
 10
6.2894707894
 20
12.2114062754
 30
0.0
 10
6.2928289541
 20
12.216180052
 30
0.0
 10
6.2959086891
 20
12.2199323665
 30
0.0
 10
6.2985820943
 20
12.2227248474
 30
0.0
 10
6.3007136138
 20
12.2246720774
 30
0.0
 10
6.3030561865
 20
12.2263587015
 30
0.0
 10
6.3056539824
 20
12.2276430756
 30
0.0
 10
6.3084602094
 20
12.2283896676
 30
0.0
 10
6.3113916413
 20
12.2284471811
 30
0.0
 10
6.3142316161
 20
12.227549086
 30
0.0
 10
6.3167897995
 20
12.2259286714
 30
0.0
 10
6.3190823326
 20
12.2238725291
 30
0.0
 10
6.3217867606
 20
12.2207466408
 30
0.0
 10
6.3245801401
 20
12.2163778886
 30
0.0
 10
6.3274897497
 20
12.2108811143
 30
0.0
 10
6.330059181
 20
12.205194931
 30
0.0
 10
6.3331633746
 20
12.1974715706
 30
0.0
 10
6.3352549077
 20
12.1915856013
 30
0.0
 10
6.3365702032
 20
12.1876367505
 30
0.0
  0
SPLINE
  5
3BB
100
AcDbEntity
  8
0
100
AcDbSpline
 62
9
  6
CONTINUOUS
 70
0
 71
3
 72
11
 73
7
 74
0
 42
0.0000001
 43
0.0000001
 44
0.0000000001
 40
0.0
 40
0.0
 40
0.0
 40
0.0
 40
0.2526487895
 40
0.5044648343
 40
0.7540360622
 40
1.0
 40
1.0
 40
1.0
 40
1.0
 10
6.3365682765
 20
12.1876421388
 30
0.0
 10
6.3178844928
 20
12.0549682272
 30
0.0
 10
6.2764654756
 20
11.7906179908
 30
0.0
 10
6.2022293735
 20
11.397628991
 30
0.0
 10
6.1163895568
 20
11.0106409175
 30
0.0
 10
6.0512213713
 20
10.7560016376
 30
0.0
 10
6.0167068688
 20
10.6302128867
 30
0.0
  0
SPLINE
  5
3BC
100
AcDbEntity
  8
0
100
AcDbSpline
 62
9
  6
CONTINUOUS
 70
0
 71
3
 72
21
 73
17
 74
0
 42
0.0000001
 43
0.0000001
 44
0.0000000001
 40
0.0
 40
0.0
 40
0.0
 40
0.0
 40
0.1686468139
 40
0.2467341807
 40
0.3191771428
 40
0.3850963358
 40
0.44396433
 40
0.4958956184
 40
0.5421666606
 40
0.5858867274
 40
0.6310038875
 40
0.6801675218
 40
0.7345600045
 40
0.7943471815
 40
0.8590881568
 40
1.0
 40
1.0
 40
1.0
 40
1.0
 10
6.0167024145
 20
10.6302090353
 30
0.0
 10
6.0134508188
 20
10.6270956677
 30
0.0
 10
6.008584466
 20
10.6226468444
 30
0.0
 10
6.0019221492
 20
10.6173307586
 30
0.0
 10
5.9971950553
 20
10.6140004618
 30
0.0
 10
5.992652708
 20
10.6113235062
 30
0.0
 10
5.9883297092
 20
10.6093998257
 30
0.0
 10
5.9842489274
 20
10.6083338319
 30
0.0
 10
5.9804063681
 20
10.6082681235
 30
0.0
 10
5.9769136668
 20
10.6094034621
 30
0.0
 10
5.9738815426
 20
10.6115735139
 30
0.0
 10
5.9712612753
 20
10.6145883126
 30
0.0
 10
5.9689912021
 20
10.6183283133
 30
0.0
 10
5.9670307684
 20
10.6226931978
 30
0.0
 10
5.964732099
 20
10.6294025803
 30
0.0
 10
5.9635096903
 20
10.634770942
 30
0.0
 10
5.9628249329
 20
10.6384695149
 30
0.0
  0
SPLINE
  5
3BD
100
AcDbEntity
  8
0
100
AcDbSpline
 62
9
  6
CONTINUOUS
 70
0
 71
3
 72
14
 73
10
 74
0
 42
0.0000001
 43
0.0000001
 44
0.0000000001
 40
0.0
 40
0.0
 40
0.0
 40
0.0
 40
0.1292743125
 40
0.2555040922
 40
0.3793371089
 40
0.5022425689
 40
0.6249539143
 40
0.7481118902
 40
1.0
 40
1.0
 40
1.0
 40
1.0
 10
5.9583312452
 20
12.2455618428
 30
0.0
 10
5.9701462415
 20
12.2369592027
 30
0.0
 10
5.9943501803
 20
12.2210798119
 30
0.0
 10
6.0328357875
 20
12.2018765726
 30
0.0
 10
6.0729744719
 20
12.1885298843
 30
0.0
 10
6.1139806611
 20
12.1802214403
 30
0.0
 10
6.1555258122
 20
12.1758917546
 30
0.0
 10
6.2119416456
 20
12.1768779777
 30
0.0
 10
6.2537762747
 20
12.1868217402
 30
0.0
 10
6.2806627186
 20
12.1962059696
 30
0.0
  0
SPLINE
  5
3BE
100
AcDbEntity
  8
0
100
AcDbSpline
 62
9
  6
CONTINUOUS
 70
0
 71
3
 72
11
 73
7
 74
0
 42
0.0000001
 43
0.0000001
 44
0.0000000001
 40
0.0
 40
0.0
 40
0.0
 40
0.0
 40
0.2526799648
 40
0.5044979529
 40
0.7540653067
 40
1.0
 40
1.0
 40
1.0
 40
1.0
 10
6.2806600817
 20
12.1962064363
 30
0.0
 10
6.2619392657
 20
12.0635340946
 30
0.0
 10
6.2204992354
 20
11.799197611
 30
0.0
 10
6.1465928166
 20
11.4061741515
 30
0.0
 10
6.0614446218
 20
11.019092501
 30
0.0
 10
5.9969334773
 20
10.7643336357
 30
0.0
 10
5.9628229521
 20
10.6384638312
 30
0.0
  0
SPLINE
  5
3BF
100
AcDbEntity
  8
0
100
AcDbSpline
 62
9
  6
CONTINUOUS
 70
0
 71
3
 72
11
 73
7
 74
0
 42
0.0000001
 43
0.0000001
 44
0.0000000001
 40
0.0
 40
0.0
 40
0.0
 40
0.0
 40
0.2687257139
 40
0.5280239995
 40
0.7728295002
 40
1.0
 40
1.0
 40
1.0
 40
1.0
 10
5.9583324533
 20
12.2455616107
 30
0.0
 10
5.9637696294
 20
12.2584747795
 30
0.0
 10
5.9731372253
 20
12.2844272599
 30
0.0
 10
5.9825873713
 20
12.3236935829
 30
0.0
 10
5.9868024911
 20
12.361689976
 30
0.0
 10
5.9861827215
 20
12.3863941959
 30
0.0
 10
5.9849283594
 20
12.3981720968
 30
0.0
  0
SPLINE
  5
3C0
100
AcDbEntity
  8
0
100
AcDbSpline
 62
9
  6
CONTINUOUS
 70
0
 71
3
 72
10
 73
6
 74
0
 42
0.0000001
 43
0.0000001
 44
0.0000000001
 40
0.0
 40
0.0
 40
0.0
 40
0.0
 40
0.1967929797
 40
0.429058686
 40
1.0
 40
1.0
 40
1.0
 40
1.0
 10
5.9036219264
 20
12.4106221006
 30
0.0
 10
5.905729365
 20
12.4107925785
 30
0.0
 10
5.9103407487
 20
12.4109635563
 30
0.0
 10
5.9210858317
 20
12.4106956322
 30
0.0
 10
5.9296801997
 20
12.4097110065
 30
0.0
 10
5.9357435249
 20
12.4087816705
 30
0.0
  0
SPLINE
  5
3C1
100
AcDbEntity
  8
0
100
AcDbSpline
 62
9
  6
CONTINUOUS
 70
0
 71
3
 72
9
 73
5
 74
0
 42
0.0000001
 43
0.0000001
 44
0.0000000001
 40
0.0
 40
0.0
 40
0.0
 40
0.0
 40
0.4560506532
 40
1.0
 40
1.0
 40
1.0
 40
1.0
 10
5.9357435249
 20
12.4087816705
 30
0.0
 10
5.943305857
 20
12.4076225793
 30
0.0
 10
5.9597666518
 20
12.4043118788
 30
0.0
 10
5.9760663984
 20
12.4003482219
 30
0.0
 10
5.9849283628
 20
12.3981721602
 30
0.0
  0
SPLINE
  5
3C2
100
AcDbEntity
  8
0
100
AcDbSpline
 62
9
  6
CONTINUOUS
 70
0
 71
3
 72
10
 73
6
 74
0
 42
0.0000001
 43
0.0000001
 44
0.0000000001
 40
0.0
 40
0.0
 40
0.0
 40
0.0
 40
0.496293255
 40
0.7484487762
 40
1.0
 40
1.0
 40
1.0
 40
1.0
 10
5.9351758342
 20
12.2491112042
 30
0.0
 10
5.9385685273
 20
12.2765043982
 30
0.0
 10
5.9370322795
 20
12.3190260672
 30
0.0
 10
5.9219681108
 20
12.3727112928
 30
0.0
 10
5.9103530118
 20
12.3983566803
 30
0.0
 10
5.9036235358
 20
12.4106225282
 30
0.0
  0
SPLINE
  5
3C3
100
AcDbEntity
  8
0
100
AcDbSpline
 62
9
  6
CONTINUOUS
 70
0
 71
3
 72
33
 73
29
 74
0
 42
0.0000001
 43
0.0000001
 44
0.0000000001
 40
0.0
 40
0.0
 40
0.0
 40
0.0
 40
0.0697330624
 40
0.1386064183
 40
0.2063027806
 40
0.2722820853
 40
0.304334943
 40
0.3354968681
 40
0.3654982714
 40
0.3938959922
 40
0.4202745918
 40
0.4434898782
 40
0.4533678826
 40
0.4620093953
 40
0.4697302414
 40
0.4772342288
 40
0.4940413754
 40
0.5157235739
 40
0.5424000021
 40
0.5724285654
 40
0.6042514659
 40
0.6374337493
 40
0.6716456458
 40
0.7066293993
 40
0.77821439
 40
0.8512393757
 40
0.9252539592
 40
1.0
 40
1.0
 40
1.0
 40
1.0
 10
5.9351745927
 20
12.2491011233
 30
0.0
 10
5.9354009911
 20
12.2509303046
 30
0.0
 10
5.9358802945
 20
12.2545625886
 30
0.0
 10
5.9366972733
 20
12.2599542933
 30
0.0
 10
5.9376194272
 20
12.2652284437
 30
0.0
 10
5.93850357
 20
12.2695198319
 30
0.0
 10
5.9392998795
 20
12.2728407674
 30
0.0
 10
5.9399388664
 20
12.2752207
 30
0.0
 10
5.940628964
 20
12.2774855899
 30
0.0
 10
5.9413929189
 20
12.279594317
 30
0.0
 10
5.942237416
 20
12.2814753849
 30
0.0
 10
5.9430388016
 20
12.2828396797
 30
0.0
 10
5.9437717284
 20
12.2836692983
 30
0.0
 10
5.9443271646
 20
12.284096419
 30
0.0
 10
5.9449316933
 20
12.2843166911
 30
0.0
 10
5.9457965579
 20
12.2843025476
 30
0.0
 10
5.9469064041
 20
12.2836686984
 30
0.0
 10
5.947978043
 20
12.2823011766
 30
0.0
 10
5.9489522996
 20
12.2804667805
 30
0.0
 10
5.9498612205
 20
12.2783091691
 30
0.0
 10
5.9507238884
 20
12.275949316
 30
0.0
 10
5.9515299645
 20
12.2734533643
 30
0.0
 10
5.9522963381
 20
12.2708579758
 30
0.0
 10
5.9532838087
 20
12.2672702063
 30
0.0
 10
5.9544481988
 20
12.2626678895
 30
0.0
 10
5.9557768429
 20
12.2570440707
 30
0.0
 10
5.9570709836
 20
12.251326547
 30
0.0
 10
5.9579138287
 20
12.2474859807
 30
0.0
 10
5.9583330352
 20
12.2455553297
 30
0.0
  0
SPLINE
  5
3C4
100
AcDbEntity
  8
0
100
AcDbSpline
 62
9
  6
CONTINUOUS
 70
0
 71
3
 72
26
 73
22
 74
0
 42
0.0000001
 43
0.0000001
 44
0.0000000001
 40
0.0
 40
0.0
 40
0.0
 40
0.0
 40
0.2006983249
 40
0.2901252669
 40
0.3699074496
 40
0.4383474361
 40
0.4938985162
 40
0.5164700932
 40
0.5354722355
 40
0.551002731
 40
0.5634899261
 40
0.5740700938
 40
0.5846383362
 40
0.5968831655
 40
0.6117427242
 40
0.6504816224
 40
0.7013433846
 40
0.7632652037
 40
0.8347768894
 40
0.9142532839
 40
1.0
 40
1.0
 40
1.0
 40
1.0
 10
5.5280388513
 20
10.7050348398
 30
0.0
 10
5.5249507704
 20
10.7019630524
 30
0.0
 10
5.5204720827
 20
10.6975363127
 30
0.0
 10
5.5146291301
 20
10.6920304802
 30
0.0
 10
5.5107869449
 20
10.68858794
 30
0.0
 10
5.5073765141
 20
10.6857713228
 30
0.0
 10
5.5047941962
 20
10.6839039479
 30
0.0
 10
5.5029701195
 20
10.6828438272
 30
0.0
 10
5.501842092
 20
10.6823235253
 30
0.0
 10
5.5008597121
 20
10.6820315429
 30
0.0
 10
5.5000099625
 20
10.6819805954
 30
0.0
 10
5.499297572
 20
10.682232103
 30
0.0
 10
5.4987875738
 20
10.6827789666
 30
0.0
 10
5.4984748863
 20
10.683546329
 30
0.0
 10
5.4982477856
 20
10.6849645046
 30
0.0
 10
5.4984041596
 20
10.6872465331
 30
0.0
 10
5.4990483132
 20
10.6904720123
 30
0.0
 10
5.5001512531
 20
10.6943213382
 30
0.0
 10
5.5016646452
 20
10.6986883219
 30
0.0
 10
5.5035449928
 20
10.703471034
 30
0.0
 10
5.5049663335
 20
10.7067637448
 30
0.0
 10
5.5057273524
 20
10.7084619607
 30
0.0
  0
SPLINE
  5
3C5
100
AcDbEntity
  8
0
100
AcDbSpline
 62
9
  6
CONTINUOUS
 70
0
 71
3
 72
15
 73
11
 74
0
 42
0.0000001
 43
0.0000001
 44
0.0000000001
 40
0.0
 40
0.0
 40
0.0
 40
0.0
 40
0.1717463369
 40
0.3300847569
 40
0.4763696344
 40
0.6091687965
 40
0.727576916
 40
0.8319926754
 40
0.9234627282
 40
1.0
 40
1.0
 40
1.0
 40
1.0
 10
5.4817758786
 20
10.5917799269
 30
0.0
 10
5.4777120157
 20
10.5922940098
 30
0.0
 10
5.4699100634
 20
10.5933486994
 30
0.0
 10
5.4586593277
 20
10.5949327642
 30
0.0
 10
5.4483167408
 20
10.596302007
 30
0.0
 10
5.4389312535
 20
10.5976427637
 30
0.0
 10
5.4305581696
 20
10.599000388
 30
0.0
 10
5.4231831596
 20
10.6003439231
 30
0.0
 10
5.4167849199
 20
10.601472167
 30
0.0
 10
5.412845736
 20
10.6022131543
 30
0.0
 10
5.4110635479
 20
10.602608254
 30
0.0
  0
SPLINE
  5
3C6
100
AcDbEntity
  8
0
100
AcDbSpline
 62
9
  6
CONTINUOUS
 70
0
 71
3
 72
11
 73
7
 74
0
 42
0.0000001
 43
0.0000001
 44
0.0000000001
 40
0.0
 40
0.0
 40
0.0
 40
0.0
 40
0.249954105
 40
0.5015225464
 40
0.7522991619
 40
1.0
 40
1.0
 40
1.0
 40
1.0
 10
5.4110635765
 20
10.6026083179
 30
0.0
 10
5.4213828829
 20
10.6087461481
 30
0.0
 10
5.4411786192
 20
10.6226604772
 30
0.0
 10
5.4674079719
 20
10.6477198491
 30
0.0
 10
5.4893360226
 20
10.6764833622
 30
0.0
 10
5.5008576949
 20
10.6975983918
 30
0.0
 10
5.5057246539
 20
10.7084559388
 30
0.0
  0
SPLINE
  5
3C7
100
AcDbEntity
  8
0
100
AcDbSpline
 62
9
  6
CONTINUOUS
 70
0
 71
3
 72
26
 73
22
 74
0
 42
0.0000001
 43
0.0000001
 44
0.0000000001
 40
0.0
 40
0.0
 40
0.0
 40
0.0
 40
0.2275637594
 40
0.427456711
 40
0.598877643
 40
0.673657478
 40
0.741013049
 40
0.80084071
 40
0.8530360948
 40
0.8974941354
 40
0.9341090806
 40
0.9494421749
 40
0.9627745362
 40
0.9740927614
 40
0.9833834078
 40
0.9906329937
 40
0.9958279991
 40
0.997650799
 40
0.9989548665
 40
0.9997385011
 40
1.0
 40
1.0
 40
1.0
 40
1.0
 10
5.4110651185
 20
10.6026090051
 30
0.0
 10
5.4085890171
 20
10.602913067
 30
0.0
 10
5.4039346393
 20
10.6034581409
 30
0.0
 10
5.3974053999
 20
10.6041463935
 30
0.0
 10
5.3925364202
 20
10.6046044645
 30
0.0
 10
5.3891114751
 20
10.604897069
 30
0.0
 10
5.3869044626
 20
10.6050735925
 30
0.0
 10
5.3849434421
 20
10.6052199252
 30
0.0
 10
5.3832320948
 20
10.6053385868
 30
0.0
 10
5.381774116
 20
10.605432105
 30
0.0
 10
5.380719069
 20
10.6054943815
 30
0.0
 10
5.3800045256
 20
10.6055337231
 30
0.0
 10
5.3795667506
 20
10.6055566782
 30
0.0
 10
5.3791952793
 20
10.6055753795
 30
0.0
 10
5.3788898057
 20
10.605589605
 30
0.0
 10
5.3786528443
 20
10.6056011079
 30
0.0
 10
5.3784943493
 20
10.6056062379
 30
0.0
 10
5.3784062011
 20
10.6056120741
 30
0.0
 10
5.3783584118
 20
10.6056103091
 30
0.0
 10
5.3783414412
 20
10.6056174493
 30
0.0
 10
5.3783209062
 20
10.6056115217
 30
0.0
 10
5.3783217756
 20
10.6056142534
 30
0.0
  0
SPLINE
  5
3C8
100
AcDbEntity
  8
0
100
AcDbSpline
 62
9
  6
CONTINUOUS
 70
0
 71
3
 72
12
 73
8
 74
0
 42
0.0000001
 43
0.0000001
 44
0.0000000001
 40
0.0
 40
0.0
 40
0.0
 40
0.0
 40
0.3472754372
 40
0.6325630215
 40
0.850988896
 40
0.9340899785
 40
1.0
 40
1.0
 40
1.0
 40
1.0
 10
15.0320127563
 20
5.2650650839
 30
0.0
 10
15.0357592111
 20
5.2650650913
 30
0.0
 10
15.0425825852
 20
5.2649379216
 30
0.0
 10
15.051762599
 20
5.2648041137
 30
0.0
 10
15.0580936918
 20
5.2649026556
 30
0.0
 10
15.0620550397
 20
5.2650385765
 30
0.0
 10
15.0636627543
 20
5.265071605
 30
0.0
 10
15.0643737493
 20
5.2650630678
 30
0.0
  0
SPLINE
  5
3C9
100
AcDbEntity
  8
0
100
AcDbSpline
 62
9
  6
CONTINUOUS
 70
0
 71
3
 72
14
 73
10
 74
0
 42
0.0000001
 43
0.0000001
 44
0.0000000001
 40
0.0
 40
0.0
 40
0.0
 40
0.0
 40
0.2498348945
 40
0.3750969386
 40
0.5004073218
 40
0.6256701196
 40
0.7507765269
 40
0.8756097943
 40
1.0
 40
1.0
 40
1.0
 40
1.0
 10
15.0440484128
 20
5.28837104
 30
0.0
 10
15.0858339842
 20
5.5418690867
 30
0.0
 10
15.1285776818
 20
5.9260427787
 30
0.0
 10
15.1503967597
 20
6.44027198
 30
0.0
 10
15.1492137089
 20
6.8269117128
 30
0.0
 10
15.130481696
 20
7.2129170968
 30
0.0
 10
15.0941896479
 20
7.5971891823
 30
0.0
 10
15.0403407296
 20
7.9784711701
 30
0.0
 10
14.9922903064
 20
8.2303714752
 30
0.0
 10
14.9644516213
 20
8.35522269
 30
0.0
  0
SPLINE
  5
3CA
100
AcDbEntity
  8
0
100
AcDbSpline
 62
9
  6
CONTINUOUS
 70
0
 71
3
 72
18
 73
14
 74
0
 42
0.0000001
 43
0.0000001
 44
0.0000000001
 40
0.0
 40
0.0
 40
0.0
 40
0.0
 40
0.007899177
 40
0.0233134021
 40
0.0468725526
 40
0.0784635979
 40
0.1178538277
 40
0.1647872979
 40
0.2802817309
 40
0.4231423932
 40
0.5917678851
 40
0.7845394744
 40
1.0
 40
1.0
 40
1.0
 40
1.0
 10
15.0440475944
 20
5.2883683179
 30
0.0
 10
15.0440210702
 20
5.2884244725
 30
0.0
 10
15.0438184954
 20
5.2884903391
 30
0.0
 10
15.0434685997
 20
5.2885139401
 30
0.0
 10
15.0429045696
 20
5.2885151103
 30
0.0
 10
15.0421654633
 20
5.2884883198
 30
0.0
 10
15.0412378584
 20
5.2884493267
 30
0.0
 10
15.0396529728
 20
5.2883879395
 30
0.0
 10
15.0372522146
 20
5.2883439761
 30
0.0
 10
15.0338957743
 20
5.2884141631
 30
0.0
 10
15.0299323571
 20
5.2885047404
 30
0.0
 10
15.0253967316
 20
5.2885305474
 30
0.0
 10
15.0221873646
 20
5.2884467437
 30
0.0
 10
15.0204952241
 20
5.2883682192
 30
0.0
  0
SPLINE
  5
3CB
100
AcDbEntity
  8
0
100
AcDbSpline
 62
9
  6
CONTINUOUS
 70
0
 71
3
 72
23
 73
19
 74
0
 42
0.0000001
 43
0.0000001
 44
0.0000000001
 40
0.0
 40
0.0
 40
0.0
 40
0.0
 40
0.0624022861
 40
0.0936281595
 40
0.1248679706
 40
0.1873811896
 40
0.2499319885
 40
0.3125146698
 40
0.3751210027
 40
0.4377393373
 40
0.5003573355
 40
0.6255349514
 40
0.6880811172
 40
0.7505820532
 40
0.8130318509
 40
0.8754317837
 40
0.9377682694
 40
1.0
 40
1.0
 40
1.0
 40
1.0
 10
15.0204987017
 20
5.2884330236
 30
0.0
 10
15.031875253
 20
5.3516422759
 30
0.0
 10
15.0471621324
 20
5.4468067668
 30
0.0
 10
15.0649959507
 20
5.5740794459
 30
0.0
 10
15.081256038
 20
5.7016801534
 30
0.0
 10
15.098549079
 20
5.8616358176
 30
0.0
 10
15.1144355639
 20
6.0541284154
 30
0.0
 10
15.1256009554
 20
6.2470476215
 30
0.0
 10
15.1321693894
 20
6.4402464598
 30
0.0
 10
15.1341448711
 20
6.6335848371
 30
0.0
 10
15.1306689898
 20
6.8913070426
 30
0.0
 10
15.1180527037
 20
7.1487679084
 30
0.0
 10
15.0962713095
 20
7.4053963278
 30
0.0
 10
15.0753810689
 20
7.5972555944
 30
0.0
 10
15.0497268312
 20
7.7883852082
 30
0.0
 10
15.0190149617
 20
7.978599767
 30
0.0
 10
14.9830415118
 20
8.1676611692
 30
0.0
 10
14.9554593673
 20
8.2928877978
 30
0.0
 10
14.940751375
 20
8.355225536
 30
0.0
  0
SPLINE
  5
3CC
100
AcDbEntity
  8
0
100
AcDbSpline
 62
9
  6
CONTINUOUS
 70
0
 71
3
 72
14
 73
10
 74
0
 42
0.0000001
 43
0.0000001
 44
0.0000000001
 40
0.0
 40
0.0
 40
0.0
 40
0.0
 40
0.2929701178
 40
0.4300653864
 40
0.5599036274
 40
0.6818729957
 40
0.7958700649
 40
0.9019093044
 40
1.0
 40
1.0
 40
1.0
 40
1.0
 10
5.86467683
 20
10.5331504238
 30
0.0
 10
5.8272372504
 20
10.5385767137
 30
0.0
 10
5.7722386061
 20
10.5462689227
 30
0.0
 10
5.7006583365
 20
10.5564411614
 30
0.0
 10
5.6509782621
 20
10.5637789809
 30
0.0
 10
5.6043227006
 20
10.5711646598
 30
0.0
 10
5.5607567377
 20
10.5784010935
 30
0.0
 10
5.5202597187
 20
10.5852926603
 30
0.0
 10
5.4942721387
 20
10.5897022735
 30
0.0
 10
5.4817776276
 20
10.5917812701
 30
0.0
  0
SPLINE
  5
3CD
100
AcDbEntity
  8
0
100
AcDbSpline
 62
9
  6
CONTINUOUS
 70
0
 71
3
 72
11
 73
7
 74
0
 42
0.0000001
 43
0.0000001
 44
0.0000000001
 40
0.0
 40
0.0
 40
0.0
 40
0.0
 40
0.2220665097
 40
0.4644374893
 40
0.725237707
 40
1.0
 40
1.0
 40
1.0
 40
1.0
 10
5.4817753301
 20
10.5917797556
 30
0.0
 10
5.4876740471
 20
10.5987905304
 30
0.0
 10
5.4986760571
 20
10.6146034479
 30
0.0
 10
5.5119061781
 20
10.6415503924
 30
0.0
 10
5.5219876714
 20
10.6721144658
 30
0.0
 10
5.5263961732
 20
10.6938225305
 30
0.0
 10
5.5280452885
 20
10.7050382993
 30
0.0
  0
SPLINE
  5
3CE
100
AcDbEntity
  8
0
100
AcDbSpline
 62
9
  6
CONTINUOUS
 70
0
 71
3
 72
21
 73
17
 74
0
 42
0.0000001
 43
0.0000001
 44
0.0000000001
 40
0.0
 40
0.0
 40
0.0
 40
0.0
 40
0.0673513124
 40
0.1333267863
 40
0.1982729655
 40
0.2624058628
 40
0.3258695703
 40
0.3887962583
 40
0.5134445875
 40
0.6368787452
 40
0.6981361875
 40
0.759093533
 40
0.8197897042
 40
0.880178955
 40
0.9402099787
 40
1.0
 40
1.0
 40
1.0
 40
1.0
 10
5.5280432675
 20
10.7050388194
 30
0.0
 10
5.5378856805
 20
10.7069824839
 30
0.0
 10
5.5575207219
 20
10.710097464
 30
0.0
 10
5.5869531608
 20
10.7127539025
 30
0.0
 10
5.6160049257
 20
10.7137123203
 30
0.0
 10
5.6446910088
 20
10.7133791922
 30
0.0
 10
5.6730436744
 20
10.7120083775
 30
0.0
 10
5.7103168126
 20
10.708920453
 30
0.0
 10
5.7562828791
 20
10.702976249
 30
0.0
 10
5.8016828086
 20
10.6949631133
 30
0.0
 10
5.8373771527
 20
10.686877718
 30
0.0
 10
5.863715042
 20
10.6798754618
 30
0.0
 10
5.8896224781
 20
10.6718385655
 30
0.0
 10
5.9149664972
 20
10.6625450358
 30
0.0
 10
5.9395231799
 20
10.6516480093
 30
0.0
 10
5.9552212367
 20
10.6430956636
 30
0.0
 10
5.9628281475
 20
10.6384637122
 30
0.0
  0
SPLINE
  5
3CF
100
AcDbEntity
  8
0
100
AcDbSpline
 62
9
  6
CONTINUOUS
 70
0
 71
3
 72
14
 73
10
 74
0
 42
0.0000001
 43
0.0000001
 44
0.0000000001
 40
0.0
 40
0.0
 40
0.0
 40
0.0
 40
0.1447634336
 40
0.2995587679
 40
0.4537486471
 40
0.5974373075
 40
0.7239704461
 40
0.8329397451
 40
1.0
 40
1.0
 40
1.0
 40
1.0
 10
15.0204879251
 20
5.2883704423
 30
0.0
 10
15.0203718077
 20
5.2870426991
 30
0.0
 10
15.0203146176
 20
5.2842782159
 30
0.0
 10
15.0206504351
 20
5.2801078209
 30
0.0
 10
15.0214208298
 20
5.2760027108
 30
0.0
 10
15.0226251766
 20
5.2722710504
 30
0.0
 10
15.0243437774
 20
5.2691880536
 30
0.0
 10
15.0267753141
 20
5.2664161809
 30
0.0
 10
15.0292442413
 20
5.2650650753
 30
0.0
 10
15.0307823352
 20
5.2650650653
 30
0.0
  0
SPLINE
  5
3D0
100
AcDbEntity
  8
0
100
AcDbSpline
 62
9
  6
CONTINUOUS
 70
0
 71
3
 72
11
 73
7
 74
0
 42
0.0000001
 43
0.0000001
 44
0.0000000001
 40
0.0
 40
0.0
 40
0.0
 40
0.0
 40
0.2497148982
 40
0.5016570187
 40
0.7528013684
 40
1.0
 40
1.0
 40
1.0
 40
1.0
 10
14.814626869
 20
5.2883707476
 30
0.0
 10
14.8114718963
 20
5.5436360347
 30
0.0
 10
14.8078736899
 20
6.0564758929
 30
0.0
 10
14.8061639681
 20
6.8260680053
 30
0.0
 10
14.8069365857
 20
7.5930858041
 30
0.0
 10
14.8105883762
 20
8.1025474947
 30
0.0
 10
14.8147696039
 20
8.3552252938
 30
0.0
  0
SPLINE
  5
3D1
100
AcDbEntity
  8
0
100
AcDbSpline
 62
9
  6
CONTINUOUS
 70
0
 71
3
 72
9
 73
5
 74
0
 42
0.0000001
 43
0.0000001
 44
0.0000000001
 40
0.0
 40
0.0
 40
0.0
 40
0.0
 40
0.4861797353
 40
1.0
 40
1.0
 40
1.0
 40
1.0
 10
14.8146217025
 20
5.2883678636
 30
0.0
 10
14.8108080604
 20
5.2885411635
 30
0.0
 10
14.8029505298
 20
5.2885220017
 30
0.0
 10
14.7951010405
 20
5.2883636344
 30
0.0
 10
14.791066424
 20
5.2883635496
 30
0.0
  0
SPLINE
  5
3D2
100
AcDbEntity
  8
0
100
AcDbSpline
 62
9
  6
CONTINUOUS
 70
0
 71
3
 72
9
 73
5
 74
0
 42
0.0000001
 43
0.0000001
 44
0.0000000001
 40
0.0
 40
0.0
 40
0.0
 40
0.0
 40
0.5138140366
 40
1.0
 40
1.0
 40
1.0
 40
1.0
 10
14.791066424
 20
5.2883635473
 30
0.0
 10
14.7870318399
 20
5.288363622
 30
0.0
 10
14.7791823176
 20
5.2885219732
 30
0.0
 10
14.7713247571
 20
5.2885411549
 30
0.0
 10
14.7675110485
 20
5.2883678975
 30
0.0
  0
SPLINE
  5
3D3
100
AcDbEntity
  8
0
100
AcDbSpline
 62
9
  6
CONTINUOUS
 70
0
 71
3
 72
23
 73
19
 74
0
 42
0.0000001
 43
0.0000001
 44
0.0000000001
 40
0.0
 40
0.0
 40
0.0
 40
0.0
 40
0.0620261173
 40
0.1243637039
 40
0.1869444378
 40
0.2497117469
 40
0.3756043537
 40
0.5016647849
 40
0.5646436313
 40
0.6275265438
 40
0.6902664624
 40
0.7528194677
 40
0.8151360562
 40
0.8461861585
 40
0.8771540699
 40
0.9080328424
 40
0.9388154817
 40
1.0
 40
1.0
 40
1.0
 40
1.0
 10
14.7675063191
 20
5.2884080343
 30
0.0
 10
14.7682540689
 20
5.3518126146
 30
0.0
 10
14.7696957976
 20
5.4789409336
 30
0.0
 10
14.7713592855
 20
5.6700462534
 30
0.0
 10
14.7726583817
 20
5.8619120126
 30
0.0
 10
14.7740185796
 20
6.1187505491
 30
0.0
 10
14.775100603
 20
6.4404860537
 30
0.0
 10
14.7755770636
 20
6.7624391634
 30
0.0
 10
14.7756073419
 20
7.0199779859
 30
0.0
 10
14.7754525327
 20
7.2127845109
 30
0.0
 10
14.7750678428
 20
7.4051553956
 30
0.0
 10
14.7744585437
 20
7.5969467161
 30
0.0
 10
14.7737102946
 20
7.7563410588
 30
0.0
 10
14.7727997062
 20
7.8834445192
 30
0.0
 10
14.7719710085
 20
7.9784088029
 30
0.0
 10
14.7710516664
 20
8.0730990131
 30
0.0
 10
14.7697997128
 20
8.1986766885
 30
0.0
 10
14.7687956093
 20
8.292692839
 30
0.0
 10
14.7673661961
 20
8.3552251308
 30
0.0
  0
SPLINE
  5
3D4
100
AcDbEntity
  8
0
100
AcDbSpline
 62
9
  6
CONTINUOUS
 70
0
 71
3
 72
14
 73
10
 74
0
 42
0.0000001
 43
0.0000001
 44
0.0000000001
 40
0.0
 40
0.0
 40
0.0
 40
0.0
 40
0.1493602786
 40
0.3088814196
 40
0.4671440039
 40
0.613334571
 40
0.7397729089
 40
0.8457710394
 40
1.0
 40
1.0
 40
1.0
 40
1.0
 10
14.8137107522
 20
5.2884056562
 30
0.0
 10
14.8136069415
 20
5.28707167
 30
0.0
 10
14.8135553495
 20
5.2842994857
 30
0.0
 10
14.813850486
 20
5.280120283
 30
0.0
 10
14.8145289162
 20
5.2760118211
 30
0.0
 10
14.8155819553
 20
5.2722890552
 30
0.0
 10
14.8170898454
 20
5.2692082681
 30
0.0
 10
14.8191748335
 20
5.2664862208
 30
0.0
 10
14.82138687
 20
5.2650648923
 30
0.0
 10
14.8227685047
 20
5.2650648889
 30
0.0
  0
SPLINE
  5
3D5
100
AcDbEntity
  8
0
100
AcDbSpline
 62
9
  6
CONTINUOUS
 70
0
 71
3
 72
10
 73
6
 74
0
 42
0.0000001
 43
0.0000001
 44
0.0000000001
 40
0.0
 40
0.0
 40
0.0
 40
0.0
 40
0.2304021191
 40
0.4772017305
 40
1.0
 40
1.0
 40
1.0
 40
1.0
 10
14.8986962849
 20
5.0431999937
 30
0.0
 10
14.8904443182
 20
5.0426662315
 30
0.0
 10
14.8733337257
 20
5.0418578613
 30
0.0
 10
14.8374530806
 20
5.0409615486
 30
0.0
 10
14.8098296607
 20
5.040874994
 30
0.0
 10
14.7910662509
 20
5.0408750099
 30
0.0
  0
SPLINE
  5
3D6
100
AcDbEntity
  8
0
100
AcDbSpline
 62
9
  6
CONTINUOUS
 70
0
 71
3
 72
15
 73
11
 74
0
 42
0.0000001
 43
0.0000001
 44
0.0000000001
 40
0.0
 40
0.0
 40
0.0
 40
0.0
 40
0.0236985021
 40
0.0533345118
 40
0.1301842744
 40
0.2297888692
 40
0.3507500481
 40
0.4910137829
 40
0.6479583723
 40
1.0
 40
1.0
 40
1.0
 40
1.0
 10
14.5542242771
 20
5.0454179808
 30
0.0
 10
14.5552067051
 20
5.0457053337
 30
0.0
 10
14.5574516989
 20
5.0462348582
 30
0.0
 10
14.5629962858
 20
5.0471822262
 30
0.0
 10
14.571869064
 20
5.0480229261
 30
0.0
 10
14.5847116627
 20
5.0484629532
 30
0.0
 10
14.6003000794
 20
5.0482879986
 30
0.0
 10
14.6183469837
 20
5.0475200499
 30
0.0
 10
14.6463370804
 20
5.0457935895
 30
0.0
 10
14.6682624524
 20
5.0441815157
 30
0.0
 10
14.6834361917
 20
5.0432001038
 30
0.0
  0
SPLINE
  5
3D7
100
AcDbEntity
  8
0
100
AcDbSpline
 62
9
  6
CONTINUOUS
 70
0
 71
3
 72
11
 73
7
 74
0
 42
0.0000001
 43
0.0000001
 44
0.0000000001
 40
0.0
 40
0.0
 40
0.0
 40
0.0
 40
0.166136236
 40
0.3916335879
 40
0.6704955321
 40
1.0
 40
1.0
 40
1.0
 40
1.0
 10
14.5184177414
 20
5.2650655013
 30
0.0
 10
14.5194057164
 20
5.2650654892
 30
0.0
 10
14.5217338124
 20
5.264982612
 30
0.0
 10
14.5257191601
 20
5.2648631297
 30
0.0
 10
14.5306784106
 20
5.2648327589
 30
0.0
 10
14.5342961235
 20
5.2648643526
 30
0.0
 10
14.5362554215
 20
5.2648917318
 30
0.0
  0
LINE
  5
3D8
100
AcDbEntity
  8
0
100
AcDbLine
 62
9
  6
CONTINUOUS
 10
14.5362554215
 20
5.2648917318
 11
14.5517236115
 21
5.2650631801
  0
SPLINE
  5
3D9
100
AcDbEntity
  8
0
100
AcDbSpline
 62
9
  6
CONTINUOUS
 70
0
 71
3
 72
11
 73
7
 74
0
 42
0.0000001
 43
0.0000001
 44
0.0000000001
 40
0.0
 40
0.0
 40
0.0
 40
0.0
 40
0.2420711098
 40
0.4940626006
 40
0.7493296744
 40
1.0
 40
1.0
 40
1.0
 40
1.0
 10
14.6227832706
 20
4.9440052028
 30
0.0
 10
14.6220642206
 20
4.9542881386
 30
0.0
 10
14.6177586611
 20
4.9751436933
 30
0.0
 10
14.6036584806
 20
5.0041809925
 30
0.0
 10
14.5818826129
 20
5.0285046037
 30
0.0
 10
14.5637977512
 20
5.0406969994
 30
0.0
 10
14.5542242813
 20
5.0454179865
 30
0.0
  0
SPLINE
  5
3DA
100
AcDbEntity
  8
0
100
AcDbSpline
 62
9
  6
CONTINUOUS
 70
0
 71
3
 72
12
 73
8
 74
0
 42
0.0000001
 43
0.0000001
 44
0.0000000001
 40
0.0
 40
0.0
 40
0.0
 40
0.0
 40
0.3229951652
 40
0.6204236088
 40
0.8522323871
 40
0.9374343763
 40
1.0
 40
1.0
 40
1.0
 40
1.0
 10
14.6632716304
 20
4.9356280731
 30
0.0
 10
14.6653441722
 20
4.9472281557
 30
0.0
 10
14.6693665519
 20
4.96950276
 30
0.0
 10
14.6750031595
 20
5.0000794374
 30
0.0
 10
14.6791864278
 20
5.0221024331
 30
0.0
 10
14.6818746884
 20
5.0356870279
 30
0.0
 10
14.682958053
 20
5.040968177
 30
0.0
 10
14.6834361939
 20
5.0432001064
 30
0.0
  0
ENDSEC
  0
SECTION
  2
OBJECTS
  0
DICTIONARY
  5
C
100
AcDbDictionary
280
0
281
1
  3
ACAD_GROUP
350
D
  3
ACAD_MLINESTYLE
350
17
  3
ACAD_LAYOUT
350
1A
  3
ACAD_PLOTSETTINGS
350
19
  3
ACAD_PLOTSTYLENAME
350
E
  0
DICTIONARY
  5
D
102
{ACAD_REACTORS
330
C
102
}
100
AcDbDictionary
280
0
281
1
  0
ACDBDICTIONARYWDFLT
  5
E
102
{ACAD_REACTORS
330
C
102
}
100
AcDbDictionary
281
1
  3
Normal
350
F
100
AcDbDictionaryWithDefault
340
F
  0
DICTIONARY
  5
17
102
{ACAD_REACTORS
330
C
102
}
100
AcDbDictionary
280
0
281
1
  3
Standard
350
18
  0
DICTIONARY
  5
19
102
{ACAD_REACTORS
330
C
102
}
100
AcDbDictionary
281
1
  0
DICTIONARY
  5
1A
102
{ACAD_REACTORS
330
C
102
}
100
AcDbDictionary
281
1
  3
Model
350
3DB
  3
Layout1
350
3DC
  0
ACDBPLACEHOLDER
  5
F
102
{ACAD_REACTORS
330
E
102
}
  0
MLINESTYLE
  5
18
102
{ACAD_REACTORS
330
17
102
}
100
AcDbMlineStyle
  2
STANDARD
 70
0
  3

 62
256
 51
90.0
 52
90.0
 71
2
 49
0.5
 62
256
  6
BYLAYER
 49
-0.5
 62
256
  6
BYLAYER
  0
LAYOUT
  5
3DB
102
{ACAD_REACTORS
330
1A
102
}
100
AcDbPlotSettings
  1

  2
none_device
  4
ANSI_C_(22.00_x_17.00_Inches)
  6

 40
0.0
 41
0.0
 42
0.0
 43
0.0
 44
558.8
 45
431.8
 46
0.0
 47
0.0
 48
0.0
 49
0.0
140
0.0
141
0.0
142
1.0
143
1.0
 70
1024
 72
0
 73
0
 74
0
  7

 75
0
147
1.0
148
0.0
149
0.0
100
AcDbLayout
  1
Model
 70
0
 71
0
 10
0.0
 20
0.0
 11
22.0
 21
17.0
 12
0.0
 22
0.0
 32
0.0
 14
0.0
 24
0.0
 34
0.0
 15
0.0
 25
0.0
 35
0.0
146
0.0
 13
0.0
 23
0.0
 33
0.0
 16
1.0
 26
0.0
 36
0.0
 17
0.0
 27
1.0
 37
0.0
 76
0
330
202
345
0
346
0
  0
LAYOUT
  5
3DC
102
{ACAD_REACTORS
330
1A
102
}
100
AcDbPlotSettings
  1

  2
none_device
  4
ANSI_C_(22.00_x_17.00_Inches)
  6

 40
0.0
 41
0.0
 42
0.0
 43
0.0
 44
558.8
 45
431.8
 46
0.0
 47
0.0
 48
0.0
 49
0.0
140
0.0
141
0.0
142
1.0
143
1.0
 70
0
 72
0
 73
0
 74
0
  7

 75
0
147
1.0
148
0.0
149
0.0
100
AcDbLayout
  1
Layout1
 70
0
 71
1
 10
0.0
 20
0.0
 11
22.0
 21
17.0
 12
0.0
 22
0.0
 32
0.0
 14
0.0
 24
0.0
 34
0.0
 15
0.0
 25
0.0
 35
0.0
146
0.0
 13
0.0
 23
0.0
 33
0.0
 16
1.0
 26
0.0
 36
0.0
 17
0.0
 27
1.0
 37
0.0
 76
0
330
203
345
0
346
0
  0
ENDSEC
  0
EOF
