999
DXF file: E:\BT Custom\CADOUTPUT\_TOP.dxf
999
Pro/ENGINEER 2018400 by Parametric Technology Corporation
  0
SECTION
  2
HEADER
  9
$ACADVER
  1
AC1018
  9
$DWGCODEPAGE
  3
ANSI_1252
  9
$EXTMAX
 10
22.0
 20
17.0
 30
0.0
  9
$EXTMIN
 10
0.0
 20
0.0
 30
0.0
  9
$LIMMIN
 10
0.0
 20
0.0
  9
$LIMMAX
 10
22.0
 20
17.0
  9
$VIEWCTR
 10
11.0
 20
8.5
  9
$VIEWSIZE
 40
17.0
  9
$CLAYER
  8
0
  9
$LTSCALE
 40
1.21
  9
$CELTYPE
  6
BYLAYER
  9
$DIMSCALE
 40
1.0
  9
$DIMASZ
 40
0.1
  9
$DIMEXO
 40
0.0625
  9
$DIMDLI
 40
0.836
  9
$DIMEXE
 40
0.125
  9
$DIMCEN
 40
0.198
  9
$DIMLFAC
 40
1.0
  9
$DIMBLK
  1
_FILLED
  9
$DIMALT
 70
1
  9
$DIMALTD
 70
2
  9
$DIMALTTD
 70
2
  9
$DIMALTF
 40
25.4
  9
$DIMTXT
 40
0.08
  9
$DIMTOL
 70
1
  9
$DIMLIM
 70
0
  9
$DIMTFAC
 40
1.0
  9
$DIMTP
 40
0.001
  9
$DIMTM
 40
0.001
  9
$DIMGAP
 40
0.09
  9
$DIMDSEP
 70
46
  9
$AUNITS
 70
0
  9
$PDMODE
 70
3
  9
$PDSIZE
 40
0.06
  9
$HANDSEED
  5
322
  9
$TILEMODE
 70
1
  9
$MEASUREMENT
 70
0
  9
$INSUNITS
 70
1
  0
ENDSEC
  0
SECTION
  2
CLASSES
  0
CLASS
  1
ACDBDICTIONARYWDFLT
  2
AcDbDictionaryWithDefault
  3
AutoCAD 2000
 90
0
 91
1
280
0
281
0
  0
CLASS
  1
ACDBPLACEHOLDER
  2
AcDbPlaceHolder
  3
AutoCAD 2000
 90
0
 91
1
280
0
281
0
  0
CLASS
  1
LAYOUT
  2
AcDbLayout
  3
AutoCAD 2000
 90
0
 91
0
280
0
281
0
  0
ENDSEC
  0
SECTION
  2
TABLES
  0
TABLE
  2
VPORT
  5
8
100
AcDbSymbolTable
 70
2
  0
VPORT
  5
1F4
100
AcDbSymbolTableRecord
100
AcDbViewportTableRecord
  2
*ACTIVE
 70
0
 10
0.0
 20
0.0
 11
1.0
 21
1.0
 12
11.0
 22
8.5
 13
0.0
 23
0.0
 14
1.0
 24
1.0
 15
0.0
 25
0.0
 16
0.0
 26
0.0
 36
1.0
 17
0.0
 27
0.0
 37
0.0
 40
17.0
 41
1.2941176471
 42
50.0
 43
0.0
 44
0.0
 50
0.0
 51
0.0
 71
0
 72
100
 73
1
 74
1
 75
0
 76
0
 77
0
 78
0
  0
ENDTAB
  0
TABLE
  2
LTYPE
  5
5
100
AcDbSymbolTable
 70
6
  0
LTYPE
  5
14
100
AcDbSymbolTableRecord
100
AcDbLinetypeTableRecord
  2
BYBLOCK
 70
0
  3

 72
65
 73
0
 40
0.0
  0
LTYPE
  5
15
100
AcDbSymbolTableRecord
100
AcDbLinetypeTableRecord
  2
BYLAYER
 70
0
  3

 72
65
 73
0
 40
0.0
  0
LTYPE
  5
16
100
AcDbSymbolTableRecord
100
AcDbLinetypeTableRecord
  2
CONTINUOUS
 70
64
  3
Solid line
 72
65
 73
0
 40
0.0
  0
LTYPE
  5
1F5
100
AcDbSymbolTableRecord
100
AcDbLinetypeTableRecord
  2
CENTER
 70
64
  3
____ _ ____ _ ____ _ ____ _ ____ _ ____ _ ____
 72
65
 73
4
 40
0.6
 49
0.375
 74
0
 49
-0.075
 74
0
 49
0.075
 74
0
 49
-0.075
 74
0
  0
LTYPE
  5
1F6
100
AcDbSymbolTableRecord
100
AcDbLinetypeTableRecord
  2
HIDDEN
 70
64
  3
- - - - - - - - - - - - - - - - - - - -
 72
65
 73
2
 40
0.2
 49
0.1
 74
0
 49
-0.1
 74
0
  0
LTYPE
  5
1F7
100
AcDbSymbolTableRecord
100
AcDbLinetypeTableRecord
  2
PHANTOM
 70
64
  3
_____ _ _ _____ _ _ _____ _ _ _____
 72
65
 73
6
 40
0.8
 49
0.45
 74
0
 49
-0.05
 74
0
 49
0.1
 74
0
 49
-0.05
 74
0
 49
0.1
 74
0
 49
-0.05
 74
0
  0
LTYPE
  5
1F8
100
AcDbSymbolTableRecord
100
AcDbLinetypeTableRecord
  2
DOT
 70
64
  3
. . . . . . . . . . . . . . . . . . . .
 72
65
 73
2
 40
0.2
 49
0.1
 74
0
 49
-0.1
 74
0
  0
LTYPE
  5
1F9
100
AcDbSymbolTableRecord
100
AcDbLinetypeTableRecord
  2
DASHED
 70
64
  3
- - - - - - - - - - - - - - - - - - - -
 72
65
 73
2
 40
0.2
 49
0.1
 74
0
 49
-0.1
 74
0
  0
ENDTAB
  0
TABLE
  2
LAYER
  5
2
100
AcDbSymbolTable
 70
36
  0
LAYER
  5
10
100
AcDbSymbolTableRecord
100
AcDbLayerTableRecord
  2
0
 70
0
 62
7
  6
CONTINUOUS
370
-3
390
F
  0
LAYER
  5
1FA
100
AcDbSymbolTableRecord
100
AcDbLayerTableRecord
  2
DEFAULT_1
 70
0
 62
7
  6
CENTER
370
-3
390
F
  0
LAYER
  5
1FB
100
AcDbSymbolTableRecord
100
AcDbLayerTableRecord
  2
DEFAULT_2
 70
0
 62
8
  6
HIDDEN
370
-3
390
F
  0
LAYER
  5
1FC
100
AcDbSymbolTableRecord
100
AcDbLayerTableRecord
  2
DEFAULT_3
 70
0
 62
7
  6
PHANTOM
370
-3
390
F
  0
LAYER
  5
1FD
100
AcDbSymbolTableRecord
100
AcDbLayerTableRecord
  2
ALL_FEATURES
 70
0
 62
7
  6
CONTINUOUS
370
-3
390
F
  0
LAYER
  5
1FE
100
AcDbSymbolTableRecord
100
AcDbLayerTableRecord
  2
AXES_FEATURES
 70
0
 62
7
  6
CONTINUOUS
370
-3
390
F
  0
LAYER
  5
1FF
100
AcDbSymbolTableRecord
100
AcDbLayerTableRecord
  2
DIMENSIONS
 70
0
 62
7
  6
CONTINUOUS
370
-3
390
F
  0
ENDTAB
  0
TABLE
  2
STYLE
  5
3
100
AcDbSymbolTable
 70
1
  0
STYLE
  5
11
100
AcDbSymbolTableRecord
100
AcDbTextStyleTableRecord
  2
STANDARD
 70
0
 40
0.0
 41
0.8
 50
0.0
 71
0
 42
0.2
  3
txt
  4

  0
STYLE
  5
200
100
AcDbSymbolTableRecord
100
AcDbTextStyleTableRecord
  2
TEXTSTYLE_1
 70
0
 40
0.0
 41
0.8
 50
0.0
 71
0
 42
0.2
  3
gdt
  4

  0
ENDTAB
  0
TABLE
  2
VIEW
  5
6
100
AcDbSymbolTable
 70
0
  0
ENDTAB
  0
TABLE
  2
UCS
  5
7
100
AcDbSymbolTable
 70
0
  0
ENDTAB
  0
TABLE
  2
APPID
  5
9
100
AcDbSymbolTable
 70
1
  0
APPID
  5
201
100
AcDbSymbolTableRecord
100
AcDbRegAppTableRecord
  2
ACAD
 70
0
  0
ENDTAB
  0
TABLE
  2
BLOCK_RECORD
  5
1
100
AcDbSymbolTable
 70
0
  0
BLOCK_RECORD
  5
202
100
AcDbSymbolTableRecord
100
AcDbBlockTableRecord
  2
*Model_Space
  0
BLOCK_RECORD
  5
203
100
AcDbSymbolTableRecord
100
AcDbBlockTableRecord
  2
*Paper_Space
  0
BLOCK_RECORD
  5
204
100
AcDbSymbolTableRecord
100
AcDbBlockTableRecord
  2
_FILLED
  0
ENDTAB
  0
TABLE
  2
DIMSTYLE
  5
A
100
AcDbSymbolTable
 70
1
100
AcDbDimStyleTable
 71
0
  0
DIMSTYLE
105
205
100
AcDbSymbolTableRecord
100
AcDbDimStyleTableRecord
  2
STANDARD
 70
0
  3

  4

 40
1.0
 41
0.1
 42
0.0625
 43
0.38
 44
0.125
 45
0.0
 46
0.0
 47
0.001
 48
0.001
140
0.08
141
0.09
142
0.0
143
25.4
144
1.0
145
0.0
146
1.0
147
0.09
 71
1.0
 72
0.0
 73
1
 74
1
 75
0
 76
0
 77
0
 78
4
 79
1
170
1
171
2
172
0
173
0
174
0
175
0
176
0
177
0
178
0
270
2
179
3
271
3
272
3
273
2
274
2
275
0
280
0
281
0
282
0
283
1
284
4
285
0
286
0
287
3
288
0
340
11
278
46
341
204
342
204
343
204
344
204
  0
ENDTAB
  0
ENDSEC
  0
SECTION
  2
BLOCKS
  0
BLOCK
  5
20
100
AcDbEntity
  8
0
100
AcDbBlockBegin
  2
*Model_Space
 70
0
 10
0.0
 20
0.0
 30
0.0
  3
*Model_Space
  1

  0
ENDBLK
  5
21
100
AcDbEntity
  8
0
100
AcDbBlockEnd
  0
BLOCK
  5
1C
100
AcDbEntity
  8
0
100
AcDbBlockBegin
  2
*Paper_Space
 70
0
 10
0.0
 20
0.0
 30
0.0
  3
*Paper_Space
  1

  0
ENDBLK
  5
1D
100
AcDbEntity
  8
0
100
AcDbBlockEnd
  0
BLOCK
  5
206
100
AcDbEntity
  8
0
100
AcDbBlockBegin
  2
_FILLED
 70
64
 10
0.0
 20
0.0
  3
_FILLED
  1

  0
SOLID
  5
207
100
AcDbEntity
  8
0
  6
BYBLOCK
 62
0
100
AcDbTrace
 10
0.0
 20
0.0
 11
-1.0
 21
0.2
 12
-1.0
 22
-0.2
 13
-1.0
 23
-0.2
  0
ENDBLK
  5
208
100
AcDbEntity
  8
0
  6
BYBLOCK
 62
0
100
AcDbBlockEnd
  0
ENDSEC
  0
SECTION
  2
ENTITIES
  0
LINE
  5
209
100
AcDbEntity
  8
0
100
AcDbLine
 62
9
  6
CONTINUOUS
 10
10.7053183383
 20
-5.9160598658
 11
11.3893183383
 21
-5.9160598658
  0
LINE
  5
20A
100
AcDbEntity
  8
0
100
AcDbLine
 62
9
  6
CONTINUOUS
 10
10.6623183383
 20
-5.8338953966
 11
11.4323183383
 21
-5.8338953966
  0
LINE
  5
20B
100
AcDbEntity
  8
0
100
AcDbLine
 62
7
  6
CONTINUOUS
 10
10.6242054674
 20
-5.8032632286
 11
11.4704334618
 21
-5.8032632286
  0
LINE
  5
20C
100
AcDbEntity
  8
0
100
AcDbLine
 62
9
  6
CONTINUOUS
 10
10.5941933383
 20
-5.7732632286
 11
11.5004433383
 21
-5.7732632286
  0
LINE
  5
20D
100
AcDbEntity
  8
0
100
AcDbLine
 62
9
  6
CONTINUOUS
 10
11.5004433383
 20
-5.5786382286
 11
10.5941933383
 21
-5.5786382286
  0
LINE
  5
20E
100
AcDbEntity
  8
0
100
AcDbLine
 62
7
  6
CONTINUOUS
 10
11.4704433452
 20
-5.5486382286
 11
10.6241945271
 21
-5.5486382286
  0
LINE
  5
20F
100
AcDbEntity
  8
0
100
AcDbLine
 62
9
  6
CONTINUOUS
 10
10.6829328221
 20
-5.4556557052
 11
11.4117038544
 21
-5.4556557052
  0
LINE
  5
210
100
AcDbEntity
  8
0
100
AcDbLine
 62
9
  6
CONTINUOUS
 10
10.6873183383
 20
-5.4400384642
 11
11.4073183383
 21
-5.4400384642
  0
LINE
  5
211
100
AcDbEntity
  8
0
100
AcDbLine
 62
7
  6
CONTINUOUS
 10
10.6394679651
 20
-4.9432632286
 11
11.4551687114
 21
-4.9432632286
  0
LINE
  5
212
100
AcDbEntity
  8
0
100
AcDbLine
 62
9
  6
CONTINUOUS
 10
10.6096168494
 20
-4.9162483402
 11
11.4850198271
 21
-4.9162483402
  0
LINE
  5
213
100
AcDbEntity
  8
0
100
AcDbLine
 62
9
  6
CONTINUOUS
 10
11.5190198271
 20
-4.5762483402
 11
10.5756168494
 21
-4.5762483402
  0
LINE
  5
214
100
AcDbEntity
  8
0
100
AcDbLine
 62
7
  6
CONTINUOUS
 10
10.6054684218
 20
-4.5432632286
 11
11.4891687114
 21
-4.5432632286
  0
LINE
  5
215
100
AcDbEntity
  8
0
100
AcDbLine
 62
7
  6
CONTINUOUS
 10
10.5976050407
 20
-4.5122632286
 11
11.4970316359
 21
-4.5122632286
  0
LINE
  5
216
100
AcDbEntity
  8
0
100
AcDbLine
 62
9
  6
CONTINUOUS
 10
10.5789372496
 20
-4.4850859327
 11
11.515699427
 21
-4.4850859327
  0
LINE
  5
217
100
AcDbEntity
  8
0
100
AcDbLine
 62
9
  6
CONTINUOUS
 10
10.5277773449
 20
-4.1044963462
 11
11.5668593317
 21
-4.1044963462
  0
LINE
  5
218
100
AcDbEntity
  8
0
100
AcDbLine
 62
9
  6
CONTINUOUS
 10
10.5273183383
 20
-3.3406547906
 11
11.5673183383
 21
-3.3406547906
  0
LINE
  5
219
100
AcDbEntity
  8
0
100
AcDbLine
 62
9
  6
CONTINUOUS
 10
10.5472818852
 20
-3.2583664906
 11
11.5473547914
 21
-3.2583664906
  0
LINE
  5
21A
100
AcDbEntity
  8
0
100
AcDbLine
 62
9
  6
CONTINUOUS
 10
11.5957315496
 20
-2.9529276602
 11
10.498905127
 21
-2.9529276602
  0
LINE
  5
21B
100
AcDbEntity
  8
0
100
AcDbLine
 62
7
  6
CONTINUOUS
 10
10.5150862501
 20
-2.9301262349
 11
10.5150556201
 21
-2.9301262349
  0
LINE
  5
21C
100
AcDbEntity
  8
0
100
AcDbLine
 62
9
  6
CONTINUOUS
 10
11.5795810565
 20
-2.9301262349
 11
10.5150862501
 21
-2.9301262349
  0
LINE
  5
21D
100
AcDbEntity
  8
0
100
AcDbLine
 62
9
  6
CONTINUOUS
 10
10.5568203936
 20
-2.8650431606
 11
11.537816283
 21
-2.8650431606
  0
LINE
  5
21E
100
AcDbEntity
  8
0
100
AcDbLine
 62
7
  6
CONTINUOUS
 10
11.0001879574
 20
18.1190258482
 11
10.9801371259
 21
18.1074494953
  0
LINE
  5
21F
100
AcDbEntity
  8
0
100
AcDbLine
 62
7
  6
CONTINUOUS
 10
10.5262910761
 20
17.8454213563
 11
10.5094487191
 21
17.8356974169
  0
LINE
  5
220
100
AcDbEntity
  8
0
100
AcDbLine
 62
9
  6
CONTINUOUS
 10
10.5568203936
 20
-1.9794832966
 11
11.537816283
 21
-1.9794832966
  0
LINE
  5
221
100
AcDbEntity
  8
0
100
AcDbLine
 62
9
  6
CONTINUOUS
 10
10.5118607481
 20
-1.8970395548
 11
11.5827759285
 21
-1.8970395548
  0
LINE
  5
222
100
AcDbEntity
  8
0
100
AcDbLine
 62
9
  6
CONTINUOUS
 10
10.5014138959
 20
-1.864965683
 11
11.5932227807
 21
-1.864965683
  0
LINE
  5
223
100
AcDbEntity
  8
0
100
AcDbLine
 62
7
  6
CONTINUOUS
 10
10.5670681767
 20
-1.7851789131
 11
11.5275684999
 21
-1.7851789131
  0
LINE
  5
224
100
AcDbEntity
  8
0
100
AcDbLine
 62
9
  6
CONTINUOUS
 10
11.5275684999
 20
-1.7122632286
 11
10.5670681767
 21
-1.7122632286
  0
LINE
  5
225
100
AcDbEntity
  8
0
100
AcDbLine
 62
7
  6
CONTINUOUS
 10
11.5075671549
 20
-1.6922632286
 11
10.5870695217
 21
-1.6922632286
  0
LINE
  5
226
100
AcDbEntity
  8
0
100
AcDbLine
 62
7
  6
CONTINUOUS
 10
11.5683456004
 20
17.0960521865
 11
11.5851879574
 21
17.1057761258
  0
LINE
  5
227
100
AcDbEntity
  8
0
100
AcDbLine
 62
7
  6
CONTINUOUS
 10
11.5932227807
 20
-1.864965683
 11
11.5275684999
 21
-1.7851789131
  0
LINE
  5
228
100
AcDbEntity
  8
0
100
AcDbLine
 62
7
  6
CONTINUOUS
 10
10.5472818852
 20
-3.2583664906
 11
10.498905127
 21
-2.9529276602
  0
LINE
  5
229
100
AcDbEntity
  8
0
100
AcDbLine
 62
7
  6
CONTINUOUS
 10
10.6096168494
 20
-4.9162483402
 11
10.5756168494
 21
-4.5762483402
  0
LINE
  5
22A
100
AcDbEntity
  8
0
100
AcDbLine
 62
7
  6
CONTINUOUS
 10
9.5873183383
 20
20.8977367714
 11
9.5873183383
 21
20.9777367714
  0
LINE
  5
22B
100
AcDbEntity
  8
0
100
AcDbLine
 62
7
  6
CONTINUOUS
 10
9.9023183383
 20
20.6177367714
 11
9.9023183383
 21
20.6277367714
  0
LINE
  5
22C
100
AcDbEntity
  8
0
100
AcDbLine
 62
7
  6
CONTINUOUS
 10
10.5973256152
 20
5.8427367714
 11
11.4973110613
 21
5.8427367714
  0
LINE
  5
22D
100
AcDbEntity
  8
0
100
AcDbLine
 62
9
  6
CONTINUOUS
 10
10.5773183383
 20
5.8627367714
 11
11.5173183383
 21
5.8627367714
  0
LINE
  5
22E
100
AcDbEntity
  8
0
100
AcDbLine
 62
7
  6
CONTINUOUS
 10
10.5094487191
 20
6.5377761258
 11
10.5262910761
 21
6.5280521865
  0
LWPOLYLINE
  5
22F
100
AcDbEntity
  8
0
100
AcDbPolyline
 62
7
  6
CONTINUOUS
 90
4
 70
0
 10
10.5541187717
 20
6.4917397638
 10
10.5674011905
 20
6.4711145217
 10
10.5752452652
 20
6.4479571457
 10
10.5773195269
 20
6.4276954856
  0
LINE
  5
230
100
AcDbEntity
  8
0
100
AcDbLine
 62
7
  6
CONTINUOUS
 10
10.4533183383
 20
16.5282193775
 11
10.4533183383
 21
16.7062479171
  0
LINE
  5
231
100
AcDbEntity
  8
0
100
AcDbLine
 62
7
  6
CONTINUOUS
 10
10.4623183383
 20
17.7540652027
 11
10.4623183383
 21
17.7308771206
  0
LINE
  5
232
100
AcDbEntity
  8
0
100
AcDbLine
 62
7
  6
CONTINUOUS
 10
10.4623183383
 20
17.2105964221
 11
10.4623183383
 21
17.18740834
  0
LINE
  5
233
100
AcDbEntity
  8
0
100
AcDbLine
 62
7
  6
CONTINUOUS
 10
10.4623183383
 20
7.1860652027
 11
10.4623183383
 21
7.1628771206
  0
LINE
  5
234
100
AcDbEntity
  8
0
100
AcDbLine
 62
7
  6
CONTINUOUS
 10
10.4623183383
 20
6.6425964221
 11
10.4623183383
 21
6.61940834
  0
LINE
  5
235
100
AcDbEntity
  8
0
100
AcDbLine
 62
7
  6
CONTINUOUS
 10
10.5063183383
 20
19.4177367714
 11
10.5063183383
 21
20.2877367714
  0
LINE
  5
236
100
AcDbEntity
  8
0
100
AcDbLine
 62
7
  6
CONTINUOUS
 10
10.5670681767
 20
-1.7122632286
 11
10.5670681767
 21
-1.7851789131
  0
LINE
  5
237
100
AcDbEntity
  8
0
100
AcDbLine
 62
7
  6
CONTINUOUS
 10
10.5773183383
 20
16.9956954856
 11
10.5773183383
 21
16.4307367714
  0
LINE
  5
238
100
AcDbEntity
  8
0
100
AcDbLine
 62
7
  6
CONTINUOUS
 10
10.5773183383
 20
6.4276954856
 11
10.5773183383
 21
5.8627367714
  0
LINE
  5
239
100
AcDbEntity
  8
0
100
AcDbLine
 62
7
  6
CONTINUOUS
 10
10.5773183383
 20
7.3777780573
 11
10.5773183383
 21
7.9607367714
  0
LINE
  5
23A
100
AcDbEntity
  8
0
100
AcDbLine
 62
7
  6
CONTINUOUS
 10
10.5941933383
 20
-5.7732632286
 11
10.5941933383
 21
-5.5786382286
  0
LINE
  5
23B
100
AcDbEntity
  8
0
100
AcDbLine
 62
7
  6
CONTINUOUS
 10
10.5941933383
 20
14.5247367714
 11
10.5941933383
 21
14.7193617714
  0
LINE
  5
23C
100
AcDbEntity
  8
0
100
AcDbLine
 62
7
  6
CONTINUOUS
 10
10.6523183383
 20
15.7727367714
 11
10.6523183383
 21
15.7547367714
  0
LINE
  5
23D
100
AcDbEntity
  8
0
100
AcDbLine
 62
7
  6
CONTINUOUS
 10
10.6523183383
 20
-4.5122632286
 11
10.6523183383
 21
-4.5432632286
  0
LINE
  5
23E
100
AcDbEntity
  8
0
100
AcDbLine
 62
7
  6
CONTINUOUS
 10
10.6623183383
 20
-5.8338953966
 11
10.6623183383
 21
-5.8032632286
  0
LINE
  5
23F
100
AcDbEntity
  8
0
100
AcDbLine
 62
7
  6
CONTINUOUS
 10
10.6623183383
 20
14.4641046034
 11
10.6623183383
 21
14.4947367714
  0
LINE
  5
240
100
AcDbEntity
  8
0
100
AcDbLine
 62
7
  6
CONTINUOUS
 10
10.6723183383
 20
5.8427367714
 11
10.6723183383
 21
-1.6922632286
  0
LINE
  5
241
100
AcDbEntity
  8
0
100
AcDbLine
 62
7
  6
CONTINUOUS
 10
10.6723183383
 20
7.9607367714
 11
10.6723183383
 21
16.4107367714
  0
LINE
  5
242
100
AcDbEntity
  8
0
100
AcDbLine
 62
7
  6
CONTINUOUS
 10
10.6873183383
 20
-4.9432632286
 11
10.6873183383
 21
-5.4400384642
  0
LINE
  5
243
100
AcDbEntity
  8
0
100
AcDbLine
 62
9
  6
CONTINUOUS
 10
11.0473183197
 20
16.8157721529
 11
11.0473183298
 21
16.9112154298
  0
LINE
  5
244
100
AcDbEntity
  8
0
100
AcDbLine
 62
9
  6
CONTINUOUS
 10
11.047318362
 20
7.5577013898
 11
11.0473183612
 21
7.5525465946
  0
LINE
  5
245
100
AcDbEntity
  8
0
100
AcDbLine
 62
9
  6
CONTINUOUS
 10
11.0473183197
 20
6.2477721529
 11
11.0473183298
 21
6.3432154298
  0
LINE
  5
246
100
AcDbEntity
  8
0
100
AcDbLine
 62
7
  6
CONTINUOUS
 10
11.5299733826
 20
15.7998085978
 11
11.5827301902
 21
16.3377367714
  0
LINE
  5
247
100
AcDbEntity
  8
0
100
AcDbLine
 62
7
  6
CONTINUOUS
 10
11.4850198271
 20
15.3817516598
 11
11.5190198271
 21
15.7217516598
  0
LWPOLYLINE
  5
248
100
AcDbEntity
  8
0
100
AcDbPolyline
 62
7
  6
CONTINUOUS
 90
4
 70
0
 10
11.5173171523
 20
16.995695485
 10
11.5193912684
 20
17.0159564429
 10
11.5272358219
 20
17.0391152153
 10
11.5405161823
 20
17.0597376995
  0
LWPOLYLINE
  5
249
100
AcDbEntity
  8
0
100
AcDbPolyline
 62
7
  6
CONTINUOUS
 90
4
 70
0
 10
10.5773195296
 20
7.3777780573
 10
10.5752193624
 20
7.3573916012
 10
10.5673642368
 20
7.334282437
 10
10.5541167128
 20
7.3137313112
  0
LINE
  5
24A
100
AcDbEntity
  8
0
100
AcDbLine
 62
7
  6
CONTINUOUS
 10
11.0001879574
 20
7.5510258482
 11
10.9801371259
 21
7.5394494953
  0
LINE
  5
24B
100
AcDbEntity
  8
0
100
AcDbLine
 62
7
  6
CONTINUOUS
 10
10.5262910761
 20
7.2774213563
 11
10.5094487191
 21
7.2676974169
  0
LINE
  5
24C
100
AcDbEntity
  8
0
100
AcDbLine
 62
7
  6
CONTINUOUS
 10
11.5851879574
 20
7.2676974169
 11
11.5683456004
 21
7.2774213563
  0
LINE
  5
24D
100
AcDbEntity
  8
0
100
AcDbLine
 62
7
  6
CONTINUOUS
 10
11.1144995506
 20
7.5394494953
 11
11.0944487191
 21
7.5510258482
  0
LINE
  5
24E
100
AcDbEntity
  8
0
100
AcDbLine
 62
7
  6
CONTINUOUS
 10
10.6096168494
 20
15.3817516598
 11
10.5756168494
 21
15.7217516598
  0
LINE
  5
24F
100
AcDbEntity
  8
0
100
AcDbLine
 62
7
  6
CONTINUOUS
 10
10.564663294
 20
15.7998085978
 11
10.5119064864
 21
16.3377367714
  0
LINE
  5
250
100
AcDbEntity
  8
0
100
AcDbLine
 62
7
  6
CONTINUOUS
 10
11.4073183383
 20
-4.9432632286
 11
11.4073183383
 21
-5.4400384642
  0
LINE
  5
251
100
AcDbEntity
  8
0
100
AcDbLine
 62
7
  6
CONTINUOUS
 10
11.4223183383
 20
5.8427367714
 11
11.4223183383
 21
-1.6922632286
  0
LINE
  5
252
100
AcDbEntity
  8
0
100
AcDbLine
 62
7
  6
CONTINUOUS
 10
11.4223183383
 20
7.9607367714
 11
11.4223183383
 21
16.4107367714
  0
LINE
  5
253
100
AcDbEntity
  8
0
100
AcDbLine
 62
7
  6
CONTINUOUS
 10
11.4323183383
 20
-5.8338953966
 11
11.4323183383
 21
-5.8032632286
  0
LINE
  5
254
100
AcDbEntity
  8
0
100
AcDbLine
 62
7
  6
CONTINUOUS
 10
11.4323183383
 20
14.4641046034
 11
11.4323183383
 21
14.4947367714
  0
LINE
  5
255
100
AcDbEntity
  8
0
100
AcDbLine
 62
7
  6
CONTINUOUS
 10
11.4423183383
 20
15.7727367714
 11
11.4423183383
 21
15.7547367714
  0
LINE
  5
256
100
AcDbEntity
  8
0
100
AcDbLine
 62
7
  6
CONTINUOUS
 10
11.4423183383
 20
-4.5122632286
 11
11.4423183383
 21
-4.5432632286
  0
LINE
  5
257
100
AcDbEntity
  8
0
100
AcDbLine
 62
7
  6
CONTINUOUS
 10
11.5004433383
 20
-5.7732632286
 11
11.5004433383
 21
-5.5786382286
  0
LINE
  5
258
100
AcDbEntity
  8
0
100
AcDbLine
 62
7
  6
CONTINUOUS
 10
11.5004433383
 20
14.5247367714
 11
11.5004433383
 21
14.7193617714
  0
LINE
  5
259
100
AcDbEntity
  8
0
100
AcDbLine
 62
7
  6
CONTINUOUS
 10
11.5173183383
 20
16.995695485
 11
11.5173183383
 21
16.4307367714
  0
LINE
  5
25A
100
AcDbEntity
  8
0
100
AcDbLine
 62
7
  6
CONTINUOUS
 10
11.5173183383
 20
6.427695485
 11
11.5173183383
 21
5.8627367714
  0
LINE
  5
25B
100
AcDbEntity
  8
0
100
AcDbLine
 62
7
  6
CONTINUOUS
 10
11.5173183383
 20
7.3777780602
 11
11.5173183383
 21
7.9607367714
  0
LINE
  5
25C
100
AcDbEntity
  8
0
100
AcDbLine
 62
7
  6
CONTINUOUS
 10
11.5275684999
 20
-1.7122632286
 11
11.5275684999
 21
-1.7851789131
  0
LINE
  5
25D
100
AcDbEntity
  8
0
100
AcDbLine
 62
7
  6
CONTINUOUS
 10
11.5883183383
 20
19.4177367714
 11
11.5883183383
 21
20.2877367714
  0
LINE
  5
25E
100
AcDbEntity
  8
0
100
AcDbLine
 62
7
  6
CONTINUOUS
 10
11.6323183383
 20
6.61940834
 11
11.6323183383
 21
6.6425964221
  0
LINE
  5
25F
100
AcDbEntity
  8
0
100
AcDbLine
 62
7
  6
CONTINUOUS
 10
11.6323183383
 20
7.1628771206
 11
11.6323183383
 21
7.1860652027
  0
LINE
  5
260
100
AcDbEntity
  8
0
100
AcDbLine
 62
7
  6
CONTINUOUS
 10
11.6323183383
 20
17.18740834
 11
11.6323183383
 21
17.2105964221
  0
LINE
  5
261
100
AcDbEntity
  8
0
100
AcDbLine
 62
7
  6
CONTINUOUS
 10
11.6323183383
 20
17.7308771206
 11
11.6323183383
 21
17.7540652027
  0
LINE
  5
262
100
AcDbEntity
  8
0
100
AcDbLine
 62
7
  6
CONTINUOUS
 10
11.6413183383
 20
16.5282193775
 11
11.6413183383
 21
16.7062479171
  0
LWPOLYLINE
  5
263
100
AcDbEntity
  8
0
100
AcDbPolyline
 62
7
  6
CONTINUOUS
 90
4
 70
0
 10
11.5173171523
 20
6.427695485
 10
11.5193912684
 20
6.4479564429
 10
11.5272358219
 20
6.4711152153
 10
11.5405161823
 20
6.4917376995
  0
LINE
  5
264
100
AcDbEntity
  8
0
100
AcDbLine
 62
7
  6
CONTINUOUS
 10
11.5173105168
 20
7.9607367714
 11
10.5773261597
 21
7.9607367714
  0
LWPOLYLINE
  5
265
100
AcDbEntity
  8
0
100
AcDbPolyline
 62
7
  6
CONTINUOUS
 90
4
 70
0
 10
11.5405142596
 20
7.3137381563
 10
11.5273242911
 20
7.3341752402
 10
11.5193996739
 20
7.3574764088
 10
11.5173171274
 20
7.3777780602
  0
LINE
  5
266
100
AcDbEntity
  8
0
100
AcDbLine
 62
7
  6
CONTINUOUS
 10
12.1923183383
 20
20.6177367714
 11
12.1923183383
 21
20.6277367714
  0
LINE
  5
267
100
AcDbEntity
  8
0
100
AcDbLine
 62
7
  6
CONTINUOUS
 10
12.5073183383
 20
20.8977367714
 11
12.5073183383
 21
20.9777367714
  0
LINE
  5
268
100
AcDbEntity
  8
0
100
AcDbLine
 62
7
  6
CONTINUOUS
 10
11.4850198271
 20
-4.9162483402
 11
11.5190198271
 21
-4.5762483402
  0
LINE
  5
269
100
AcDbEntity
  8
0
100
AcDbLine
 62
7
  6
CONTINUOUS
 10
11.5683456004
 20
6.5280521865
 11
11.5851879574
 21
6.5377761258
  0
LINE
  5
26A
100
AcDbEntity
  8
0
100
AcDbLine
 62
7
  6
CONTINUOUS
 10
11.5473547914
 20
-3.2583664906
 11
11.5957315496
 21
-2.9529276602
  0
LINE
  5
26B
100
AcDbEntity
  8
0
100
AcDbLine
 62
7
  6
CONTINUOUS
 10
10.5014138959
 20
-1.864965683
 11
10.5670681767
 21
-1.7851789131
  0
LWPOLYLINE
  5
26C
100
AcDbEntity
  8
0
100
AcDbPolyline
 62
7
  6
CONTINUOUS
 90
4
 70
0
 10
10.5541187717
 20
17.0597397638
 10
10.5674011905
 20
17.0391145217
 10
10.5752452652
 20
17.0159571457
 10
10.5773195269
 20
16.9956954856
  0
LINE
  5
26D
100
AcDbEntity
  8
0
100
AcDbLine
 62
9
  6
CONTINUOUS
 10
10.6623183383
 20
14.4641046034
 11
10.6723183383
 21
14.4641046034
  0
LINE
  5
26E
100
AcDbEntity
  8
0
100
AcDbLine
 62
9
  6
CONTINUOUS
 10
11.4223183383
 20
14.4641046034
 11
11.4323183383
 21
14.4641046034
  0
LINE
  5
26F
100
AcDbEntity
  8
0
100
AcDbLine
 62
7
  6
CONTINUOUS
 10
10.6242054674
 20
14.4947367714
 11
10.6723183383
 21
14.4947367714
  0
LINE
  5
270
100
AcDbEntity
  8
0
100
AcDbLine
 62
7
  6
CONTINUOUS
 10
11.4223183383
 20
14.4947367714
 11
11.4704334618
 21
14.4947367714
  0
LINE
  5
271
100
AcDbEntity
  8
0
100
AcDbLine
 62
9
  6
CONTINUOUS
 10
10.5941933383
 20
14.5247367714
 11
10.6723183383
 21
14.5247367714
  0
LINE
  5
272
100
AcDbEntity
  8
0
100
AcDbLine
 62
9
  6
CONTINUOUS
 10
11.4223183383
 20
14.5247367714
 11
11.5004433383
 21
14.5247367714
  0
LINE
  5
273
100
AcDbEntity
  8
0
100
AcDbLine
 62
9
  6
CONTINUOUS
 10
11.5004433383
 20
14.7193617714
 11
11.4223183383
 21
14.7193617714
  0
LINE
  5
274
100
AcDbEntity
  8
0
100
AcDbLine
 62
9
  6
CONTINUOUS
 10
10.6723183383
 20
14.7193617714
 11
10.5941933383
 21
14.7193617714
  0
LINE
  5
275
100
AcDbEntity
  8
0
100
AcDbLine
 62
7
  6
CONTINUOUS
 10
11.4704433452
 20
14.7493617714
 11
11.4223183383
 21
14.7493617714
  0
LINE
  5
276
100
AcDbEntity
  8
0
100
AcDbLine
 62
7
  6
CONTINUOUS
 10
10.6723183383
 20
14.7493617714
 11
10.6241945271
 21
14.7493617714
  0
LINE
  5
277
100
AcDbEntity
  8
0
100
AcDbLine
 62
7
  6
CONTINUOUS
 10
11.4551687114
 20
15.3547367714
 11
11.4223183383
 21
15.3547367714
  0
LINE
  5
278
100
AcDbEntity
  8
0
100
AcDbLine
 62
7
  6
CONTINUOUS
 10
10.6723183383
 20
15.3547367714
 11
10.6394679651
 21
15.3547367714
  0
LINE
  5
279
100
AcDbEntity
  8
0
100
AcDbLine
 62
9
  6
CONTINUOUS
 10
10.6096168494
 20
15.3817516598
 11
10.6723183383
 21
15.3817516598
  0
LINE
  5
27A
100
AcDbEntity
  8
0
100
AcDbLine
 62
9
  6
CONTINUOUS
 10
11.4223183383
 20
15.3817516598
 11
11.4850198271
 21
15.3817516598
  0
LINE
  5
27B
100
AcDbEntity
  8
0
100
AcDbLine
 62
9
  6
CONTINUOUS
 10
11.5190198271
 20
15.7217516598
 11
11.4223183383
 21
15.7217516598
  0
LINE
  5
27C
100
AcDbEntity
  8
0
100
AcDbLine
 62
9
  6
CONTINUOUS
 10
10.6723183383
 20
15.7217516598
 11
10.5756168494
 21
15.7217516598
  0
LINE
  5
27D
100
AcDbEntity
  8
0
100
AcDbLine
 62
7
  6
CONTINUOUS
 10
10.5094487191
 20
17.1057761258
 11
10.5262910761
 21
17.0960521865
  0
LINE
  5
27E
100
AcDbEntity
  8
0
100
AcDbLine
 62
7
  6
CONTINUOUS
 10
11.4891687114
 20
15.7547367714
 11
11.4223183383
 21
15.7547367714
  0
LINE
  5
27F
100
AcDbEntity
  8
0
100
AcDbLine
 62
7
  6
CONTINUOUS
 10
10.6723183383
 20
15.7547367714
 11
10.6054684218
 21
15.7547367714
  0
LINE
  5
280
100
AcDbEntity
  8
0
100
AcDbLine
 62
7
  6
CONTINUOUS
 10
10.5945200486
 20
15.7727367714
 11
10.6723183383
 21
15.7727367714
  0
LINE
  5
281
100
AcDbEntity
  8
0
100
AcDbLine
 62
7
  6
CONTINUOUS
 10
11.4223183383
 20
15.7727367714
 11
11.5001166279
 21
15.7727367714
  0
LINE
  5
282
100
AcDbEntity
  8
0
100
AcDbLine
 62
9
  6
CONTINUOUS
 10
10.564663294
 20
15.7998085978
 11
10.6723183383
 21
15.7998085978
  0
LINE
  5
283
100
AcDbEntity
  8
0
100
AcDbLine
 62
9
  6
CONTINUOUS
 10
11.4223183383
 20
15.7998085978
 11
11.5299733826
 21
15.7998085978
  0
LINE
  5
284
100
AcDbEntity
  8
0
100
AcDbLine
 62
9
  6
CONTINUOUS
 10
11.5827301902
 20
16.3377367714
 11
11.4223183383
 21
16.3377367714
  0
LINE
  5
285
100
AcDbEntity
  8
0
100
AcDbLine
 62
9
  6
CONTINUOUS
 10
10.6723183383
 20
16.3377367714
 11
10.5119064864
 21
16.3377367714
  0
LINE
  5
286
100
AcDbEntity
  8
0
100
AcDbLine
 62
7
  6
CONTINUOUS
 10
10.5973256152
 20
16.4107367714
 11
11.4973110613
 21
16.4107367714
  0
LINE
  5
287
100
AcDbEntity
  8
0
100
AcDbLine
 62
9
  6
CONTINUOUS
 10
10.5773183383
 20
16.4307367714
 11
11.5173183383
 21
16.4307367714
  0
LINE
  5
288
100
AcDbEntity
  8
0
100
AcDbLine
 62
9
  6
CONTINUOUS
 10
11.6413183383
 20
16.5760549741
 11
11.5173183383
 21
16.5760549741
  0
LINE
  5
289
100
AcDbEntity
  8
0
100
AcDbLine
 62
9
  6
CONTINUOUS
 10
10.5773183383
 20
16.5760549741
 11
10.4533183383
 21
16.5760549741
  0
LINE
  5
28A
100
AcDbEntity
  8
0
100
AcDbLine
 62
7
  6
CONTINUOUS
 10
11.5973183383
 20
16.7177367714
 11
11.5173183383
 21
16.7177367714
  0
LINE
  5
28B
100
AcDbEntity
  8
0
100
AcDbLine
 62
7
  6
CONTINUOUS
 10
10.5773183383
 20
16.7177367714
 11
10.4973183383
 21
16.7177367714
  0
LINE
  5
28C
100
AcDbEntity
  8
0
100
AcDbLine
 62
9
  6
CONTINUOUS
 10
11.6528267025
 20
16.7664212714
 11
11.5173183383
 21
16.7664212714
  0
LINE
  5
28D
100
AcDbEntity
  8
0
100
AcDbLine
 62
9
  6
CONTINUOUS
 10
10.5773183383
 20
16.7664212714
 11
10.4418099741
 21
16.7664212714
  0
LINE
  5
28E
100
AcDbEntity
  8
0
100
AcDbLine
 62
7
  6
CONTINUOUS
 10
11.5851879574
 20
17.8356974169
 11
11.5683456004
 21
17.8454213563
  0
LINE
  5
28F
100
AcDbEntity
  8
0
100
AcDbLine
 62
7
  6
CONTINUOUS
 10
11.1144995506
 20
18.1074494953
 11
11.0944487191
 21
18.1190258482
  0
LINE
  5
290
100
AcDbEntity
  8
0
100
AcDbLine
 62
9
  6
CONTINUOUS
 10
10.4204413808
 20
18.1380133922
 11
11.6741952958
 21
18.1380133922
  0
LINE
  5
291
100
AcDbEntity
  8
0
100
AcDbLine
 62
7
  6
CONTINUOUS
 10
10.3873192619
 20
18.1677367714
 11
11.7073174147
 21
18.1677367714
  0
LINE
  5
292
100
AcDbEntity
  8
0
100
AcDbLine
 62
9
  6
CONTINUOUS
 10
10.3596288751
 20
18.224144565
 11
11.7350078015
 21
18.224144565
  0
LINE
  5
293
100
AcDbEntity
  8
0
100
AcDbLine
 62
9
  6
CONTINUOUS
 10
10.4218739981
 20
19.3796586221
 11
11.6727626785
 21
19.3796586221
  0
LINE
  5
294
100
AcDbEntity
  8
0
100
AcDbLine
 62
7
  6
CONTINUOUS
 10
10.4431809745
 20
19.4177367714
 11
11.651455702
 21
19.4177367714
  0
LINE
  5
295
100
AcDbEntity
  8
0
100
AcDbLine
 62
7
  6
CONTINUOUS
 10
10.3123183383
 20
20.2877367714
 11
11.7823183383
 21
20.2877367714
  0
LINE
  5
296
100
AcDbEntity
  8
0
100
AcDbLine
 62
7
  6
CONTINUOUS
 10
9.9023183383
 20
20.6177367714
 11
12.1923183383
 21
20.6177367714
  0
LINE
  5
297
100
AcDbEntity
  8
0
100
AcDbLine
 62
7
  6
CONTINUOUS
 10
12.1923183383
 20
20.6277367714
 11
9.9023183383
 21
20.6277367714
  0
LINE
  5
298
100
AcDbEntity
  8
0
100
AcDbLine
 62
7
  6
CONTINUOUS
 10
9.6173183383
 20
20.8677367714
 11
12.4773183383
 21
20.8677367714
  0
LINE
  5
299
100
AcDbEntity
  8
0
100
AcDbLine
 62
9
  6
CONTINUOUS
 10
9.5873183383
 20
20.8977367714
 11
12.5073183383
 21
20.8977367714
  0
LINE
  5
29A
100
AcDbEntity
  8
0
100
AcDbLine
 62
7
  6
CONTINUOUS
 10
12.5073183383
 20
20.9777367714
 11
9.5873183383
 21
20.9777367714
  0
LINE
  5
29B
100
AcDbEntity
  8
0
100
AcDbLine
 62
7
  6
CONTINUOUS
 10
9.7053183383
 20
20.9877367714
 11
12.3893183383
 21
20.9877367714
  0
ARC
  5
29C
100
AcDbEntity
  8
0
100
AcDbCircle
 62
7
  6
CONTINUOUS
 10
10.4873183383
 20
-2.4222632286
 40
1.14
100
AcDbArc
 50
337.1448062399
 51
22.8551937601
  0
ARC
  5
29D
100
AcDbEntity
  8
0
100
AcDbCircle
 62
9
  6
CONTINUOUS
 10
11.0428072603
 20
6.8447390606
 40
0.7135904143
100
AcDbArc
 50
61.4346335479
 51
62.1197517042
  0
ARC
  5
29E
100
AcDbEntity
  8
0
100
AcDbCircle
 62
7
  6
CONTINUOUS
 10
10.20558138
 20
-4.34154014
 40
0.4
100
AcDbArc
 50
338.9695236741
 51
36.3424046392
  0
ARC
  5
29F
100
AcDbEntity
  8
0
100
AcDbCircle
 62
7
  6
CONTINUOUS
 10
11.0031138702
 20
-5.650871218
 40
0.375
100
AcDbArc
 50
148.629190814
 51
161.0465307822
  0
ARC
  5
2A0
100
AcDbEntity
  8
0
100
AcDbCircle
 62
7
  6
CONTINUOUS
 10
10.4386361677
 20
-3.2755742818
 40
0.11
100
AcDbArc
 50
323.7264555496
 51
9.0
  0
ARC
  5
2A1
100
AcDbEntity
  8
0
100
AcDbCircle
 62
7
  6
CONTINUOUS
 10
10.7623183383
 20
-5.8338953966
 40
0.1
100
AcDbArc
 50
180.0
 51
235.2497742463
  0
ARC
  5
2A2
100
AcDbEntity
  8
0
100
AcDbCircle
 62
7
  6
CONTINUOUS
 10
10.6241933383
 20
-5.7732632286
 40
0.03
100
AcDbArc
 50
180.0
 51
270.0
  0
ARC
  5
2A3
100
AcDbEntity
  8
0
100
AcDbCircle
 62
7
  6
CONTINUOUS
 10
10.6241933383
 20
-5.5786382286
 40
0.03
100
AcDbArc
 50
90.0
 51
180.0
  0
ARC
  5
2A4
100
AcDbEntity
  8
0
100
AcDbCircle
 62
7
  6
CONTINUOUS
 10
10.6573183383
 20
-5.4400384642
 40
0.03
100
AcDbArc
 50
328.629190814
 51
360.0
  0
ARC
  5
2A5
100
AcDbEntity
  8
0
100
AcDbCircle
 62
7
  6
CONTINUOUS
 10
10.6394679651
 20
-4.9132632286
 40
0.03
100
AcDbArc
 50
185.7105931375
 51
270.0
  0
ARC
  5
2A6
100
AcDbEntity
  8
0
100
AcDbCircle
 62
7
  6
CONTINUOUS
 10
10.6054679651
 20
-4.5732632286
 40
0.03
100
AcDbArc
 50
90.0
 51
185.7105931375
  0
ARC
  5
2A7
100
AcDbEntity
  8
0
100
AcDbCircle
 62
7
  6
CONTINUOUS
 10
10.6200826607
 20
-5.5192780812
 40
0.0299942782
100
AcDbArc
 50
291.9530941098
 51
340.9943535831
  0
ARC
  5
2A8
100
AcDbEntity
  8
0
100
AcDbCircle
 62
7
  6
CONTINUOUS
 10
10.5973183383
 20
5.8627367714
 40
0.02
100
AcDbArc
 50
180.0
 51
270.0
  0
ARC
  5
2A9
100
AcDbEntity
  8
0
100
AcDbCircle
 62
7
  6
CONTINUOUS
 10
10.5186588933
 20
-2.9497989678
 40
0.02
100
AcDbArc
 50
100.3792928282
 51
189.0000088123
  0
ARC
  5
2AA
100
AcDbEntity
  8
0
100
AcDbCircle
 62
7
  6
CONTINUOUS
 10
10.5168574697
 20
-1.8776737918
 40
0.02
100
AcDbArc
 50
140.5499383566
 51
255.5321876633
  0
ARC
  5
2AB
100
AcDbEntity
  8
0
100
AcDbCircle
 62
7
  6
CONTINUOUS
 10
10.5976050407
 20
-4.4922632286
 40
0.02
100
AcDbArc
 50
158.9695043387
 51
270.0
  0
ARC
  5
2AC
100
AcDbEntity
  8
0
100
AcDbCircle
 62
7
  6
CONTINUOUS
 10
10.5870681767
 20
-1.7122632286
 40
0.02
100
AcDbArc
 50
90.0
 51
180.0
  0
ARC
  5
2AD
100
AcDbEntity
  8
0
100
AcDbCircle
 62
7
  6
CONTINUOUS
 10
10.4747983383
 20
17.4707367714
 40
1.37252
100
AcDbArc
 50
329.1257878631
 51
29.0890878999
  0
ARC
  5
2AE
100
AcDbEntity
  8
0
100
AcDbCircle
 62
7
  6
CONTINUOUS
 10
9.5540441104
 20
18.8469732654
 40
1.0182742278
100
AcDbArc
 50
322.291005182
 51
31.5421477272
  0
ARC
  5
2AF
100
AcDbEntity
  8
0
100
AcDbCircle
 62
7
  6
CONTINUOUS
 10
9.1883394512
 20
20.0963855234
 40
0.89
100
AcDbArc
 50
36.657044374
 51
60.0758769528
  0
ARC
  5
2B0
100
AcDbEntity
  8
0
100
AcDbCircle
 62
7
  6
CONTINUOUS
 10
10.0142939085
 20
16.2889338785
 40
0.5
100
AcDbArc
 50
5.6013175617
 51
28.5921131724
  0
ARC
  5
2B1
100
AcDbEntity
  8
0
100
AcDbCircle
 62
7
  6
CONTINUOUS
 10
10.4036829889
 20
20.7487709356
 40
0.47
100
AcDbArc
 50
196.1883649903
 51
258.7907408537
  0
ARC
  5
2B2
100
AcDbEntity
  8
0
100
AcDbCircle
 62
7
  6
CONTINUOUS
 10
11.0031138702
 20
14.647128782
 40
0.375
100
AcDbArc
 50
152.0594669387
 51
161.0465307822
  0
ARC
  5
2B3
100
AcDbEntity
  8
0
100
AcDbCircle
 62
7
  6
CONTINUOUS
 10
10.7623183383
 20
14.4641046034
 40
0.1
100
AcDbArc
 50
180.0
 51
205.3831389417
  0
ARC
  5
2B4
100
AcDbEntity
  8
0
100
AcDbCircle
 62
7
  6
CONTINUOUS
 10
10.5276395696
 20
16.8177367714
 40
0.1
100
AcDbArc
 50
210.8742121369
 51
270.0
  0
ARC
  5
2B5
100
AcDbEntity
  8
0
100
AcDbCircle
 62
7
  6
CONTINUOUS
 10
10.4973183383
 20
16.6277367714
 40
0.09
100
AcDbArc
 50
90.0
 51
119.2675775975
  0
ARC
  5
2B6
100
AcDbEntity
  8
0
100
AcDbCircle
 62
7
  6
CONTINUOUS
 10
9.7053183383
 20
20.9527367714
 40
0.035
100
AcDbArc
 50
90.0
 51
133.8515909751
  0
ARC
  5
2B7
100
AcDbEntity
  8
0
100
AcDbCircle
 62
7
  6
CONTINUOUS
 10
10.3873183383
 20
18.2027367714
 40
0.035
100
AcDbArc
 50
142.291005182
 51
270.0
  0
ARC
  5
2B8
100
AcDbEntity
  8
0
100
AcDbCircle
 62
7
  6
CONTINUOUS
 10
10.5945200486
 20
15.8027367714
 40
0.03
100
AcDbArc
 50
185.6013175617
 51
270.0
  0
ARC
  5
2B9
100
AcDbEntity
  8
0
100
AcDbCircle
 62
7
  6
CONTINUOUS
 10
10.6241933383
 20
14.5247367714
 40
0.03
100
AcDbArc
 50
180.0
 51
270.0
  0
ARC
  5
2BA
100
AcDbEntity
  8
0
100
AcDbCircle
 62
7
  6
CONTINUOUS
 10
10.6241933383
 20
14.7193617714
 40
0.03
100
AcDbArc
 50
90.0
 51
180.0
  0
ARC
  5
2BB
100
AcDbEntity
  8
0
100
AcDbCircle
 62
7
  6
CONTINUOUS
 10
10.6394679651
 20
15.3847367714
 40
0.03
100
AcDbArc
 50
185.7105931375
 51
270.0
  0
ARC
  5
2BC
100
AcDbEntity
  8
0
100
AcDbCircle
 62
7
  6
CONTINUOUS
 10
10.6054679651
 20
15.7247367714
 40
0.03
100
AcDbArc
 50
90.0
 51
185.7105931375
  0
ARC
  5
2BD
100
AcDbEntity
  8
0
100
AcDbCircle
 62
7
  6
CONTINUOUS
 10
9.6173183383
 20
20.8977367714
 40
0.03
100
AcDbArc
 50
180.0
 51
270.0
  0
ARC
  5
2BE
100
AcDbEntity
  8
0
100
AcDbCircle
 62
7
  6
CONTINUOUS
 10
10.6200826607
 20
14.7787219188
 40
0.0299942782
100
AcDbArc
 50
291.9530941098
 51
340.9943535831
  0
ARC
  5
2BF
100
AcDbEntity
  8
0
100
AcDbCircle
 62
7
  6
CONTINUOUS
 10
10.4431803824
 20
19.3927367714
 40
0.025
100
AcDbArc
 50
90.0
 51
211.5421482618
  0
ARC
  5
2C0
100
AcDbEntity
  8
0
100
AcDbCircle
 62
7
  6
CONTINUOUS
 10
10.5973183383
 20
16.4307367714
 40
0.02
100
AcDbArc
 50
180.0
 51
270.0
  0
ARC
  5
2C1
100
AcDbEntity
  8
0
100
AcDbCircle
 62
7
  6
CONTINUOUS
 10
10.4029640841
 20
18.1477367714
 40
0.02
100
AcDbArc
 50
330.9109121001
 51
90.0
  0
ARC
  5
2C2
100
AcDbEntity
  8
0
100
AcDbCircle
 62
7
  6
CONTINUOUS
 10
11.0473183383
 20
-3.7222632286
 40
0.645
100
AcDbArc
 50
323.6575953608
 51
36.2735444504
  0
ARC
  5
2C3
100
AcDbEntity
  8
0
100
AcDbCircle
 62
7
  6
CONTINUOUS
 10
11.0473183383
 20
-3.7222632286
 40
0.645
100
AcDbArc
 50
143.7264555496
 51
216.3424046392
  0
ARC
  5
2C4
100
AcDbEntity
  8
0
100
AcDbCircle
 62
7
  6
CONTINUOUS
 10
11.0473183383
 20
-5.4230730506
 40
0.6
100
AcDbArc
 50
235.2497742463
 51
304.7502257537
  0
ARC
  5
2C5
100
AcDbEntity
  8
0
100
AcDbCircle
 62
7
  6
CONTINUOUS
 10
11.0915228063
 20
-5.650871218
 40
0.375
100
AcDbArc
 50
18.9541228208
 51
31.370809186
  0
ARC
  5
2C6
100
AcDbEntity
  8
0
100
AcDbCircle
 62
7
  6
CONTINUOUS
 10
11.3323183383
 20
-5.8338953966
 40
0.1
100
AcDbArc
 50
304.7502257537
 51
360.0
  0
ARC
  5
2C7
100
AcDbEntity
  8
0
100
AcDbCircle
 62
7
  6
CONTINUOUS
 10
11.4373183383
 20
-5.4400384642
 40
0.03
100
AcDbArc
 50
180.0
 51
211.370809186
  0
ARC
  5
2C8
100
AcDbEntity
  8
0
100
AcDbCircle
 62
7
  6
CONTINUOUS
 10
11.4551687114
 20
-4.9132632286
 40
0.03
100
AcDbArc
 50
270.0
 51
354.2894068625
  0
ARC
  5
2C9
100
AcDbEntity
  8
0
100
AcDbCircle
 62
7
  6
CONTINUOUS
 10
11.0473183383
 20
6.9027367714
 40
0.65
100
AcDbArc
 50
325.8419327632
 51
334.1580672368
  0
ARC
  5
2CA
100
AcDbEntity
  8
0
100
AcDbCircle
 62
7
  6
CONTINUOUS
 10
11.0473183383
 20
6.9027367714
 40
0.65
100
AcDbArc
 50
205.8419327632
 51
214.1580672368
  0
ARC
  5
2CB
100
AcDbEntity
  8
0
100
AcDbCircle
 62
7
  6
CONTINUOUS
 10
11.0473183383
 20
6.9027367714
 40
0.65
100
AcDbArc
 50
145.8419327632
 51
154.1580672368
  0
ARC
  5
2CC
100
AcDbEntity
  8
0
100
AcDbCircle
 62
7
  6
CONTINUOUS
 10
11.0473183383
 20
6.9027367714
 40
0.65
100
AcDbArc
 50
85.8419327632
 51
94.1580672368
  0
ARC
  5
2CD
100
AcDbEntity
  8
0
100
AcDbCircle
 62
7
  6
CONTINUOUS
 10
11.0473183383
 20
6.9027367714
 40
0.65
100
AcDbArc
 50
25.8419327632
 51
34.1580672368
  0
ARC
  5
2CE
100
AcDbEntity
  8
0
100
AcDbCircle
 62
7
  6
CONTINUOUS
 10
11.0473183383
 20
6.9027367714
 40
0.642
100
AcDbArc
 50
320.1958546296
 51
219.8042230312
  0
CIRCLE
  5
2CF
100
AcDbEntity
  8
0
100
AcDbCircle
 62
9
  6
CONTINUOUS
 10
11.0473183383
 20
6.9027367714
 40
0.5258241194
  0
CIRCLE
  5
2D0
100
AcDbEntity
  8
0
100
AcDbCircle
 62
9
  6
CONTINUOUS
 10
11.0473183383
 20
6.9027367714
 40
0.4322426762
  0
CIRCLE
  5
2D1
100
AcDbEntity
  8
0
100
AcDbCircle
 62
7
  6
CONTINUOUS
 10
11.0473183383
 20
6.9027367714
 40
0.42
  0
CIRCLE
  5
2D2
100
AcDbEntity
  8
0
100
AcDbCircle
 62
9
  6
CONTINUOUS
 10
11.0473183383
 20
6.9027367714
 40
0.369180739
  0
ARC
  5
2D3
100
AcDbEntity
  8
0
100
AcDbCircle
 62
7
  6
CONTINUOUS
 10
11.6073183383
 20
-2.4222632286
 40
1.14
100
AcDbArc
 50
157.1448062399
 51
202.8551937601
  0
ARC
  5
2D4
100
AcDbEntity
  8
0
100
AcDbCircle
 62
7
  6
CONTINUOUS
 10
11.8890552966
 20
-4.34154014
 40
0.4
100
AcDbArc
 50
143.6575953608
 51
201.0304763259
  0
ARC
  5
2D5
100
AcDbEntity
  8
0
100
AcDbCircle
 62
7
  6
CONTINUOUS
 10
11.6560005088
 20
-3.2755742818
 40
0.11
100
AcDbArc
 50
171.0
 51
216.2735444504
  0
ARC
  5
2D6
100
AcDbEntity
  8
0
100
AcDbCircle
 62
7
  6
CONTINUOUS
 10
11.4745627389
 20
-5.5192582894
 40
0.0300162188
100
AcDbArc
 50
239.9060368918
 51
247.7870814913
  0
ARC
  5
2D7
100
AcDbEntity
  8
0
100
AcDbCircle
 62
7
  6
CONTINUOUS
 10
11.4704433383
 20
-5.7732632286
 40
0.03
100
AcDbArc
 50
270.0
 51
360.0
  0
ARC
  5
2D8
100
AcDbEntity
  8
0
100
AcDbCircle
 62
7
  6
CONTINUOUS
 10
11.4704433383
 20
-5.5786382286
 40
0.03
100
AcDbArc
 50
0.0
 51
90.0
  0
ARC
  5
2D9
100
AcDbEntity
  8
0
100
AcDbCircle
 62
7
  6
CONTINUOUS
 10
11.4891687114
 20
-4.5732632286
 40
0.03
100
AcDbArc
 50
354.2894068625
 51
90.0
  0
ARC
  5
2DA
100
AcDbEntity
  8
0
100
AcDbCircle
 62
7
  6
CONTINUOUS
 10
11.4745545714
 20
-5.5192784566
 40
0.0299946722
100
AcDbArc
 50
198.9851866103
 51
239.900218966
  0
ARC
  5
2DB
100
AcDbEntity
  8
0
100
AcDbCircle
 62
7
  6
CONTINUOUS
 10
11.5759777832
 20
-2.9497989678
 40
0.02
100
AcDbArc
 50
350.9999911877
 51
79.6207071718
  0
ARC
  5
2DC
100
AcDbEntity
  8
0
100
AcDbCircle
 62
7
  6
CONTINUOUS
 10
11.5777792069
 20
-1.8776737918
 40
0.02
100
AcDbArc
 50
284.4678123367
 51
39.4500616434
  0
ARC
  5
2DD
100
AcDbEntity
  8
0
100
AcDbCircle
 62
7
  6
CONTINUOUS
 10
11.4970316359
 20
-4.4922632286
 40
0.02
100
AcDbArc
 50
270.0
 51
21.0304956613
  0
ARC
  5
2DE
100
AcDbEntity
  8
0
100
AcDbCircle
 62
7
  6
CONTINUOUS
 10
11.5075684999
 20
-1.7122632286
 40
0.02
100
AcDbArc
 50
0.0
 51
90.0
  0
ARC
  5
2DF
100
AcDbEntity
  8
0
100
AcDbCircle
 62
7
  6
CONTINUOUS
 10
11.4973183383
 20
5.8627367714
 40
0.02
100
AcDbArc
 50
270.0
 51
360.0
  0
ARC
  5
2E0
100
AcDbEntity
  8
0
100
AcDbCircle
 62
7
  6
CONTINUOUS
 10
11.6198383383
 20
17.4707367714
 40
1.37252
100
AcDbArc
 50
150.9109121001
 51
210.8742121369
  0
ARC
  5
2E1
100
AcDbEntity
  8
0
100
AcDbCircle
 62
7
  6
CONTINUOUS
 10
11.0473183383
 20
17.4707367714
 40
0.65
100
AcDbArc
 50
325.8419327632
 51
334.1580672368
  0
ARC
  5
2E2
100
AcDbEntity
  8
0
100
AcDbCircle
 62
7
  6
CONTINUOUS
 10
11.0473183383
 20
17.4707367714
 40
0.65
100
AcDbArc
 50
205.8419327632
 51
214.1580672368
  0
ARC
  5
2E3
100
AcDbEntity
  8
0
100
AcDbCircle
 62
7
  6
CONTINUOUS
 10
11.0473183383
 20
17.4707367714
 40
0.65
100
AcDbArc
 50
145.8419327632
 51
154.1580672368
  0
ARC
  5
2E4
100
AcDbEntity
  8
0
100
AcDbCircle
 62
7
  6
CONTINUOUS
 10
11.0473183383
 20
17.4707367714
 40
0.65
100
AcDbArc
 50
85.8419327632
 51
94.1580672368
  0
ARC
  5
2E5
100
AcDbEntity
  8
0
100
AcDbCircle
 62
7
  6
CONTINUOUS
 10
11.0473183383
 20
17.4707367714
 40
0.65
100
AcDbArc
 50
25.8419327632
 51
34.1580672368
  0
ARC
  5
2E6
100
AcDbEntity
  8
0
100
AcDbCircle
 62
7
  6
CONTINUOUS
 10
11.0473183383
 20
17.4707367714
 40
0.642
100
AcDbArc
 50
320.1958546296
 51
219.8042230312
  0
CIRCLE
  5
2E7
100
AcDbEntity
  8
0
100
AcDbCircle
 62
9
  6
CONTINUOUS
 10
11.0473183383
 20
17.4707367714
 40
0.5258241194
  0
CIRCLE
  5
2E8
100
AcDbEntity
  8
0
100
AcDbCircle
 62
9
  6
CONTINUOUS
 10
11.0473183383
 20
17.4707367714
 40
0.4322426762
  0
CIRCLE
  5
2E9
100
AcDbEntity
  8
0
100
AcDbCircle
 62
7
  6
CONTINUOUS
 10
11.0473183383
 20
17.4707367714
 40
0.42
  0
ARC
  5
2EA
100
AcDbEntity
  8
0
100
AcDbCircle
 62
7
  6
CONTINUOUS
 10
11.0915228063
 20
14.647128782
 40
0.375
100
AcDbArc
 50
18.9541228208
 51
27.9405222641
  0
CIRCLE
  5
2EB
100
AcDbEntity
  8
0
100
AcDbCircle
 62
9
  6
CONTINUOUS
 10
11.0473183383
 20
17.4707367714
 40
0.369180739
  0
ARC
  5
2EC
100
AcDbEntity
  8
0
100
AcDbCircle
 62
7
  6
CONTINUOUS
 10
11.3323183383
 20
14.4641046034
 40
0.1
100
AcDbArc
 50
334.6168610583
 51
360.0
  0
ARC
  5
2ED
100
AcDbEntity
  8
0
100
AcDbCircle
 62
7
  6
CONTINUOUS
 10
11.566997107
 20
16.8177367714
 40
0.1
100
AcDbArc
 50
270.0
 51
329.1257878631
  0
ARC
  5
2EE
100
AcDbEntity
  8
0
100
AcDbCircle
 62
7
  6
CONTINUOUS
 10
11.5973183383
 20
16.6277367714
 40
0.09
100
AcDbArc
 50
60.7324224025
 51
90.0
  0
ARC
  5
2EF
100
AcDbEntity
  8
0
100
AcDbCircle
 62
7
  6
CONTINUOUS
 10
11.4745627389
 20
14.7787417106
 40
0.0300162189
100
AcDbArc
 50
239.9060368918
 51
247.7870814912
  0
ARC
  5
2F0
100
AcDbEntity
  8
0
100
AcDbCircle
 62
7
  6
CONTINUOUS
 10
11.5001166279
 20
15.8027367714
 40
0.03
100
AcDbArc
 50
270.0
 51
354.3986824383
  0
ARC
  5
2F1
100
AcDbEntity
  8
0
100
AcDbCircle
 62
7
  6
CONTINUOUS
 10
11.4704433383
 20
14.5247367714
 40
0.03
100
AcDbArc
 50
270.0
 51
360.0
  0
ARC
  5
2F2
100
AcDbEntity
  8
0
100
AcDbCircle
 62
7
  6
CONTINUOUS
 10
11.4704433383
 20
14.7193617714
 40
0.03
100
AcDbArc
 50
0.0
 51
90.0
  0
ARC
  5
2F3
100
AcDbEntity
  8
0
100
AcDbCircle
 62
7
  6
CONTINUOUS
 10
11.4551687114
 20
15.3847367714
 40
0.03
100
AcDbArc
 50
270.0
 51
354.2894068625
  0
ARC
  5
2F4
100
AcDbEntity
  8
0
100
AcDbCircle
 62
7
  6
CONTINUOUS
 10
11.4891687114
 20
15.7247367714
 40
0.03
100
AcDbArc
 50
354.2894068625
 51
90.0
  0
ARC
  5
2F5
100
AcDbEntity
  8
0
100
AcDbCircle
 62
7
  6
CONTINUOUS
 10
11.4745545714
 20
14.7787215434
 40
0.0299946722
100
AcDbArc
 50
198.9851866103
 51
239.900218966
  0
ARC
  5
2F6
100
AcDbEntity
  8
0
100
AcDbCircle
 62
7
  6
CONTINUOUS
 10
11.4973183383
 20
16.4307367714
 40
0.02
100
AcDbArc
 50
270.0
 51
360.0
  0
ARC
  5
2F7
100
AcDbEntity
  8
0
100
AcDbCircle
 62
7
  6
CONTINUOUS
 10
11.6909536877
 20
20.7487709356
 40
0.47
100
AcDbArc
 50
281.2092591463
 51
343.8116350097
  0
ARC
  5
2F8
100
AcDbEntity
  8
0
100
AcDbCircle
 62
7
  6
CONTINUOUS
 10
11.7073183383
 20
18.2027367714
 40
0.035
100
AcDbArc
 50
270.0
 51
37.708994818
  0
ARC
  5
2F9
100
AcDbEntity
  8
0
100
AcDbCircle
 62
7
  6
CONTINUOUS
 10
11.6514562942
 20
19.3927367714
 40
0.025
100
AcDbArc
 50
328.4578517382
 51
90.0
  0
ARC
  5
2FA
100
AcDbEntity
  8
0
100
AcDbCircle
 62
7
  6
CONTINUOUS
 10
11.6916725924
 20
18.1477367714
 40
0.02
100
AcDbArc
 50
90.0
 51
209.0890878999
  0
ARC
  5
2FB
100
AcDbEntity
  8
0
100
AcDbCircle
 62
7
  6
CONTINUOUS
 10
12.0803427681
 20
16.2889338785
 40
0.5
100
AcDbArc
 50
151.4078868276
 51
174.3986824383
  0
ARC
  5
2FC
100
AcDbEntity
  8
0
100
AcDbCircle
 62
7
  6
CONTINUOUS
 10
12.5405925661
 20
18.8469732654
 40
1.0182742278
100
AcDbArc
 50
148.4578522728
 51
217.708994818
  0
ARC
  5
2FD
100
AcDbEntity
  8
0
100
AcDbCircle
 62
7
  6
CONTINUOUS
 10
12.9062972254
 20
20.0963855234
 40
0.89
100
AcDbArc
 50
119.9241230472
 51
143.342955626
  0
ARC
  5
2FE
100
AcDbEntity
  8
0
100
AcDbCircle
 62
7
  6
CONTINUOUS
 10
12.3893183383
 20
20.9527367714
 40
0.035
100
AcDbArc
 50
46.1484090249
 51
90.0
  0
ARC
  5
2FF
100
AcDbEntity
  8
0
100
AcDbCircle
 62
7
  6
CONTINUOUS
 10
12.4773183383
 20
20.8977367714
 40
0.03
100
AcDbArc
 50
270.0
 51
360.0
  0
SPLINE
  5
300
100
AcDbEntity
  8
0
100
AcDbSpline
 62
7
  6
CONTINUOUS
 70
0
 71
3
 72
17
 73
13
 74
0
 42
0.0000001
 43
0.0000001
 44
0.0000000001
 40
0.0
 40
0.0
 40
0.0
 40
0.0
 40
0.1190563644
 40
0.239212865
 40
0.360763555
 40
0.4840708824
 40
0.6095336229
 40
0.7374605535
 40
0.8024239337
 40
0.8679260095
 40
0.9338582238
 40
1.0
 40
1.0
 40
1.0
 40
1.0
 10
11.5173558104
 20
16.6748156605
 30
0.0
 10
11.519407676
 20
16.6735850994
 30
0.0
 10
11.5234553452
 20
16.6709841114
 30
0.0
 10
11.5292648036
 20
16.6666351122
 30
0.0
 10
11.5347528059
 20
16.6617523616
 30
0.0
 10
11.5397969044
 20
16.6562598395
 30
0.0
 10
11.5442177676
 20
16.6500884075
 30
0.0
 10
11.5471574999
 20
16.6443717558
 30
0.0
 10
11.5489183423
 20
16.6394800804
 30
0.0
 10
11.5499034625
 20
16.6356515743
 30
0.0
 10
11.5505131726
 20
16.6317219988
 30
0.0
 10
11.5506553404
 20
16.6290659685
 30
0.0
 10
11.5506553404
 20
16.6277367711
 30
0.0
  0
SPLINE
  5
301
100
AcDbEntity
  8
0
100
AcDbSpline
 62
7
  6
CONTINUOUS
 70
0
 71
3
 72
16
 73
12
 74
0
 42
0.0000001
 43
0.0000001
 44
0.0000000001
 40
0.0
 40
0.0
 40
0.0
 40
0.0
 40
0.066152862
 40
0.1320921782
 40
0.197604036
 40
0.2625758206
 40
0.3905207032
 40
0.5160027484
 40
0.6393289198
 40
0.7608984522
 40
1.0
 40
1.0
 40
1.0
 40
1.0
 10
11.5506553404
 20
16.6277367711
 30
0.0
 10
11.5506553404
 20
16.6264070435
 30
0.0
 10
11.550512685
 20
16.6237500652
 30
0.0
 10
11.5499031727
 20
16.6198189605
 30
0.0
 10
11.5489169982
 20
16.6159892307
 30
0.0
 10
11.5471549962
 20
16.6110959407
 30
0.0
 10
11.5442132366
 20
16.6053775582
 30
0.0
 10
11.5397896233
 20
16.5992046923
 30
0.0
 10
11.5347421926
 20
16.5937107272
 30
0.0
 10
11.5274638113
 20
16.5872378419
 30
0.0
 10
11.5214577426
 20
16.5831174396
 30
0.0
 10
11.5173357475
 20
16.5806459745
 30
0.0
  0
SPLINE
  5
302
100
AcDbEntity
  8
0
100
AcDbSpline
 62
7
  6
CONTINUOUS
 70
0
 71
3
 72
16
 73
12
 74
0
 42
0.0000001
 43
0.0000001
 44
0.0000000001
 40
0.0
 40
0.0
 40
0.0
 40
0.0
 40
0.2391014585
 40
0.3606709889
 40
0.4839972154
 40
0.609479296
 40
0.7374242092
 40
0.8023957564
 40
0.867908048
 40
0.9338467747
 40
1.0
 40
1.0
 40
1.0
 40
1.0
 10
10.577300997
 20
16.5806459339
 30
0.0
 10
10.573179001
 20
16.583117395
 30
0.0
 10
10.5671729282
 20
16.5872377908
 30
0.0
 10
10.5598945451
 20
16.5937106715
 30
0.0
 10
10.5548470929
 20
16.5992046261
 30
0.0
 10
10.5504235152
 20
16.6053775081
 30
0.0
 10
10.5474816259
 20
16.6110958378
 30
0.0
 10
10.5457198224
 20
16.6159892007
 30
0.0
 10
10.5447333397
 20
16.6198188255
 30
0.0
 10
10.5441238938
 20
16.6237500122
 30
0.0
 10
10.5439825076
 20
16.6264070363
 30
0.0
 10
10.5439825076
 20
16.6277367713
 30
0.0
  0
SPLINE
  5
303
100
AcDbEntity
  8
0
100
AcDbSpline
 62
7
  6
CONTINUOUS
 70
0
 71
3
 72
16
 73
12
 74
0
 42
0.0000001
 43
0.0000001
 44
0.0000000001
 40
0.0
 40
0.0
 40
0.0
 40
0.0
 40
0.1319261732
 40
0.1974393167
 40
0.2624130934
 40
0.3903611516
 40
0.51584548
 40
0.6391741992
 40
0.7607461564
 40
0.8809233446
 40
1.0
 40
1.0
 40
1.0
 40
1.0
 10
10.5439825076
 20
16.6277367713
 30
0.0
 10
10.5439825076
 20
16.6303874169
 30
0.0
 10
10.5444023487
 20
16.6343681911
 30
0.0
 10
10.5457182427
 20
16.6394790272
 30
0.0
 10
10.5474788357
 20
16.6443713587
 30
0.0
 10
10.5504183766
 20
16.6500873687
 30
0.0
 10
10.5548388801
 20
16.6562587696
 30
0.0
 10
10.5598826518
 20
16.6617511514
 30
0.0
 10
10.5653703191
 20
16.6666338397
 30
0.0
 10
10.5711794415
 20
16.6709827826
 30
0.0
 10
10.5752268666
 20
16.6735837709
 30
0.0
 10
10.5772786139
 20
16.6748143266
 30
0.0
  0
SPLINE
  5
304
100
AcDbEntity
  8
0
100
AcDbSpline
 62
7
  6
CONTINUOUS
 70
0
 71
3
 72
9
 73
5
 74
0
 42
0.0000001
 43
0.0000001
 44
0.0000000001
 40
0.0
 40
0.0
 40
0.0
 40
0.0
 40
0.4828585084
 40
1.0
 40
1.0
 40
1.0
 40
1.0
 10
10.626210378
 20
14.7493632046
 30
0.0
 10
10.6270483887
 20
14.7495381193
 30
0.0
 10
10.6287701883
 20
14.7499707208
 30
0.0
 10
10.6304455075
 20
14.7505599193
 30
0.0
 10
10.6312959283
 20
14.7509025583
 30
0.0
  0
SPLINE
  5
305
100
AcDbEntity
  8
0
100
AcDbSpline
 62
7
  6
CONTINUOUS
 70
0
 71
3
 72
9
 73
5
 74
0
 42
0.0000001
 43
0.0000001
 44
0.0000000001
 40
0.0
 40
0.0
 40
0.0
 40
0.0
 40
0.5170297346
 40
1.0
 40
1.0
 40
1.0
 40
1.0
 10
11.4632151214
 20
14.7509531344
 30
0.0
 10
11.4640852326
 20
14.7505979564
 30
0.0
 10
11.4658009443
 20
14.7499879215
 30
0.0
 10
11.4675659163
 20
14.7495426062
 30
0.0
 10
11.4684252662
 20
14.7493630855
 30
0.0
  0
LINE
  5
306
100
AcDbEntity
  8
0
100
AcDbLine
 62
7
  6
CONTINUOUS
 10
10.6722864435
 20
14.7686798247
 11
10.648445372
 21
14.7689288491
  0
LINE
  5
307
100
AcDbEntity
  8
0
100
AcDbLine
 62
7
  6
CONTINUOUS
 10
11.4461899156
 20
14.7689328891
 11
11.4223385536
 21
14.7686948984
  0
SPLINE
  5
308
100
AcDbEntity
  8
0
100
AcDbSpline
 62
7
  6
CONTINUOUS
 70
0
 71
3
 72
9
 73
5
 74
0
 42
0.0000001
 43
0.0000001
 44
0.0000000001
 40
0.0
 40
0.0
 40
0.0
 40
0.0
 40
0.4828585084
 40
1.0
 40
1.0
 40
1.0
 40
1.0
 10
10.626210378
 20
-5.5486367954
 30
0.0
 10
10.6270483887
 20
-5.5484618807
 30
0.0
 10
10.6287701883
 20
-5.5480292792
 30
0.0
 10
10.6304455075
 20
-5.5474400807
 30
0.0
 10
10.6312959283
 20
-5.5470974417
 30
0.0
  0
SPLINE
  5
309
100
AcDbEntity
  8
0
100
AcDbSpline
 62
7
  6
CONTINUOUS
 70
0
 71
3
 72
9
 73
5
 74
0
 42
0.0000001
 43
0.0000001
 44
0.0000000001
 40
0.0
 40
0.0
 40
0.0
 40
0.0
 40
0.5170297346
 40
1.0
 40
1.0
 40
1.0
 40
1.0
 10
11.4632151214
 20
-5.5470468656
 30
0.0
 10
11.4640852326
 20
-5.5474020436
 30
0.0
 10
11.4658009443
 20
-5.5480120785
 30
0.0
 10
11.4675659163
 20
-5.5484573938
 30
0.0
 10
11.4684252662
 20
-5.5486369145
 30
0.0
  0
SPLINE
  5
30A
100
AcDbEntity
  8
0
100
AcDbSpline
 62
7
  6
CONTINUOUS
 70
0
 71
3
 72
46
 73
42
 74
0
 42
0.0000001
 43
0.0000001
 44
0.0000000001
 40
0.0
 40
0.0
 40
0.0
 40
0.0
 40
0.0980284627
 40
0.1951806727
 40
0.2904110105
 40
0.3828316261
 40
0.47157252
 40
0.5557660415
 40
0.6346020244
 40
0.7073197749
 40
0.7411658099
 40
0.7732246204
 40
0.8034170486
 40
0.8316739278
 40
0.8579273301
 40
0.8821102095
 40
0.904165787
 40
0.9240439193
 40
0.9416945799
 40
0.949669697
 40
0.9570721417
 40
0.9638980903
 40
0.9701437196
 40
0.9758052069
 40
0.9808787304
 40
0.9853604705
 40
0.989247189
 40
0.9925373162
 40
0.9939582628
 40
0.9952295885
 40
0.9963511377
 40
0.9973227574
 40
0.9981442984
 40
0.9988156192
 40
0.9993365948
 40
0.9995406764
 40
0.9997071496
 40
0.9998360308
 40
0.9999273812
 40
0.9999814324
 40
1.0
 40
1.0
 40
1.0
 40
1.0
 10
11.0473183383
 20
-5.5299611968
 30
0.0
 10
11.0342845519
 20
-5.5299638872
 30
0.0
 10
11.0083334836
 20
-5.5299641738
 30
0.0
 10
10.9697206687
 20
-5.5299445502
 30
0.0
 10
10.9318534873
 20
-5.5299033127
 30
0.0
 10
10.8951046778
 20
-5.5298554706
 30
0.0
 10
10.8598233168
 20
-5.5298068332
 30
0.0
 10
10.8263481676
 20
-5.5297528197
 30
0.0
 10
10.7950034547
 20
-5.5296938276
 30
0.0
 10
10.7703529053
 20
-5.5296407586
 30
0.0
 10
10.7519218082
 20
-5.5295964103
 30
0.0
 10
10.7391448338
 20
-5.5295632741
 30
0.0
 10
10.7271109935
 20
-5.5295295191
 30
0.0
 10
10.7158490405
 20
-5.5294952466
 30
0.0
 10
10.7053861176
 20
-5.5294605526
 30
0.0
 10
10.6957477209
 20
-5.5294255264
 30
0.0
 10
10.6869569822
 20
-5.5293902656
 30
0.0
 10
10.6790347703
 20
-5.5293548675
 30
0.0
 10
10.6729846828
 20
-5.5293244045
 30
0.0
 10
10.6685933454
 20
-5.5292997796
 30
0.0
 10
10.665641238
 20
-5.5292819562
 30
0.0
 10
10.6629190862
 20
-5.5292641611
 30
0.0
 10
10.6604284159
 20
-5.5292464073
 30
0.0
 10
10.6581707525
 20
-5.5292287104
 30
0.0
 10
10.6561476219
 20
-5.5292110866
 30
0.0
 10
10.6543604721
 20
-5.5291935587
 30
0.0
 10
10.652810453
 20
-5.5291761411
 30
0.0
 10
10.651667395
 20
-5.5291611192
 30
0.0
 10
10.6508720725
 20
-5.5291489376
 30
0.0
 10
10.6503650642
 20
-5.5291402899
 30
0.0
 10
10.6499178031
 20
-5.529131685
 30
0.0
 10
10.649530368
 20
-5.5291231312
 30
0.0
 10
10.6492027763
 20
-5.5291146434
 30
0.0
 10
10.6489352169
 20
-5.5291062495
 30
0.0
 10
10.6487495405
 20
-5.5290988838
 30
0.0
 10
10.6486313949
 20
-5.5290928214
 30
0.0
 10
10.6485646276
 20
-5.5290885636
 30
0.0
 10
10.6485146305
 20
-5.5290847201
 30
0.0
 10
10.6484755491
 20
-5.5290802137
 30
0.0
 10
10.6484589249
 20
-5.529077555
 30
0.0
 10
10.6484445701
 20
-5.5290734858
 30
0.0
 10
10.648445372
 20
-5.5290711509
 30
0.0
  0
SPLINE
  5
30B
100
AcDbEntity
  8
0
100
AcDbSpline
 62
7
  6
CONTINUOUS
 70
0
 71
3
 72
46
 73
42
 74
0
 42
0.0000001
 43
0.0000001
 44
0.0000000001
 40
0.0
 40
0.0
 40
0.0
 40
0.0
 40
0.0000184474
 40
0.0000725904
 40
0.0001640691
 40
0.0002930905
 40
0.0004597083
 40
0.0006639358
 40
0.0011852017
 40
0.0018568075
 40
0.0026786274
 40
0.0036505211
 40
0.0047723413
 40
0.006043937
 40
0.0074651552
 40
0.0107558402
 40
0.0146431538
 40
0.0191254801
 40
0.0241995092
 40
0.0298614405
 40
0.0361074721
 40
0.0429338009
 40
0.0503366238
 40
0.0583121369
 40
0.0759634736
 40
0.0958419984
 40
0.1178978564
 40
0.1420810376
 40
0.1683344707
 40
0.1965911872
 40
0.2267834786
 40
0.2588421672
 40
0.2926878369
 40
0.3654049704
 40
0.4442403852
 40
0.5284334875
 40
0.6171737295
 40
0.7095940861
 40
0.8048241164
 40
0.9019742121
 40
1.0
 40
1.0
 40
1.0
 40
1.0
 10
11.4461899156
 20
-5.5290671109
 30
0.0
 10
11.4461907066
 20
-5.5290694326
 30
0.0
 10
11.4461760954
 20
-5.5290730915
 30
0.0
 10
11.4461596607
 20
-5.5290758122
 30
0.0
 10
11.446120378
 20
-5.5290799917
 30
0.0
 10
11.4460703706
 20
-5.5290837015
 30
0.0
 10
11.4460035112
 20
-5.5290877372
 30
0.0
 10
11.4458852853
 20
-5.5290935208
 30
0.0
 10
11.4456994937
 20
-5.5291005325
 30
0.0
 10
11.4454318131
 20
-5.5291085352
 30
0.0
 10
11.4451041004
 20
-5.5291166258
 30
0.0
 10
11.4447165493
 20
-5.5291247831
 30
0.0
 10
11.4442691743
 20
-5.5291329909
 30
0.0
 10
11.4437620536
 20
-5.529141242
 30
0.0
 10
11.4429665802
 20
-5.5291528679
 30
0.0
 10
11.4418233294
 20
-5.5291672111
 30
0.0
 10
11.4402730775
 20
-5.5291838502
 30
0.0
 10
11.438485704
 20
-5.5292006031
 30
0.0
 10
11.4364623716
 20
-5.5292174565
 30
0.0
 10
11.4342045328
 20
-5.5292343884
 30
0.0
 10
11.4317137052
 20
-5.5292513835
 30
0.0
 10
11.4289914065
 20
-5.529268427
 30
0.0
 10
11.4260391544
 20
-5.5292855067
 30
0.0
 10
11.4216476384
 20
-5.5293091163
 30
0.0
 10
11.4155973772
 20
-5.5293383488
 30
0.0
 10
11.4076750153
 20
-5.5293723521
 30
0.0
 10
11.398884181
 20
-5.5294062563
 30
0.0
 10
11.3892457413
 20
-5.5294399652
 30
0.0
 10
11.3787828385
 20
-5.5294733868
 30
0.0
 10
11.367520968
 20
-5.5295064434
 30
0.0
 10
11.3554872344
 20
-5.5295390486
 30
0.0
 10
11.3427103975
 20
-5.5295711147
 30
0.0
 10
11.3242795265
 20
-5.5296140857
 30
0.0
 10
11.2996292901
 20
-5.5296655204
 30
0.0
 10
11.2682849274
 20
-5.529722568
 30
0.0
 10
11.2348101447
 20
-5.5297757487
 30
0.0
 10
11.1995291186
 20
-5.5298245299
 30
0.0
 10
11.1627806305
 20
-5.5298684849
 30
0.0
 10
11.1249139733
 20
-5.5299071382
 30
0.0
 10
11.08630202
 20
-5.5299399159
 30
0.0
 10
11.0603517116
 20
-5.529957858
 30
0.0
 10
11.0473183415
 20
-5.5299659237
 30
0.0
  0
SPLINE
  5
30C
100
AcDbEntity
  8
0
100
AcDbSpline
 62
9
  6
CONTINUOUS
 70
0
 71
3
 72
14
 73
10
 74
0
 42
0.0000001
 43
0.0000001
 44
0.0000000001
 40
0.0
 40
0.0
 40
0.0
 40
0.0
 40
0.1375753278
 40
0.2738180565
 40
0.4073074379
 40
0.5369748786
 40
0.6618340202
 40
0.7811259251
 40
1.0
 40
1.0
 40
1.0
 40
1.0
 10
11.0473183383
 20
16.8157725823
 30
0.0
 10
11.0633830106
 20
16.8157734208
 30
0.0
 10
11.0953669694
 20
16.816899259
 30
0.0
 10
11.1427103602
 20
16.8218017656
 30
0.0
 10
11.1886982196
 20
16.8297730224
 30
0.0
 10
11.2327713877
 20
16.8404130643
 30
0.0
 10
11.274494563
 20
16.8533432867
 30
0.0
 10
11.3251055609
 20
16.872427548
 30
0.0
 10
11.3608554303
 20
16.8894305055
 30
0.0
 10
11.3833159139
 20
16.9016261748
 30
0.0
  0
SPLINE
  5
30D
100
AcDbEntity
  8
0
100
AcDbSpline
 62
9
  6
CONTINUOUS
 70
0
 71
3
 72
18
 73
14
 74
0
 42
0.0000001
 43
0.0000001
 44
0.0000000001
 40
0.0
 40
0.0
 40
0.0
 40
0.0
 40
0.2092417334
 40
0.4000990036
 40
0.570297701
 40
0.7169275393
 40
0.836718056
 40
0.8854043657
 40
0.9259777786
 40
0.9579929123
 40
0.981165396
 40
0.9952499344
 40
1.0
 40
1.0
 40
1.0
 40
1.0
 10
11.3833159139
 20
16.9016261748
 30
0.0
 10
11.393372647
 20
16.9070868137
 30
0.0
 10
11.4123545514
 20
16.9179927008
 30
0.0
 10
11.4386702485
 20
16.9347524128
 30
0.0
 10
11.4614559677
 20
16.9506317385
 30
0.0
 10
11.480543489
 20
16.9649874611
 30
0.0
 10
11.493994666
 20
16.9757643156
 30
0.0
 10
11.5027745534
 20
16.9830879041
 30
0.0
 10
11.5078241008
 20
16.9873885005
 30
0.0
 10
11.5117869307
 20
16.9908126873
 30
0.0
 10
11.5146386178
 20
16.9933069702
 30
0.0
 10
11.5163561702
 20
16.994832757
 30
0.0
 10
11.5171250896
 20
16.9955182359
 30
0.0
 10
11.5173171523
 20
16.9956931655
 30
0.0
  0
SPLINE
  5
30E
100
AcDbEntity
  8
0
100
AcDbSpline
 62
9
  6
CONTINUOUS
 70
0
 71
3
 72
26
 73
22
 74
0
 42
0.0000001
 43
0.0000001
 44
0.0000000001
 40
0.0
 40
0.0
 40
0.0
 40
0.0
 40
0.000299137
 40
0.0011937808
 40
0.0026800423
 40
0.0047540368
 40
0.0106497064
 40
0.0188498046
 40
0.0293234212
 40
0.0420397234
 40
0.0569679586
 40
0.0740774559
 40
0.1146757028
 40
0.1633856388
 40
0.219724097
 40
0.2832149765
 40
0.3533993245
 40
0.4298620034
 40
0.6000406277
 40
0.7908441543
 40
1.0
 40
1.0
 40
1.0
 40
1.0
 10
10.5773195269
 20
16.9956931495
 30
0.0
 10
10.5773313908
 20
16.9956817453
 30
0.0
 10
10.5773809589
 20
16.9956386183
 30
0.0
 10
10.5774897252
 20
16.9955391068
 30
0.0
 10
10.5776725351
 20
16.9953758622
 30
0.0
 10
10.5780598848
 20
16.9950286545
 30
0.0
 10
10.5787244629
 20
16.9944373606
 30
0.0
 10
10.5797366888
 20
16.9935416627
 30
0.0
 10
10.5810337828
 20
16.9924016879
 30
0.0
 10
10.5826133938
 20
16.9910225094
 30
0.0
 10
10.5844734484
 20
16.9894094988
 30
0.0
 10
10.5875011389
 20
16.9868017808
 30
0.0
 10
10.591958552
 20
16.9830063696
 30
0.0
 10
10.5981126829
 20
16.9778753235
 30
0.0
 10
10.6053070476
 20
16.9720262571
 30
0.0
 10
10.6135097333
 20
16.9655461899
 30
0.0
 10
10.6226908405
 20
16.958520677
 30
0.0
 10
10.6367101601
 20
16.9481637912
 30
0.0
 10
10.6564692394
 20
16.9344150922
 30
0.0
 10
10.6829483418
 20
16.917587055
 30
0.0
 10
10.7020485469
 20
16.9066438815
 30
0.0
 10
10.7121676563
 20
16.9011670625
 30
0.0
  0
SPLINE
  5
30F
100
AcDbEntity
  8
0
100
AcDbSpline
 62
9
  6
CONTINUOUS
 70
0
 71
3
 72
14
 73
10
 74
0
 42
0.0000001
 43
0.0000001
 44
0.0000000001
 40
0.0
 40
0.0
 40
0.0
 40
0.0
 40
0.2190705041
 40
0.3383992677
 40
0.4632606462
 40
0.5928997731
 40
0.726335573
 40
0.8625063869
 40
1.0
 40
1.0
 40
1.0
 40
1.0
 10
10.7121676563
 20
16.9011670625
 30
0.0
 10
10.7346029435
 20
16.8890242938
 30
0.0
 10
10.7702999363
 20
16.872100958
 30
0.0
 10
10.8208180086
 20
16.8531141767
 30
0.0
 10
10.8624396163
 20
16.8402580922
 30
0.0
 10
10.9063904569
 20
16.8296826566
 30
0.0
 10
10.9522385203
 20
16.8217621726
 30
0.0
 10
10.9994292372
 20
16.8168919218
 30
0.0
 10
11.0313073294
 20
16.8157734738
 30
0.0
 10
11.0473183383
 20
16.8157725903
 30
0.0
  0
SPLINE
  5
310
100
AcDbEntity
  8
0
100
AcDbSpline
 62
9
  6
CONTINUOUS
 70
0
 71
3
 72
47
 73
43
 74
0
 42
0.0000001
 43
0.0000001
 44
0.0000000001
 40
0.0
 40
0.0
 40
0.0
 40
0.0
 40
0.000023212
 40
0.000089104
 40
0.0001975746
 40
0.0003485195
 40
0.0005418337
 40
0.0007774123
 40
0.0013749434
 40
0.002140274
 40
0.0030725662
 40
0.0041709826
 40
0.0054346864
 40
0.006862842
 40
0.008454614
 40
0.0121255996
 40
0.0164392059
 40
0.0213852867
 40
0.0269536685
 40
0.0331342347
 40
0.0399169282
 40
0.0472917217
 40
0.0637728424
 40
0.0824835534
 40
0.1033302941
 40
0.1262157968
 40
0.1510332965
 40
0.1776779134
 40
0.2060646797
 40
0.2361373955
 40
0.3011316616
 40
0.3722260157
 40
0.4489962148
 40
0.5310684496
 40
0.618005206
 40
0.6631359923
 40
0.7092502945
 40
0.8040142993
 40
0.8524295578
 40
0.9013541604
 40
0.9506128376
 40
1.0
 40
1.0
 40
1.0
 40
1.0
 10
11.5405175724
 20
17.0597397427
 30
0.0
 10
11.5405151427
 20
17.0597365068
 30
0.0
 10
11.5405008205
 20
17.0597290804
 30
0.0
 10
11.5404745181
 20
17.0597073513
 30
0.0
 10
11.5404274457
 20
17.0596752897
 30
0.0
 10
11.5403635503
 20
17.0596291317
 30
0.0
 10
11.5402809569
 20
17.0595707888
 30
0.0
 10
11.5401349883
 20
17.0594673291
 30
0.0
 10
11.5399072643
 20
17.0593067176
 30
0.0
 10
11.5395800122
 20
17.059076524
 30
0.0
 10
11.5391808996
 20
17.0587967085
 30
0.0
 10
11.5387102027
 20
17.0584676597
 30
0.0
 10
11.5381681432
 20
17.0580898194
 30
0.0
 10
11.5375549642
 20
17.0576636079
 30
0.0
 10
11.5365963137
 20
17.0569991478
 30
0.0
 10
11.5352223744
 20
17.0560508426
 30
0.0
 10
11.5333633509
 20
17.054775947
 30
0.0
 10
11.5312261095
 20
17.0533219274
 30
0.0
 10
11.5288130257
 20
17.0516947975
 30
0.0
 10
11.5261264333
 20
17.049900656
 30
0.0
 10
11.523168662
 20
17.047945617
 30
0.0
 10
11.5186984438
 20
17.045022375
 30
0.0
 10
11.5124546257
 20
17.0410121598
 30
0.0
 10
11.5041707045
 20
17.0358336651
 30
0.0
 10
11.4948632394
 20
17.0301879649
 30
0.0
 10
11.4845557199
 20
17.0241405018
 30
0.0
 10
11.4732717813
 20
17.0177629959
 30
0.0
 10
11.4610346287
 20
17.0111270215
 30
0.0
 10
11.447862501
 20
17.0042984037
 30
0.0
 10
11.4285678306
 20
16.9947623811
 30
0.0
 10
11.4022110462
 20
16.98272505
 30
0.0
 10
11.3678196476
 20
16.9687587597
 30
0.0
 10
11.3300164274
 20
16.9553846077
 30
0.0
 10
11.2889706559
 20
16.9430371762
 30
0.0
 10
11.2527140352
 20
16.9340739362
 30
0.0
 10
11.2222922857
 20
16.9277842323
 30
0.0
 10
11.1903735956
 20
16.9220508547
 30
0.0
 10
11.1576664793
 20
16.9175284947
 30
0.0
 10
11.1243311357
 20
16.9142904465
 30
0.0
 10
11.0988319705
 20
16.9125311205
 30
0.0
 10
11.0731253059
 20
16.9114689385
 30
0.0
 10
11.0559278904
 20
16.9112227165
 30
0.0
 10
11.0473183383
 20
16.9112153267
 30
0.0
  0
SPLINE
  5
311
100
AcDbEntity
  8
0
100
AcDbSpline
 62
9
  6
CONTINUOUS
 70
0
 71
3
 72
50
 73
46
 74
0
 42
0.0000001
 43
0.0000001
 44
0.0000000001
 40
0.0
 40
0.0
 40
0.0
 40
0.0
 40
0.0986332501
 40
0.1475551506
 40
0.1959622921
 40
0.2437238755
 40
0.2907141795
 40
0.3368229909
 40
0.3819439208
 40
0.4688607647
 40
0.5509181342
 40
0.6276880897
 40
0.6987724626
 40
0.7320567432
 40
0.7637691053
 40
0.7938598495
 40
0.8222719054
 40
0.8489261892
 40
0.8737349607
 40
0.8966073465
 40
0.9174498787
 40
0.9361667016
 40
0.9526599871
 40
0.9600433306
 40
0.9668363471
 40
0.9730279178
 40
0.9786068497
 40
0.98356188
 40
0.9878817128
 40
0.9915566093
 40
0.9931498733
 40
0.9945791373
 40
0.9958434925
 40
0.996942029
 40
0.9978738359
 40
0.9986380012
 40
0.998956933
 40
0.999233612
 40
0.999467924
 40
0.9996597545
 40
0.9998089893
 40
0.9999155139
 40
0.9999527242
 40
0.9999792141
 40
1.0
 40
1.0
 40
1.0
 40
1.0
 10
11.0473183383
 20
16.9112153267
 30
0.0
 10
11.0301237074
 20
16.9111816466
 30
0.0
 10
11.0043918957
 20
16.9119146961
 30
0.0
 10
10.9703108593
 20
16.914299687
 30
0.0
 10
10.9451323525
 20
16.9167445694
 30
0.0
 10
10.9203633831
 20
16.9198250879
 30
0.0
 10
10.896083556
 20
16.9235184676
 30
0.0
 10
10.8723643394
 20
16.9277785592
 30
0.0
 10
10.841949134
 20
16.9340697556
 30
0.0
 10
10.8056991389
 20
16.9430285628
 30
0.0
 10
10.7646578281
 20
16.9553714844
 30
0.0
 10
10.7268590034
 20
16.9687446736
 30
0.0
 10
10.697589393
 20
16.9806253021
 30
0.0
 10
10.6759109203
 20
16.9902631565
 30
0.0
 10
10.6609056873
 20
16.9973104188
 30
0.0
 10
10.6468064309
 20
17.0042807757
 30
0.0
 10
10.6336279846
 20
17.01111745
 30
0.0
 10
10.6213867485
 20
17.0177556923
 30
0.0
 10
10.6101027051
 20
17.0241288818
 30
0.0
 10
10.5997965354
 20
17.0301698778
 30
0.0
 10
10.5904896398
 20
17.0358129587
 30
0.0
 10
10.5822038727
 20
17.0409932849
 30
0.0
 10
10.5759558339
 20
17.0450056988
 30
0.0
 10
10.5714813217
 20
17.0479323479
 30
0.0
 10
10.5685198916
 20
17.0498913541
 30
0.0
 10
10.5658295612
 20
17.0516899542
 30
0.0
 10
10.5634129463
 20
17.0533214029
 30
0.0
 10
10.5612726915
 20
17.0547790036
 30
0.0
 10
10.5594111001
 20
17.0560560702
 30
0.0
 10
10.5580353833
 20
17.0570053942
 30
0.0
 10
10.5570758698
 20
17.0576706195
 30
0.0
 10
10.5564622887
 20
17.0580972568
 30
0.0
 10
10.5559200274
 20
17.0584753912
 30
0.0
 10
10.5554493377
 20
17.0588045434
 30
0.0
 10
10.555050461
 20
17.0590842451
 30
0.0
 10
10.5547631255
 20
17.0592862575
 30
0.0
 10
10.5545693147
 20
17.0594227906
 30
0.0
 10
10.5544511217
 20
17.0595061326
 30
0.0
 10
10.5543509086
 20
17.0595769193
 30
0.0
 10
10.5542693236
 20
17.0596344587
 30
0.0
 10
10.5542047522
 20
17.0596803809
 30
0.0
 10
10.5541648217
 20
17.0597080407
 30
0.0
 10
10.5541381972
 20
17.0597275962
 30
0.0
 10
10.5541302887
 20
17.0597318291
 30
0.0
 10
10.5541156711
 20
17.0597446329
 30
0.0
 10
10.5541176133
 20
17.0597415737
 30
0.0
  0
SPLINE
  5
312
100
AcDbEntity
  8
0
100
AcDbSpline
 62
9
  6
CONTINUOUS
 70
0
 71
3
 72
15
 73
11
 74
0
 42
0.0000001
 43
0.0000001
 44
0.0000000001
 40
0.0
 40
0.0
 40
0.0
 40
0.0
 40
0.1376482634
 40
0.2739516979
 40
0.4074836323
 40
0.5371687467
 40
0.6620152719
 40
0.7812604859
 40
0.8941484933
 40
1.0
 40
1.0
 40
1.0
 40
1.0
 10
11.0473183383
 20
7.557701203
 30
0.0
 10
11.0312000412
 20
7.5577002656
 30
0.0
 10
10.9991106122
 20
7.556567042
 30
0.0
 10
10.9516152143
 20
7.5516324758
 30
0.0
 10
10.9054887426
 20
7.5436106718
 30
0.0
 10
10.8612937669
 20
7.532906021
 30
0.0
 10
10.8194720168
 20
7.5199027309
 30
0.0
 10
10.7803518958
 20
7.5051033861
 30
0.0
 10
10.7441823805
 20
7.4889888424
 30
0.0
 10
10.7213657431
 20
7.4773200532
 30
0.0
 10
10.7104808915
 20
7.4713908648
 30
0.0
  0
SPLINE
  5
313
100
AcDbEntity
  8
0
100
AcDbSpline
 62
9
  6
CONTINUOUS
 70
0
 71
3
 72
30
 73
26
 74
0
 42
0.0000001
 43
0.0000001
 44
0.0000000001
 40
0.0
 40
0.0
 40
0.0
 40
0.0
 40
0.2093206307
 40
0.307210775
 40
0.4002358807
 40
0.4881036637
 40
0.5704559135
 40
0.646910449
 40
0.7170735381
 40
0.780531531
 40
0.8368274862
 40
0.8854889075
 40
0.9068071517
 40
0.9260364738
 40
0.9431217477
 40
0.9580280807
 40
0.9707250656
 40
0.9811822149
 40
0.9893689624
 40
0.9926013636
 40
0.9952546673
 40
0.9973250315
 40
0.9988086097
 40
0.999701551
 40
1.0
 40
1.0
 40
1.0
 40
1.0
 10
10.7104808915
 20
7.4713908648
 30
0.0
 10
10.7004859905
 20
7.4659464496
 30
0.0
 10
10.6860047948
 20
7.4576033926
 30
0.0
 10
10.6675369077
 20
7.4460888491
 30
0.0
 10
10.654849935
 20
7.4377907339
 30
0.0
 10
10.6430352424
 20
7.4297086704
 30
0.0
 10
10.632113163
 20
7.4219222785
 30
0.0
 10
10.6221072195
 20
7.4145129555
 30
0.0
 10
10.613041823
 20
7.4075627347
 30
0.0
 10
10.6049432485
 20
7.4011551338
 30
0.0
 10
10.5978409479
 20
7.3953741597
 30
0.0
 10
10.5925692082
 20
7.3909748511
 30
0.0
 10
10.5888697931
 20
7.3878374778
 30
0.0
 10
10.5864886658
 20
7.3858002314
 30
0.0
 10
10.5843786528
 20
7.3839823388
 30
0.0
 10
10.5825432162
 20
7.3823901817
 30
0.0
 10
10.5809842016
 20
7.3810286617
 30
0.0
 10
10.5797050407
 20
7.3799041855
 30
0.0
 10
10.5788125461
 20
7.3791144066
 30
0.0
 10
10.5782433301
 20
7.3786082681
 30
0.0
 10
10.5779151907
 20
7.3783152408
 30
0.0
 10
10.5776775715
 20
7.3781031505
 30
0.0
 10
10.5774661531
 20
7.3779120661
 30
0.0
 10
10.5774135181
 20
7.3778667423
 30
0.0
 10
10.5773078955
 20
7.3777693573
 30
0.0
 10
10.5773195296
 20
7.3777806706
 30
0.0
  0
SPLINE
  5
314
100
AcDbEntity
  8
0
100
AcDbSpline
 62
9
  6
CONTINUOUS
 70
0
 71
3
 72
37
 73
33
 74
0
 42
0.0000001
 43
0.0000001
 44
0.0000000001
 40
0.0
 40
0.0
 40
0.0
 40
0.0
 40
0.0000747684
 40
0.0001681045
 40
0.0002986616
 40
0.000671197
 40
0.0011918923
 40
0.0018602652
 40
0.0026758339
 40
0.0047466326
 40
0.0074004393
 40
0.0106334091
 40
0.0144417021
 40
0.0188214827
 40
0.0237689203
 40
0.0292801888
 40
0.0419789352
 40
0.0568872159
 40
0.0739746023
 40
0.0932061133
 40
0.1145265144
 40
0.1378752651
 40
0.1631921936
 40
0.2194916409
 40
0.28295227
 40
0.3531169785
 40
0.4295719926
 40
0.5119233536
 40
0.5997886738
 40
0.6928097988
 40
0.7906945947
 40
1.0
 40
1.0
 40
1.0
 40
1.0
 10
11.5173171275
 20
7.3777807055
 30
0.0
 10
11.5173134642
 20
7.3777824775
 30
0.0
 10
11.5173076938
 20
7.3777901222
 30
0.0
 10
11.5172951056
 20
7.3778002378
 30
0.0
 10
11.5172713076
 20
7.3778224316
 30
0.0
 10
11.5172296986
 20
7.3778594101
 30
0.0
 10
11.5171666349
 20
7.3779164289
 30
0.0
 10
11.517085445
 20
7.3779892965
 30
0.0
 10
11.5169414667
 20
7.3781185356
 30
0.0
 10
11.5167167755
 20
7.3783196122
 30
0.0
 10
11.5163936161
 20
7.378607958
 30
0.0
 10
11.5159993314
 20
7.3789586251
 30
0.0
 10
11.5155341967
 20
7.3793709811
 30
0.0
 10
11.5149984728
 20
7.3798443726
 30
0.0
 10
11.514392426
 20
7.3803781537
 30
0.0
 10
11.5134452435
 20
7.3812096385
 30
0.0
 10
11.5120875741
 20
7.3823952725
 30
0.0
 10
11.5102500301
 20
7.3839892216
 30
0.0
 10
11.5081377381
 20
7.3858090211
 30
0.0
 10
11.5057540171
 20
7.3878484166
 30
0.0
 10
11.5031015108
 20
7.3900978049
 30
0.0
 10
11.500183973
 20
7.3925466867
 30
0.0
 10
11.4957876477
 20
7.3961948307
 30
0.0
 10
11.4896634681
 20
7.4011792301
 30
0.0
 10
11.4815564039
 20
7.4075927282
 30
0.0
 10
11.472481583
 20
7.4145490854
 30
0.0
 10
11.4624653067
 20
7.4219646255
 30
0.0
 10
11.4515320289
 20
7.4297571971
 30
0.0
 10
11.4397053007
 20
7.4378452706
 30
0.0
 10
11.4270054808
 20
7.4461491286
 30
0.0
 10
11.4085191178
 20
7.4576709549
 30
0.0
 10
11.3940233574
 20
7.4660186166
 30
0.0
 10
11.3840184068
 20
7.471465662
 30
0.0
  0
SPLINE
  5
315
100
AcDbEntity
  8
0
100
AcDbSpline
 62
9
  6
CONTINUOUS
 70
0
 71
3
 72
16
 73
12
 74
0
 42
0.0000001
 43
0.0000001
 44
0.0000000001
 40
0.0
 40
0.0
 40
0.0
 40
0.0
 40
0.2204156288
 40
0.3399952161
 40
0.4648720752
 40
0.5290888309
 40
0.5943323126
 40
0.727396289
 40
0.7949925931
 40
0.8630801152
 40
1.0
 40
1.0
 40
1.0
 40
1.0
 10
11.3765000662
 20
7.4755008149
 30
0.0
 10
11.3542507851
 20
7.4872714984
 30
0.0
 10
11.3189362409
 20
7.503636483
 30
0.0
 10
11.2690838172
 20
7.5219435994
 30
0.0
 10
11.235312652
 20
7.5321336795
 30
0.0
 10
11.2071435538
 20
7.5392284203
 30
0.0
 10
11.1778524452
 20
7.5456353117
 30
0.0
 10
11.1478845451
 20
7.550691123
 30
0.0
 10
11.1174000453
 20
7.5542823862
 30
0.0
 10
11.0863753397
 20
7.5568980975
 30
0.0
 10
11.0629543035
 20
7.5577002131
 30
0.0
 10
11.0473183383
 20
7.5577011635
 30
0.0
  0
SPLINE
  5
316
100
AcDbEntity
  8
0
100
AcDbSpline
 62
9
  6
CONTINUOUS
 70
0
 71
3
 72
14
 73
10
 74
0
 42
0.0000001
 43
0.0000001
 44
0.0000000001
 40
0.0
 40
0.0
 40
0.0
 40
0.0
 40
0.1375753278
 40
0.2738180565
 40
0.4073074379
 40
0.5369748786
 40
0.6618340202
 40
0.7811259251
 40
1.0
 40
1.0
 40
1.0
 40
1.0
 10
11.0473183383
 20
6.2477725823
 30
0.0
 10
11.0633830106
 20
6.2477734208
 30
0.0
 10
11.0953669694
 20
6.248899259
 30
0.0
 10
11.1427103602
 20
6.2538017656
 30
0.0
 10
11.1886982196
 20
6.2617730224
 30
0.0
 10
11.2327713877
 20
6.2724130643
 30
0.0
 10
11.274494563
 20
6.2853432867
 30
0.0
 10
11.3251055609
 20
6.304427548
 30
0.0
 10
11.3608554303
 20
6.3214305055
 30
0.0
 10
11.3833159139
 20
6.3336261748
 30
0.0
  0
SPLINE
  5
317
100
AcDbEntity
  8
0
100
AcDbSpline
 62
9
  6
CONTINUOUS
 70
0
 71
3
 72
18
 73
14
 74
0
 42
0.0000001
 43
0.0000001
 44
0.0000000001
 40
0.0
 40
0.0
 40
0.0
 40
0.0
 40
0.2092417334
 40
0.4000990036
 40
0.570297701
 40
0.7169275393
 40
0.836718056
 40
0.8854043657
 40
0.9259777786
 40
0.9579929123
 40
0.981165396
 40
0.9952499344
 40
1.0
 40
1.0
 40
1.0
 40
1.0
 10
11.3833159139
 20
6.3336261748
 30
0.0
 10
11.393372647
 20
6.3390868137
 30
0.0
 10
11.4123545514
 20
6.3499927008
 30
0.0
 10
11.4386702485
 20
6.3667524128
 30
0.0
 10
11.4614559677
 20
6.3826317385
 30
0.0
 10
11.480543489
 20
6.3969874611
 30
0.0
 10
11.493994666
 20
6.4077643156
 30
0.0
 10
11.5027745534
 20
6.4150879041
 30
0.0
 10
11.5078241008
 20
6.4193885005
 30
0.0
 10
11.5117869307
 20
6.4228126873
 30
0.0
 10
11.5146386178
 20
6.4253069702
 30
0.0
 10
11.5163561702
 20
6.426832757
 30
0.0
 10
11.5171250896
 20
6.4275182359
 30
0.0
 10
11.5173171523
 20
6.4276931655
 30
0.0
  0
SPLINE
  5
318
100
AcDbEntity
  8
0
100
AcDbSpline
 62
9
  6
CONTINUOUS
 70
0
 71
3
 72
26
 73
22
 74
0
 42
0.0000001
 43
0.0000001
 44
0.0000000001
 40
0.0
 40
0.0
 40
0.0
 40
0.0
 40
0.000299137
 40
0.0011937808
 40
0.0026800423
 40
0.0047540368
 40
0.0106497064
 40
0.0188498046
 40
0.0293234212
 40
0.0420397234
 40
0.0569679586
 40
0.0740774559
 40
0.1146757028
 40
0.1633856388
 40
0.219724097
 40
0.2832149765
 40
0.3533993245
 40
0.4298620034
 40
0.6000406277
 40
0.7908441543
 40
1.0
 40
1.0
 40
1.0
 40
1.0
 10
10.5773195269
 20
6.4276931495
 30
0.0
 10
10.5773313908
 20
6.4276817453
 30
0.0
 10
10.5773809589
 20
6.4276386183
 30
0.0
 10
10.5774897252
 20
6.4275391068
 30
0.0
 10
10.5776725351
 20
6.4273758622
 30
0.0
 10
10.5780598848
 20
6.4270286545
 30
0.0
 10
10.5787244629
 20
6.4264373606
 30
0.0
 10
10.5797366888
 20
6.4255416627
 30
0.0
 10
10.5810337828
 20
6.4244016879
 30
0.0
 10
10.5826133938
 20
6.4230225094
 30
0.0
 10
10.5844734484
 20
6.4214094988
 30
0.0
 10
10.5875011389
 20
6.4188017808
 30
0.0
 10
10.591958552
 20
6.4150063696
 30
0.0
 10
10.5981126829
 20
6.4098753235
 30
0.0
 10
10.6053070476
 20
6.4040262571
 30
0.0
 10
10.6135097333
 20
6.3975461899
 30
0.0
 10
10.6226908405
 20
6.390520677
 30
0.0
 10
10.6367101601
 20
6.3801637912
 30
0.0
 10
10.6564692394
 20
6.3664150922
 30
0.0
 10
10.6829483418
 20
6.349587055
 30
0.0
 10
10.7020485469
 20
6.3386438815
 30
0.0
 10
10.7121676563
 20
6.3331670625
 30
0.0
  0
SPLINE
  5
319
100
AcDbEntity
  8
0
100
AcDbSpline
 62
9
  6
CONTINUOUS
 70
0
 71
3
 72
14
 73
10
 74
0
 42
0.0000001
 43
0.0000001
 44
0.0000000001
 40
0.0
 40
0.0
 40
0.0
 40
0.0
 40
0.2190705041
 40
0.3383992677
 40
0.4632606462
 40
0.5928997731
 40
0.726335573
 40
0.8625063869
 40
1.0
 40
1.0
 40
1.0
 40
1.0
 10
10.7121676563
 20
6.3331670625
 30
0.0
 10
10.7346029435
 20
6.3210242938
 30
0.0
 10
10.7702999363
 20
6.304100958
 30
0.0
 10
10.8208180086
 20
6.2851141767
 30
0.0
 10
10.8624396163
 20
6.2722580922
 30
0.0
 10
10.9063904569
 20
6.2616826566
 30
0.0
 10
10.9522385203
 20
6.2537621726
 30
0.0
 10
10.9994292372
 20
6.2488919218
 30
0.0
 10
11.0313073294
 20
6.2477734738
 30
0.0
 10
11.0473183383
 20
6.2477725903
 30
0.0
  0
SPLINE
  5
31A
100
AcDbEntity
  8
0
100
AcDbSpline
 62
9
  6
CONTINUOUS
 70
0
 71
3
 72
47
 73
43
 74
0
 42
0.0000001
 43
0.0000001
 44
0.0000000001
 40
0.0
 40
0.0
 40
0.0
 40
0.0
 40
0.000023212
 40
0.000089104
 40
0.0001975746
 40
0.0003485195
 40
0.0005418337
 40
0.0007774123
 40
0.0013749434
 40
0.002140274
 40
0.0030725662
 40
0.0041709826
 40
0.0054346864
 40
0.006862842
 40
0.008454614
 40
0.0121255996
 40
0.0164392059
 40
0.0213852867
 40
0.0269536685
 40
0.0331342347
 40
0.0399169282
 40
0.0472917217
 40
0.0637728424
 40
0.0824835534
 40
0.1033302941
 40
0.1262157968
 40
0.1510332965
 40
0.1776779134
 40
0.2060646797
 40
0.2361373955
 40
0.3011316616
 40
0.3722260157
 40
0.4489962148
 40
0.5310684496
 40
0.618005206
 40
0.6631359923
 40
0.7092502945
 40
0.8040142993
 40
0.8524295578
 40
0.9013541604
 40
0.9506128376
 40
1.0
 40
1.0
 40
1.0
 40
1.0
 10
11.5405175724
 20
6.4917397427
 30
0.0
 10
11.5405151427
 20
6.4917365068
 30
0.0
 10
11.5405008205
 20
6.4917290804
 30
0.0
 10
11.5404745181
 20
6.4917073513
 30
0.0
 10
11.5404274457
 20
6.4916752897
 30
0.0
 10
11.5403635503
 20
6.4916291317
 30
0.0
 10
11.5402809569
 20
6.4915707888
 30
0.0
 10
11.5401349883
 20
6.4914673291
 30
0.0
 10
11.5399072643
 20
6.4913067176
 30
0.0
 10
11.5395800122
 20
6.491076524
 30
0.0
 10
11.5391808996
 20
6.4907967085
 30
0.0
 10
11.5387102027
 20
6.4904676597
 30
0.0
 10
11.5381681432
 20
6.4900898194
 30
0.0
 10
11.5375549642
 20
6.4896636079
 30
0.0
 10
11.5365963137
 20
6.4889991478
 30
0.0
 10
11.5352223744
 20
6.4880508426
 30
0.0
 10
11.5333633509
 20
6.486775947
 30
0.0
 10
11.5312261095
 20
6.4853219274
 30
0.0
 10
11.5288130257
 20
6.4836947975
 30
0.0
 10
11.5261264333
 20
6.481900656
 30
0.0
 10
11.523168662
 20
6.479945617
 30
0.0
 10
11.5186984438
 20
6.477022375
 30
0.0
 10
11.5124546257
 20
6.4730121598
 30
0.0
 10
11.5041707045
 20
6.4678336651
 30
0.0
 10
11.4948632394
 20
6.4621879649
 30
0.0
 10
11.4845557199
 20
6.4561405018
 30
0.0
 10
11.4732717813
 20
6.4497629959
 30
0.0
 10
11.4610346287
 20
6.4431270215
 30
0.0
 10
11.447862501
 20
6.4362984037
 30
0.0
 10
11.4285678306
 20
6.4267623811
 30
0.0
 10
11.4022110462
 20
6.41472505
 30
0.0
 10
11.3678196476
 20
6.4007587597
 30
0.0
 10
11.3300164274
 20
6.3873846077
 30
0.0
 10
11.2889706559
 20
6.3750371762
 30
0.0
 10
11.2527140352
 20
6.3660739362
 30
0.0
 10
11.2222922857
 20
6.3597842323
 30
0.0
 10
11.1903735956
 20
6.3540508547
 30
0.0
 10
11.1576664793
 20
6.3495284947
 30
0.0
 10
11.1243311357
 20
6.3462904465
 30
0.0
 10
11.0988319705
 20
6.3445311205
 30
0.0
 10
11.0731253059
 20
6.3434689385
 30
0.0
 10
11.0559278904
 20
6.3432227165
 30
0.0
 10
11.0473183383
 20
6.3432153267
 30
0.0
  0
SPLINE
  5
31B
100
AcDbEntity
  8
0
100
AcDbSpline
 62
9
  6
CONTINUOUS
 70
0
 71
3
 72
50
 73
46
 74
0
 42
0.0000001
 43
0.0000001
 44
0.0000000001
 40
0.0
 40
0.0
 40
0.0
 40
0.0
 40
0.0986332501
 40
0.1475551506
 40
0.1959622921
 40
0.2437238755
 40
0.2907141795
 40
0.3368229909
 40
0.3819439208
 40
0.4688607647
 40
0.5509181342
 40
0.6276880897
 40
0.6987724626
 40
0.7320567432
 40
0.7637691053
 40
0.7938598495
 40
0.8222719054
 40
0.8489261892
 40
0.8737349607
 40
0.8966073465
 40
0.9174498787
 40
0.9361667016
 40
0.9526599871
 40
0.9600433306
 40
0.9668363471
 40
0.9730279178
 40
0.9786068497
 40
0.98356188
 40
0.9878817128
 40
0.9915566093
 40
0.9931498733
 40
0.9945791373
 40
0.9958434925
 40
0.996942029
 40
0.9978738359
 40
0.9986380012
 40
0.998956933
 40
0.999233612
 40
0.999467924
 40
0.9996597545
 40
0.9998089893
 40
0.9999155139
 40
0.9999527242
 40
0.9999792141
 40
1.0
 40
1.0
 40
1.0
 40
1.0
 10
11.0473183383
 20
6.3432153267
 30
0.0
 10
11.0301237074
 20
6.3431816466
 30
0.0
 10
11.0043918957
 20
6.3439146961
 30
0.0
 10
10.9703108593
 20
6.346299687
 30
0.0
 10
10.9451323525
 20
6.3487445694
 30
0.0
 10
10.9203633831
 20
6.3518250879
 30
0.0
 10
10.896083556
 20
6.3555184676
 30
0.0
 10
10.8723643394
 20
6.3597785592
 30
0.0
 10
10.841949134
 20
6.3660697556
 30
0.0
 10
10.8056991389
 20
6.3750285628
 30
0.0
 10
10.7646578281
 20
6.3873714844
 30
0.0
 10
10.7268590034
 20
6.4007446736
 30
0.0
 10
10.697589393
 20
6.4126253021
 30
0.0
 10
10.6759109203
 20
6.4222631565
 30
0.0
 10
10.6609056873
 20
6.4293104188
 30
0.0
 10
10.6468064309
 20
6.4362807757
 30
0.0
 10
10.6336279846
 20
6.44311745
 30
0.0
 10
10.6213867485
 20
6.4497556923
 30
0.0
 10
10.6101027051
 20
6.4561288818
 30
0.0
 10
10.5997965354
 20
6.4621698778
 30
0.0
 10
10.5904896398
 20
6.4678129587
 30
0.0
 10
10.5822038727
 20
6.4729932849
 30
0.0
 10
10.5759558339
 20
6.4770056988
 30
0.0
 10
10.5714813217
 20
6.4799323479
 30
0.0
 10
10.5685198916
 20
6.4818913541
 30
0.0
 10
10.5658295612
 20
6.4836899542
 30
0.0
 10
10.5634129463
 20
6.4853214029
 30
0.0
 10
10.5612726915
 20
6.4867790036
 30
0.0
 10
10.5594111001
 20
6.4880560702
 30
0.0
 10
10.5580353833
 20
6.4890053942
 30
0.0
 10
10.5570758698
 20
6.4896706195
 30
0.0
 10
10.5564622887
 20
6.4900972568
 30
0.0
 10
10.5559200274
 20
6.4904753912
 30
0.0
 10
10.5554493377
 20
6.4908045434
 30
0.0
 10
10.555050461
 20
6.4910842451
 30
0.0
 10
10.5547631255
 20
6.4912862575
 30
0.0
 10
10.5545693147
 20
6.4914227906
 30
0.0
 10
10.5544511217
 20
6.4915061326
 30
0.0
 10
10.5543509086
 20
6.4915769193
 30
0.0
 10
10.5542693236
 20
6.4916344587
 30
0.0
 10
10.5542047522
 20
6.4916803809
 30
0.0
 10
10.5541648217
 20
6.4917080407
 30
0.0
 10
10.5541381972
 20
6.4917275962
 30
0.0
 10
10.5541302887
 20
6.4917318291
 30
0.0
 10
10.5541156711
 20
6.4917446329
 30
0.0
 10
10.5541176133
 20
6.4917415737
 30
0.0
  0
SPLINE
  5
31C
100
AcDbEntity
  8
0
100
AcDbSpline
 62
7
  6
CONTINUOUS
 70
0
 71
3
 72
23
 73
19
 74
0
 42
0.0000001
 43
0.0000001
 44
0.0000000001
 40
0.0
 40
0.0
 40
0.0
 40
0.0
 40
0.0749089144
 40
0.1447994737
 40
0.210231883
 40
0.2718561072
 40
0.3304165476
 40
0.386746574
 40
0.441748819
 40
0.4963605664
 40
0.5515093028
 40
0.6080407002
 40
0.6663511276
 40
0.7266632324
 40
0.7894126948
 40
0.8552650628
 40
0.9251040735
 40
1.0
 40
1.0
 40
1.0
 40
1.0
 10
10.5150556201
 20
-2.9301262349
 30
0.0
 10
10.5172846748
 20
-2.9297179572
 30
0.0
 10
10.5215717049
 20
-2.9288000243
 30
0.0
 10
10.5276855655
 20
-2.9270264936
 30
0.0
 10
10.5332596633
 20
-2.924900829
 30
0.0
 10
10.5383056841
 20
-2.9224166878
 30
0.0
 10
10.5428345616
 20
-2.9195676862
 30
0.0
 10
10.5468559897
 20
-2.9163482409
 30
0.0
 10
10.5503787848
 20
-2.9127542634
 30
0.0
 10
10.5534128898
 20
-2.9087838817
 30
0.0
 10
10.5559666604
 20
-2.9044362592
 30
0.0
 10
10.558056468
 20
-2.8997257864
 30
0.0
 10
10.5596449326
 20
-2.8946579605
 30
0.0
 10
10.5606400365
 20
-2.8892475505
 30
0.0
 10
10.5609521931
 20
-2.8835250877
 30
0.0
 10
10.5604894216
 20
-2.8775219699
 30
0.0
 10
10.5591621864
 20
-2.8712730779
 30
0.0
 10
10.5577004163
 20
-2.8671310196
 30
0.0
 10
10.5568203936
 20
-2.8650431606
 30
0.0
  0
SPLINE
  5
31D
100
AcDbEntity
  8
0
100
AcDbSpline
 62
7
  6
CONTINUOUS
 70
0
 71
3
 72
23
 73
19
 74
0
 42
0.0000001
 43
0.0000001
 44
0.0000000001
 40
0.0
 40
0.0
 40
0.0
 40
0.0
 40
0.0749089144
 40
0.1447994737
 40
0.210231883
 40
0.2718561072
 40
0.3304165476
 40
0.386746574
 40
0.441748819
 40
0.4963605664
 40
0.5515093028
 40
0.6080407002
 40
0.6663511276
 40
0.7266632324
 40
0.7894126948
 40
0.8552650628
 40
0.9251040735
 40
1.0
 40
1.0
 40
1.0
 40
1.0
 10
11.5795810565
 20
-2.9301262349
 30
0.0
 10
11.5773520018
 20
-2.9297179572
 30
0.0
 10
11.5730649717
 20
-2.9288000243
 30
0.0
 10
11.566951111
 20
-2.9270264936
 30
0.0
 10
11.5613770133
 20
-2.924900829
 30
0.0
 10
11.5563309924
 20
-2.9224166878
 30
0.0
 10
11.551802115
 20
-2.9195676862
 30
0.0
 10
11.5477806869
 20
-2.9163482409
 30
0.0
 10
11.5442578917
 20
-2.9127542634
 30
0.0
 10
11.5412237867
 20
-2.9087838817
 30
0.0
 10
11.5386700161
 20
-2.9044362592
 30
0.0
 10
11.5365802085
 20
-2.8997257864
 30
0.0
 10
11.534991744
 20
-2.8946579605
 30
0.0
 10
11.5339966401
 20
-2.8892475505
 30
0.0
 10
11.5336844835
 20
-2.8835250877
 30
0.0
 10
11.5341472549
 20
-2.8775219699
 30
0.0
 10
11.5354744901
 20
-2.8712730779
 30
0.0
 10
11.5369362603
 20
-2.8671310196
 30
0.0
 10
11.537816283
 20
-2.8650431606
 30
0.0
  0
SPLINE
  5
31E
100
AcDbEntity
  8
0
100
AcDbSpline
 62
7
  6
CONTINUOUS
 70
0
 71
3
 72
22
 73
18
 74
0
 42
0.0000001
 43
0.0000001
 44
0.0000000001
 40
0.0
 40
0.0
 40
0.0
 40
0.0
 40
0.076083826
 40
0.1472952033
 40
0.2145566175
 40
0.2786594791
 40
0.3402385133
 40
0.3997577912
 40
0.4575097368
 40
0.513742876
 40
0.5691108877
 40
0.6244301917
 40
0.680542745
 40
0.7382793437
 40
0.8615652438
 40
0.9286158118
 40
1.0
 40
1.0
 40
1.0
 40
1.0
 10
10.5568203936
 20
-1.9794832966
 30
0.0
 10
10.5578895621
 20
-1.9769466881
 30
0.0
 10
10.5596939762
 20
-1.9719173989
 30
0.0
 10
10.5614387475
 20
-1.9643349865
 30
0.0
 10
10.562208885
 20
-1.9570279561
 30
0.0
 10
10.5620930397
 20
-1.9500312388
 30
0.0
 10
10.5611817204
 20
-1.9433772365
 30
0.0
 10
10.559565581
 20
-1.9370970826
 30
0.0
 10
10.5573341542
 20
-1.9312168222
 30
0.0
 10
10.5545611599
 20
-1.925739563
 30
0.0
 10
10.5512371382
 20
-1.9206814311
 30
0.0
 10
10.5473524086
 20
-1.9160455215
 30
0.0
 10
10.5428961943
 20
-1.9118301348
 30
0.0
 10
10.5360343098
 20
-1.9066549171
 30
0.0
 10
10.5280390518
 20
-1.90243422
 30
0.0
 10
10.5191741041
 20
-1.8990934434
 30
0.0
 10
10.5143615381
 20
-1.8976848086
 30
0.0
 10
10.5118607481
 20
-1.8970395548
 30
0.0
  0
SPLINE
  5
31F
100
AcDbEntity
  8
0
100
AcDbSpline
 62
7
  6
CONTINUOUS
 70
0
 71
3
 72
22
 73
18
 74
0
 42
0.0000001
 43
0.0000001
 44
0.0000000001
 40
0.0
 40
0.0
 40
0.0
 40
0.0
 40
0.076083826
 40
0.1472952033
 40
0.2145566175
 40
0.2786594791
 40
0.3402385133
 40
0.3997577912
 40
0.4575097368
 40
0.513742876
 40
0.5691108877
 40
0.6244301917
 40
0.680542745
 40
0.7382793437
 40
0.8615652438
 40
0.9286158118
 40
1.0
 40
1.0
 40
1.0
 40
1.0
 10
11.537816283
 20
-1.9794832966
 30
0.0
 10
11.5367471144
 20
-1.9769466881
 30
0.0
 10
11.5349427004
 20
-1.9719173989
 30
0.0
 10
11.5331979291
 20
-1.9643349865
 30
0.0
 10
11.5324277915
 20
-1.9570279561
 30
0.0
 10
11.5325436368
 20
-1.9500312388
 30
0.0
 10
11.5334549561
 20
-1.9433772365
 30
0.0
 10
11.5350710956
 20
-1.9370970826
 30
0.0
 10
11.5373025224
 20
-1.9312168222
 30
0.0
 10
11.5400755167
 20
-1.925739563
 30
0.0
 10
11.5433995383
 20
-1.9206814311
 30
0.0
 10
11.5472842679
 20
-1.9160455215
 30
0.0
 10
11.5517404822
 20
-1.9118301348
 30
0.0
 10
11.5586023668
 20
-1.9066549171
 30
0.0
 10
11.5665976248
 20
-1.90243422
 30
0.0
 10
11.5754625725
 20
-1.8990934434
 30
0.0
 10
11.5802751385
 20
-1.8976848086
 30
0.0
 10
11.5827759285
 20
-1.8970395548
 30
0.0
  0
ENDSEC
  0
SECTION
  2
OBJECTS
  0
DICTIONARY
  5
C
100
AcDbDictionary
280
0
281
1
  3
ACAD_GROUP
350
D
  3
ACAD_MLINESTYLE
350
17
  3
ACAD_LAYOUT
350
1A
  3
ACAD_PLOTSETTINGS
350
19
  3
ACAD_PLOTSTYLENAME
350
E
  0
DICTIONARY
  5
D
102
{ACAD_REACTORS
330
C
102
}
100
AcDbDictionary
280
0
281
1
  0
ACDBDICTIONARYWDFLT
  5
E
102
{ACAD_REACTORS
330
C
102
}
100
AcDbDictionary
281
1
  3
Normal
350
F
100
AcDbDictionaryWithDefault
340
F
  0
DICTIONARY
  5
17
102
{ACAD_REACTORS
330
C
102
}
100
AcDbDictionary
280
0
281
1
  3
Standard
350
18
  0
DICTIONARY
  5
19
102
{ACAD_REACTORS
330
C
102
}
100
AcDbDictionary
281
1
  0
DICTIONARY
  5
1A
102
{ACAD_REACTORS
330
C
102
}
100
AcDbDictionary
281
1
  3
Model
350
320
  3
Layout1
350
321
  0
ACDBPLACEHOLDER
  5
F
102
{ACAD_REACTORS
330
E
102
}
  0
MLINESTYLE
  5
18
102
{ACAD_REACTORS
330
17
102
}
100
AcDbMlineStyle
  2
STANDARD
 70
0
  3

 62
256
 51
90.0
 52
90.0
 71
2
 49
0.5
 62
256
  6
BYLAYER
 49
-0.5
 62
256
  6
BYLAYER
  0
LAYOUT
  5
320
102
{ACAD_REACTORS
330
1A
102
}
100
AcDbPlotSettings
  1

  2
none_device
  4
ANSI_C_(22.00_x_17.00_Inches)
  6

 40
0.0
 41
0.0
 42
0.0
 43
0.0
 44
558.8
 45
431.8
 46
0.0
 47
0.0
 48
0.0
 49
0.0
140
0.0
141
0.0
142
1.0
143
1.0
 70
1024
 72
0
 73
0
 74
0
  7

 75
0
147
1.0
148
0.0
149
0.0
100
AcDbLayout
  1
Model
 70
0
 71
0
 10
0.0
 20
0.0
 11
22.0
 21
17.0
 12
0.0
 22
0.0
 32
0.0
 14
0.0
 24
0.0
 34
0.0
 15
0.0
 25
0.0
 35
0.0
146
0.0
 13
0.0
 23
0.0
 33
0.0
 16
1.0
 26
0.0
 36
0.0
 17
0.0
 27
1.0
 37
0.0
 76
0
330
202
345
0
346
0
  0
LAYOUT
  5
321
102
{ACAD_REACTORS
330
1A
102
}
100
AcDbPlotSettings
  1

  2
none_device
  4
ANSI_C_(22.00_x_17.00_Inches)
  6

 40
0.0
 41
0.0
 42
0.0
 43
0.0
 44
558.8
 45
431.8
 46
0.0
 47
0.0
 48
0.0
 49
0.0
140
0.0
141
0.0
142
1.0
143
1.0
 70
0
 72
0
 73
0
 74
0
  7

 75
0
147
1.0
148
0.0
149
0.0
100
AcDbLayout
  1
Layout1
 70
0
 71
1
 10
0.0
 20
0.0
 11
22.0
 21
17.0
 12
0.0
 22
0.0
 32
0.0
 14
0.0
 24
0.0
 34
0.0
 15
0.0
 25
0.0
 35
0.0
146
0.0
 13
0.0
 23
0.0
 33
0.0
 16
1.0
 26
0.0
 36
0.0
 17
0.0
 27
1.0
 37
0.0
 76
0
330
203
345
0
346
0
  0
ENDSEC
  0
EOF
