999
DXF file: E:\BRASSTECH\RAY\EN-4300m\Webdata\1200C\CAD\1200C_TOP.dxf
999
Pro/ENGINEER 2018400 by Parametric Technology Corporation
  0
SECTION
  2
HEADER
  9
$ACADVER
  1
AC1018
  9
$DWGCODEPAGE
  3
ANSI_1252
  9
$EXTMAX
 10
22.0
 20
17.0
 30
0.0
  9
$EXTMIN
 10
0.0
 20
0.0
 30
0.0
  9
$LIMMIN
 10
0.0
 20
0.0
  9
$LIMMAX
 10
22.0
 20
17.0
  9
$VIEWCTR
 10
11.0
 20
8.5
  9
$VIEWSIZE
 40
17.0
  9
$CLAYER
  8
0
  9
$LTSCALE
 40
1.21
  9
$CELTYPE
  6
BYLAYER
  9
$DIMSCALE
 40
1.0
  9
$DIMASZ
 40
0.1
  9
$DIMEXO
 40
0.0625
  9
$DIMDLI
 40
0.836
  9
$DIMEXE
 40
0.125
  9
$DIMCEN
 40
0.198
  9
$DIMLFAC
 40
1.0
  9
$DIMBLK
  1
_FILLED
  9
$DIMALT
 70
1
  9
$DIMALTD
 70
2
  9
$DIMALTTD
 70
2
  9
$DIMALTF
 40
25.4
  9
$DIMTXT
 40
0.08
  9
$DIMTOL
 70
1
  9
$DIMLIM
 70
0
  9
$DIMTFAC
 40
1.0
  9
$DIMTP
 40
0.001
  9
$DIMTM
 40
0.001
  9
$DIMGAP
 40
0.09
  9
$DIMDSEP
 70
46
  9
$AUNITS
 70
0
  9
$PDMODE
 70
3
  9
$PDSIZE
 40
0.06
  9
$HANDSEED
  5
32A
  9
$TILEMODE
 70
1
  9
$MEASUREMENT
 70
0
  9
$INSUNITS
 70
1
  0
ENDSEC
  0
SECTION
  2
CLASSES
  0
CLASS
  1
ACDBDICTIONARYWDFLT
  2
AcDbDictionaryWithDefault
  3
AutoCAD 2000
 90
0
 91
1
280
0
281
0
  0
CLASS
  1
ACDBPLACEHOLDER
  2
AcDbPlaceHolder
  3
AutoCAD 2000
 90
0
 91
1
280
0
281
0
  0
CLASS
  1
LAYOUT
  2
AcDbLayout
  3
AutoCAD 2000
 90
0
 91
0
280
0
281
0
  0
ENDSEC
  0
SECTION
  2
TABLES
  0
TABLE
  2
VPORT
  5
8
100
AcDbSymbolTable
 70
2
  0
VPORT
  5
1F4
100
AcDbSymbolTableRecord
100
AcDbViewportTableRecord
  2
*ACTIVE
 70
0
 10
0.0
 20
0.0
 11
1.0
 21
1.0
 12
11.0
 22
8.5
 13
0.0
 23
0.0
 14
1.0
 24
1.0
 15
0.0
 25
0.0
 16
0.0
 26
0.0
 36
1.0
 17
0.0
 27
0.0
 37
0.0
 40
17.0
 41
1.2941176471
 42
50.0
 43
0.0
 44
0.0
 50
0.0
 51
0.0
 71
0
 72
100
 73
1
 74
1
 75
0
 76
0
 77
0
 78
0
  0
ENDTAB
  0
TABLE
  2
LTYPE
  5
5
100
AcDbSymbolTable
 70
6
  0
LTYPE
  5
14
100
AcDbSymbolTableRecord
100
AcDbLinetypeTableRecord
  2
BYBLOCK
 70
0
  3

 72
65
 73
0
 40
0.0
  0
LTYPE
  5
15
100
AcDbSymbolTableRecord
100
AcDbLinetypeTableRecord
  2
BYLAYER
 70
0
  3

 72
65
 73
0
 40
0.0
  0
LTYPE
  5
16
100
AcDbSymbolTableRecord
100
AcDbLinetypeTableRecord
  2
CONTINUOUS
 70
64
  3
Solid line
 72
65
 73
0
 40
0.0
  0
LTYPE
  5
1F5
100
AcDbSymbolTableRecord
100
AcDbLinetypeTableRecord
  2
CENTER
 70
64
  3
____ _ ____ _ ____ _ ____ _ ____ _ ____ _ ____
 72
65
 73
4
 40
0.6
 49
0.375
 74
0
 49
-0.075
 74
0
 49
0.075
 74
0
 49
-0.075
 74
0
  0
LTYPE
  5
1F6
100
AcDbSymbolTableRecord
100
AcDbLinetypeTableRecord
  2
HIDDEN
 70
64
  3
- - - - - - - - - - - - - - - - - - - -
 72
65
 73
2
 40
0.2
 49
0.1
 74
0
 49
-0.1
 74
0
  0
LTYPE
  5
1F7
100
AcDbSymbolTableRecord
100
AcDbLinetypeTableRecord
  2
PHANTOM
 70
64
  3
_____ _ _ _____ _ _ _____ _ _ _____
 72
65
 73
6
 40
0.8
 49
0.45
 74
0
 49
-0.05
 74
0
 49
0.1
 74
0
 49
-0.05
 74
0
 49
0.1
 74
0
 49
-0.05
 74
0
  0
LTYPE
  5
1F8
100
AcDbSymbolTableRecord
100
AcDbLinetypeTableRecord
  2
DOT
 70
64
  3
. . . . . . . . . . . . . . . . . . . .
 72
65
 73
2
 40
0.2
 49
0.1
 74
0
 49
-0.1
 74
0
  0
LTYPE
  5
1F9
100
AcDbSymbolTableRecord
100
AcDbLinetypeTableRecord
  2
DASHED
 70
64
  3
- - - - - - - - - - - - - - - - - - - -
 72
65
 73
2
 40
0.2
 49
0.1
 74
0
 49
-0.1
 74
0
  0
ENDTAB
  0
TABLE
  2
LAYER
  5
2
100
AcDbSymbolTable
 70
36
  0
LAYER
  5
10
100
AcDbSymbolTableRecord
100
AcDbLayerTableRecord
  2
0
 70
0
 62
7
  6
CONTINUOUS
370
-3
390
F
  0
LAYER
  5
1FA
100
AcDbSymbolTableRecord
100
AcDbLayerTableRecord
  2
DEFAULT_1
 70
0
 62
7
  6
CENTER
370
-3
390
F
  0
LAYER
  5
1FB
100
AcDbSymbolTableRecord
100
AcDbLayerTableRecord
  2
DEFAULT_2
 70
0
 62
8
  6
HIDDEN
370
-3
390
F
  0
LAYER
  5
1FC
100
AcDbSymbolTableRecord
100
AcDbLayerTableRecord
  2
DEFAULT_3
 70
0
 62
7
  6
PHANTOM
370
-3
390
F
  0
LAYER
  5
1FD
100
AcDbSymbolTableRecord
100
AcDbLayerTableRecord
  2
ALL_FEATURES
 70
0
 62
7
  6
CONTINUOUS
370
-3
390
F
  0
LAYER
  5
1FE
100
AcDbSymbolTableRecord
100
AcDbLayerTableRecord
  2
AXES_FEATURES
 70
0
 62
7
  6
CONTINUOUS
370
-3
390
F
  0
LAYER
  5
1FF
100
AcDbSymbolTableRecord
100
AcDbLayerTableRecord
  2
DIMENSIONS
 70
0
 62
7
  6
CONTINUOUS
370
-3
390
F
  0
ENDTAB
  0
TABLE
  2
STYLE
  5
3
100
AcDbSymbolTable
 70
1
  0
STYLE
  5
11
100
AcDbSymbolTableRecord
100
AcDbTextStyleTableRecord
  2
STANDARD
 70
0
 40
0.0
 41
0.8
 50
0.0
 71
0
 42
0.2
  3
txt
  4

  0
STYLE
  5
200
100
AcDbSymbolTableRecord
100
AcDbTextStyleTableRecord
  2
TEXTSTYLE_1
 70
0
 40
0.0
 41
0.8
 50
0.0
 71
0
 42
0.2
  3
gdt
  4

  0
ENDTAB
  0
TABLE
  2
VIEW
  5
6
100
AcDbSymbolTable
 70
0
  0
ENDTAB
  0
TABLE
  2
UCS
  5
7
100
AcDbSymbolTable
 70
0
  0
ENDTAB
  0
TABLE
  2
APPID
  5
9
100
AcDbSymbolTable
 70
1
  0
APPID
  5
201
100
AcDbSymbolTableRecord
100
AcDbRegAppTableRecord
  2
ACAD
 70
0
  0
ENDTAB
  0
TABLE
  2
BLOCK_RECORD
  5
1
100
AcDbSymbolTable
 70
0
  0
BLOCK_RECORD
  5
202
100
AcDbSymbolTableRecord
100
AcDbBlockTableRecord
  2
*Model_Space
  0
BLOCK_RECORD
  5
203
100
AcDbSymbolTableRecord
100
AcDbBlockTableRecord
  2
*Paper_Space
  0
BLOCK_RECORD
  5
204
100
AcDbSymbolTableRecord
100
AcDbBlockTableRecord
  2
_FILLED
  0
ENDTAB
  0
TABLE
  2
DIMSTYLE
  5
A
100
AcDbSymbolTable
 70
1
100
AcDbDimStyleTable
 71
0
  0
DIMSTYLE
105
205
100
AcDbSymbolTableRecord
100
AcDbDimStyleTableRecord
  2
STANDARD
 70
0
  3

  4

 40
1.0
 41
0.1
 42
0.0625
 43
0.38
 44
0.125
 45
0.0
 46
0.0
 47
0.001
 48
0.001
140
0.08
141
0.09
142
0.0
143
25.4
144
1.0
145
0.0
146
1.0
147
0.09
 71
1.0
 72
0.0
 73
1
 74
1
 75
0
 76
0
 77
0
 78
4
 79
1
170
1
171
2
172
0
173
0
174
0
175
0
176
0
177
0
178
0
270
2
179
3
271
3
272
3
273
2
274
2
275
0
280
0
281
0
282
0
283
1
284
4
285
0
286
0
287
3
288
0
340
11
278
46
341
204
342
204
343
204
344
204
  0
ENDTAB
  0
ENDSEC
  0
SECTION
  2
BLOCKS
  0
BLOCK
  5
20
100
AcDbEntity
  8
0
100
AcDbBlockBegin
  2
*Model_Space
 70
0
 10
0.0
 20
0.0
 30
0.0
  3
*Model_Space
  1

  0
ENDBLK
  5
21
100
AcDbEntity
  8
0
100
AcDbBlockEnd
  0
BLOCK
  5
1C
100
AcDbEntity
  8
0
100
AcDbBlockBegin
  2
*Paper_Space
 70
0
 10
0.0
 20
0.0
 30
0.0
  3
*Paper_Space
  1

  0
ENDBLK
  5
1D
100
AcDbEntity
  8
0
100
AcDbBlockEnd
  0
BLOCK
  5
206
100
AcDbEntity
  8
0
100
AcDbBlockBegin
  2
_FILLED
 70
64
 10
0.0
 20
0.0
  3
_FILLED
  1

  0
SOLID
  5
207
100
AcDbEntity
  8
0
  6
BYBLOCK
 62
0
100
AcDbTrace
 10
0.0
 20
0.0
 11
-1.0
 21
0.2
 12
-1.0
 22
-0.2
 13
-1.0
 23
-0.2
  0
ENDBLK
  5
208
100
AcDbEntity
  8
0
  6
BYBLOCK
 62
0
100
AcDbBlockEnd
  0
ENDSEC
  0
SECTION
  2
ENTITIES
  0
LINE
  5
209
100
AcDbEntity
  8
0
100
AcDbLine
 62
9
  6
CONTINUOUS
 10
3.8041191351
 20
9.8642645408
 11
3.8041191351
 21
10.2324211427
  0
LINE
  5
20A
100
AcDbEntity
  8
0
100
AcDbLine
 62
7
  6
CONTINUOUS
 10
3.8543183383
 20
10.3813428417
 11
3.8543183383
 21
9.7153428417
  0
LINE
  5
20B
100
AcDbEntity
  8
0
100
AcDbLine
 62
9
  6
CONTINUOUS
 10
3.9173183383
 20
10.4443428417
 11
3.9173183383
 21
9.6523428417
  0
LINE
  5
20C
100
AcDbEntity
  8
0
100
AcDbLine
 62
7
  6
CONTINUOUS
 10
3.9618183383
 20
10.4208428417
 11
3.9745797538
 21
10.4429462617
  0
LINE
  5
20D
100
AcDbEntity
  8
0
100
AcDbLine
 62
7
  6
CONTINUOUS
 10
3.9618183383
 20
9.6758428417
 11
3.948250607
 21
9.6523428417
  0
LINE
  5
20E
100
AcDbEntity
  8
0
100
AcDbLine
 62
7
  6
CONTINUOUS
 10
3.948250607
 20
9.6523428417
 11
3.948250607
 21
10.4443428417
  0
LINE
  5
20F
100
AcDbEntity
  8
0
100
AcDbLine
 62
7
  6
CONTINUOUS
 10
3.9618183383
 20
9.6758428417
 11
3.9618183383
 21
10.4208428417
  0
LINE
  5
210
100
AcDbEntity
  8
0
100
AcDbLine
 62
7
  6
CONTINUOUS
 10
3.9745797538
 20
9.6537394217
 11
3.9745797538
 21
10.4429462617
  0
LINE
  5
211
100
AcDbEntity
  8
0
100
AcDbLine
 62
9
  6
CONTINUOUS
 10
6.0343183383
 20
9.463487019
 11
6.0343183383
 21
9.7641371615
  0
LINE
  5
212
100
AcDbEntity
  8
0
100
AcDbLine
 62
9
  6
CONTINUOUS
 10
6.0343183383
 20
10.3325485219
 11
6.0343183383
 21
10.6331986644
  0
LINE
  5
213
100
AcDbEntity
  8
0
100
AcDbLine
 62
9
  6
CONTINUOUS
 10
6.0343183383
 20
10.6331986644
 11
7.0473183383
 21
11.2180544871
  0
LINE
  5
214
100
AcDbEntity
  8
0
100
AcDbLine
 62
7
  6
CONTINUOUS
 10
3.9618183383
 20
9.6758428417
 11
3.9745797538
 21
9.6537394217
  0
LINE
  5
215
100
AcDbEntity
  8
0
100
AcDbLine
 62
7
  6
CONTINUOUS
 10
6.3833183383
 20
10.3138428417
 11
6.3833183383
 21
9.7828428417
  0
LINE
  5
216
100
AcDbEntity
  8
0
100
AcDbLine
 62
9
  6
CONTINUOUS
 10
6.4718083581
 20
10.3806136837
 11
6.4718083581
 21
10.3349806389
  0
LINE
  5
217
100
AcDbEntity
  8
0
100
AcDbLine
 62
9
  6
CONTINUOUS
 10
6.4718083581
 20
9.7617050445
 11
6.4718083581
 21
9.7160719997
  0
LINE
  5
218
100
AcDbEntity
  8
0
100
AcDbLine
 62
7
  6
CONTINUOUS
 10
6.4773183383
 20
10.3138428417
 11
6.4773183383
 21
9.7828428417
  0
LINE
  5
219
100
AcDbEntity
  8
0
100
AcDbLine
 62
9
  6
CONTINUOUS
 10
6.5403183383
 20
10.2308428417
 11
6.5403183383
 21
9.8658428417
  0
LINE
  5
21A
100
AcDbEntity
  8
0
100
AcDbLine
 62
7
  6
CONTINUOUS
 10
6.5473183383
 20
9.7596677071
 11
6.5473183383
 21
9.8658428417
  0
LINE
  5
21B
100
AcDbEntity
  8
0
100
AcDbLine
 62
7
  6
CONTINUOUS
 10
6.5473183383
 20
10.2308428417
 11
6.5473183383
 21
10.3370179763
  0
LINE
  5
21C
100
AcDbEntity
  8
0
100
AcDbLine
 62
9
  6
CONTINUOUS
 10
7.0473183383
 20
10.7128845257
 11
6.4718083581
 21
10.3806136837
  0
LINE
  5
21D
100
AcDbEntity
  8
0
100
AcDbLine
 62
7
  6
CONTINUOUS
 10
6.5473183383
 20
10.3370179763
 11
7.0473183383
 21
10.6256931109
  0
LINE
  5
21E
100
AcDbEntity
  8
0
100
AcDbLine
 62
7
  6
CONTINUOUS
 10
3.9618183383
 20
10.4208428417
 11
3.948250607
 21
10.4443428417
  0
LINE
  5
21F
100
AcDbEntity
  8
0
100
AcDbLine
 62
7
  6
CONTINUOUS
 10
7.0473183383
 20
11.2358428417
 11
7.0473183383
 21
11.2180544871
  0
LINE
  5
220
100
AcDbEntity
  8
0
100
AcDbLine
 62
7
  6
CONTINUOUS
 10
7.0473183383
 20
10.7128845257
 11
7.0473183383
 21
10.6256931109
  0
LINE
  5
221
100
AcDbEntity
  8
0
100
AcDbLine
 62
7
  6
CONTINUOUS
 10
7.0473183383
 20
8.8608428417
 11
7.0473183383
 21
8.8786311963
  0
LINE
  5
222
100
AcDbEntity
  8
0
100
AcDbLine
 62
7
  6
CONTINUOUS
 10
7.0473183383
 20
9.3838011577
 11
7.0473183383
 21
9.4709925725
  0
LINE
  5
223
100
AcDbEntity
  8
0
100
AcDbLine
 62
7
  6
CONTINUOUS
 10
8.0757235053
 20
10.6420928417
 11
8.0603183383
 21
10.6331986644
  0
LINE
  5
224
100
AcDbEntity
  8
0
100
AcDbLine
 62
7
  6
CONTINUOUS
 10
7.6228283185
 20
10.3806136837
 11
7.5473183383
 21
10.3370179763
  0
LINE
  5
225
100
AcDbEntity
  8
0
100
AcDbLine
 62
7
  6
CONTINUOUS
 10
6.0189131713
 20
9.4545928417
 11
6.0343183383
 21
9.463487019
  0
LINE
  5
226
100
AcDbEntity
  8
0
100
AcDbLine
 62
7
  6
CONTINUOUS
 10
6.4718083581
 20
9.7160719997
 11
6.5473183383
 21
9.7596677071
  0
LINE
  5
227
100
AcDbEntity
  8
0
100
AcDbLine
 62
7
  6
CONTINUOUS
 10
7.5473183383
 20
9.7596677071
 11
7.5473183383
 21
10.3370179763
  0
LINE
  5
228
100
AcDbEntity
  8
0
100
AcDbLine
 62
9
  6
CONTINUOUS
 10
7.6228283185
 20
9.7160719997
 11
7.6228283185
 21
10.3806136837
  0
LINE
  5
229
100
AcDbEntity
  8
0
100
AcDbLine
 62
7
  6
CONTINUOUS
 10
7.5473183383
 20
9.7596677071
 11
7.0473183383
 21
9.4709925725
  0
LINE
  5
22A
100
AcDbEntity
  8
0
100
AcDbLine
 62
9
  6
CONTINUOUS
 10
7.0473183383
 20
9.3838011577
 11
7.6228283185
 21
9.7160719997
  0
LINE
  5
22B
100
AcDbEntity
  8
0
100
AcDbLine
 62
9
  6
CONTINUOUS
 10
8.0603183383
 20
10.6331986644
 11
8.0603183383
 21
9.463487019
  0
LINE
  5
22C
100
AcDbEntity
  8
0
100
AcDbLine
 62
9
  6
CONTINUOUS
 10
8.0603183383
 20
9.463487019
 11
7.0473183383
 21
8.8786311963
  0
LINE
  5
22D
100
AcDbEntity
  8
0
100
AcDbLine
 62
9
  6
CONTINUOUS
 10
9.867779265
 20
10.0813212372
 11
10.4289886733
 21
11.0533644462
  0
LINE
  5
22E
100
AcDbEntity
  8
0
100
AcDbLine
 62
9
  6
CONTINUOUS
 10
10.353815716
 20
10.0483427024
 11
10.7005671477
 21
10.6489337999
  0
LINE
  5
22F
100
AcDbEntity
  8
0
100
AcDbLine
 62
7
  6
CONTINUOUS
 10
10.3779182085
 20
10.0483428417
 11
10.7126182734
 21
10.6280603595
  0
LINE
  5
230
100
AcDbEntity
  8
0
100
AcDbLine
 62
9
  6
CONTINUOUS
 10
14.0343183383
 20
10.6331986644
 11
15.0473183383
 21
11.2180544871
  0
LINE
  5
231
100
AcDbEntity
  8
0
100
AcDbLine
 62
7
  6
CONTINUOUS
 10
10.477293724
 20
4.6889918742
 11
10.4740484288
 21
4.3889862159
  0
LWPOLYLINE
  5
232
100
AcDbEntity
  8
0
100
AcDbPolyline
 62
7
  6
CONTINUOUS
 90
4
 70
0
 10
10.4761220011
 20
4.5806741795
 10
10.475154887
 20
4.5354732186
 10
10.471914347
 20
4.4784587534
 10
10.4682899631
 20
4.4459982763
  0
LINE
  5
233
100
AcDbEntity
  8
0
100
AcDbLine
 62
7
  6
CONTINUOUS
 10
11.7167184682
 20
10.0483428417
 11
11.4341801442
 21
9.5589721049
  0
LINE
  5
234
100
AcDbEntity
  8
0
100
AcDbLine
 62
9
  6
CONTINUOUS
 10
11.7408208614
 20
10.048342809
 11
11.621937164
 21
9.8424302049
  0
LINE
  5
235
100
AcDbEntity
  8
0
100
AcDbLine
 62
9
  6
CONTINUOUS
 10
15.0473183383
 20
10.7128845257
 11
14.4718083581
 21
10.3806136837
  0
LINE
  5
236
100
AcDbEntity
  8
0
100
AcDbLine
 62
7
  6
CONTINUOUS
 10
14.5473183383
 20
10.3370179763
 11
15.0473183383
 21
10.6256931109
  0
LINE
  5
237
100
AcDbEntity
  8
0
100
AcDbLine
 62
9
  6
CONTINUOUS
 10
7.0473183383
 20
8.8786311963
 11
6.0343183383
 21
9.463487019
  0
LINE
  5
238
100
AcDbEntity
  8
0
100
AcDbLine
 62
9
  6
CONTINUOUS
 10
11.0473183386
 20
3.8085283873
 11
11.0472983855
 21
4.3587792805
  0
LINE
  5
239
100
AcDbEntity
  8
0
100
AcDbLine
 62
9
  6
CONTINUOUS
 10
11.0473186122
 20
9.1085725965
 11
11.047318591
 21
6.8766750973
  0
LINE
  5
23A
100
AcDbEntity
  8
0
100
AcDbLine
 62
9
  6
CONTINUOUS
 10
11.0473183386
 20
3.7288224163
 11
11.0473183386
 21
3.8085283873
  0
LINE
  5
23B
100
AcDbEntity
  8
0
100
AcDbLine
 62
9
  6
CONTINUOUS
 10
11.047365737
 20
9.468625324
 11
11.0473186124
 21
9.1085725965
  0
LWPOLYLINE
  5
23C
100
AcDbEntity
  8
0
100
AcDbPolyline
 62
7
  6
CONTINUOUS
 90
4
 70
0
 10
10.4667904734
 20
4.4309792356
 10
10.4665249256
 20
4.4272022936
 10
10.4653315991
 20
4.412167995
 10
10.464947106
 20
4.4081915957
  0
LINE
  5
23D
100
AcDbEntity
  8
0
100
AcDbLine
 62
7
  6
CONTINUOUS
 10
10.4683046133
 20
4.4460203416
 11
10.4667904734
 21
4.4309792356
  0
LINE
  5
23E
100
AcDbEntity
  8
0
100
AcDbLine
 62
7
  6
CONTINUOUS
 10
10.4820786217
 20
4.7306799247
 11
10.4772937299
 21
4.6889919446
  0
LINE
  5
23F
100
AcDbEntity
  8
0
100
AcDbLine
 62
9
  6
CONTINUOUS
 10
12.2268574116
 20
10.0153644462
 11
11.8982546343
 21
9.4462077403
  0
LINE
  5
240
100
AcDbEntity
  8
0
100
AcDbLine
 62
7
  6
CONTINUOUS
 10
16.0757235053
 20
10.6420928417
 11
16.0603183383
 21
10.6331986644
  0
LINE
  5
241
100
AcDbEntity
  8
0
100
AcDbLine
 62
7
  6
CONTINUOUS
 10
15.6228283185
 20
10.3806136837
 11
15.5473183383
 21
10.3370179763
  0
LINE
  5
242
100
AcDbEntity
  8
0
100
AcDbLine
 62
7
  6
CONTINUOUS
 10
14.0189131713
 20
9.4545928417
 11
14.0343183383
 21
9.463487019
  0
LINE
  5
243
100
AcDbEntity
  8
0
100
AcDbLine
 62
7
  6
CONTINUOUS
 10
14.4718083581
 20
9.7160719997
 11
14.5473183383
 21
9.7596677071
  0
LINE
  5
244
100
AcDbEntity
  8
0
100
AcDbLine
 62
9
  6
CONTINUOUS
 10
6.4718083581
 20
9.7160719997
 11
7.0473183383
 21
9.3838011577
  0
LINE
  5
245
100
AcDbEntity
  8
0
100
AcDbLine
 62
7
  6
CONTINUOUS
 10
7.0473183383
 20
9.4709925725
 11
6.5473183383
 21
9.7596677071
  0
LWPOLYLINE
  5
246
100
AcDbEntity
  8
0
100
AcDbPolyline
 62
7
  6
CONTINUOUS
 90
4
 70
0
 10
11.6264450438
 20
4.4451070205
 10
11.6227196968
 20
4.4795413122
 10
11.6193947806
 20
4.5386201205
 10
11.6184692015
 20
4.5822358119
  0
LINE
  5
247
100
AcDbEntity
  8
0
100
AcDbLine
 62
7
  6
CONTINUOUS
 10
11.6264407797
 20
4.4451401337
 11
11.6278459788
 21
4.430912632
  0
LINE
  5
248
100
AcDbEntity
  8
0
100
AcDbLine
 62
7
  6
CONTINUOUS
 10
11.6173004837
 20
4.6891530043
 11
11.6184687152
 21
4.5822352265
  0
LINE
  5
249
100
AcDbEntity
  8
0
100
AcDbLine
 62
7
  6
CONTINUOUS
 10
15.5473183383
 20
9.7596677071
 11
15.0473183383
 21
9.4709925725
  0
LINE
  5
24A
100
AcDbEntity
  8
0
100
AcDbLine
 62
9
  6
CONTINUOUS
 10
15.0473183383
 20
9.3838011577
 11
15.6228283185
 21
9.7160719997
  0
LINE
  5
24B
100
AcDbEntity
  8
0
100
AcDbLine
 62
7
  6
CONTINUOUS
 10
8.0757235053
 20
9.4545928417
 11
8.0603183383
 21
9.463487019
  0
LINE
  5
24C
100
AcDbEntity
  8
0
100
AcDbLine
 62
7
  6
CONTINUOUS
 10
7.6228283185
 20
9.7160719997
 11
7.5473183383
 21
9.7596677071
  0
LINE
  5
24D
100
AcDbEntity
  8
0
100
AcDbLine
 62
7
  6
CONTINUOUS
 10
6.0189131713
 20
10.6420928417
 11
6.0343183383
 21
10.6331986644
  0
LINE
  5
24E
100
AcDbEntity
  8
0
100
AcDbLine
 62
7
  6
CONTINUOUS
 10
6.4718083581
 20
10.3806136837
 11
6.5473183383
 21
10.3370179763
  0
LINE
  5
24F
100
AcDbEntity
  8
0
100
AcDbLine
 62
9
  6
CONTINUOUS
 10
10.1795831525
 20
9.4753042711
 11
9.867779265
 21
10.0153644461
  0
LWPOLYLINE
  5
250
100
AcDbEntity
  8
0
100
AcDbPolyline
 62
7
  6
CONTINUOUS
 90
5
 70
0
 10
11.6291009491
 20
4.4126923632
 10
11.6296465535
 20
4.408540329
 10
11.629297427
 20
4.4121991057
 10
11.6281100312
 20
4.4271565657
 10
11.6278463032
 20
4.4309095698
  0
LINE
  5
251
100
AcDbEntity
  8
0
100
AcDbLine
 62
7
  6
CONTINUOUS
 10
11.6127906168
 20
4.7284999933
 11
11.6173004627
 21
4.6891531251
  0
LINE
  5
252
100
AcDbEntity
  8
0
100
AcDbLine
 62
9
  6
CONTINUOUS
 10
16.0603183383
 20
9.463487019
 11
15.0473183383
 21
8.8786311963
  0
LINE
  5
253
100
AcDbEntity
  8
0
100
AcDbLine
 62
7
  6
CONTINUOUS
 10
7.0473183383
 20
10.6256931109
 11
7.5473183383
 21
10.3370179763
  0
LINE
  5
254
100
AcDbEntity
  8
0
100
AcDbLine
 62
9
  6
CONTINUOUS
 10
7.6228283185
 20
10.3806136837
 11
7.0473183383
 21
10.7128845257
  0
LINE
  5
255
100
AcDbEntity
  8
0
100
AcDbLine
 62
9
  6
CONTINUOUS
 10
10.4721155506
 20
9.8434416569
 11
10.353815716
 21
10.0483429809
  0
LINE
  5
256
100
AcDbEntity
  8
0
100
AcDbLine
 62
7
  6
CONTINUOUS
 10
10.6596302967
 20
9.5604031915
 11
10.3779182085
 21
10.0483428417
  0
LINE
  5
257
100
AcDbEntity
  8
0
100
AcDbLine
 62
9
  6
CONTINUOUS
 10
7.0473183383
 20
11.2180544871
 11
8.0603183383
 21
10.6331986644
  0
LINE
  5
258
100
AcDbEntity
  8
0
100
AcDbLine
 62
7
  6
CONTINUOUS
 10
10.6923793916
 20
9.468625324
 11
11.4016541849
 21
9.468625324
  0
LINE
  5
259
100
AcDbEntity
  8
0
100
AcDbLine
 62
7
  6
CONTINUOUS
 10
18.1773183383
 20
9.6523428417
 11
18.1463860696
 21
9.6523428417
  0
LINE
  5
25A
100
AcDbEntity
  8
0
100
AcDbLine
 62
7
  6
CONTINUOUS
 10
3.9173183383
 20
9.6523428417
 11
3.948250607
 21
9.6523428417
  0
LINE
  5
25B
100
AcDbEntity
  8
0
100
AcDbLine
 62
7
  6
CONTINUOUS
 10
11.3820184032
 20
10.6280603595
 11
11.7167184682
 21
10.0483428417
  0
LINE
  5
25C
100
AcDbEntity
  8
0
100
AcDbLine
 62
9
  6
CONTINUOUS
 10
11.3940696282
 20
10.6489336279
 11
11.7408208614
 21
10.0483428745
  0
LINE
  5
25D
100
AcDbEntity
  8
0
100
AcDbLine
 62
7
  6
CONTINUOUS
 10
6.3833183383
 20
9.7828428417
 11
3.9745797538
 21
9.6537394217
  0
LINE
  5
25E
100
AcDbEntity
  8
0
100
AcDbLine
 62
7
  6
CONTINUOUS
 10
15.7113183383
 20
10.3138428417
 11
18.1200569228
 21
10.4429462617
  0
LINE
  5
25F
100
AcDbEntity
  8
0
100
AcDbLine
 62
7
  6
CONTINUOUS
 10
15.5543183383
 20
9.8658428417
 11
15.5008905119
 21
9.8658428417
  0
LINE
  5
260
100
AcDbEntity
  8
0
100
AcDbLine
 62
7
  6
CONTINUOUS
 10
6.5403183383
 20
9.8658428417
 11
6.5937461646
 21
9.8658428417
  0
LINE
  5
261
100
AcDbEntity
  8
0
100
AcDbLine
 62
7
  6
CONTINUOUS
 10
15.5543183383
 20
10.2308428417
 11
15.5008905119
 21
10.2308428417
  0
LINE
  5
262
100
AcDbEntity
  8
0
100
AcDbLine
 62
7
  6
CONTINUOUS
 10
6.5403183383
 20
10.2308428417
 11
6.5937461646
 21
10.2308428417
  0
LINE
  5
263
100
AcDbEntity
  8
0
100
AcDbLine
 62
7
  6
CONTINUOUS
 10
15.7113183383
 20
9.7828428417
 11
18.1200569228
 21
9.6537394217
  0
LINE
  5
264
100
AcDbEntity
  8
0
100
AcDbLine
 62
7
  6
CONTINUOUS
 10
6.3833183383
 20
10.3138428417
 11
3.9745797538
 21
10.4429462617
  0
LINE
  5
265
100
AcDbEntity
  8
0
100
AcDbLine
 62
9
  6
CONTINUOUS
 10
11.6656480033
 20
11.0533644462
 11
12.2268574116
 21
10.0813212373
  0
LINE
  5
266
100
AcDbEntity
  8
0
100
AcDbLine
 62
9
  6
CONTINUOUS
 10
14.0343183383
 20
9.463487019
 11
14.0343183383
 21
10.6331986644
  0
LINE
  5
267
100
AcDbEntity
  8
0
100
AcDbLine
 62
7
  6
CONTINUOUS
 10
18.1773183383
 20
10.4443428417
 11
18.1463860696
 21
10.4443428417
  0
LINE
  5
268
100
AcDbEntity
  8
0
100
AcDbLine
 62
7
  6
CONTINUOUS
 10
3.9173183383
 20
10.4443428417
 11
3.948250607
 21
10.4443428417
  0
LINE
  5
269
100
AcDbEntity
  8
0
100
AcDbLine
 62
7
  6
CONTINUOUS
 10
11.3820184032
 20
10.6280603595
 11
10.7126182734
 21
10.6280603595
  0
LINE
  5
26A
100
AcDbEntity
  8
0
100
AcDbLine
 62
9
  6
CONTINUOUS
 10
10.7005669065
 20
10.6489336606
 11
11.3940695715
 21
10.6489336607
  0
LINE
  5
26B
100
AcDbEntity
  8
0
100
AcDbLine
 62
9
  6
CONTINUOUS
 10
15.0473183383
 20
8.8786311963
 11
14.0343183383
 21
9.463487019
  0
LINE
  5
26C
100
AcDbEntity
  8
0
100
AcDbLine
 62
9
  6
CONTINUOUS
 10
14.4718083581
 20
10.3806136837
 11
14.4718083581
 21
9.7160719997
  0
LINE
  5
26D
100
AcDbEntity
  8
0
100
AcDbLine
 62
7
  6
CONTINUOUS
 10
14.5473183383
 20
9.7596677071
 11
14.5473183383
 21
10.3370179763
  0
LINE
  5
26E
100
AcDbEntity
  8
0
100
AcDbLine
 62
9
  6
CONTINUOUS
 10
10.48610893
 20
11.0863428417
 11
11.6085277466
 21
11.0863428417
  0
LINE
  5
26F
100
AcDbEntity
  8
0
100
AcDbLine
 62
9
  6
CONTINUOUS
 10
14.4718083581
 20
9.7160719997
 11
15.0473183383
 21
9.3838011577
  0
LINE
  5
270
100
AcDbEntity
  8
0
100
AcDbLine
 62
7
  6
CONTINUOUS
 10
15.0473183383
 20
9.4709925725
 11
14.5473183383
 21
9.7596677071
  0
LINE
  5
271
100
AcDbEntity
  8
0
100
AcDbLine
 62
7
  6
CONTINUOUS
 10
15.0473183383
 20
11.2358428417
 11
15.0473183383
 21
11.2180544871
  0
LINE
  5
272
100
AcDbEntity
  8
0
100
AcDbLine
 62
7
  6
CONTINUOUS
 10
15.0473183383
 20
10.7128845257
 11
15.0473183383
 21
10.6256931109
  0
LINE
  5
273
100
AcDbEntity
  8
0
100
AcDbLine
 62
7
  6
CONTINUOUS
 10
15.0473183383
 20
8.8608428417
 11
15.0473183383
 21
8.8786311963
  0
LINE
  5
274
100
AcDbEntity
  8
0
100
AcDbLine
 62
7
  6
CONTINUOUS
 10
15.0473183383
 20
9.3838011577
 11
15.0473183383
 21
9.4709925725
  0
LINE
  5
275
100
AcDbEntity
  8
0
100
AcDbLine
 62
7
  6
CONTINUOUS
 10
16.0757235053
 20
9.4545928417
 11
16.0603183383
 21
9.463487019
  0
LINE
  5
276
100
AcDbEntity
  8
0
100
AcDbLine
 62
7
  6
CONTINUOUS
 10
15.6228283185
 20
9.7160719997
 11
15.5473183383
 21
9.7596677071
  0
LINE
  5
277
100
AcDbEntity
  8
0
100
AcDbLine
 62
7
  6
CONTINUOUS
 10
14.0189131713
 20
10.6420928417
 11
14.0343183383
 21
10.6331986644
  0
LINE
  5
278
100
AcDbEntity
  8
0
100
AcDbLine
 62
7
  6
CONTINUOUS
 10
14.4718083581
 20
10.3806136837
 11
14.5473183383
 21
10.3370179763
  0
LINE
  5
279
100
AcDbEntity
  8
0
100
AcDbLine
 62
7
  6
CONTINUOUS
 10
15.5473183383
 20
9.7596677071
 11
15.5473183383
 21
9.8658428417
  0
LINE
  5
27A
100
AcDbEntity
  8
0
100
AcDbLine
 62
7
  6
CONTINUOUS
 10
15.5473183383
 20
10.2308428417
 11
15.5473183383
 21
10.3370179763
  0
LINE
  5
27B
100
AcDbEntity
  8
0
100
AcDbLine
 62
9
  6
CONTINUOUS
 10
15.5543183383
 20
9.8658428417
 11
15.5543183383
 21
10.2308428417
  0
LINE
  5
27C
100
AcDbEntity
  8
0
100
AcDbLine
 62
7
  6
CONTINUOUS
 10
15.6173183383
 20
10.3138423338
 11
15.6173183383
 21
9.7828433497
  0
LINE
  5
27D
100
AcDbEntity
  8
0
100
AcDbLine
 62
9
  6
CONTINUOUS
 10
15.6228283185
 20
9.7160719997
 11
15.6228283185
 21
9.7617050445
  0
LINE
  5
27E
100
AcDbEntity
  8
0
100
AcDbLine
 62
9
  6
CONTINUOUS
 10
15.6228283185
 20
10.3349806389
 11
15.6228283185
 21
10.3806136837
  0
LINE
  5
27F
100
AcDbEntity
  8
0
100
AcDbLine
 62
7
  6
CONTINUOUS
 10
15.7113183383
 20
10.3138428417
 11
15.7113183383
 21
9.7828428417
  0
LINE
  5
280
100
AcDbEntity
  8
0
100
AcDbLine
 62
9
  6
CONTINUOUS
 10
16.0603183383
 20
10.6331986644
 11
16.0603183383
 21
10.3325485219
  0
LINE
  5
281
100
AcDbEntity
  8
0
100
AcDbLine
 62
9
  6
CONTINUOUS
 10
16.0603183383
 20
9.7641371615
 11
16.0603183383
 21
9.463487019
  0
LINE
  5
282
100
AcDbEntity
  8
0
100
AcDbLine
 62
7
  6
CONTINUOUS
 10
18.1328183383
 20
10.4208428417
 11
18.1463860696
 21
10.4443428417
  0
LINE
  5
283
100
AcDbEntity
  8
0
100
AcDbLine
 62
7
  6
CONTINUOUS
 10
18.1328183383
 20
9.6758428417
 11
18.1200569228
 21
9.6537394217
  0
LINE
  5
284
100
AcDbEntity
  8
0
100
AcDbLine
 62
7
  6
CONTINUOUS
 10
15.0473183383
 20
10.6256931109
 11
15.5473183383
 21
10.3370179763
  0
LINE
  5
285
100
AcDbEntity
  8
0
100
AcDbLine
 62
9
  6
CONTINUOUS
 10
15.6228283185
 20
10.3806136837
 11
15.0473183383
 21
10.7128845257
  0
LINE
  5
286
100
AcDbEntity
  8
0
100
AcDbLine
 62
9
  6
CONTINUOUS
 10
15.0473183383
 20
11.2180544871
 11
16.0603183383
 21
10.6331986644
  0
LINE
  5
287
100
AcDbEntity
  8
0
100
AcDbLine
 62
7
  6
CONTINUOUS
 10
18.1200569228
 20
9.6537394217
 11
18.1200569228
 21
10.4429462617
  0
LINE
  5
288
100
AcDbEntity
  8
0
100
AcDbLine
 62
7
  6
CONTINUOUS
 10
18.1328183383
 20
9.6758428417
 11
18.1328183383
 21
10.4208428417
  0
LINE
  5
289
100
AcDbEntity
  8
0
100
AcDbLine
 62
7
  6
CONTINUOUS
 10
18.1463860696
 20
10.4443428417
 11
18.1463860696
 21
9.6523428417
  0
LINE
  5
28A
100
AcDbEntity
  8
0
100
AcDbLine
 62
9
  6
CONTINUOUS
 10
18.1773183383
 20
9.6523428417
 11
18.1773183383
 21
10.4443428417
  0
LINE
  5
28B
100
AcDbEntity
  8
0
100
AcDbLine
 62
7
  6
CONTINUOUS
 10
18.2403183383
 20
9.7153428417
 11
18.2403183383
 21
10.3813428417
  0
LINE
  5
28C
100
AcDbEntity
  8
0
100
AcDbLine
 62
9
  6
CONTINUOUS
 10
18.2905175415
 20
9.8642645408
 11
18.2905175415
 21
10.2324211427
  0
LINE
  5
28D
100
AcDbEntity
  8
0
100
AcDbLine
 62
7
  6
CONTINUOUS
 10
18.1328183383
 20
9.6758428417
 11
18.1463860696
 21
9.6523428417
  0
LINE
  5
28E
100
AcDbEntity
  8
0
100
AcDbLine
 62
7
  6
CONTINUOUS
 10
18.1328183383
 20
10.4208428417
 11
18.1200569228
 21
10.4429462617
  0
ARC
  5
28F
100
AcDbEntity
  8
0
100
AcDbCircle
 62
7
  6
CONTINUOUS
 10
-20.8446586453
 20
12.4537000719
 40
32.5200270592
100
AcDbArc
 50
353.9423931462
 51
354.0735673648
  0
ARC
  5
290
100
AcDbEntity
  8
0
100
AcDbCircle
 62
7
  6
CONTINUOUS
 10
-11.4144182657
 20
5.9366607225
 40
21.9614948308
100
AcDbArc
 50
2.4162613881
 51
2.5347048806
  0
ARC
  5
291
100
AcDbEntity
  8
0
100
AcDbCircle
 62
7
  6
CONTINUOUS
 10
-4.4520565461
 20
6.4760577383
 40
15.2319919475
100
AcDbArc
 50
1.5037130957
 51
1.6889105104
  0
ARC
  5
292
100
AcDbEntity
  8
0
100
AcDbCircle
 62
7
  6
CONTINUOUS
 10
7.0473183383
 20
10.0483428417
 40
1.1875
100
AcDbArc
 50
194.2398083921
 51
165.759002017
  0
CIRCLE
  5
293
100
AcDbEntity
  8
0
100
AcDbCircle
 62
7
  6
CONTINUOUS
 10
7.0473183383
 20
10.0483428417
 40
0.49
  0
ARC
  5
294
100
AcDbEntity
  8
0
100
AcDbCircle
 62
7
  6
CONTINUOUS
 10
9.6716605332
 20
9.7912175321
 40
0.4208236563
100
AcDbArc
 50
20.3842886708
 51
24.2696939457
  0
ARC
  5
295
100
AcDbEntity
  8
0
100
AcDbCircle
 62
7
  6
CONTINUOUS
 10
3.8423183383
 20
10.0483428417
 40
0.188
100
AcDbArc
 50
101.7234029883
 51
258.2765970117
  0
ARC
  5
296
100
AcDbEntity
  8
0
100
AcDbCircle
 62
7
  6
CONTINUOUS
 10
3.7913183383
 20
10.2941069563
 40
0.063
100
AcDbArc
 50
281.7234029886
 51
360.0
  0
ARC
  5
297
100
AcDbEntity
  8
0
100
AcDbCircle
 62
7
  6
CONTINUOUS
 10
3.7913183383
 20
9.8025787272
 40
0.063
100
AcDbArc
 50
0.0
 51
78.2765970114
  0
ARC
  5
298
100
AcDbEntity
  8
0
100
AcDbCircle
 62
7
  6
CONTINUOUS
 10
3.9173183383
 20
9.7153428417
 40
0.063
100
AcDbArc
 50
180.0
 51
270.0
  0
ARC
  5
299
100
AcDbEntity
  8
0
100
AcDbCircle
 62
7
  6
CONTINUOUS
 10
3.9173183383
 20
10.3813428417
 40
0.063
100
AcDbArc
 50
90.0
 51
180.0
  0
ARC
  5
29A
100
AcDbEntity
  8
0
100
AcDbCircle
 62
7
  6
CONTINUOUS
 10
6.5403183383
 20
9.8028428417
 40
0.063
100
AcDbArc
 50
90.0
 51
180.0
  0
ARC
  5
29B
100
AcDbEntity
  8
0
100
AcDbCircle
 62
7
  6
CONTINUOUS
 10
6.5403183383
 20
10.2938428417
 40
0.063
100
AcDbArc
 50
180.0
 51
270.0
  0
ARC
  5
29C
100
AcDbEntity
  8
0
100
AcDbCircle
 62
7
  6
CONTINUOUS
 10
6.4303183383
 20
10.3138428417
 40
0.047
100
AcDbArc
 50
0.0
 51
180.0
  0
ARC
  5
29D
100
AcDbEntity
  8
0
100
AcDbCircle
 62
7
  6
CONTINUOUS
 10
6.4303183383
 20
9.7828428417
 40
0.047
100
AcDbArc
 50
180.0
 51
360.0
  0
ARC
  5
29E
100
AcDbEntity
  8
0
100
AcDbCircle
 62
9
  6
CONTINUOUS
 10
11.0473571512
 20
-94.5539612271
 40
99.9901481776
100
AcDbArc
 50
89.8424431237
 51
90.0000221877
  0
ARC
  5
29F
100
AcDbEntity
  8
0
100
AcDbCircle
 62
9
  6
CONTINUOUS
 10
11.0470378739
 20
-94.3781770572
 40
99.8143640144
100
AcDbArc
 50
89.9998389541
 51
90.157695638
  0
ARC
  5
2A0
100
AcDbEntity
  8
0
100
AcDbCircle
 62
9
  6
CONTINUOUS
 10
11.0632771006
 20
-51.2096534387
 40
58.1352130549
100
AcDbArc
 50
89.7456838899
 51
90.0157283285
  0
ARC
  5
2A1
100
AcDbEntity
  8
0
100
AcDbCircle
 62
9
  6
CONTINUOUS
 10
11.0080065296
 20
-39.993373382
 40
46.9189471916
100
AcDbArc
 50
89.9519937865
 51
90.286594189
  0
ARC
  5
2A2
100
AcDbEntity
  8
0
100
AcDbCircle
 62
9
  6
CONTINUOUS
 10
11.0464469499
 20
1.6528119316
 40
7.3826595606
100
AcDbArc
 50
89.993237277
 51
93.4679389622
  0
ARC
  5
2A3
100
AcDbEntity
  8
0
100
AcDbCircle
 62
9
  6
CONTINUOUS
 10
11.0466564275
 20
1.6543979048
 40
7.3810735021
100
AcDbArc
 50
86.5270222656
 51
89.9948618992
  0
ARC
  5
2A4
100
AcDbEntity
  8
0
100
AcDbCircle
 62
7
  6
CONTINUOUS
 10
11.7449478546
 20
5.5781116255
 40
1.5483800675
100
AcDbArc
 50
215.0454162712
 51
220.1327020027
  0
ARC
  5
2A5
100
AcDbEntity
  8
0
100
AcDbCircle
 62
7
  6
CONTINUOUS
 10
11.0478157497
 20
4.3072477729
 40
0.5937777021
100
AcDbArc
 50
167.970336893
 51
170.1757884311
  0
ARC
  5
2A6
100
AcDbEntity
  8
0
100
AcDbCircle
 62
7
  6
CONTINUOUS
 10
11.0470293809
 20
4.3072682644
 40
0.5935956875
100
AcDbArc
 50
10.2652406357
 51
12.0255039511
  0
ARC
  5
2A7
100
AcDbEntity
  8
0
100
AcDbCircle
 62
9
  6
CONTINUOUS
 10
11.0471746209
 20
6.6010870437
 40
2.2423077666
100
AcDbArc
 50
270.0031624525
 51
274.1331375394
  0
ARC
  5
2A8
100
AcDbEntity
  8
0
100
AcDbCircle
 62
9
  6
CONTINUOUS
 10
11.0471198968
 20
6.5992232047
 40
2.2404439352
100
AcDbArc
 50
265.8754696773
 51
270.0045645654
  0
ARC
  5
2A9
100
AcDbEntity
  8
0
100
AcDbCircle
 62
9
  6
CONTINUOUS
 10
11.0444506954
 20
6.5655543951
 40
2.2066703599
100
AcDbArc
 50
262.6800368893
 51
265.881718807
  0
ARC
  5
2AA
100
AcDbEntity
  8
0
100
AcDbCircle
 62
9
  6
CONTINUOUS
 10
11.049991997
 20
6.5652029804
 40
2.2063139859
100
AcDbArc
 50
274.1273275103
 51
277.3251861216
  0
ARC
  5
2AB
100
AcDbEntity
  8
0
100
AcDbCircle
 62
7
  6
CONTINUOUS
 10
11.0473183383
 20
10.0483428417
 40
1.18
100
AcDbArc
 50
310.933198302
 51
228.9546208428
  0
CIRCLE
  5
2AC
100
AcDbEntity
  8
0
100
AcDbCircle
 62
7
  6
CONTINUOUS
 10
11.0473183383
 20
10.0483428417
 40
0.58
  0
ARC
  5
2AD
100
AcDbEntity
  8
0
100
AcDbCircle
 62
7
  6
CONTINUOUS
 10
12.4237880478
 20
9.7871687097
 40
0.4233655874
100
AcDbArc
 50
154.6872545383
 51
159.2589225648
  0
ARC
  5
2AE
100
AcDbEntity
  8
0
100
AcDbCircle
 62
9
  6
CONTINUOUS
 10
12.0209849856
 20
9.0692758319
 40
0.3964093939
100
AcDbArc
 50
108.0353974969
 51
110.4799533279
  0
ARC
  5
2AF
100
AcDbEntity
  8
0
100
AcDbCircle
 62
7
  6
CONTINUOUS
 10
11.668095048
 20
9.423725967
 40
0.2701989443
100
AcDbArc
 50
149.9641340081
 51
170.4346536081
  0
ARC
  5
2B0
100
AcDbEntity
  8
0
100
AcDbCircle
 62
7
  6
CONTINUOUS
 10
15.0473183383
 20
10.0483428417
 40
1.1875
100
AcDbArc
 50
14.2398083921
 51
345.759002017
  0
CIRCLE
  5
2B1
100
AcDbEntity
  8
0
100
AcDbCircle
 62
7
  6
CONTINUOUS
 10
15.0473183383
 20
10.0483428417
 40
0.49
  0
ARC
  5
2B2
100
AcDbEntity
  8
0
100
AcDbCircle
 62
7
  6
CONTINUOUS
 10
18.2523183383
 20
10.0483428417
 40
0.188
100
AcDbArc
 50
281.7234029883
 51
78.2765970117
  0
ARC
  5
2B3
100
AcDbEntity
  8
0
100
AcDbCircle
 62
7
  6
CONTINUOUS
 10
18.3033183383
 20
9.8025787272
 40
0.063
100
AcDbArc
 50
101.7234029886
 51
180.0
  0
ARC
  5
2B4
100
AcDbEntity
  8
0
100
AcDbCircle
 62
7
  6
CONTINUOUS
 10
18.3033183383
 20
10.2941069563
 40
0.063
100
AcDbArc
 50
180.0
 51
258.2765970114
  0
ARC
  5
2B5
100
AcDbEntity
  8
0
100
AcDbCircle
 62
7
  6
CONTINUOUS
 10
18.1773183383
 20
10.3813428417
 40
0.063
100
AcDbArc
 50
0.0
 51
90.0
  0
ARC
  5
2B6
100
AcDbEntity
  8
0
100
AcDbCircle
 62
7
  6
CONTINUOUS
 10
18.1773183383
 20
9.7153428417
 40
0.063
100
AcDbArc
 50
270.0
 51
360.0
  0
ARC
  5
2B7
100
AcDbEntity
  8
0
100
AcDbCircle
 62
7
  6
CONTINUOUS
 10
15.5543183383
 20
10.2938428417
 40
0.063
100
AcDbArc
 50
270.0
 51
360.0
  0
ARC
  5
2B8
100
AcDbEntity
  8
0
100
AcDbCircle
 62
7
  6
CONTINUOUS
 10
15.5543183383
 20
9.8028428417
 40
0.063
100
AcDbArc
 50
0.0
 51
90.0
  0
ARC
  5
2B9
100
AcDbEntity
  8
0
100
AcDbCircle
 62
7
  6
CONTINUOUS
 10
15.6643183383
 20
9.7828428417
 40
0.047
100
AcDbArc
 50
180.0
 51
360.0
  0
ARC
  5
2BA
100
AcDbEntity
  8
0
100
AcDbCircle
 62
7
  6
CONTINUOUS
 10
15.6643183383
 20
10.3138428417
 40
0.047
100
AcDbArc
 50
0.0
 51
180.0
  0
ARC
  5
2BB
100
AcDbEntity
  8
0
100
AcDbCircle
 62
7
  6
CONTINUOUS
 10
26.6333544334
 20
6.4760982016
 40
15.3186145294
100
AcDbArc
 50
178.320793812
 51
178.5049412734
  0
ARC
  5
2BC
100
AcDbEntity
  8
0
100
AcDbCircle
 62
7
  6
CONTINUOUS
 10
33.4472388964
 20
5.9518757822
 40
21.8997980199
100
AcDbArc
 50
177.497978878
 51
177.6167684092
  0
ARC
  5
2BD
100
AcDbEntity
  8
0
100
AcDbCircle
 62
7
  6
CONTINUOUS
 10
42.7200669854
 20
12.4494398402
 40
32.302550801
100
AcDbArc
 50
185.9587678451
 51
186.0908806889
  0
ARC
  5
2BE
100
AcDbEntity
  8
0
100
AcDbCircle
 62
9
  6
CONTINUOUS
 10
35.9176710356
 20
20.2852871057
 40
27.9160329696
100
AcDbArc
 50
202.7823790939
 51
203.0293258992
  0
LINE
  5
2BF
100
AcDbEntity
  8
0
100
AcDbLine
 62
7
  6
CONTINUOUS
 10
7.0473183383
 20
8.8786311963
 11
7.0473183383
 21
9.3838011577
  0
LINE
  5
2C0
100
AcDbEntity
  8
0
100
AcDbLine
 62
7
  6
CONTINUOUS
 10
6.0343183383
 20
9.463487019
 11
6.4718083581
 21
9.7160719997
  0
LINE
  5
2C1
100
AcDbEntity
  8
0
100
AcDbLine
 62
7
  6
CONTINUOUS
 10
6.0343183383
 20
10.6331986644
 11
6.4718083581
 21
10.3806136837
  0
LINE
  5
2C2
100
AcDbEntity
  8
0
100
AcDbLine
 62
7
  6
CONTINUOUS
 10
7.0473183383
 20
11.2180544871
 11
7.0473183383
 21
10.7128845257
  0
LINE
  5
2C3
100
AcDbEntity
  8
0
100
AcDbLine
 62
7
  6
CONTINUOUS
 10
8.0603183383
 20
10.6331986644
 11
7.6228283185
 21
10.3806136837
  0
LINE
  5
2C4
100
AcDbEntity
  8
0
100
AcDbLine
 62
7
  6
CONTINUOUS
 10
8.0603183383
 20
9.463487019
 11
7.6228283185
 21
9.7160719997
  0
LINE
  5
2C5
100
AcDbEntity
  8
0
100
AcDbLine
 62
7
  6
CONTINUOUS
 10
15.0473183383
 20
8.8786311963
 11
15.0473183383
 21
9.3838011577
  0
LINE
  5
2C6
100
AcDbEntity
  8
0
100
AcDbLine
 62
7
  6
CONTINUOUS
 10
14.0343183383
 20
9.463487019
 11
14.4718083581
 21
9.7160719997
  0
LINE
  5
2C7
100
AcDbEntity
  8
0
100
AcDbLine
 62
7
  6
CONTINUOUS
 10
14.0343183383
 20
10.6331986644
 11
14.4718083581
 21
10.3806136837
  0
LINE
  5
2C8
100
AcDbEntity
  8
0
100
AcDbLine
 62
7
  6
CONTINUOUS
 10
15.0473183383
 20
11.2180544871
 11
15.0473183383
 21
10.7128845257
  0
LINE
  5
2C9
100
AcDbEntity
  8
0
100
AcDbLine
 62
7
  6
CONTINUOUS
 10
16.0603183383
 20
10.6331986644
 11
15.6228283185
 21
10.3806136837
  0
LINE
  5
2CA
100
AcDbEntity
  8
0
100
AcDbLine
 62
7
  6
CONTINUOUS
 10
16.0603183383
 20
9.463487019
 11
15.6228283185
 21
9.7160719997
  0
SPLINE
  5
2CB
100
AcDbEntity
  8
0
100
AcDbSpline
 62
7
  6
CONTINUOUS
 70
0
 71
3
 72
11
 73
7
 74
0
 42
0.0000001
 43
0.0000001
 44
0.0000000001
 40
0.0
 40
0.0
 40
0.0
 40
0.0
 40
0.2500884878
 40
0.5001480475
 40
0.7501462578
 40
1.0
 40
1.0
 40
1.0
 40
1.0
 10
11.0473502627
 20
3.7288208791
 30
0.0
 10
11.0620619411
 20
3.7288209875
 30
0.0
 10
11.0914948124
 20
3.7298307775
 30
0.0
 10
11.1354118999
 20
3.734503407
 30
0.0
 10
11.1788692324
 20
3.7422894184
 30
0.0
 10
11.2074018536
 20
3.7495212713
 30
0.0
 10
11.2215039832
 20
3.7536634088
 30
0.0
  0
SPLINE
  5
2CC
100
AcDbEntity
  8
0
100
AcDbSpline
 62
7
  6
CONTINUOUS
 70
0
 71
3
 72
16
 73
12
 74
0
 42
0.0000001
 43
0.0000001
 44
0.0000000001
 40
0.0
 40
0.0
 40
0.0
 40
0.0
 40
0.1256773794
 40
0.2512839673
 40
0.3766230107
 40
0.5017358618
 40
0.6266087488
 40
0.7512404379
 40
0.813529938
 40
0.8757914183
 40
1.0
 40
1.0
 40
1.0
 40
1.0
 10
11.2215039832
 20
3.7536634088
 30
0.0
 10
11.2446952153
 20
3.7604752336
 30
0.0
 10
11.2903020081
 20
3.7768666982
 30
0.0
 10
11.3552093441
 20
3.8093938827
 30
0.0
 10
11.4156136538
 20
3.8495043669
 30
0.0
 10
11.4705189349
 20
3.8966513632
 30
0.0
 10
11.5190403816
 20
3.9501633378
 30
0.0
 10
11.5534645793
 20
3.9994811972
 30
0.0
 10
11.576987248
 20
4.0412704943
 30
0.0
 10
11.5977037304
 20
4.0844215291
 30
0.0
 10
11.6100488001
 20
4.1182375119
 30
0.0
 10
11.6167289622
 20
4.1411729319
 30
0.0
  0
SPLINE
  5
2CD
100
AcDbEntity
  8
0
100
AcDbSpline
 62
7
  6
CONTINUOUS
 70
0
 71
3
 72
12
 73
8
 74
0
 42
0.0000001
 43
0.0000001
 44
0.0000000001
 40
0.0
 40
0.0
 40
0.0
 40
0.0
 40
0.2500351214
 40
0.3751217308
 40
0.5001565136
 40
0.7500445315
 40
1.0
 40
1.0
 40
1.0
 40
1.0
 10
11.6167289622
 20
4.1411729319
 30
0.0
 10
11.6231287414
 20
4.163145695
 30
0.0
 10
11.6308729791
 20
4.1966965262
 30
0.0
 10
11.6372923273
 20
4.2420424882
 30
0.0
 10
11.6410509983
 20
4.2876782095
 30
0.0
 10
11.6407554818
 20
4.3450061519
 30
0.0
 10
11.6352006568
 20
4.3905378664
 30
0.0
 10
11.6311235781
 20
4.4130501579
 30
0.0
  0
SPLINE
  5
2CE
100
AcDbEntity
  8
0
100
AcDbSpline
 62
7
  6
CONTINUOUS
 70
0
 71
3
 72
12
 73
8
 74
0
 42
0.0000001
 43
0.0000001
 44
0.0000000001
 40
0.0
 40
0.0
 40
0.0
 40
0.0
 40
0.2499502481
 40
0.4998413057
 40
0.6248780978
 40
0.7499650998
 40
1.0
 40
1.0
 40
1.0
 40
1.0
 10
10.4627452722
 20
4.4085616214
 30
0.0
 10
10.4589113918
 20
4.3864215774
 30
0.0
 10
10.4537547159
 20
4.3416717512
 30
0.0
 10
10.4537217263
 20
4.2853713159
 30
0.0
 10
10.4575488023
 20
4.240562143
 30
0.0
 10
10.4639399252
 20
4.1960386403
 30
0.0
 10
10.471556095
 20
4.1630928119
 30
0.0
 10
10.4778264762
 20
4.1415079898
 30
0.0
  0
SPLINE
  5
2CF
100
AcDbEntity
  8
0
100
AcDbSpline
 62
7
  6
CONTINUOUS
 70
0
 71
3
 72
16
 73
12
 74
0
 42
0.0000001
 43
0.0000001
 44
0.0000000001
 40
0.0
 40
0.0
 40
0.0
 40
0.0
 40
0.1242093258
 40
0.186470987
 40
0.2487603086
 40
0.3733909983
 40
0.4982633825
 40
0.6233763774
 40
0.7487160029
 40
0.8743227286
 40
1.0
 40
1.0
 40
1.0
 40
1.0
 10
10.4778264762
 20
4.1415079898
 30
0.0
 10
10.4844889437
 20
4.1185734662
 30
0.0
 10
10.4968065114
 20
4.0847568607
 30
0.0
 10
10.517486414
 20
4.0416013239
 30
0.0
 10
10.5409730071
 20
3.9998056378
 30
0.0
 10
10.5753536689
 20
3.9504760341
 30
0.0
 10
10.6238247632
 20
3.8969430947
 30
0.0
 10
10.6786826197
 20
3.8497684815
 30
0.0
 10
10.7390431945
 20
3.8096245491
 30
0.0
 10
10.8039106562
 20
3.777057934
 30
0.0
 10
10.849494754
 20
3.7606385645
 30
0.0
 10
10.8726757285
 20
3.7538132575
 30
0.0
  0
SPLINE
  5
2D0
100
AcDbEntity
  8
0
100
AcDbSpline
 62
7
  6
CONTINUOUS
 70
0
 71
3
 72
10
 73
6
 74
0
 42
0.0000001
 43
0.0000001
 44
0.0000000001
 40
0.0
 40
0.0
 40
0.0
 40
0.0
 40
0.2499315483
 40
0.4999974041
 40
1.0
 40
1.0
 40
1.0
 40
1.0
 10
10.8726757285
 20
3.7538132575
 30
0.0
 10
10.8868185909
 20
3.7496490936
 30
0.0
 10
10.9154271979
 20
3.7423401592
 30
0.0
 10
10.9735212071
 20
3.7319152679
 30
0.0
 10
11.0178557104
 20
3.7288206617
 30
0.0
 10
11.0473502627
 20
3.7288208791
 30
0.0
  0
SPLINE
  5
2D1
100
AcDbEntity
  8
0
100
AcDbSpline
 62
7
  6
CONTINUOUS
 70
0
 71
3
 72
12
 73
8
 74
0
 42
0.0000001
 43
0.0000001
 44
0.0000000001
 40
0.0
 40
0.0
 40
0.0
 40
0.0
 40
0.257771352
 40
0.3872235323
 40
0.5156575329
 40
0.7654608947
 40
1.0
 40
1.0
 40
1.0
 40
1.0
 10
11.5613183696
 20
5.4217671065
 30
0.0
 10
11.5638416513
 20
5.3620765998
 30
0.0
 10
11.5682802044
 20
5.2724350387
 30
0.0
 10
11.5755617202
 20
5.1531418731
 30
0.0
 10
11.5836954011
 20
5.0357544799
 30
0.0
 10
11.5954235539
 20
4.8942080047
 30
0.0
 10
11.6067416112
 20
4.7825156534
 30
0.0
 10
11.6127849913
 20
4.7284933689
 30
0.0
  0
SPLINE
  5
2D2
100
AcDbEntity
  8
0
100
AcDbSpline
 62
7
  6
CONTINUOUS
 70
0
 71
3
 72
14
 73
10
 74
0
 42
0.0000001
 43
0.0000001
 44
0.0000000001
 40
0.0
 40
0.0
 40
0.0
 40
0.0
 40
0.235031762
 40
0.3551236168
 40
0.4777336012
 40
0.603383111
 40
0.7323895739
 40
0.864828509
 40
1.0
 40
1.0
 40
1.0
 40
1.0
 10
10.5275507058
 20
6.8625401675
 30
0.0
 10
10.5323103492
 20
6.7497321275
 30
0.0
 10
10.538172237
 20
6.5792230201
 30
0.0
 10
10.5431740232
 20
6.3497738726
 30
0.0
 10
10.5454020151
 20
6.1728304334
 30
0.0
 10
10.5458990433
 20
5.9915907052
 30
0.0
 10
10.5443480198
 20
5.8056339241
 30
0.0
 10
10.540447887
 20
5.6151356654
 30
0.0
 10
10.5360455872
 20
5.4866463852
 30
0.0
 10
10.5333183659
 20
5.4217677864
 30
0.0
  0
SPLINE
  5
2D3
100
AcDbEntity
  8
0
100
AcDbSpline
 62
7
  6
CONTINUOUS
 70
0
 71
3
 72
14
 73
10
 74
0
 42
0.0000001
 43
0.0000001
 44
0.0000000001
 40
0.0
 40
0.0
 40
0.0
 40
0.0
 40
0.2350449444
 40
0.3551401108
 40
0.4777512976
 40
0.6033998321
 40
0.7324030243
 40
0.8648362998
 40
1.0
 40
1.0
 40
1.0
 40
1.0
 10
11.5663832605
 20
6.8625404426
 30
0.0
 10
11.561688386
 20
6.7497237474
 30
0.0
 10
11.5559277522
 20
6.5792038519
 30
0.0
 10
11.5510587717
 20
6.3497441677
 30
0.0
 10
11.5489288885
 20
6.172798459
 30
0.0
 10
11.5485254389
 20
5.991560627
 30
0.0
 10
11.5501620223
 20
5.8056100385
 30
0.0
 10
11.5541360185
 20
5.6151220719
 30
0.0
 10
11.5585759382
 20
5.4866410848
 30
0.0
 10
11.5613183395
 20
5.4217671004
 30
0.0
  0
SPLINE
  5
2D4
100
AcDbEntity
  8
0
100
AcDbSpline
 62
7
  6
CONTINUOUS
 70
0
 71
3
 72
14
 73
10
 74
0
 42
0.0000001
 43
0.0000001
 44
0.0000000001
 40
0.0
 40
0.0
 40
0.0
 40
0.0
 40
0.1083916214
 40
0.2215888959
 40
0.3395788617
 40
0.4623484116
 40
0.5898696313
 40
0.7220549912
 40
1.0
 40
1.0
 40
1.0
 40
1.0
 10
11.7346894811
 20
8.6872894188
 30
0.0
 10
11.7247299607
 20
8.6234594425
 30
0.0
 10
11.705470868
 20
8.4927955291
 30
0.0
 10
11.6791065323
 20
8.2921206769
 30
0.0
 10
11.6547698013
 20
8.0825601465
 30
0.0
 10
11.6325933597
 20
7.8641776923
 30
0.0
 10
11.6127110569
 20
7.6370800251
 30
0.0
 10
11.5889766461
 20
7.3175087772
 30
0.0
 10
11.575550133
 20
7.0734045018
 30
0.0
 10
11.5683184062
 20
6.9079048948
 30
0.0
  0
SPLINE
  5
2D5
100
AcDbEntity
  8
0
100
AcDbSpline
 62
7
  6
CONTINUOUS
 70
0
 71
3
 72
14
 73
10
 74
0
 42
0.0000001
 43
0.0000001
 44
0.0000000001
 40
0.0
 40
0.0
 40
0.0
 40
0.0
 40
0.108375933
 40
0.2215599383
 40
0.3395403942
 40
0.4623055868
 40
0.5898287181
 40
0.7220221256
 40
1.0
 40
1.0
 40
1.0
 40
1.0
 10
10.358606629
 20
8.686768033
 30
0.0
 10
10.368565298
 20
8.6229643022
 30
0.0
 10
10.3878307931
 20
8.492353405
 30
0.0
 10
10.4142257316
 20
8.2917585986
 30
0.0
 10
10.4386134988
 20
8.0822753134
 30
0.0
 10
10.4608603265
 20
7.8639643317
 30
0.0
 10
10.4808312018
 20
7.636930356
 30
0.0
 10
10.504709751
 20
7.3174274539
 30
0.0
 10
10.5182647354
 20
7.0733694303
 30
0.0
 10
10.5255898187
 20
6.9078972299
 30
0.0
  0
SPLINE
  5
2D6
100
AcDbEntity
  8
0
100
AcDbSpline
 62
7
  6
CONTINUOUS
 70
0
 71
3
 72
12
 73
8
 74
0
 42
0.0000001
 43
0.0000001
 44
0.0000000001
 40
0.0
 40
0.0
 40
0.0
 40
0.0
 40
0.2576713291
 40
0.3870823425
 40
0.5154906831
 40
0.7653127422
 40
1.0
 40
1.0
 40
1.0
 40
1.0
 10
10.533318367
 20
5.4217677862
 30
0.0
 10
10.530818101
 20
5.3622882865
 30
0.0
 10
10.5264137396
 20
5.2729614563
 30
0.0
 10
10.5191765167
 20
5.1540823512
 30
0.0
 10
10.5110842742
 20
5.0370757321
 30
0.0
 10
10.499400034
 20
4.8959428958
 30
0.0
 10
10.4881103332
 20
4.7845652111
 30
0.0
 10
10.4820786217
 20
4.7306799247
 30
0.0
  0
SPLINE
  5
2D7
100
AcDbEntity
  8
0
100
AcDbSpline
 62
7
  6
CONTINUOUS
 70
0
 71
3
 72
9
 73
5
 74
0
 42
0.0000001
 43
0.0000001
 44
0.0000000001
 40
0.0
 40
0.0
 40
0.0
 40
0.0
 40
0.5354237306
 40
1.0
 40
1.0
 40
1.0
 40
1.0
 10
10.066131174
 20
9.9377967299
 30
0.0
 10
10.0718755707
 20
9.9223293411
 30
0.0
 10
10.082332702
 20
9.8933391163
 30
0.0
 10
10.0921337918
 20
9.8641196611
 30
0.0
 10
10.0965034904
 20
9.8504864239
 30
0.0
  0
SPLINE
  5
2D8
100
AcDbEntity
  8
0
100
AcDbSpline
 62
7
  6
CONTINUOUS
 70
0
 71
3
 72
15
 73
11
 74
0
 42
0.0000001
 43
0.0000001
 44
0.0000000001
 40
0.0
 40
0.0
 40
0.0
 40
0.0
 40
0.1000840086
 40
0.2071437218
 40
0.3213587486
 40
0.4427941111
 40
0.5714139625
 40
0.7071796887
 40
0.8500537438
 40
1.0
 40
1.0
 40
1.0
 40
1.0
 10
10.0965034904
 20
9.8504864239
 30
0.0
 10
10.1086616504
 20
9.8125536275
 30
0.0
 10
10.132866556
 20
9.7337342288
 30
0.0
 10
10.1676681189
 20
9.6106485882
 30
0.0
 10
10.2019697252
 20
9.4786224879
 30
0.0
 10
10.235591781
 20
9.3375852593
 30
0.0
 10
10.2683546861
 20
9.1875546273
 30
0.0
 10
10.3000617126
 20
9.0285871717
 30
0.0
 10
10.3305178219
 20
8.8607420201
 30
0.0
 10
10.3494032074
 20
8.7457330044
 30
0.0
 10
10.358606629
 20
8.6867680324
 30
0.0
  0
SPLINE
  5
2D9
100
AcDbEntity
  8
0
100
AcDbSpline
 62
7
  6
CONTINUOUS
 70
0
 71
3
 72
15
 73
11
 74
0
 42
0.0000001
 43
0.0000001
 44
0.0000000001
 40
0.0
 40
0.0
 40
0.0
 40
0.0
 40
0.1000651638
 40
0.2071170649
 40
0.3213333792
 40
0.442775569
 40
0.5714046138
 40
0.7071787147
 40
0.8500570202
 40
1.0
 40
1.0
 40
1.0
 40
1.0
 10
11.9971495594
 20
9.8499552364
 30
0.0
 10
11.9849465907
 20
9.8120772108
 30
0.0
 10
11.9606606745
 20
9.7333605906
 30
0.0
 10
11.9257651073
 20
9.6104150851
 30
0.0
 10
11.8913909323
 20
9.4785169984
 30
0.0
 10
11.8577169681
 20
9.3376006862
 30
0.0
 10
11.8249221939
 20
9.1876890358
 30
0.0
 10
11.7932026904
 20
9.0288434872
 30
0.0
 10
11.7627528238
 20
8.8611279877
 30
0.0
 10
11.7438826277
 20
8.7462077561
 30
0.0
 10
11.7346894801
 20
8.6872894177
 30
0.0
  0
SPLINE
  5
2DA
100
AcDbEntity
  8
0
100
AcDbSpline
 62
7
  6
CONTINUOUS
 70
0
 71
3
 72
9
 73
5
 74
0
 42
0.0000001
 43
0.0000001
 44
0.0000000001
 40
0.0
 40
0.0
 40
0.0
 40
0.0
 40
0.4653929033
 40
1.0
 40
1.0
 40
1.0
 40
1.0
 10
11.9971496238
 20
9.8499554282
 30
0.0
 10
12.0015453938
 20
9.8635999229
 30
0.0
 10
12.0114324046
 20
9.892776576
 30
0.0
 10
12.02203639
 20
9.9216990286
 30
0.0
 10
12.0278606848
 20
9.9371016615
 30
0.0
  0
SPLINE
  5
2DB
100
AcDbEntity
  8
0
100
AcDbSpline
 62
7
  6
CONTINUOUS
 70
0
 71
3
 72
15
 73
11
 74
0
 42
0.0000001
 43
0.0000001
 44
0.0000000001
 40
0.0
 40
0.0
 40
0.0
 40
0.0
 40
0.2026840558
 40
0.3729011805
 40
0.5161264392
 40
0.6395509568
 40
0.7499924022
 40
0.8485025613
 40
0.9322308125
 40
1.0
 40
1.0
 40
1.0
 40
1.0
 10
11.6278396881
 20
4.4308647627
 30
0.0
 10
11.6280422866
 20
4.4279303509
 30
0.0
 10
11.6283100495
 20
4.4225232114
 30
0.0
 10
11.6283073225
 20
4.415029216
 30
0.0
 10
11.6278870159
 20
4.4086972792
 30
0.0
 10
11.6270713465
 20
4.4032788166
 30
0.0
 10
11.6259332318
 20
4.3985856359
 30
0.0
 10
11.6245272365
 20
4.3945654468
 30
0.0
 10
11.6228624175
 20
4.3913310328
 30
0.0
 10
11.6214152151
 20
4.3896152703
 30
0.0
 10
11.6206304674
 20
4.3890224737
 30
0.0
  0
SPLINE
  5
2DC
100
AcDbEntity
  8
0
100
AcDbSpline
 62
9
  6
CONTINUOUS
 70
0
 71
3
 72
11
 73
7
 74
0
 42
0.0000001
 43
0.0000001
 44
0.0000000001
 40
0.0
 40
0.0
 40
0.0
 40
0.0
 40
0.1997485485
 40
0.4337376367
 40
0.7008603491
 40
1.0
 40
1.0
 40
1.0
 40
1.0
 10
10.5255899106
 20
6.9078988591
 30
0.0
 10
10.5420403935
 20
6.9095713345
 30
0.0
 10
10.5778023688
 20
6.912799623
 30
0.0
 10
10.6356586739
 20
6.9171414226
 30
0.0
 10
10.7017743398
 20
6.9213038779
 30
0.0
 10
10.7485850696
 20
6.9237811406
 30
0.0
 10
10.7733185665
 20
6.9249880578
 30
0.0
  0
SPLINE
  5
2DD
100
AcDbEntity
  8
0
100
AcDbSpline
 62
7
  6
CONTINUOUS
 70
0
 71
3
 72
15
 73
11
 74
0
 42
0.0000001
 43
0.0000001
 44
0.0000000001
 40
0.0
 40
0.0
 40
0.0
 40
0.0
 40
0.1080446453
 40
0.2221214699
 40
0.3417013569
 40
0.466260999
 40
0.5952220291
 40
0.7277531152
 40
0.8629690806
 40
1.0
 40
1.0
 40
1.0
 40
1.0
 10
11.4937855107
 20
9.0219159147
 30
0.0
 10
11.4857936817
 20
8.9465402983
 30
0.0
 10
11.4689087933
 20
8.7916293934
 30
0.0
 10
11.4428274876
 20
8.5533338772
 30
0.0
 10
11.4164814955
 20
8.3034126583
 30
0.0
 10
11.3910994081
 20
8.0428954394
 30
0.0
 10
11.3679212193
 20
7.7730496274
 30
0.0
 10
11.3478054254
 20
7.4954595005
 30
0.0
 10
11.3316439074
 20
7.2119381816
 30
0.0
 10
11.3241353958
 20
7.0210789151
 30
0.0
 10
11.3213183395
 20
6.9249869374
 30
0.0
  0
LINE
  5
2DE
100
AcDbEntity
  8
0
100
AcDbLine
 62
9
  6
CONTINUOUS
 10
11.0472984807
 20
4.3587792821
 11
11.0473184303
 21
5.4361869506
  0
SPLINE
  5
2DF
100
AcDbEntity
  8
0
100
AcDbSpline
 62
9
  6
CONTINUOUS
 70
0
 71
3
 72
11
 73
7
 74
0
 42
0.0000001
 43
0.0000001
 44
0.0000000001
 40
0.0
 40
0.0
 40
0.0
 40
0.0
 40
0.2597440683
 40
0.5126900928
 40
0.7592648969
 40
1.0
 40
1.0
 40
1.0
 40
1.0
 10
11.4937855128
 20
9.0219159342
 30
0.0
 10
11.5185868197
 20
8.996068013
 30
0.0
 10
11.5658724152
 20
8.9434119139
 30
0.0
 10
11.6302438293
 20
8.8607104715
 30
0.0
 10
11.6868809601
 20
8.7756585741
 30
0.0
 10
11.7197075342
 20
8.7169173265
 30
0.0
 10
11.7346894811
 20
8.6872894188
 30
0.0
  0
SPLINE
  5
2E0
100
AcDbEntity
  8
0
100
AcDbSpline
 62
7
  6
CONTINUOUS
 70
0
 71
3
 72
15
 73
11
 74
0
 42
0.0000001
 43
0.0000001
 44
0.0000000001
 40
0.0
 40
0.0
 40
0.0
 40
0.0
 40
0.2043496896
 40
0.3819963755
 40
0.5348107525
 40
0.6648817739
 40
0.77433929
 40
0.8649383909
 40
0.9389323096
 40
1.0
 40
1.0
 40
1.0
 40
1.0
 10
10.4667920706
 20
4.4309891376
 30
0.0
 10
10.4665865172
 20
4.4280063281
 30
0.0
 10
10.4663158021
 20
4.4224214443
 30
0.0
 10
10.4663326699
 20
4.414592683
 30
0.0
 10
10.466761899
 20
4.40786297
 30
0.0
 10
10.4675636419
 20
4.4021719294
 30
0.0
 10
10.4686901376
 20
4.397465578
 30
0.0
 10
10.4701188547
 20
4.3937024311
 30
0.0
 10
10.4718335161
 20
4.3908549298
 30
0.0
 10
10.4732934454
 20
4.3894641558
 30
0.0
 10
10.4740483539
 20
4.3889861962
 30
0.0
  0
SPLINE
  5
2E1
100
AcDbEntity
  8
0
100
AcDbSpline
 62
7
  6
CONTINUOUS
 70
0
 71
3
 72
12
 73
8
 74
0
 42
0.0000001
 43
0.0000001
 44
0.0000000001
 40
0.0
 40
0.0
 40
0.0
 40
0.0
 40
0.261362195
 40
0.5172431304
 40
0.6417913509
 40
0.7638309649
 40
1.0
 40
1.0
 40
1.0
 40
1.0
 10
11.0473183386
 20
3.8085283873
 30
0.0
 10
11.0299290351
 20
3.8085286293
 30
0.0
 10
10.9954616484
 20
3.8112005353
 30
0.0
 10
10.9537161478
 20
3.8209924901
 30
0.0
 10
10.9222690644
 20
3.8324283417
 30
0.0
 10
10.8929597835
 20
3.8456155377
 30
0.0
 10
10.8722849174
 20
3.8576734932
 30
0.0
 10
10.8593002574
 20
3.8665222605
 30
0.0
  0
SPLINE
  5
2E2
100
AcDbEntity
  8
0
100
AcDbSpline
 62
9
  6
CONTINUOUS
 70
0
 71
3
 72
11
 73
7
 74
0
 42
0.0000001
 43
0.0000001
 44
0.0000000001
 40
0.0
 40
0.0
 40
0.0
 40
0.0
 40
0.2205845013
 40
0.4607658633
 40
0.7205654169
 40
1.0
 40
1.0
 40
1.0
 40
1.0
 10
10.8593002574
 20
3.8665222605
 30
0.0
 10
10.8605083102
 20
3.903178005
 30
0.0
 10
10.8635155498
 20
3.9797304428
 30
0.0
 10
10.8694289768
 20
4.0993913312
 30
0.0
 10
10.8769388702
 20
4.2287650128
 30
0.0
 10
10.8827972178
 20
4.31823039
 30
0.0
 10
10.8859771385
 20
4.3645818379
 30
0.0
  0
SPLINE
  5
2E3
100
AcDbEntity
  8
0
100
AcDbSpline
 62
7
  6
CONTINUOUS
 70
0
 71
3
 72
14
 73
10
 74
0
 42
0.0000001
 43
0.0000001
 44
0.0000000001
 40
0.0
 40
0.0
 40
0.0
 40
0.0
 40
0.115896233
 40
0.2413006521
 40
0.373309758
 40
0.5083141033
 40
0.7717573964
 40
0.89215252
 40
1.0
 40
1.0
 40
1.0
 40
1.0
 10
10.7632983862
 20
4.3768681543
 30
0.0
 10
10.7630239091
 20
4.4177786196
 30
0.0
 10
10.7627137108
 20
4.5029577137
 30
0.0
 10
10.7628887906
 20
4.6347364632
 30
0.0
 10
10.7637089068
 20
4.7732579943
 30
0.0
 10
10.7654668405
 20
4.9605013359
 30
0.0
 10
10.7679262975
 20
5.1436369213
 30
0.0
 10
10.7705085688
 20
5.317182851
 30
0.0
 10
10.7717413513
 20
5.397743098
 30
0.0
 10
10.7723183383
 20
5.4358089006
 30
0.0
  0
SPLINE
  5
2E4
100
AcDbEntity
  8
0
100
AcDbSpline
 62
7
  6
CONTINUOUS
 70
0
 71
3
 72
15
 73
11
 74
0
 42
0.0000001
 43
0.0000001
 44
0.0000000001
 40
0.0
 40
0.0
 40
0.0
 40
0.0
 40
0.108048238
 40
0.2221282878
 40
0.3417105556
 40
0.4662713168
 40
0.5952319359
 40
0.7277610473
 40
0.8629736072
 40
1.0
 40
1.0
 40
1.0
 40
1.0
 10
10.5998698554
 20
9.0219523443
 30
0.0
 10
10.6079061487
 20
8.9465744958
 30
0.0
 10
10.6248855122
 20
8.7916600007
 30
0.0
 10
10.651113943
 20
8.5533601432
 30
0.0
 10
10.6776094163
 20
8.303435299
 30
0.0
 10
10.7031361718
 20
8.0429147259
 30
0.0
 10
10.7264469722
 20
7.7730653716
 30
0.0
 10
10.7466782517
 20
7.4954714037
 30
0.0
 10
10.7629328835
 20
7.2119457237
 30
0.0
 10
10.7704848747
 20
7.0210824902
 30
0.0
 10
10.7733182883
 20
6.9249885878
 30
0.0
  0
SPLINE
  5
2E5
100
AcDbEntity
  8
0
100
AcDbSpline
 62
9
  6
CONTINUOUS
 70
0
 71
3
 72
10
 73
6
 74
0
 42
0.0000001
 43
0.0000001
 44
0.0000000001
 40
0.0
 40
0.0
 40
0.0
 40
0.0
 40
0.24096642
 40
0.487681306
 40
1.0
 40
1.0
 40
1.0
 40
1.0
 10
10.3586065781
 20
8.6867683593
 30
0.0
 10
10.3737036134
 20
8.7164175939
 30
0.0
 10
10.4067127265
 20
8.7752085567
 30
0.0
 10
10.4833532982
 20
8.8901686869
 30
0.0
 10
10.5510187991
 20
8.9707904774
 30
0.0
 10
10.5998698554
 20
9.0219523443
 30
0.0
  0
SPLINE
  5
2E6
100
AcDbEntity
  8
0
100
AcDbSpline
 62
7
  6
CONTINUOUS
 70
0
 71
3
 72
16
 73
12
 74
0
 42
0.0000001
 43
0.0000001
 44
0.0000000001
 40
0.0
 40
0.0
 40
0.0
 40
0.0
 40
0.0461066201
 40
0.0955572626
 40
0.2037041423
 40
0.3226364005
 40
0.4500851696
 40
0.583598416
 40
0.7209795653
 40
0.8603365234
 40
1.0
 40
1.0
 40
1.0
 40
1.0
 10
10.5920523549
 20
9.0960113642
 30
0.0
 10
10.5916461751
 20
9.0999045684
 30
0.0
 10
10.5911153474
 20
9.1080076371
 30
0.0
 10
10.591090984
 20
9.1253105363
 30
0.0
 10
10.5931017816
 20
9.1487474895
 30
0.0
 10
10.5983587159
 20
9.1784144618
 30
0.0
 10
10.6063673542
 20
9.2096842271
 30
0.0
 10
10.6168783101
 20
9.2418496313
 30
0.0
 10
10.6296147436
 20
9.2742862939
 30
0.0
 10
10.6442803438
 20
9.3064685194
 30
0.0
 10
10.6551647437
 20
9.3275201523
 30
0.0
 10
10.6608587976
 20
9.3379205368
 30
0.0
  0
SPLINE
  5
2E7
100
AcDbEntity
  8
0
100
AcDbSpline
 62
7
  6
CONTINUOUS
 70
0
 71
3
 72
12
 73
8
 74
0
 42
0.0000001
 43
0.0000001
 44
0.0000000001
 40
0.0
 40
0.0
 40
0.0
 40
0.0
 40
0.2608219319
 40
0.5172026986
 40
0.7649160396
 40
0.8843508756
 40
1.0
 40
1.0
 40
1.0
 40
1.0
 10
10.6608587976
 20
9.3379205368
 30
0.0
 10
10.6665402827
 20
9.34829806
 30
0.0
 10
10.6764529434
 20
9.3696510319
 30
0.0
 10
10.6868602506
 20
9.4028471509
 30
0.0
 10
10.6916192917
 20
9.4308339918
 30
0.0
 10
10.6928861793
 20
9.4527134958
 30
0.0
 10
10.6926920976
 20
9.4633887618
 30
0.0
 10
10.6923793916
 20
9.468625324
 30
0.0
  0
SPLINE
  5
2E8
100
AcDbEntity
  8
0
100
AcDbSpline
 62
9
  6
CONTINUOUS
 70
0
 71
3
 72
13
 73
9
 74
0
 42
0.0000001
 43
0.0000001
 44
0.0000000001
 40
0.0
 40
0.0
 40
0.0
 40
0.0
 40
0.250148792
 40
0.3752074638
 40
0.5002425874
 40
0.6252477697
 40
0.7502172355
 40
1.0
 40
1.0
 40
1.0
 40
1.0
 10
11.0473186124
 20
9.1085725965
 30
0.0
 10
11.0093380452
 20
9.1085751145
 30
0.0
 10
10.9523686068
 20
9.1081721506
 30
0.0
 10
10.8764266242
 20
9.1068711695
 30
0.0
 10
10.8194902534
 20
9.1055175455
 30
0.0
 10
10.7625782079
 20
9.1037668947
 30
0.0
 10
10.686753674
 20
9.100875422
 30
0.0
 10
10.6299199375
 20
9.098097329
 30
0.0
 10
10.5920523549
 20
9.0960113642
 30
0.0
  0
SPLINE
  5
2E9
100
AcDbEntity
  8
0
100
AcDbSpline
 62
9
  6
CONTINUOUS
 70
0
 71
3
 72
13
 73
9
 74
0
 42
0.0000001
 43
0.0000001
 44
0.0000000001
 40
0.0
 40
0.0
 40
0.0
 40
0.0
 40
0.287297733
 40
0.4208279964
 40
0.5478926002
 40
0.6688489426
 40
0.7841071497
 40
1.0
 40
1.0
 40
1.0
 40
1.0
 10
10.6608596589
 20
9.3379201052
 30
0.0
 10
10.6450555123
 20
9.3681223667
 30
0.0
 10
10.6211292929
 20
9.4119673622
 30
0.0
 10
10.5881142815
 20
9.4679713423
 30
0.0
 10
10.5641871221
 20
9.5064075241
 30
0.0
 10
10.5403987586
 20
9.5423597455
 30
0.0
 10
10.5093917893
 20
9.5861385121
 30
0.0
 10
10.4850769053
 20
9.6170565459
 30
0.0
 10
10.4684830384
 20
9.6365703067
 30
0.0
  0
SPLINE
  5
2EA
100
AcDbEntity
  8
0
100
AcDbSpline
 62
9
  6
CONTINUOUS
 70
0
 71
3
 72
13
 73
9
 74
0
 42
0.0000001
 43
0.0000001
 44
0.0000000001
 40
0.0
 40
0.0
 40
0.0
 40
0.0
 40
0.237958096
 40
0.362331995
 40
0.4891063001
 40
0.6173901951
 40
0.7461234868
 40
1.0
 40
1.0
 40
1.0
 40
1.0
 10
10.4721150749
 20
9.843442513
 30
0.0
 10
10.4804298159
 20
9.8284725495
 30
0.0
 10
10.4901777881
 20
9.8038809433
 30
0.0
 10
10.4965920529
 20
9.7692032363
 30
0.0
 10
10.4980546099
 20
9.7418532238
 30
0.0
 10
10.4958560166
 20
9.7142393289
 30
0.0
 10
10.4882952325
 20
9.6781874031
 30
0.0
 10
10.477518025
 20
9.6524494871
 30
0.0
 10
10.4684830383
 20
9.6365703067
 30
0.0
  0
SPLINE
  5
2EB
100
AcDbEntity
  8
0
100
AcDbSpline
 62
9
  6
CONTINUOUS
 70
0
 71
3
 72
15
 73
11
 74
0
 42
0.0000001
 43
0.0000001
 44
0.0000000001
 40
0.0
 40
0.0
 40
0.0
 40
0.0
 40
0.1252285725
 40
0.1856112835
 40
0.2449657014
 40
0.3621037923
 40
0.4796610638
 40
0.7259479546
 40
0.858771122
 40
1.0
 40
1.0
 40
1.0
 40
1.0
 10
10.4684830383
 20
9.6365703067
 30
0.0
 10
10.4566520351
 20
9.6503737522
 30
0.0
 10
10.4382658604
 20
9.6701375387
 30
0.0
 10
10.4122228872
 20
9.6943711875
 30
0.0
 10
10.3859102165
 20
9.7165311366
 30
0.0
 10
10.3512636662
 20
9.7415891388
 30
0.0
 10
10.291162793
 20
9.7772896183
 30
0.0
 10
10.2250141675
 20
9.8065701291
 30
0.0
 10
10.1539687117
 20
9.8322228085
 30
0.0
 10
10.1160900198
 20
9.8444261289
 30
0.0
 10
10.0965034747
 20
9.8504864638
 30
0.0
  0
SPLINE
  5
2EC
100
AcDbEntity
  8
0
100
AcDbSpline
 62
9
  6
CONTINUOUS
 70
0
 71
3
 72
11
 73
7
 74
0
 42
0.0000001
 43
0.0000001
 44
0.0000000001
 40
0.0
 40
0.0
 40
0.0
 40
0.0
 40
0.2138593538
 40
0.4523417704
 40
0.7146543584
 40
1.0
 40
1.0
 40
1.0
 40
1.0
 10
10.533318335
 20
5.4217671003
 30
0.0
 10
10.5503345351
 20
5.4230889949
 30
0.0
 10
10.5863434396
 20
5.4256634613
 30
0.0
 10
10.6432679609
 20
5.4292111801
 30
0.0
 10
10.7059138932
 20
5.4326455323
 30
0.0
 10
10.7495697461
 20
5.4347640538
 30
0.0
 10
10.7723183378
 20
5.4358088683
 30
0.0
  0
SPLINE
  5
2ED
100
AcDbEntity
  8
0
100
AcDbSpline
 62
7
  6
CONTINUOUS
 70
0
 71
3
 72
9
 73
5
 74
0
 42
0.0000001
 43
0.0000001
 44
0.0000000001
 40
0.0
 40
0.0
 40
0.0
 40
0.0
 40
0.4929914344
 40
1.0
 40
1.0
 40
1.0
 40
1.0
 10
10.5611282586
 20
4.580087723
 30
0.0
 10
10.5914814862
 20
4.5440139857
 30
0.0
 10
10.6562507621
 20
4.4734858334
 30
0.0
 10
10.7264993002
 20
4.408437994
 30
0.0
 10
10.7632983886
 20
4.3768682576
 30
0.0
  0
SPLINE
  5
2EE
100
AcDbEntity
  8
0
100
AcDbSpline
 62
9
  6
CONTINUOUS
 70
0
 71
3
 72
9
 73
5
 74
0
 42
0.0000001
 43
0.0000001
 44
0.0000000001
 40
0.0
 40
0.0
 40
0.0
 40
0.0
 40
0.2559595341
 40
1.0
 40
1.0
 40
1.0
 40
1.0
 10
10.1795831534
 20
9.475304269
 30
0.0
 10
10.1818727912
 20
9.474607475
 30
0.0
 10
10.1907938103
 20
9.471806418
 30
0.0
 10
10.1996148029
 20
9.4686835659
 30
0.0
 10
10.2060981252
 20
9.4661602494
 30
0.0
  0
SPLINE
  5
2EF
100
AcDbEntity
  8
0
100
AcDbSpline
 62
7
  6
CONTINUOUS
 70
0
 71
3
 72
11
 73
7
 74
0
 42
0.0000001
 43
0.0000001
 44
0.0000000001
 40
0.0
 40
0.0
 40
0.0
 40
0.0
 40
0.2274985851
 40
0.4699381349
 40
0.7274124995
 40
1.0
 40
1.0
 40
1.0
 40
1.0
 10
10.7673073319
 20
3.9610565988
 30
0.0
 10
10.765679845
 20
3.9925550045
 30
0.0
 10
10.7631153881
 20
4.0576632525
 30
0.0
 10
10.7612435253
 20
4.1585003587
 30
0.0
 10
10.7612258425
 20
4.265605325
 30
0.0
 10
10.7624167281
 20
4.3390868871
 30
0.0
 10
10.7632983863
 20
4.3768681553
 30
0.0
  0
SPLINE
  5
2F0
100
AcDbEntity
  8
0
100
AcDbSpline
 62
7
  6
CONTINUOUS
 70
0
 71
3
 72
12
 73
8
 74
0
 42
0.0000001
 43
0.0000001
 44
0.0000000001
 40
0.0
 40
0.0
 40
0.0
 40
0.0
 40
0.2613841562
 40
0.39045476
 40
0.5174778152
 40
0.7638642382
 40
1.0
 40
1.0
 40
1.0
 40
1.0
 10
11.0473183386
 20
3.8085283873
 30
0.0
 10
11.0647346446
 20
3.808528145
 30
0.0
 10
11.0908127048
 20
3.8105309494
 30
0.0
 10
11.1246687939
 20
3.8171910954
 30
0.0
 10
11.1569552683
 20
3.8261712493
 30
0.0
 10
11.194732712
 20
3.8415104392
 30
0.0
 10
11.2225778357
 20
3.8578200043
 30
0.0
 10
11.2355707209
 20
3.8666937302
 30
0.0
  0
SPLINE
  5
2F1
100
AcDbEntity
  8
0
100
AcDbSpline
 62
9
  6
CONTINUOUS
 70
0
 71
3
 72
17
 73
13
 74
0
 42
0.0000001
 43
0.0000001
 44
0.0000000001
 40
0.0
 40
0.0
 40
0.0
 40
0.0
 40
0.0218134611
 40
0.0491555424
 40
0.0820616532
 40
0.1205255443
 40
0.214004873
 40
0.3292785671
 40
0.4659500463
 40
0.6235913921
 40
0.8017588881
 40
1.0
 40
1.0
 40
1.0
 40
1.0
 10
10.8726757285
 20
3.7538132575
 30
0.0
 10
10.8723573362
 20
3.7545760842
 30
0.0
 10
10.8717479754
 20
3.7563396251
 30
0.0
 10
10.8709277928
 20
3.7593400781
 30
0.0
 10
10.8701034084
 20
3.7629898206
 30
0.0
 10
10.868922308
 20
3.7691246787
 30
0.0
 10
10.8674902043
 20
3.7783853542
 30
0.0
 10
10.8658479038
 20
3.7913722803
 30
0.0
 10
10.8641984072
 20
3.8068061963
 30
0.0
 10
10.8625427932
 20
3.8246341864
 30
0.0
 10
10.8608836491
 20
3.844803819
 30
0.0
 10
10.8598310993
 20
3.859028826
 30
0.0
 10
10.8593002574
 20
3.8665222605
 30
0.0
  0
SPLINE
  5
2F2
100
AcDbEntity
  8
0
100
AcDbSpline
 62
9
  6
CONTINUOUS
 70
0
 71
3
 72
14
 73
10
 74
0
 42
0.0000001
 43
0.0000001
 44
0.0000000001
 40
0.0
 40
0.0
 40
0.0
 40
0.0
 40
0.0553646848
 40
0.1316720055
 40
0.228403213
 40
0.3450337544
 40
0.4810368283
 40
0.6358845793
 40
1.0
 40
1.0
 40
1.0
 40
1.0
 10
10.4777419347
 20
4.1417157262
 30
0.0
 10
10.4779431031
 20
4.1445913903
 30
0.0
 10
10.4783019334
 20
4.1514385157
 30
0.0
 10
10.47877337
 20
4.1633214756
 30
0.0
 10
10.4792489549
 20
4.1783964631
 30
0.0
 10
10.4797290038
 20
4.1965806458
 30
0.0
 10
10.480210899
 20
4.2177916898
 30
0.0
 10
10.480892778
 20
4.2518872462
 30
0.0
 10
10.4813458631
 20
4.2789045546
 30
0.0
 10
10.4816422189
 20
4.2978607599
 30
0.0
  0
SPLINE
  5
2F3
100
AcDbEntity
  8
0
100
AcDbSpline
 62
7
  6
CONTINUOUS
 70
0
 71
3
 72
21
 73
17
 74
0
 42
0.0000001
 43
0.0000001
 44
0.0000000001
 40
0.0
 40
0.0
 40
0.0
 40
0.0
 40
0.0685615451
 40
0.1384700388
 40
0.2089990305
 40
0.2794831549
 40
0.3492522318
 40
0.4176842611
 40
0.4843427258
 40
0.5489953077
 40
0.6114370572
 40
0.6717014689
 40
0.7863926507
 40
0.8950692945
 40
0.9478752313
 40
1.0
 40
1.0
 40
1.0
 40
1.0
 10
10.4816422189
 20
4.2978607599
 30
0.0
 10
10.4831850354
 20
4.2870662882
 30
0.0
 10
10.4867912109
 20
4.2653299949
 30
0.0
 10
10.4940475694
 20
4.2328734678
 30
0.0
 10
10.5033327725
 20
4.2006145895
 30
0.0
 10
10.5147897024
 20
4.1690799008
 30
0.0
 10
10.5283985521
 20
4.1387724813
 30
0.0
 10
10.5441103887
 20
4.1101868154
 30
0.0
 10
10.561734422
 20
4.0837097965
 30
0.0
 10
10.5809839518
 20
4.0595959835
 30
0.0
 10
10.6016557368
 20
4.038071659
 30
0.0
 10
10.6302725832
 20
4.013373431
 30
0.0
 10
10.6684314226
 20
3.9887810915
 30
0.0
 10
10.7094639752
 20
3.9723277041
 30
0.0
 10
10.7425200034
 20
3.9643168268
 30
0.0
 10
10.7590597893
 20
3.9618948369
 30
0.0
 10
10.7673073319
 20
3.9610565988
 30
0.0
  0
SPLINE
  5
2F4
100
AcDbEntity
  8
0
100
AcDbSpline
 62
9
  6
CONTINUOUS
 70
0
 71
3
 72
13
 73
9
 74
0
 42
0.0000001
 43
0.0000001
 44
0.0000000001
 40
0.0
 40
0.0
 40
0.0
 40
0.0
 40
0.2497820357
 40
0.374751229
 40
0.4997563823
 40
0.6247916514
 40
0.7498505454
 40
1.0
 40
1.0
 40
1.0
 40
1.0
 10
11.5015582696
 20
9.0959544215
 30
0.0
 10
11.4637762643
 20
9.0980400157
 30
0.0
 10
11.407070921
 20
9.100818414
 30
0.0
 10
11.3314175941
 20
9.1037135855
 30
0.0
 10
11.2746339384
 20
9.1054690877
 30
0.0
 10
11.2178259215
 20
9.1068302831
 30
0.0
 10
11.1420550209
 20
9.1081461616
 30
0.0
 10
11.0852137965
 20
9.1085646236
 30
0.0
 10
11.0473186124
 20
9.1085725965
 30
0.0
  0
SPLINE
  5
2F5
100
AcDbEntity
  8
0
100
AcDbSpline
 62
7
  6
CONTINUOUS
 70
0
 71
3
 72
12
 73
8
 74
0
 42
0.0000001
 43
0.0000001
 44
0.0000000001
 40
0.0
 40
0.0
 40
0.0
 40
0.0
 40
0.1155972811
 40
0.2350183885
 40
0.4827665359
 40
0.7391990328
 40
1.0
 40
1.0
 40
1.0
 40
1.0
 10
11.4016541849
 20
9.468625324
 30
0.0
 10
11.4012995274
 20
9.4633204201
 30
0.0
 10
11.4010333446
 20
9.4525001859
 30
0.0
 10
11.4022007184
 20
9.4303096523
 30
0.0
 10
11.4069220845
 20
9.4019082763
 30
0.0
 10
11.4174056205
 20
9.3682218103
 30
0.0
 10
11.4274436524
 20
9.3465610152
 30
0.0
 10
11.4332056252
 20
9.3360403457
 30
0.0
  0
SPLINE
  5
2F6
100
AcDbEntity
  8
0
100
AcDbSpline
 62
7
  6
CONTINUOUS
 70
0
 71
3
 72
11
 73
7
 74
0
 42
0.0000001
 43
0.0000001
 44
0.0000000001
 40
0.0
 40
0.0
 40
0.0
 40
0.0
 40
0.2391648465
 40
0.4847488591
 40
0.7379570188
 40
1.0
 40
1.0
 40
1.0
 40
1.0
 10
10.7673073319
 20
3.9610565988
 30
0.0
 10
10.7730945135
 20
3.9521996684
 30
0.0
 10
10.7856200735
 20
3.9347528974
 30
0.0
 10
10.8070627596
 20
3.9100729948
 30
0.0
 10
10.8315702114
 20
3.8869235779
 30
0.0
 10
10.8497210491
 20
3.8730502855
 30
0.0
 10
10.8593002574
 20
3.8665222605
 30
0.0
  0
SPLINE
  5
2F7
100
AcDbEntity
  8
0
100
AcDbSpline
 62
7
  6
CONTINUOUS
 70
0
 71
3
 72
11
 73
7
 74
0
 42
0.0000001
 43
0.0000001
 44
0.0000000001
 40
0.0
 40
0.0
 40
0.0
 40
0.0
 40
0.2499821038
 40
0.5000074451
 40
0.750013276
 40
1.0
 40
1.0
 40
1.0
 40
1.0
 10
10.6923793916
 20
9.468625324
 30
0.0
 10
10.6910802618
 20
9.476683139
 30
0.0
 10
10.6877163028
 20
9.4926858932
 30
0.0
 10
10.6805292485
 20
9.516128339
 30
0.0
 10
10.6712505467
 20
9.5388258963
 30
0.0
 10
10.6637113101
 20
9.5533346759
 30
0.0
 10
10.6596302967
 20
9.5604031915
 30
0.0
  0
SPLINE
  5
2F8
100
AcDbEntity
  8
0
100
AcDbSpline
 62
9
  6
CONTINUOUS
 70
0
 71
3
 72
11
 73
7
 74
0
 42
0.0000001
 43
0.0000001
 44
0.0000000001
 40
0.0
 40
0.0
 40
0.0
 40
0.0
 40
0.2817908943
 40
0.5407814393
 40
0.7790269611
 40
1.0
 40
1.0
 40
1.0
 40
1.0
 10
10.6531693929
 20
9.5716305645
 30
0.0
 10
10.6378095423
 20
9.5982169258
 30
0.0
 10
10.6077065344
 20
9.6488819352
 30
0.0
 10
10.5620736787
 20
9.7204769119
 30
0.0
 10
10.5174990832
 20
9.7848243437
 30
0.0
 10
10.4871847227
 20
9.8246614864
 30
0.0
 10
10.4721160104
 20
9.8434408295
 30
0.0
  0
SPLINE
  5
2F9
100
AcDbEntity
  8
0
100
AcDbSpline
 62
9
  6
CONTINUOUS
 70
0
 71
3
 72
11
 73
7
 74
0
 42
0.0000001
 43
0.0000001
 44
0.0000000001
 40
0.0
 40
0.0
 40
0.0
 40
0.0
 40
0.2209796451
 40
0.4592003034
 40
0.7181822658
 40
1.0
 40
1.0
 40
1.0
 40
1.0
 10
11.6219371899
 20
9.8424302516
 30
0.0
 10
11.6068595414
 20
9.8236312519
 30
0.0
 10
11.5765267238
 20
9.7837580044
 30
0.0
 10
11.5319209988
 20
9.7193558497
 30
0.0
 10
11.4862520714
 20
9.6477002908
 30
0.0
 10
11.4561216054
 20
9.5969917943
 30
0.0
 10
11.4407461167
 20
9.570381332
 30
0.0
  0
SPLINE
  5
2FA
100
AcDbEntity
  8
0
100
AcDbSpline
 62
9
  6
CONTINUOUS
 70
0
 71
3
 72
14
 73
10
 74
0
 42
0.0000001
 43
0.0000001
 44
0.0000000001
 40
0.0
 40
0.0
 40
0.0
 40
0.0
 40
0.0555332571
 40
0.1319618804
 40
0.2287661836
 40
0.3454212907
 40
0.4814003085
 40
0.6361753967
 40
1.0
 40
1.0
 40
1.0
 40
1.0
 10
11.6168131631
 20
4.1413793786
 30
0.0
 10
11.616620752
 20
4.1442832771
 30
0.0
 10
11.6162771476
 20
4.1511909443
 30
0.0
 10
11.6158256037
 20
4.1631710847
 30
0.0
 10
11.6153700917
 20
4.1783562451
 30
0.0
 10
11.6149103488
 20
4.1966631011
 30
0.0
 10
11.6144488432
 20
4.2180087694
 30
0.0
 10
11.6137959067
 20
4.2523063122
 30
0.0
 10
11.6133619359
 20
4.2794805588
 30
0.0
 10
11.6130780841
 20
4.2985449735
 30
0.0
  0
SPLINE
  5
2FB
100
AcDbEntity
  8
0
100
AcDbSpline
 62
9
  6
CONTINUOUS
 70
0
 71
3
 72
13
 73
9
 74
0
 42
0.0000001
 43
0.0000001
 44
0.0000000001
 40
0.0
 40
0.0
 40
0.0
 40
0.0
 40
0.2405196385
 40
0.3656077129
 40
0.4926588965
 40
0.6207406041
 40
0.7488010537
 40
1.0
 40
1.0
 40
1.0
 40
1.0
 10
11.62193719
 20
9.8424302517
 30
0.0
 10
11.6135267408
 20
9.8272869281
 30
0.0
 10
11.6037185569
 20
9.8024292705
 30
0.0
 10
11.5973752368
 20
9.7674490005
 30
0.0
 10
11.5960190863
 20
9.7400142508
 30
0.0
 10
11.5983297903
 20
9.7124311684
 30
0.0
 10
11.6059778675
 20
9.676630481
 30
0.0
 10
11.61672039
 20
9.6511275333
 30
0.0
 10
11.6256816323
 20
9.6354116452
 30
0.0
  0
SPLINE
  5
2FC
100
AcDbEntity
  8
0
100
AcDbSpline
 62
9
  6
CONTINUOUS
 70
0
 71
3
 72
13
 73
9
 74
0
 42
0.0000001
 43
0.0000001
 44
0.0000000001
 40
0.0
 40
0.0
 40
0.0
 40
0.0
 40
0.2158396067
 40
0.3310936561
 40
0.4520125316
 40
0.7126173451
 40
0.8529301227
 40
1.0
 40
1.0
 40
1.0
 40
1.0
 10
11.6256816323
 20
9.6354116452
 30
0.0
 10
11.6090559762
 20
9.6158707499
 30
0.0
 10
11.5847253293
 20
9.5848787083
 30
0.0
 10
11.5537223157
 20
9.5409891754
 30
0.0
 10
11.5211575175
 20
9.4917180711
 30
0.0
 10
11.4891803382
 20
9.4385297377
 30
0.0
 10
11.4574268004
 20
9.3816530362
 30
0.0
 10
11.4413270638
 20
9.3515213613
 30
0.0
 10
11.4332056054
 20
9.3360403382
 30
0.0
  0
SPLINE
  5
2FD
100
AcDbEntity
  8
0
100
AcDbSpline
 62
9
  6
CONTINUOUS
 70
0
 71
3
 72
16
 73
12
 74
0
 42
0.0000001
 43
0.0000001
 44
0.0000000001
 40
0.0
 40
0.0
 40
0.0
 40
0.0
 40
0.1410762536
 40
0.2738363856
 40
0.3996435341
 40
0.5202604748
 40
0.6378633664
 40
0.7550455321
 40
0.8144205239
 40
0.8748084919
 40
1.0
 40
1.0
 40
1.0
 40
1.0
 10
11.9971495456
 20
9.8499552227
 30
0.0
 10
11.9776051773
 20
9.8438528485
 30
0.0
 10
11.9397938024
 20
9.8315946006
 30
0.0
 10
11.8852645267
 20
9.8117791692
 30
0.0
 10
11.8344932326
 20
9.7904740709
 30
0.0
 10
11.7871149321
 20
9.7669973308
 30
0.0
 10
11.7427578821
 20
9.7405566696
 30
0.0
 10
11.7081526965
 20
9.7154339455
 30
0.0
 10
11.6818804212
 20
9.6932254117
 30
0.0
 10
11.655871672
 20
9.6689724329
 30
0.0
 10
11.637500859
 20
9.6492115029
 30
0.0
 10
11.6256816323
 20
9.6354116452
 30
0.0
  0
SPLINE
  5
2FE
100
AcDbEntity
  8
0
100
AcDbSpline
 62
7
  6
CONTINUOUS
 70
0
 71
3
 72
16
 73
12
 74
0
 42
0.0000001
 43
0.0000001
 44
0.0000000001
 40
0.0
 40
0.0
 40
0.0
 40
0.0
 40
0.0461222006
 40
0.0955631557
 40
0.2036581205
 40
0.3225251852
 40
0.4499125656
 40
0.5833836207
 40
0.7207804636
 40
0.8602090143
 40
1.0
 40
1.0
 40
1.0
 40
1.0
 10
11.5015595325
 20
9.095969839
 30
0.0
 10
11.501960617
 20
9.0998352582
 30
0.0
 10
11.5024842482
 20
9.1078779715
 30
0.0
 10
11.5025029934
 20
9.1250467092
 30
0.0
 10
11.5005007525
 20
9.1482958222
 30
0.0
 10
11.4952797093
 20
9.1777233527
 30
0.0
 10
11.487330166
 20
9.2087426484
 30
0.0
 10
11.4768950105
 20
9.2406569418
 30
0.0
 10
11.4642480952
 20
9.2728509505
 30
0.0
 10
11.449677632
 20
9.304803789
 30
0.0
 10
11.4388635238
 20
9.3257097132
 30
0.0
 10
11.4332056341
 20
9.336040353
 30
0.0
  0
SPLINE
  5
2FF
100
AcDbEntity
  8
0
100
AcDbSpline
 62
7
  6
CONTINUOUS
 70
0
 71
3
 72
9
 73
5
 74
0
 42
0.0000001
 43
0.0000001
 44
0.0000000001
 40
0.0
 40
0.0
 40
0.0
 40
0.0
 40
0.2456217053
 40
1.0
 40
1.0
 40
1.0
 40
1.0
 10
12.0410708652
 20
9.9681824626
 30
0.0
 10
12.0426786751
 20
9.9715939724
 30
0.0
 10
12.0493955837
 20
9.9854022849
 30
0.0
 10
12.0567742646
 20
9.998886413
 30
0.0
 10
12.0626569063
 20
10.0088645299
 30
0.0
  0
LINE
  5
300
100
AcDbEntity
  8
0
100
AcDbLine
 62
7
  6
CONTINUOUS
 10
12.2273183383
 20
10.0483428418
 11
12.1532385296
 21
10.048342841
  0
SPLINE
  5
301
100
AcDbEntity
  8
0
100
AcDbSpline
 62
7
  6
CONTINUOUS
 70
0
 71
3
 72
15
 73
11
 74
0
 42
0.0000001
 43
0.0000001
 44
0.0000000001
 40
0.0
 40
0.0
 40
0.0
 40
0.0
 40
0.1428277439
 40
0.2778794273
 40
0.4061740723
 40
0.5290313843
 40
0.6480506378
 40
0.7649826053
 40
0.8816703674
 40
1.0
 40
1.0
 40
1.0
 40
1.0
 10
12.1532385296
 20
10.048342841
 30
0.0
 10
12.1483525323
 20
10.0483428405
 30
0.0
 10
12.1388402363
 20
10.0479697056
 30
0.0
 10
12.1250430007
 20
10.0461560471
 30
0.0
 10
12.1121657061
 20
10.0430865855
 30
0.0
 10
12.1002363286
 20
10.0387499012
 30
0.0
 10
12.0892738274
 20
10.0331564365
 30
0.0
 10
12.0792944361
 20
10.0263168071
 30
0.0
 10
12.0703214038
 20
10.0182388236
 30
0.0
 10
12.0650866075
 20
10.0121021798
 30
0.0
 10
12.0626569063
 20
10.0088645299
 30
0.0
  0
SPLINE
  5
302
100
AcDbEntity
  8
0
100
AcDbSpline
 62
7
  6
CONTINUOUS
 70
0
 71
3
 72
16
 73
12
 74
0
 42
0.0000001
 43
0.0000001
 44
0.0000000001
 40
0.0
 40
0.0
 40
0.0
 40
0.0
 40
0.0895568893
 40
0.172304504
 40
0.2498802157
 40
0.3231963749
 40
0.4595261511
 40
0.5846047996
 40
0.7002620389
 40
0.8076177657
 40
1.0
 40
1.0
 40
1.0
 40
1.0
 10
12.0626569063
 20
10.0088645299
 30
0.0
 10
12.0578428363
 20
10.0113469325
 30
0.0
 10
12.0484355395
 20
10.015847709
 30
0.0
 10
12.0344543951
 20
10.021600223
 30
0.0
 10
12.02116383
 20
10.0264113612
 30
0.0
 10
12.004606923
 20
10.0316787682
 30
0.0
 10
11.9850227467
 20
10.0368609801
 30
0.0
 10
11.9626759754
 20
10.0414561189
 30
0.0
 10
11.9418657755
 20
10.0446964137
 30
0.0
 10
11.9168905663
 20
10.0474573433
 30
0.0
 10
11.8987535933
 20
10.0483428258
 30
0.0
 10
11.8871182768
 20
10.0483428319
 30
0.0
  0
LINE
  5
303
100
AcDbEntity
  8
0
100
AcDbLine
 62
7
  6
CONTINUOUS
 10
11.8871182768
 20
10.0483428319
 11
11.7408208803
 21
10.0483428417
  0
SPLINE
  5
304
100
AcDbEntity
  8
0
100
AcDbSpline
 62
9
  6
CONTINUOUS
 70
0
 71
3
 72
11
 73
7
 74
0
 42
0.0000001
 43
0.0000001
 44
0.0000000001
 40
0.0
 40
0.0
 40
0.0
 40
0.0
 40
0.25439845
 40
0.5056580343
 40
0.7541628814
 40
1.0
 40
1.0
 40
1.0
 40
1.0
 10
11.8982548613
 20
9.4462078378
 30
0.0
 10
11.9194550002
 20
9.4974476926
 30
0.0
 10
11.9614832626
 20
9.5993407647
 30
0.0
 10
12.0245140412
 20
9.7511657482
 30
0.0
 10
12.0878646249
 20
9.9008347398
 30
0.0
 10
12.1311950773
 20
9.9994995873
 30
0.0
 10
12.1532374129
 20
10.0483424096
 30
0.0
  0
LINE
  5
305
100
AcDbEntity
  8
0
100
AcDbLine
 62
9
  6
CONTINUOUS
 10
11.869975528
 20
9.3780483944
 11
11.89825457
 21
9.4462077128
  0
SPLINE
  5
306
100
AcDbEntity
  8
0
100
AcDbSpline
 62
9
  6
CONTINUOUS
 70
0
 71
3
 72
17
 73
13
 74
0
 42
0.0000001
 43
0.0000001
 44
0.0000000001
 40
0.0
 40
0.0
 40
0.0
 40
0.0
 40
0.02194838
 40
0.0493945167
 40
0.0823804672
 40
0.1209039704
 40
0.2144509233
 40
0.3297333031
 40
0.4663610856
 40
0.6239103811
 40
0.8019402003
 40
1.0
 40
1.0
 40
1.0
 40
1.0
 10
11.2215807321
 20
3.7536943848
 30
0.0
 10
11.2219131257
 20
3.7544598084
 30
0.0
 10
11.222550204
 20
3.7562299797
 30
0.0
 10
11.2234084053
 20
3.7592432151
 30
0.0
 10
11.2242708732
 20
3.7629065024
 30
0.0
 10
11.2255060131
 20
3.7690599604
 30
0.0
 10
11.2270040003
 20
3.7783471769
 30
0.0
 10
11.2287219205
 20
3.7913694827
 30
0.0
 10
11.2304473135
 20
3.806842171
 30
0.0
 10
11.2321790506
 20
3.8247122555
 30
0.0
 10
11.2339144615
 20
3.8449272644
 30
0.0
 10
11.2350154576
 20
3.8591839625
 30
0.0
 10
11.2355707209
 20
3.8666937302
 30
0.0
  0
LINE
  5
307
100
AcDbEntity
  8
0
100
AcDbLine
 62
7
  6
CONTINUOUS
 10
10.7005670673
 20
10.6489336606
 11
10.4573183383
 21
11.0702528182
  0
LINE
  5
308
100
AcDbEntity
  8
0
100
AcDbLine
 62
7
  6
CONTINUOUS
 10
11.6373183383
 20
11.0702528182
 11
11.3940696093
 21
10.6489336607
  0
SPLINE
  5
309
100
AcDbEntity
  8
0
100
AcDbSpline
 62
7
  6
CONTINUOUS
 70
0
 71
3
 72
11
 73
7
 74
0
 42
0.0000001
 43
0.0000001
 44
0.0000000001
 40
0.0
 40
0.0
 40
0.0
 40
0.0
 40
0.2620102359
 40
0.5152220573
 40
0.7608193127
 40
1.0
 40
1.0
 40
1.0
 40
1.0
 10
11.2355707209
 20
3.8666937302
 30
0.0
 10
11.2451213841
 20
3.8732165284
 30
0.0
 10
11.263219973
 20
3.8870741298
 30
0.0
 10
11.287660775
 20
3.910186485
 30
0.0
 10
11.309049286
 20
3.9348214167
 30
0.0
 10
11.3215448869
 20
3.9522339905
 30
0.0
 10
11.3273183383
 20
3.9610733831
 30
0.0
  0
SPLINE
  5
30A
100
AcDbEntity
  8
0
100
AcDbSpline
 62
9
  6
CONTINUOUS
 70
0
 71
3
 72
14
 73
10
 74
0
 42
0.0000001
 43
0.0000001
 44
0.0000000001
 40
0.0
 40
0.0
 40
0.0
 40
0.0
 40
0.2550041781
 40
0.3776740968
 40
0.4988615407
 40
0.6200333086
 40
0.7428108423
 40
0.8688916304
 40
1.0
 40
1.0
 40
1.0
 40
1.0
 10
11.8871183931
 20
10.0483430231
 30
0.0
 10
11.8614035467
 20
10.0354274312
 30
0.0
 10
11.8238487153
 20
10.0151541237
 30
0.0
 10
11.7763113388
 20
9.984960811
 30
0.0
 10
11.7427551721
 20
9.9610314109
 30
0.0
 10
11.710660739
 20
9.9351505653
 30
0.0
 10
11.6798291437
 20
9.9069490113
 30
0.0
 10
11.6500536039
 20
9.8760590399
 30
0.0
 10
11.6312145022
 20
9.8539553978
 30
0.0
 10
11.6219372717
 20
9.8424303986
 30
0.0
  0
LINE
  5
30B
100
AcDbEntity
  8
0
100
AcDbLine
 62
7
  6
CONTINUOUS
 10
11.7408208614
 20
10.0483428745
 11
11.7166986688
 21
10.0483400803
  0
SPLINE
  5
30C
100
AcDbEntity
  8
0
100
AcDbSpline
 62
9
  6
CONTINUOUS
 70
0
 71
3
 72
11
 73
7
 74
0
 42
0.0000001
 43
0.0000001
 44
0.0000000001
 40
0.0
 40
0.0
 40
0.0
 40
0.0
 40
0.2205897074
 40
0.4607728309
 40
0.7205706598
 40
1.0
 40
1.0
 40
1.0
 40
1.0
 10
11.2355707209
 20
3.8666937302
 30
0.0
 10
11.2343538484
 20
3.9033400045
 30
0.0
 10
11.231328837
 20
3.9798719112
 30
0.0
 10
11.2253891897
 20
4.0994995369
 30
0.0
 10
11.2178524207
 20
4.2288352546
 30
0.0
 10
11.2119763312
 20
4.3182737127
 30
0.0
 10
11.2087874093
 20
4.3646109215
 30
0.0
  0
LINE
  5
30D
100
AcDbEntity
  8
0
100
AcDbLine
 62
7
  6
CONTINUOUS
 10
10.7126254959
 20
10.6280420272
 11
10.7005669065
 21
10.6489336606
  0
LINE
  5
30E
100
AcDbEntity
  8
0
100
AcDbLine
 62
7
  6
CONTINUOUS
 10
11.3940695715
 20
10.6489336607
 11
11.382010895
 21
10.628041832
  0
LINE
  5
30F
100
AcDbEntity
  8
0
100
AcDbLine
 62
7
  6
CONTINUOUS
 10
10.377937696
 20
10.0483399304
 11
10.353815716
 21
10.0483427024
  0
SPLINE
  5
310
100
AcDbEntity
  8
0
100
AcDbSpline
 62
7
  6
CONTINUOUS
 70
0
 71
3
 72
9
 73
5
 74
0
 42
0.0000001
 43
0.0000001
 44
0.0000000001
 40
0.0
 40
0.0
 40
0.0
 40
0.0
 40
0.4931728501
 40
1.0
 40
1.0
 40
1.0
 40
1.0
 10
10.055292138
 20
9.964189615
 30
0.0
 10
10.0518811424
 20
9.9717652028
 30
0.0
 10
10.0445310418
 20
9.986933066
 30
0.0
 10
10.0364427217
 20
10.0017189527
 30
0.0
 10
10.0321632222
 20
10.0091071409
 30
0.0
  0
SPLINE
  5
311
100
AcDbEntity
  8
0
100
AcDbSpline
 62
9
  6
CONTINUOUS
 70
0
 71
3
 72
14
 73
10
 74
0
 42
0.0000001
 43
0.0000001
 44
0.0000000001
 40
0.0
 40
0.0
 40
0.0
 40
0.0
 40
0.131217511
 40
0.2573807098
 40
0.3802079832
 40
0.5013916196
 40
0.6225512809
 40
0.7451628188
 40
1.0
 40
1.0
 40
1.0
 40
1.0
 10
10.4721150739
 20
9.8434425143
 30
0.0
 10
10.4628650604
 20
9.8549284261
 30
0.0
 10
10.444082945
 20
9.8769547838
 30
0.0
 10
10.4143999826
 20
9.9077309876
 30
0.0
 10
10.3836699898
 20
9.9358176314
 30
0.0
 10
10.3516879645
 20
9.9615787998
 30
0.0
 10
10.3182555366
 20
9.9853807957
 30
0.0
 10
10.2709043237
 20
10.0153899861
 30
0.0
 10
10.2334978757
 20
10.0355224581
 30
0.0
 10
10.2078868046
 20
10.0483437355
 30
0.0
  0
SPLINE
  5
312
100
AcDbEntity
  8
0
100
AcDbSpline
 62
7
  6
CONTINUOUS
 70
0
 71
3
 72
16
 73
12
 74
0
 42
0.0000001
 43
0.0000001
 44
0.0000000001
 40
0.0
 40
0.0
 40
0.0
 40
0.0
 40
0.092727526
 40
0.1925607847
 40
0.2999767769
 40
0.4156851809
 40
0.5407892679
 40
0.6771056701
 40
0.8278998021
 40
0.9105851542
 40
1.0
 40
1.0
 40
1.0
 40
1.0
 10
10.2078873016
 20
10.0483428336
 30
0.0
 10
10.2022755859
 20
10.0483428579
 30
0.0
 10
10.190620873
 20
10.0480658984
 30
0.0
 10
10.1725022168
 20
10.0468529726
 30
0.0
 10
10.1530679964
 20
10.0447197669
 30
0.0
 10
10.1322338567
 20
10.0415003312
 30
0.0
 10
10.1098620807
 20
10.0369329517
 30
0.0
 10
10.0857188538
 20
10.030596996
 30
0.0
 10
10.0644858367
 20
10.0234481543
 30
0.0
 10
10.046395803
 20
10.0160422128
 30
0.0
 10
10.0369794107
 20
10.011574087
 30
0.0
 10
10.0321632222
 20
10.0091071409
 30
0.0
  0
SPLINE
  5
313
100
AcDbEntity
  8
0
100
AcDbSpline
 62
7
  6
CONTINUOUS
 70
0
 71
3
 72
15
 73
11
 74
0
 42
0.0000001
 43
0.0000001
 44
0.0000000001
 40
0.0
 40
0.0
 40
0.0
 40
0.0
 40
0.1180791554
 40
0.2345920969
 40
0.3514602562
 40
0.4705015575
 40
0.5934386746
 40
0.7218668764
 40
0.8570757041
 40
1.0
 40
1.0
 40
1.0
 40
1.0
 10
10.0321632222
 20
10.0091071409
 30
0.0
 10
10.0297142542
 20
10.0123389918
 30
0.0
 10
10.0244324817
 20
10.0184579498
 30
0.0
 10
10.0153809303
 20
10.0264926374
 30
0.0
 10
10.0053265118
 20
10.0332902212
 30
0.0
 10
9.9942947876
 20
10.0388531697
 30
0.0
 10
9.9822950792
 20
10.0431623043
 30
0.0
 10
9.9693444299
 20
10.0461975596
 30
0.0
 10
9.9554761482
 20
10.0479787551
 30
0.0
 10
9.9459188226
 20
10.048342844
 30
0.0
 10
9.941010714
 20
10.0483428417
 30
0.0
  0
LINE
  5
314
100
AcDbEntity
  8
0
100
AcDbLine
 62
7
  6
CONTINUOUS
 10
9.941010714
 20
10.0483428417
 11
9.8673183383
 21
10.0483428417
  0
LINE
  5
315
100
AcDbEntity
  8
0
100
AcDbLine
 62
7
  6
CONTINUOUS
 10
10.3538157964
 20
10.0483428417
 11
10.2078873016
 21
10.0483428336
  0
SPLINE
  5
316
100
AcDbEntity
  8
0
100
AcDbSpline
 62
9
  6
CONTINUOUS
 70
0
 71
3
 72
10
 73
6
 74
0
 42
0.0000001
 43
0.0000001
 44
0.0000000001
 40
0.0
 40
0.0
 40
0.0
 40
0.0
 40
0.2456466839
 40
0.4941279738
 40
1.0
 40
1.0
 40
1.0
 40
1.0
 10
9.9410106933
 20
10.0483428521
 30
0.0
 10
9.9608547752
 20
10.0015510428
 30
0.0
 10
10.000349804
 20
9.9072484809
 30
0.0
 10
10.0794332382
 20
9.7160527579
 30
0.0
 10
10.139084606
 20
9.5718198676
 30
0.0
 10
10.1795831301
 20
9.4753042802
 30
0.0
  0
SPLINE
  5
317
100
AcDbEntity
  8
0
100
AcDbSpline
 62
7
  6
CONTINUOUS
 70
0
 71
3
 72
9
 73
5
 74
0
 42
0.0000001
 43
0.0000001
 44
0.0000000001
 40
0.0
 40
0.0
 40
0.0
 40
0.0
 40
0.4856571951
 40
1.0
 40
1.0
 40
1.0
 40
1.0
 10
11.6206304674
 20
4.3890224737
 30
0.0
 10
11.6201084121
 20
4.3743286619
 30
0.0
 10
11.6184908698
 20
4.3440879262
 30
0.0
 10
11.6152620545
 20
4.313962586
 30
0.0
 10
11.6130780841
 20
4.2985449735
 30
0.0
  0
SPLINE
  5
318
100
AcDbEntity
  8
0
100
AcDbSpline
 62
7
  6
CONTINUOUS
 70
0
 71
3
 72
21
 73
17
 74
0
 42
0.0000001
 43
0.0000001
 44
0.0000000001
 40
0.0
 40
0.0
 40
0.0
 40
0.0
 40
0.1383387731
 40
0.2792347298
 40
0.3489887523
 40
0.4174294623
 40
0.4841170399
 40
0.5487787448
 40
0.61125938
 40
0.6715507825
 40
0.729794416
 40
0.7862593574
 40
0.8412424615
 40
0.8950212006
 40
0.9478550115
 40
1.0
 40
1.0
 40
1.0
 40
1.0
 10
11.6130780841
 20
4.2985449735
 30
0.0
 10
11.609987567
 20
4.2767276472
 30
0.0
 10
11.6016471544
 20
4.2329459469
 30
0.0
 10
11.5846330127
 20
4.1798267781
 30
0.0
 10
11.5664351336
 20
4.1392233902
 30
0.0
 10
11.5507314413
 20
4.1105724576
 30
0.0
 10
11.5331172404
 20
4.0840217052
 30
0.0
 10
11.5138473536
 20
4.059847425
 30
0.0
 10
11.4931686497
 20
4.0382542699
 30
0.0
 10
11.4713301798
 20
4.0193618016
 30
0.0
 10
11.4485675438
 20
4.0031988643
 30
0.0
 10
11.4251024752
 20
3.989701912
 30
0.0
 10
11.4011158329
 20
3.9787784482
 30
0.0
 10
11.376754968
 20
3.9703485214
 30
0.0
 10
11.3521508427
 20
3.9643577565
 30
0.0
 10
11.3355813326
 20
3.9619160811
 30
0.0
 10
11.3273183383
 20
3.9610733831
 30
0.0
  0
SPLINE
  5
319
100
AcDbEntity
  8
0
100
AcDbSpline
 62
7
  6
CONTINUOUS
 70
0
 71
3
 72
14
 73
10
 74
0
 42
0.0000001
 43
0.0000001
 44
0.0000000001
 40
0.0
 40
0.0
 40
0.0
 40
0.0
 40
0.1199768675
 40
0.236323175
 40
0.3514320554
 40
0.4680105503
 40
0.7161853166
 40
0.8525629912
 40
1.0
 40
1.0
 40
1.0
 40
1.0
 10
10.7746898759
 20
6.8757715842
 30
0.0
 10
10.7762027058
 20
6.8181998628
 30
0.0
 10
10.7785814251
 20
6.7047820134
 30
0.0
 10
10.780551566
 20
6.5360965803
 30
0.0
 10
10.7813344071
 20
6.3690332372
 30
0.0
 10
10.7809941643
 20
6.1386877056
 30
0.0
 10
10.7788200401
 20
5.8981403599
 30
0.0
 10
10.7754226277
 20
5.6427961824
 30
0.0
 10
10.7733909661
 20
5.5065738194
 30
0.0
 10
10.7723183378
 20
5.4358088683
 30
0.0
  0
SPLINE
  5
31A
100
AcDbEntity
  8
0
100
AcDbSpline
 62
9
  6
CONTINUOUS
 70
0
 71
3
 72
11
 73
7
 74
0
 42
0.0000001
 43
0.0000001
 44
0.0000000001
 40
0.0
 40
0.0
 40
0.0
 40
0.0
 40
0.1999482818
 40
0.4338191942
 40
0.7007842115
 40
1.0
 40
1.0
 40
1.0
 40
1.0
 10
10.5275507058
 20
6.8625401675
 30
0.0
 10
10.5440025151
 20
6.863740939
 30
0.0
 10
10.5797231235
 20
6.8659884653
 30
0.0
 10
10.6374552374
 20
6.8690688071
 30
0.0
 10
10.7033797333
 20
6.8723021838
 30
0.0
 10
10.7500346781
 20
6.8745577345
 30
0.0
 10
10.7746898759
 20
6.8757715842
 30
0.0
  0
LINE
  5
31B
100
AcDbEntity
  8
0
100
AcDbLine
 62
9
  6
CONTINUOUS
 10
11.0473184246
 20
6.8766750973
 11
11.0473181714
 21
5.4361869568
  0
SPLINE
  5
31C
100
AcDbEntity
  8
0
100
AcDbSpline
 62
9
  6
CONTINUOUS
 70
0
 71
3
 72
9
 73
5
 74
0
 42
0.0000001
 43
0.0000001
 44
0.0000000001
 40
0.0
 40
0.0
 40
0.0
 40
0.0
 40
0.2480757255
 40
1.0
 40
1.0
 40
1.0
 40
1.0
 10
10.7746898759
 20
6.8757715842
 30
0.0
 10
10.7972340241
 20
6.8758547149
 30
0.0
 10
10.8881097909
 20
6.8762494657
 30
0.0
 10
10.9789860335
 20
6.8766750065
 30
0.0
 10
11.0473184246
 20
6.8766750973
 30
0.0
  0
SPLINE
  5
31D
100
AcDbEntity
  8
0
100
AcDbSpline
 62
7
  6
CONTINUOUS
 70
0
 71
3
 72
14
 73
10
 74
0
 42
0.0000001
 43
0.0000001
 44
0.0000000001
 40
0.0
 40
0.0
 40
0.0
 40
0.0
 40
0.1199761735
 40
0.2363224743
 40
0.3514317854
 40
0.4680109044
 40
0.7161865466
 40
0.8525639832
 40
1.0
 40
1.0
 40
1.0
 40
1.0
 10
11.3199547067
 20
6.8757721333
 30
0.0
 10
11.3184505911
 20
6.8182005422
 30
0.0
 10
11.3160856286
 20
6.7047828179
 30
0.0
 10
11.314127081
 20
6.5360974722
 30
0.0
 10
11.3133491473
 20
6.3690336899
 30
0.0
 10
11.3136882033
 20
6.1386873441
 30
0.0
 10
11.3158509617
 20
5.8981394296
 30
0.0
 10
11.3192303884
 20
5.6427952942
 30
0.0
 10
11.3212513368
 20
5.5065734231
 30
0.0
 10
11.3223183384
 20
5.4358088943
 30
0.0
  0
SPLINE
  5
31E
100
AcDbEntity
  8
0
100
AcDbSpline
 62
9
  6
CONTINUOUS
 70
0
 71
3
 72
9
 73
5
 74
0
 42
0.0000001
 43
0.0000001
 44
0.0000000001
 40
0.0
 40
0.0
 40
0.0
 40
0.0
 40
0.2513232698
 40
1.0
 40
1.0
 40
1.0
 40
1.0
 10
11.0473184246
 20
6.8766750973
 30
0.0
 10
11.0701585115
 20
6.8766751277
 30
0.0
 10
11.1610378567
 20
6.8765334911
 30
0.0
 10
11.2519159401
 20
6.8760230335
 30
0.0
 10
11.3199547067
 20
6.8757721333
 30
0.0
  0
SPLINE
  5
31F
100
AcDbEntity
  8
0
100
AcDbSpline
 62
7
  6
CONTINUOUS
 70
0
 71
3
 72
11
 73
7
 74
0
 42
0.0000001
 43
0.0000001
 44
0.0000000001
 40
0.0
 40
0.0
 40
0.0
 40
0.0
 40
0.2274869149
 40
0.4699225479
 40
0.7274007928
 40
1.0
 40
1.0
 40
1.0
 40
1.0
 10
11.3273183383
 20
3.9610733831
 30
0.0
 10
11.3289439543
 20
3.992571075
 30
0.0
 10
11.3315043224
 20
4.0576789969
 30
0.0
 10
11.333369338
 20
4.1585171954
 30
0.0
 10
11.3333793297
 20
4.2656265286
 30
0.0
 10
11.3321829275
 20
4.3391120478
 30
0.0
 10
11.3312983849
 20
4.3768958413
 30
0.0
  0
SPLINE
  5
320
100
AcDbEntity
  8
0
100
AcDbSpline
 62
9
  6
CONTINUOUS
 70
0
 71
3
 72
11
 73
7
 74
0
 42
0.0000001
 43
0.0000001
 44
0.0000000001
 40
0.0
 40
0.0
 40
0.0
 40
0.0
 40
0.3004307645
 40
0.5678345825
 40
0.8013171652
 40
1.0
 40
1.0
 40
1.0
 40
1.0
 10
11.3199547067
 20
6.8757721333
 30
0.0
 10
11.344639309
 20
6.8745614356
 30
0.0
 10
11.391296724
 20
6.8723114741
 30
0.0
 10
11.4571362083
 20
6.8690801755
 30
0.0
 10
11.5146023434
 20
6.8659999282
 30
0.0
 10
11.5500836229
 20
6.8637466217
 30
0.0
 10
11.5663832605
 20
6.8625404426
 30
0.0
  0
SPLINE
  5
321
100
AcDbEntity
  8
0
100
AcDbSpline
 62
7
  6
CONTINUOUS
 70
0
 71
3
 72
15
 73
11
 74
0
 42
0.0000001
 43
0.0000001
 44
0.0000000001
 40
0.0
 40
0.0
 40
0.0
 40
0.0
 40
0.1234366352
 40
0.2475016029
 40
0.3724241411
 40
0.498196325
 40
0.6242603426
 40
0.7500159553
 40
0.875230602
 40
1.0
 40
1.0
 40
1.0
 40
1.0
 10
11.6173004627
 20
4.6891531251
 30
0.0
 10
11.6140952592
 20
4.6845886495
 30
0.0
 10
11.6076171662
 20
4.6754724574
 30
0.0
 10
11.5977414109
 20
4.6618470668
 30
0.0
 10
11.5877060843
 20
4.6482076244
 30
0.0
 10
11.5775317719
 20
4.6345586061
 30
0.0
 10
11.5671743186
 20
4.6210000832
 30
0.0
 10
11.556595424
 20
4.6076451583
 30
0.0
 10
11.5457911235
 20
4.594547768
 30
0.0
 10
11.5384457428
 20
4.5859659602
 30
0.0
 10
11.5347427662
 20
4.5817149477
 30
0.0
  0
SPLINE
  5
322
100
AcDbEntity
  8
0
100
AcDbSpline
 62
9
  6
CONTINUOUS
 70
0
 71
3
 72
11
 73
7
 74
0
 42
0.0000001
 43
0.0000001
 44
0.0000000001
 40
0.0
 40
0.0
 40
0.0
 40
0.0
 40
0.30038229
 40
0.5679532057
 40
0.8015447996
 40
1.0
 40
1.0
 40
1.0
 40
1.0
 10
11.3213181011
 20
6.9249881074
 30
0.0
 10
11.3460819981
 20
6.9237850286
 30
0.0
 10
11.3928956836
 20
6.921315338
 30
0.0
 10
11.4589246275
 20
6.9171574345
 30
0.0
 10
11.5165082521
 20
6.9128182624
 30
0.0
 10
11.5520242995
 20
6.9095834241
 30
0.0
 10
11.5683182162
 20
6.9079044194
 30
0.0
  0
LINE
  5
323
100
AcDbEntity
  8
0
100
AcDbLine
 62
7
  6
CONTINUOUS
 10
11.6184692374
 20
4.5822359454
 11
11.6206304674
 21
4.3890224737
  0
SPLINE
  5
324
100
AcDbEntity
  8
0
100
AcDbSpline
 62
7
  6
CONTINUOUS
 70
0
 71
3
 72
13
 73
9
 74
0
 42
0.0000001
 43
0.0000001
 44
0.0000000001
 40
0.0
 40
0.0
 40
0.0
 40
0.0
 40
0.2443611505
 40
0.3680083471
 40
0.4926497906
 40
0.6182190681
 40
0.7446457985
 40
1.0
 40
1.0
 40
1.0
 40
1.0
 10
11.5347427662
 20
4.5817149477
 30
0.0
 10
11.5195709264
 20
4.5637178017
 30
0.0
 10
11.4961378448
 20
4.5371000697
 30
0.0
 10
11.4637377508
 20
4.5024230479
 30
0.0
 10
11.4386465139
 20
4.4765859321
 30
0.0
 10
11.4128557663
 20
4.4510646955
 30
0.0
 10
11.3774158707
 20
4.417408226
 30
0.0
 10
11.3499664767
 20
4.3929132868
 30
0.0
 10
11.3312983849
 20
4.3768958413
 30
0.0
  0
SPLINE
  5
325
100
AcDbEntity
  8
0
100
AcDbSpline
 62
7
  6
CONTINUOUS
 70
0
 71
3
 72
14
 73
10
 74
0
 42
0.0000001
 43
0.0000001
 44
0.0000000001
 40
0.0
 40
0.0
 40
0.0
 40
0.0
 40
0.1158976322
 40
0.2413024874
 40
0.3733112056
 40
0.5083146653
 40
0.771756281
 40
0.8921514405
 40
1.0
 40
1.0
 40
1.0
 40
1.0
 10
11.3312983849
 20
4.3768958413
 30
0.0
 10
11.3315706011
 20
4.4178057216
 30
0.0
 10
11.3318776649
 20
4.5029831912
 30
0.0
 10
11.3317016991
 20
4.634758921
 30
0.0
 10
11.3308845271
 20
4.773276465
 30
0.0
 10
11.3291345605
 20
4.9605138287
 30
0.0
 10
11.3266874846
 20
5.1436437831
 30
0.0
 10
11.3241186102
 20
5.3171850721
 30
0.0
 10
11.3228922935
 20
5.3977436568
 30
0.0
 10
11.3223183388
 20
5.4358088682
 30
0.0
  0
SPLINE
  5
326
100
AcDbEntity
  8
0
100
AcDbSpline
 62
9
  6
CONTINUOUS
 70
0
 71
3
 72
11
 73
7
 74
0
 42
0.0000001
 43
0.0000001
 44
0.0000000001
 40
0.0
 40
0.0
 40
0.0
 40
0.0
 40
0.2853456411
 40
0.5476582289
 40
0.7861406457
 40
1.0
 40
1.0
 40
1.0
 40
1.0
 10
11.3223183388
 20
5.4358088682
 30
0.0
 10
11.3450669302
 20
5.4347640537
 30
0.0
 10
11.3887227827
 20
5.4326455322
 30
0.0
 10
11.4513687144
 20
5.4292111801
 30
0.0
 10
11.5082932353
 20
5.4256634613
 30
0.0
 10
11.5443021395
 20
5.423088995
 30
0.0
 10
11.5613183395
 20
5.4217671004
 30
0.0
  0
SPLINE
  5
327
100
AcDbEntity
  8
0
100
AcDbSpline
 62
7
  6
CONTINUOUS
 70
0
 71
3
 72
11
 73
7
 74
0
 42
0.0000001
 43
0.0000001
 44
0.0000000001
 40
0.0
 40
0.0
 40
0.0
 40
0.0
 40
0.2377320849
 40
0.4840304809
 40
0.7384702329
 40
1.0
 40
1.0
 40
1.0
 40
1.0
 10
10.4740483539
 20
4.3889861962
 30
0.0
 10
10.4742842618
 20
4.3817404031
 30
0.0
 10
10.474913971
 20
4.3669920994
 30
0.0
 10
10.4763862308
 20
4.3445183214
 30
0.0
 10
10.4785485946
 20
4.321370422
 30
0.0
 10
10.4805137941
 20
4.3057556706
 30
0.0
 10
10.4816422158
 20
4.2978605618
 30
0.0
  0
ENDSEC
  0
SECTION
  2
OBJECTS
  0
DICTIONARY
  5
C
100
AcDbDictionary
280
0
281
1
  3
ACAD_GROUP
350
D
  3
ACAD_MLINESTYLE
350
17
  3
ACAD_LAYOUT
350
1A
  3
ACAD_PLOTSETTINGS
350
19
  3
ACAD_PLOTSTYLENAME
350
E
  0
DICTIONARY
  5
D
102
{ACAD_REACTORS
330
C
102
}
100
AcDbDictionary
280
0
281
1
  0
ACDBDICTIONARYWDFLT
  5
E
102
{ACAD_REACTORS
330
C
102
}
100
AcDbDictionary
281
1
  3
Normal
350
F
100
AcDbDictionaryWithDefault
340
F
  0
DICTIONARY
  5
17
102
{ACAD_REACTORS
330
C
102
}
100
AcDbDictionary
280
0
281
1
  3
Standard
350
18
  0
DICTIONARY
  5
19
102
{ACAD_REACTORS
330
C
102
}
100
AcDbDictionary
281
1
  0
DICTIONARY
  5
1A
102
{ACAD_REACTORS
330
C
102
}
100
AcDbDictionary
281
1
  3
Model
350
328
  3
Layout1
350
329
  0
ACDBPLACEHOLDER
  5
F
102
{ACAD_REACTORS
330
E
102
}
  0
MLINESTYLE
  5
18
102
{ACAD_REACTORS
330
17
102
}
100
AcDbMlineStyle
  2
STANDARD
 70
0
  3

 62
256
 51
90.0
 52
90.0
 71
2
 49
0.5
 62
256
  6
BYLAYER
 49
-0.5
 62
256
  6
BYLAYER
  0
LAYOUT
  5
328
102
{ACAD_REACTORS
330
1A
102
}
100
AcDbPlotSettings
  1

  2
none_device
  4
ANSI_C_(22.00_x_17.00_Inches)
  6

 40
0.0
 41
0.0
 42
0.0
 43
0.0
 44
558.8
 45
431.8
 46
0.0
 47
0.0
 48
0.0
 49
0.0
140
0.0
141
0.0
142
1.0
143
1.0
 70
1024
 72
0
 73
0
 74
0
  7

 75
0
147
1.0
148
0.0
149
0.0
100
AcDbLayout
  1
Model
 70
0
 71
0
 10
0.0
 20
0.0
 11
22.0
 21
17.0
 12
0.0
 22
0.0
 32
0.0
 14
0.0
 24
0.0
 34
0.0
 15
0.0
 25
0.0
 35
0.0
146
0.0
 13
0.0
 23
0.0
 33
0.0
 16
1.0
 26
0.0
 36
0.0
 17
0.0
 27
1.0
 37
0.0
 76
0
330
202
345
0
346
0
  0
LAYOUT
  5
329
102
{ACAD_REACTORS
330
1A
102
}
100
AcDbPlotSettings
  1

  2
none_device
  4
ANSI_C_(22.00_x_17.00_Inches)
  6

 40
0.0
 41
0.0
 42
0.0
 43
0.0
 44
558.8
 45
431.8
 46
0.0
 47
0.0
 48
0.0
 49
0.0
140
0.0
141
0.0
142
1.0
143
1.0
 70
0
 72
0
 73
0
 74
0
  7

 75
0
147
1.0
148
0.0
149
0.0
100
AcDbLayout
  1
Layout1
 70
0
 71
1
 10
0.0
 20
0.0
 11
22.0
 21
17.0
 12
0.0
 22
0.0
 32
0.0
 14
0.0
 24
0.0
 34
0.0
 15
0.0
 25
0.0
 35
0.0
146
0.0
 13
0.0
 23
0.0
 33
0.0
 16
1.0
 26
0.0
 36
0.0
 17
0.0
 27
1.0
 37
0.0
 76
0
330
203
345
0
346
0
  0
ENDSEC
  0
EOF
