999
DXF file: 1203-1_front.dxf
999
Pro/ENGINEER 2018400 by Parametric Technology Corporation
  0
SECTION
  2
HEADER
  9
$ACADVER
  1
AC1027
  9
$DWGCODEPAGE
  3
ANSI_1252
  9
$EXTMAX
 10
11.0
 20
8.5
 30
0.0
  9
$EXTMIN
 10
0.0
 20
0.0
 30
0.0
  9
$LIMMIN
 10
0.0
 20
0.0
  9
$LIMMAX
 10
11.0
 20
8.5
  9
$VIEWCTR
 10
5.5
 20
4.25
  9
$VIEWSIZE
 40
8.5
  9
$CLAYER
  8
0
  9
$LTSCALE
 40
0.605
  9
$CELTYPE
  6
BYLAYER
  9
$DIMSCALE
 40
1.0
  9
$DIMASZ
 40
0.1
  9
$DIMEXO
 40
0.0625
  9
$DIMDLI
 40
0.418
  9
$DIMEXE
 40
0.125
  9
$DIMCEN
 40
0.099
  9
$DIMLFAC
 40
1.0
  9
$DIMBLK
  1
_FILLED
  9
$DIMALT
 70
1
  9
$DIMALTD
 70
1
  9
$DIMALTTD
 70
2
  9
$DIMALTF
 40
25.4
  9
$DIMTXT
 40
0.08
  9
$DIMTOL
 70
1
  9
$DIMLIM
 70
0
  9
$DIMTFAC
 40
1.0
  9
$DIMTP
 40
0.01
  9
$DIMTM
 40
0.01
  9
$DIMGAP
 40
0.09
  9
$DIMDSEP
 70
46
  9
$AUNITS
 70
0
  9
$PDMODE
 70
3
  9
$PDSIZE
 40
0.3125
  9
$HANDSEED
  5
2E6
  9
$TILEMODE
 70
1
  9
$MEASUREMENT
 70
0
  9
$INSUNITS
 70
1
  0
ENDSEC
  0
SECTION
  2
CLASSES
  0
CLASS
  1
ACDBDICTIONARYWDFLT
  2
AcDbDictionaryWithDefault
  3
AutoCAD 2000
 90
0
 91
1
280
0
281
0
  0
CLASS
  1
ACDBPLACEHOLDER
  2
AcDbPlaceHolder
  3
AutoCAD 2000
 90
0
 91
1
280
0
281
0
  0
CLASS
  1
LAYOUT
  2
AcDbLayout
  3
AutoCAD 2000
 90
0
 91
0
280
0
281
0
  0
ENDSEC
  0
SECTION
  2
TABLES
  0
TABLE
  2
VPORT
  5
8
100
AcDbSymbolTable
 70
2
  0
VPORT
  5
1F4
100
AcDbSymbolTableRecord
100
AcDbViewportTableRecord
  2
*ACTIVE
 70
0
 10
0.0
 20
0.0
 11
1.0
 21
1.0
 12
5.5
 22
4.25
 13
0.0
 23
0.0
 14
1.0
 24
1.0
 15
0.0
 25
0.0
 16
0.0
 26
0.0
 36
1.0
 17
0.0
 27
0.0
 37
0.0
 40
8.5
 41
1.2941176471
 42
50.0
 43
0.0
 44
0.0
 50
0.0
 51
0.0
 71
0
 72
100
 73
1
 74
1
 75
0
 76
0
 77
0
 78
0
  0
ENDTAB
  0
TABLE
  2
LTYPE
  5
5
100
AcDbSymbolTable
 70
6
  0
LTYPE
  5
14
100
AcDbSymbolTableRecord
100
AcDbLinetypeTableRecord
  2
BYBLOCK
 70
0
  3

 72
65
 73
0
 40
0.0
  0
LTYPE
  5
15
100
AcDbSymbolTableRecord
100
AcDbLinetypeTableRecord
  2
BYLAYER
 70
0
  3

 72
65
 73
0
 40
0.0
  0
LTYPE
  5
16
100
AcDbSymbolTableRecord
100
AcDbLinetypeTableRecord
  2
CONTINUOUS
 70
64
  3
Solid line
 72
65
 73
0
 40
0.0
  0
LTYPE
  5
1F5
100
AcDbSymbolTableRecord
100
AcDbLinetypeTableRecord
  2
CENTER
 70
64
  3
____ _ ____ _ ____ _ ____ _ ____ _ ____ _ ____
 72
65
 73
4
 40
0.6
 49
0.375
 74
0
 49
-0.075
 74
0
 49
0.075
 74
0
 49
-0.075
 74
0
  0
LTYPE
  5
1F6
100
AcDbSymbolTableRecord
100
AcDbLinetypeTableRecord
  2
HIDDEN
 70
64
  3
- - - - - - - - - - - - - - - - - - - -
 72
65
 73
2
 40
0.2
 49
0.1
 74
0
 49
-0.1
 74
0
  0
LTYPE
  5
1F7
100
AcDbSymbolTableRecord
100
AcDbLinetypeTableRecord
  2
PHANTOM
 70
64
  3
_____ _ _ _____ _ _ _____ _ _ _____
 72
65
 73
6
 40
0.8
 49
0.45
 74
0
 49
-0.05
 74
0
 49
0.1
 74
0
 49
-0.05
 74
0
 49
0.1
 74
0
 49
-0.05
 74
0
  0
LTYPE
  5
1F8
100
AcDbSymbolTableRecord
100
AcDbLinetypeTableRecord
  2
DOT
 70
64
  3
. . . . . . . . . . . . . . . . . . . .
 72
65
 73
2
 40
0.2
 49
0.1
 74
0
 49
-0.1
 74
0
  0
LTYPE
  5
1F9
100
AcDbSymbolTableRecord
100
AcDbLinetypeTableRecord
  2
DASHED
 70
64
  3
- - - - - - - - - - - - - - - - - - - -
 72
65
 73
2
 40
0.2
 49
0.1
 74
0
 49
-0.1
 74
0
  0
ENDTAB
  0
TABLE
  2
LAYER
  5
2
100
AcDbSymbolTable
 70
36
  0
LAYER
  5
10
100
AcDbSymbolTableRecord
100
AcDbLayerTableRecord
  2
0
 70
0
 62
7
  6
CONTINUOUS
370
-3
390
F
  0
LAYER
  5
1FA
100
AcDbSymbolTableRecord
100
AcDbLayerTableRecord
  2
DEFAULT_1
 70
0
 62
7
  6
CENTER
370
-3
390
F
  0
LAYER
  5
1FB
100
AcDbSymbolTableRecord
100
AcDbLayerTableRecord
  2
DEFAULT_2
 70
0
 62
8
  6
HIDDEN
370
-3
390
F
  0
LAYER
  5
1FC
100
AcDbSymbolTableRecord
100
AcDbLayerTableRecord
  2
DEFAULT_3
 70
0
 62
7
  6
PHANTOM
370
-3
390
F
  0
LAYER
  5
1FD
100
AcDbSymbolTableRecord
100
AcDbLayerTableRecord
  2
DEFAULT_COORDINATE_SYSTEM
 70
0
 62
7
  6
CONTINUOUS
370
-3
390
F
  0
LAYER
  5
1FE
100
AcDbSymbolTableRecord
100
AcDbLayerTableRecord
  2
DEFAULT_DATUM_AXES
 70
0
 62
7
  6
CONTINUOUS
370
-3
390
F
  0
LAYER
  5
1FF
100
AcDbSymbolTableRecord
100
AcDbLayerTableRecord
  2
DEFAULT_DATUM_PLANES
 70
0
 62
7
  6
CONTINUOUS
370
-3
390
F
  0
ENDTAB
  0
TABLE
  2
STYLE
  5
3
100
AcDbSymbolTable
 70
1
  0
STYLE
  5
11
100
AcDbSymbolTableRecord
100
AcDbTextStyleTableRecord
  2
STANDARD
 70
0
 40
0.0
 41
0.8
 50
0.0
 71
0
 42
0.2
  3
txt
  4

  0
STYLE
  5
200
100
AcDbSymbolTableRecord
100
AcDbTextStyleTableRecord
  2
TEXTSTYLE_1
 70
0
 40
0.0
 41
0.8
 50
0.0
 71
0
 42
0.2
  3
gdt
  4

  0
ENDTAB
  0
TABLE
  2
VIEW
  5
6
100
AcDbSymbolTable
 70
0
  0
ENDTAB
  0
TABLE
  2
UCS
  5
7
100
AcDbSymbolTable
 70
0
  0
ENDTAB
  0
TABLE
  2
APPID
  5
9
100
AcDbSymbolTable
 70
1
  0
APPID
  5
201
100
AcDbSymbolTableRecord
100
AcDbRegAppTableRecord
  2
ACAD
 70
0
  0
ENDTAB
  0
TABLE
  2
BLOCK_RECORD
  5
1
100
AcDbSymbolTable
 70
0
  0
BLOCK_RECORD
  5
202
100
AcDbSymbolTableRecord
100
AcDbBlockTableRecord
  2
*Model_Space
  0
BLOCK_RECORD
  5
203
100
AcDbSymbolTableRecord
100
AcDbBlockTableRecord
  2
*Paper_Space
  0
BLOCK_RECORD
  5
204
100
AcDbSymbolTableRecord
100
AcDbBlockTableRecord
  2
_FILLED
  0
ENDTAB
  0
TABLE
  2
DIMSTYLE
  5
A
100
AcDbSymbolTable
 70
1
100
AcDbDimStyleTable
 71
0
  0
DIMSTYLE
105
205
100
AcDbSymbolTableRecord
100
AcDbDimStyleTableRecord
  2
STANDARD
 70
0
  3

  4

 40
1.0
 41
0.1
 42
0.0625
 43
0.38
 44
0.125
 45
0.0
 46
0.0
 47
0.01
 48
0.01
140
0.08
141
0.09
142
0.0
143
25.4
144
1.0
145
0.0
146
1.0
147
0.09
 71
1.0
 72
0.0
 73
1
 74
1
 75
0
 76
0
 77
0
 78
4
 79
1
170
1
171
1
172
0
173
0
174
0
175
0
176
0
177
0
178
0
270
2
179
2
271
2
272
2
273
2
274
2
275
0
280
0
281
0
282
0
283
1
284
4
285
0
286
0
287
3
288
0
340
11
278
46
341
204
342
204
343
204
344
204
  0
ENDTAB
  0
ENDSEC
  0
SECTION
  2
BLOCKS
  0
BLOCK
  5
20
100
AcDbEntity
  8
0
100
AcDbBlockBegin
  2
*Model_Space
 70
0
 10
0.0
 20
0.0
 30
0.0
  3
*Model_Space
  1

  0
ENDBLK
  5
21
100
AcDbEntity
  8
0
100
AcDbBlockEnd
  0
BLOCK
  5
1C
100
AcDbEntity
  8
0
100
AcDbBlockBegin
  2
*Paper_Space
 70
0
 10
0.0
 20
0.0
 30
0.0
  3
*Paper_Space
  1

  0
ENDBLK
  5
1D
100
AcDbEntity
  8
0
100
AcDbBlockEnd
  0
BLOCK
  5
206
100
AcDbEntity
  8
0
100
AcDbBlockBegin
  2
_FILLED
 70
64
 10
0.0
 20
0.0
  3
_FILLED
  1

  0
SOLID
  5
207
100
AcDbEntity
  8
0
  6
BYBLOCK
 62
0
100
AcDbTrace
 10
0.0
 20
0.0
 11
-1.0
 21
0.2
 12
-1.0
 22
-0.2
 13
-1.0
 23
-0.2
  0
ENDBLK
  5
208
100
AcDbEntity
  8
0
  6
BYBLOCK
 62
0
100
AcDbBlockEnd
  0
ENDSEC
  0
SECTION
  2
ENTITIES
  0
MTEXT
  5
209
100
AcDbEntity
  8
0
100
AcDbMText
 62
2
  6
CONTINUOUS
  7
STANDARD
 71
3
 72
1
 10
5.0157608696
 20
1.1424826856
 30
0.0
 11
1.0
 21
0.0
 31
0.0
 73
2
 44
0.9
  1
SCALE  .500
 40
0.08
 41
0.704
  0
LINE
  5
20A
100
AcDbEntity
  8
0
100
AcDbLine
 62
7
  6
CONTINUOUS
 10
0.0
 20
0.0
 11
0.0
 21
8.5
  0
LINE
  5
20B
100
AcDbEntity
  8
0
100
AcDbLine
 62
7
  6
CONTINUOUS
 10
0.0
 20
0.0
 11
11.0
 21
0.0
  0
LINE
  5
20C
100
AcDbEntity
  8
0
100
AcDbLine
 62
7
  6
CONTINUOUS
 10
0.0
 20
8.5
 11
11.0
 21
8.5
  0
LINE
  5
20D
100
AcDbEntity
  8
0
100
AcDbLine
 62
7
  6
CONTINUOUS
 10
11.0
 20
0.0
 11
11.0
 21
8.5
  0
LINE
  5
20E
100
AcDbEntity
  8
0
100
AcDbLine
 62
7
  6
CONTINUOUS
 10
4.1179344729
 20
1.7101923129
 11
5.2679350924
 21
1.7101923129
  0
LINE
  5
20F
100
AcDbEntity
  8
0
100
AcDbLine
 62
7
  6
CONTINUOUS
 10
4.1238347826
 20
1.8251923129
 11
5.2620347826
 21
1.8251923129
  0
LWPOLYLINE
  5
210
100
AcDbEntity
  8
0
100
AcDbPolyline
 62
7
  6
CONTINUOUS
 90
28
 70
0
 10
4.4641908713
 20
6.133966222
 10
4.4639868346
 20
6.1338597351
 10
4.463093639
 20
6.1333670966
 10
4.4622242155
 20
6.1328439709
 10
4.4613793672
 20
6.1322912358
 10
4.460560072
 20
6.1317099279
 10
4.4597674192
 20
6.1311011782
 10
4.4590024144
 20
6.1304661722
 10
4.4582658002
 20
6.1298059447
 10
4.4575582439
 20
6.1291214758
 10
4.4568806273
 20
6.1284140386
 10
4.4562337361
 20
6.127684855
 10
4.4556180737
 20
6.1269349397
 10
4.4550345441
 20
6.1261658503
 10
4.4544837101
 20
6.1253788416
 10
4.4539656077
 20
6.1245744614
 10
4.453480972
 20
6.1237542567
 10
4.4530303473
 20
6.1229197246
 10
4.452613647
 20
6.1220711857
 10
4.4522314698
 20
6.1212102641
 10
4.4518842504
 20
6.1203385758
 10
4.4515718717
 20
6.1194562724
 10
4.4512947785
 20
6.1185650797
 10
4.4510532638
 20
6.1176667262
 10
4.4508472135
 20
6.1167612647
 10
4.4506768165
 20
6.1158498418
 10
4.4505423459
 20
6.1149347673
 10
4.4505297307
 20
6.1148337962
  0
LWPOLYLINE
  5
211
100
AcDbEntity
  8
0
100
AcDbPolyline
 62
7
  6
CONTINUOUS
 90
28
 70
0
 10
4.5177874359
 20
6.0400996727
 10
4.5123236933
 20
6.0336978351
 10
4.5064520629
 20
6.026560283
 10
4.5007143272
 20
6.0193098554
 10
4.495109019
 20
6.0119443055
 10
4.4896416108
 20
6.0044703031
 10
4.4843234165
 20
5.9969037026
 10
4.4791557297
 20
5.9892473956
 10
4.4741398008
 20
5.9815041249
 10
4.4692851204
 20
5.9736900512
 10
4.4645923346
 20
5.9658083564
 10
4.4600622563
 20
5.9578623332
 10
4.4557029421
 20
5.9498686633
 10
4.4515141704
 20
5.9418300628
 10
4.4474966443
 20
5.9337506774
 10
4.4436571595
 20
5.9256476182
 10
4.4399934487
 20
5.9175203681
 10
4.4365041175
 20
5.9093699438
 10
4.4331947301
 20
5.9012147459
 10
4.4300627822
 20
5.8930553347
 10
4.4271057169
 20
5.8848916059
 10
4.4243270568
 20
5.8767411267
 10
4.4217238571
 20
5.8686045386
 10
4.4192931309
 20
5.8604815809
 10
4.4170367626
 20
5.8523890131
 10
4.4149529404
 20
5.8443329949
 10
4.4130371279
 20
5.8363085487
 10
4.4114412901
 20
5.8290521878
  0
LINE
  5
212
100
AcDbEntity
  8
0
100
AcDbLine
 62
7
  6
CONTINUOUS
 10
4.3016314736
 20
5.7521024719
 11
4.2936966189
 21
5.7416923264
  0
LINE
  5
213
100
AcDbEntity
  8
0
100
AcDbLine
 62
7
  6
CONTINUOUS
 10
4.9214803343
 20
6.1335822056
 11
4.9216786884
 21
6.1339662153
  0
LINE
  5
214
100
AcDbEntity
  8
0
100
AcDbLine
 62
7
  6
CONTINUOUS
 10
4.1179347826
 20
1.7101923129
 11
4.1257280549
 21
1.8618259387
  0
LINE
  5
215
100
AcDbEntity
  8
0
100
AcDbLine
 62
7
  6
CONTINUOUS
 10
4.1248309302
 20
1.844529528
 11
4.1249362106
 21
1.8465646573
  0
LINE
  5
216
100
AcDbEntity
  8
0
100
AcDbLine
 62
7
  6
CONTINUOUS
 10
4.3788402151
 20
5.3821554848
 11
4.3780352314
 21
5.3729811783
  0
LINE
  5
217
100
AcDbEntity
  8
0
100
AcDbLine
 62
7
  6
CONTINUOUS
 10
4.3793037939
 20
5.3871448413
 11
4.3788402151
 21
5.3821554848
  0
LINE
  5
218
100
AcDbEntity
  8
0
100
AcDbLine
 62
7
  6
CONTINUOUS
 10
4.3797998507
 20
5.392231814
 11
4.3793037939
 21
5.3871448413
  0
LINE
  5
219
100
AcDbEntity
  8
0
100
AcDbLine
 62
7
  6
CONTINUOUS
 10
4.3802938232
 20
5.3970580052
 11
4.3797998507
 21
5.392231814
  0
LINE
  5
21A
100
AcDbEntity
  8
0
100
AcDbLine
 62
7
  6
CONTINUOUS
 10
4.3807494956
 20
5.4013180818
 11
4.3802938232
 21
5.3970580052
  0
LINE
  5
21B
100
AcDbEntity
  8
0
100
AcDbLine
 62
7
  6
CONTINUOUS
 10
4.3783600657
 20
5.3768488609
 11
4.3784030999
 21
5.3772394365
  0
LWPOLYLINE
  5
21C
100
AcDbEntity
  8
0
100
AcDbPolyline
 62
7
  6
CONTINUOUS
 90
3
 70
0
 10
4.3813049545
 20
5.4062882359
 10
4.3812661057
 20
5.4059480131
 10
4.3807494956
 20
5.4013180818
  0
LINE
  5
21D
100
AcDbEntity
  8
0
100
AcDbLine
 62
7
  6
CONTINUOUS
 10
4.3779836217
 20
5.3736460353
 11
4.3784042211
 21
5.3772391039
  0
LINE
  5
21E
100
AcDbEntity
  8
0
100
AcDbLine
 62
7
  6
CONTINUOUS
 10
4.3779055042
 20
5.3730084039
 11
4.3779836217
 21
5.3736460353
  0
LINE
  5
21F
100
AcDbEntity
  8
0
100
AcDbLine
 62
7
  6
CONTINUOUS
 10
4.3779041618
 20
5.3729978501
 11
4.3779055042
 21
5.3730084039
  0
LWPOLYLINE
  5
220
100
AcDbEntity
  8
0
100
AcDbPolyline
 62
7
  6
CONTINUOUS
 90
33
 70
0
 10
4.4505296202
 20
6.1148338097
 10
4.4490465493
 20
6.1034723838
 10
4.4472671638
 20
6.0913388481
 10
4.4452978154
 20
6.0792887431
 10
4.4431421403
 20
6.0673330045
 10
4.4408011761
 20
6.0554673603
 10
4.4382721273
 20
6.0436725742
 10
4.4355560374
 20
6.031951777
 10
4.4326540539
 20
6.0203085076
 10
4.4295616269
 20
6.0087244288
 10
4.4262801594
 20
5.9972022542
 10
4.4228114578
 20
5.9857449309
 10
4.4191504764
 20
5.9743346088
 10
4.4152979529
 20
5.9629743904
 10
4.4112546175
 20
5.9516673558
 10
4.4070133833
 20
5.9403963248
 10
4.4025740958
 20
5.9291650735
 10
4.3979364606
 20
5.917976939
 10
4.3930918118
 20
5.9068145174
 10
4.3880406273
 20
5.8956816164
 10
4.3827829591
 20
5.8845808977
 10
4.3773081623
 20
5.8734938212
 10
4.3716156404
 20
5.8624243669
 10
4.3657048518
 20
5.8513765351
 10
4.359563227
 20
5.8403330411
 10
4.353189351
 20
5.8292985693
 10
4.3465824191
 20
5.8182774397
 10
4.3397290522
 20
5.8072528479
 10
4.3326280836
 20
5.7962292373
 10
4.3252784107
 20
5.7852109334
 10
4.3176650636
 20
5.7741823294
 10
4.3097816526
 20
5.7631420975
 10
4.3016314736
 20
5.7521024719
  0
LINE
  5
221
100
AcDbEntity
  8
0
100
AcDbLine
 62
7
  6
CONTINUOUS
 10
4.5039286967
 20
5.4424341267
 11
4.4987119713
 21
5.0577372233
  0
LINE
  5
222
100
AcDbEntity
  8
0
100
AcDbLine
 62
7
  6
CONTINUOUS
 10
4.8061519808
 20
6.4070473754
 11
4.8571600801
 21
6.6829376154
  0
LINE
  5
223
100
AcDbEntity
  8
0
100
AcDbLine
 62
7
  6
CONTINUOUS
 10
4.4909071288
 20
6.4851991077
 11
4.5068484024
 21
6.2572282739
  0
LINE
  5
224
100
AcDbEntity
  8
0
100
AcDbLine
 62
7
  6
CONTINUOUS
 10
4.6929347826
 20
6.1167542497
 11
4.6929347826
 21
6.2083369807
  0
LINE
  5
225
100
AcDbEntity
  8
0
100
AcDbLine
 62
7
  6
CONTINUOUS
 10
4.91880508
 20
5.4766404068
 11
4.9188069233
 21
5.4766462604
  0
LWPOLYLINE
  5
226
100
AcDbEntity
  8
0
100
AcDbPolyline
 62
7
  6
CONTINUOUS
 90
34
 70
0
 10
4.9186613424
 20
5.4761944713
 10
4.9198962108
 20
5.4799809126
 10
4.9212699327
 20
5.4838825376
 10
4.922715016
 20
5.4876856621
 10
4.9242276783
 20
5.4913925748
 10
4.9258012296
 20
5.4949983059
 10
4.9274252165
 20
5.4984910352
 10
4.9290936598
 20
5.5018703028
 10
4.9308007194
 20
5.5051359469
 10
4.932534832
 20
5.5082777178
 10
4.9342893968
 20
5.5112957306
 10
4.9360585823
 20
5.5141913683
 10
4.9378310443
 20
5.516957443
 10
4.9395989469
 20
5.5195932473
 10
4.9413578119
 20
5.5221030174
 10
4.9431011359
 20
5.5244877393
 10
4.9448219762
 20
5.5267478373
 10
4.9465163082
 20
5.5288874513
 10
4.9481825163
 20
5.5309131604
 10
4.9498157462
 20
5.5328270526
 10
4.9514116612
 20
5.5346316713
 10
4.9529701121
 20
5.5363338825
 10
4.9544871845
 20
5.5379359117
 10
4.9559591031
 20
5.5394400002
 10
4.9573865175
 20
5.5408525789
 10
4.9587660978
 20
5.5421756946
 10
4.9600947387
 20
5.5434115115
 10
4.9613739205
 20
5.5445661701
 10
4.9626010711
 20
5.5456417536
 10
4.9637733788
 20
5.5466400471
 10
4.9648923297
 20
5.5475662807
 10
4.9659569029
 20
5.5484232573
 10
4.966963503
 20
5.5492116144
 10
4.9675587559
 20
5.5496676429
  0
LINE
  5
227
100
AcDbEntity
  8
0
100
AcDbLine
 62
7
  6
CONTINUOUS
 10
4.8632445191
 20
4.2600249455
 11
4.5226250461
 21
4.2600249455
  0
LINE
  5
228
100
AcDbEntity
  8
0
100
AcDbLine
 62
7
  6
CONTINUOUS
 10
4.8949624365
 20
6.4851991077
 11
4.8790211628
 21
6.2572282739
  0
LWPOLYLINE
  5
229
100
AcDbEntity
  8
0
100
AcDbPolyline
 62
7
  6
CONTINUOUS
 90
46
 70
0
 10
4.4659733504
 20
5.4799809239
 10
4.4672090561
 20
5.4761922857
 10
4.467863097
 20
5.4743719336
 10
4.4686138463
 20
5.4725833561
 10
4.4694590976
 20
5.4708274016
 10
4.4703962214
 20
5.469105707
 10
4.4714221203
 20
5.4674202938
 10
4.4725341109
 20
5.4657720134
 10
4.4737311227
 20
5.4641593943
 10
4.4750132925
 20
5.4625799855
 10
4.476379427
 20
5.4610334207
 10
4.4778298625
 20
5.4595177843
 10
4.4793686606
 20
5.4580281068
 10
4.4809966804
 20
5.4565634447
 10
4.4827158021
 20
5.455122185
 10
4.4845334918
 20
5.4536987519
 10
4.486453707
 20
5.4522913629
 10
4.48847863
 20
5.4508998503
 10
4.4906143575
 20
5.4495216595
 10
4.4928667131
 20
5.4481549833
 10
4.4952377508
 20
5.4468005474
 10
4.4977275773
 20
5.4454600426
 10
4.5003402918
 20
5.4441329335
 10
4.5030788856
 20
5.4428193727
 10
4.5059400254
 20
5.4415223283
 10
4.5089275606
 20
5.4402412879
 10
4.5120427555
 20
5.4389770065
 10
4.5152756079
 20
5.4377343729
 10
4.518627191
 20
5.4365134321
 10
4.5220979585
 20
5.4353145497
 10
4.5256735355
 20
5.4341428722
 10
4.5293529898
 20
5.4329984973
 10
4.5331351297
 20
5.4318816444
 10
4.5370017387
 20
5.4307972373
 10
4.5409501402
 20
5.4297452425
 10
4.544977634
 20
5.428725634
 10
4.549062865
 20
5.4277428012
 10
4.5532018592
 20
5.426796404
 10
4.5573905439
 20
5.4258860964
 10
4.561604749
 20
5.4250156009
 10
4.5658395323
 20
5.4241841783
 10
4.5700900048
 20
5.423391084
 10
4.5743298533
 20
5.4226392933
 10
4.5785462346
 20
5.4219288514
 10
4.5827408906
 20
5.4212572962
 10
4.5862390307
 20
5.4207230906
  0
LINE
  5
22A
100
AcDbEntity
  8
0
100
AcDbLine
 62
7
  6
CONTINUOUS
 10
4.4670635838
 20
5.4766432681
 11
4.4670645072
 21
5.4766403368
  0
LINE
  5
22B
100
AcDbEntity
  8
0
100
AcDbLine
 62
7
  6
CONTINUOUS
 10
4.8819408563
 20
5.4424341296
 11
4.8871577523
 21
5.0577251709
  0
LINE
  5
22C
100
AcDbEntity
  8
0
100
AcDbLine
 62
7
  6
CONTINUOUS
 10
4.5797175845
 20
6.4070473754
 11
4.5287096765
 21
6.6829365806
  0
LINE
  5
22D
100
AcDbEntity
  8
0
100
AcDbLine
 62
7
  6
CONTINUOUS
 10
5.0055747549
 20
5.397067425
 11
5.0050541698
 21
5.401920038
  0
LINE
  5
22E
100
AcDbEntity
  8
0
100
AcDbLine
 62
7
  6
CONTINUOUS
 10
5.0061161004
 20
5.391766697
 11
5.0055747549
 21
5.397067425
  0
LINE
  5
22F
100
AcDbEntity
  8
0
100
AcDbLine
 62
7
  6
CONTINUOUS
 10
5.0066446472
 20
5.3863123497
 11
5.0061161004
 21
5.391766697
  0
LINE
  5
230
100
AcDbEntity
  8
0
100
AcDbLine
 62
7
  6
CONTINUOUS
 10
5.0071775429
 20
5.3805112181
 11
5.0066446472
 21
5.3863123497
  0
LINE
  5
231
100
AcDbEntity
  8
0
100
AcDbLine
 62
7
  6
CONTINUOUS
 10
5.0078397295
 20
5.3729191383
 11
5.0071775429
 21
5.3805112181
  0
LINE
  5
232
100
AcDbEntity
  8
0
100
AcDbLine
 62
7
  6
CONTINUOUS
 10
5.2601415103
 20
1.8618259387
 11
5.2679347826
 21
1.7101923129
  0
LWPOLYLINE
  5
233
100
AcDbEntity
  8
0
100
AcDbPolyline
 62
7
  6
CONTINUOUS
 90
27
 70
0
 10
4.9353398343
 20
6.1148337968
 10
4.9352046181
 20
6.1157780387
 10
4.9350368967
 20
6.1166905182
 10
4.9348334731
 20
6.1175970721
 10
4.9345945314
 20
6.1184965574
 10
4.9343199599
 20
6.1193889416
 10
4.9340100545
 20
6.120272494
 10
4.9336652547
 20
6.1211454804
 10
4.9332854409
 20
6.122007769
 10
4.9328710469
 20
6.1228577404
 10
4.9324226677
 20
6.1236937637
 10
4.93194021
 20
6.1245155386
 10
4.9314242132
 20
6.1253215612
 10
4.9308754114
 20
6.1261102779
 10
4.9302938324
 20
6.1268811528
 10
4.9296800314
 20
6.1276329264
 10
4.9290349159
 20
6.1283640321
 10
4.9283589896
 20
6.1290734464
 10
4.9276530382
 20
6.1297599422
 10
4.9269179448
 20
6.1304222425
 10
4.9261543775
 20
6.1310593598
 10
4.9253630812
 20
6.1316702584
 10
4.9245450604
 20
6.1322537464
 10
4.9237014069
 20
6.1328086903
 10
4.9228331034
 20
6.1333340505
 10
4.9219409573
 20
6.133828944
 10
4.9216786928
 20
6.133966224
  0
LINE
  5
234
100
AcDbEntity
  8
0
100
AcDbLine
 62
7
  6
CONTINUOUS
 10
5.0079640606
 20
5.3730084071
 11
5.007971263
 21
5.3729517729
  0
LINE
  5
235
100
AcDbEntity
  8
0
100
AcDbLine
 62
7
  6
CONTINUOUS
 10
5.007884105
 20
5.3736611513
 11
5.0079640606
 21
5.3730084071
  0
LINE
  5
236
100
AcDbEntity
  8
0
100
AcDbLine
 62
7
  6
CONTINUOUS
 10
5.00746546
 20
5.3772380754
 11
5.007884105
 21
5.3736611513
  0
LINE
  5
237
100
AcDbEntity
  8
0
100
AcDbLine
 62
7
  6
CONTINUOUS
 10
5.0050541698
 20
5.401920038
 11
5.0045646019
 21
5.4062883131
  0
LINE
  5
238
100
AcDbEntity
  8
0
100
AcDbLine
 62
7
  6
CONTINUOUS
 10
5.0074665431
 20
5.377238397
 11
5.0075079101
 21
5.3768628539
  0
LINE
  5
239
100
AcDbEntity
  8
0
100
AcDbLine
 62
7
  6
CONTINUOUS
 10
4.4643892248
 20
6.1335822115
 11
4.4641908713
 21
6.133966222
  0
LWPOLYLINE
  5
23A
100
AcDbEntity
  8
0
100
AcDbPolyline
 62
7
  6
CONTINUOUS
 90
37
 70
0
 10
4.9745518789
 20
5.8271158084
 10
4.973533736
 20
5.8315999885
 10
4.9723001926
 20
5.8367744801
 10
4.9710206365
 20
5.8418832668
 10
4.9697021772
 20
5.8469082708
 10
4.968341975
 20
5.8518695931
 10
4.9669252069
 20
5.8568248634
 10
4.9654515849
 20
5.8617746931
 10
4.9639208845
 20
5.8667192252
 10
4.9623145852
 20
5.8717142806
 10
4.96063039
 20
5.8767597834
 10
4.9588660001
 20
5.8818553986
 10
4.9569990344
 20
5.8870555228
 10
4.9550231879
 20
5.8923642329
 10
4.9529355964
 20
5.8977757192
 10
4.9507153944
 20
5.9033286349
 10
4.9483493405
 20
5.9090375717
 10
4.9458370387
 20
5.9148848376
 10
4.9431753668
 20
5.9208602761
 10
4.9403548168
 20
5.9269678821
 10
4.9373708099
 20
5.9332001524
 10
4.9342287904
 20
5.9395299434
 10
4.9309227076
 20
5.9459549649
 10
4.9274466779
 20
5.952471981
 10
4.923808631
 20
5.9590526942
 10
4.9200041864
 20
5.9656928909
 10
4.9160280956
 20
5.9723895304
 10
4.9118892994
 20
5.9791164617
 10
4.9075841225
 20
5.9858697155
 10
4.9031084628
 20
5.9926457309
 10
4.8984729451
 20
5.9994194962
 10
4.8936748777
 20
6.0061871058
 10
4.8887111643
 20
6.012945041
 10
4.8835941799
 20
6.0196695821
 10
4.878327357
 20
6.0263507204
 10
4.8729038155
 20
6.0329916447
 10
4.8677918936
 20
6.0390419806
  0
LWPOLYLINE
  5
23B
100
AcDbEntity
  8
0
100
AcDbPolyline
 62
7
  6
CONTINUOUS
 90
33
 70
0
 10
4.4183108065
 20
5.549667645
 10
4.4189060657
 20
5.5492116116
 10
4.4199126724
 20
5.5484232491
 10
4.4209772524
 20
5.5475662666
 10
4.4220962107
 20
5.5466400264
 10
4.423268526
 20
5.5456417258
 10
4.4244956835
 20
5.5445661354
 10
4.4257748717
 20
5.5434114699
 10
4.4271035183
 20
5.5421756465
 10
4.4284831015
 20
5.5408525265
 10
4.4299105148
 20
5.5394399474
 10
4.4313824298
 20
5.537935861
 10
4.4328994984
 20
5.5363338342
 10
4.4344579461
 20
5.5346316248
 10
4.4360538577
 20
5.5328270084
 10
4.4376870837
 20
5.5309131192
 10
4.4393532874
 20
5.528887414
 10
4.4410476145
 20
5.5267478047
 10
4.4427684494
 20
5.5244877125
 10
4.4445117673
 20
5.5221029979
 10
4.4462706258
 20
5.5195932364
 10
4.4480385222
 20
5.516957441
 10
4.4498109783
 20
5.5141913755
 10
4.4515801582
 20
5.5112957473
 10
4.4533347187
 20
5.5082777428
 10
4.4550688281
 20
5.5051359789
 10
4.4567758857
 20
5.5018703406
 10
4.4584443285
 20
5.4984910762
 10
4.4600683163
 20
5.4949983474
 10
4.4616418697
 20
5.4913926142
 10
4.4631545353
 20
5.487685696
 10
4.4645996232
 20
5.4838825621
 10
4.4659733504
 20
5.4799809239
  0
LWPOLYLINE
  5
23C
100
AcDbEntity
  8
0
100
AcDbPolyline
 62
7
  6
CONTINUOUS
 90
45
 70
0
 10
4.7996308262
 20
5.4207231391
 10
4.8030654877
 20
5.4212474772
 10
4.8072588689
 20
5.421918344
 10
4.8114756591
 20
5.4226283004
 10
4.8157173496
 20
5.423379799
 10
4.8199704275
 20
5.4241727578
 10
4.8242080589
 20
5.4250041477
 10
4.8284254473
 20
5.4258747202
 10
4.8326177792
 20
5.4267852601
 10
4.8367608549
 20
5.4277320601
 10
4.8408507831
 20
5.4287155018
 10
4.8448834507
 20
5.4297359123
 10
4.848837028
 20
5.4307888182
 10
4.8527087586
 20
5.4318742503
 10
4.8564959676
 20
5.4329922418
 10
4.8601800776
 20
5.4341377707
 10
4.8637598976
 20
5.4353106157
 10
4.8672345697
 20
5.4365106766
 10
4.8705894616
 20
5.4377327019
 10
4.8738250026
 20
5.438976306
 10
4.8769423342
 20
5.4402414473
 10
4.8799313989
 20
5.441523155
 10
4.8827933781
 20
5.4428206149
 10
4.8855322593
 20
5.444134383
 10
4.8881449441
 20
5.4454615741
 10
4.8906344755
 20
5.4468020072
 10
4.8930050007
 20
5.4481562298
 10
4.8952568756
 20
5.4495226947
 10
4.8973921887
 20
5.4509006992
 10
4.8994167508
 20
5.4522920191
 10
4.9013367512
 20
5.4536992854
 10
4.9031543664
 20
5.4551226866
 10
4.9048734996
 20
5.4565639848
 10
4.9065016515
 20
5.4580287861
 10
4.908040746
 20
5.459518785
 10
4.9094915441
 20
5.4610348849
 10
4.9108579279
 20
5.4625818982
 10
4.9121401926
 20
5.4641616784
 10
4.9133372375
 20
5.465774631
 10
4.9144491983
 20
5.467423175
 10
4.9154750098
 20
5.4691087689
 10
4.9164119825
 20
5.4708305287
 10
4.9172570122
 20
5.4725863719
 10
4.9180075184
 20
5.4743746307
 10
4.9186613424
 20
5.4761944713
  0
LWPOLYLINE
  5
23D
100
AcDbEntity
  8
0
100
AcDbPolyline
 62
7
  6
CONTINUOUS
 90
25
 70
0
 10
4.6929347634
 20
5.4133090993
 10
4.6967751426
 20
5.4133181588
 10
4.7014494886
 20
5.4133535073
 10
4.7061236242
 20
5.413415539
 10
4.710794925
 20
5.4135042309
 10
4.715461086
 20
5.4136195676
 10
4.7201201247
 20
5.413761551
 10
4.7247695539
 20
5.4139301778
 10
4.7294068825
 20
5.4141254472
 10
4.7340301972
 20
5.4143473755
 10
4.7386377569
 20
5.4145959296
 10
4.7432273285
 20
5.4148710329
 10
4.7477966016
 20
5.4151725996
 10
4.7523436824
 20
5.4155005694
 10
4.7568665798
 20
5.4158548788
 10
4.7613628689
 20
5.4162354287
 10
4.7658303185
 20
5.41664213
 10
4.7702672647
 20
5.4170749436
 10
4.7746719776
 20
5.4175337758
 10
4.7790421122
 20
5.41801843
 10
4.7833753733
 20
5.418528718
 10
4.7876699693
 20
5.4190645219
 10
4.7919237505
 20
5.4196256958
 10
4.7961341825
 20
5.4202120508
 10
4.7996307416
 20
5.4207231869
  0
LWPOLYLINE
  5
23E
100
AcDbEntity
  8
0
100
AcDbPolyline
 62
7
  6
CONTINUOUS
 90
25
 70
0
 10
4.586239005
 20
5.4207231178
 10
4.5896718526
 20
5.4202210803
 10
4.5938788417
 20
5.4196347242
 10
4.5981294294
 20
5.4190734971
 10
4.6024210558
 20
5.4185375876
 10
4.6067515953
 20
5.4180271347
 10
4.61111933
 20
5.4175422448
 10
4.6155219654
 20
5.4170831044
 10
4.6199571492
 20
5.4166499103
 10
4.624423129
 20
5.4162427891
 10
4.6289182088
 20
5.4158617981
 10
4.63344015
 20
5.4155070279
 10
4.6379865727
 20
5.415178575
 10
4.6425555194
 20
5.4148765021
 10
4.6471450677
 20
5.4146008729
 10
4.651752858
 20
5.4143517772
 10
4.6563766625
 20
5.4141292916
 10
4.6610148203
 20
5.4139334622
 10
4.6656654959
 20
5.4137642956
 10
4.6703261969
 20
5.4136217933
 10
4.6749944307
 20
5.413505959
 10
4.6796681411
 20
5.4134167919
 10
4.6843449929
 20
5.4133543066
 10
4.6890223762
 20
5.4133185247
 10
4.6929347634
 20
5.4133091199
  0
LWPOLYLINE
  5
23F
100
AcDbEntity
  8
0
100
AcDbPolyline
 62
7
  6
CONTINUOUS
 90
34
 70
0
 10
5.0921729117
 20
5.7416923196
 10
5.0842773279
 20
5.7520507814
 10
5.0761237084
 20
5.7630934965
 10
5.0682377163
 20
5.7741352563
 10
5.0606227057
 20
5.7851639735
 10
5.0532722341
 20
5.7961812544
 10
5.0461711807
 20
5.8072031235
 10
5.0393185371
 20
5.8182252879
 10
5.0327130254
 20
5.8292436052
 10
5.0263405991
 20
5.8402750512
 10
5.020200179
 20
5.8513146855
 10
5.0142904614
 20
5.8623577933
 10
5.0085986891
 20
5.8734222723
 10
5.0031244158
 20
5.8845042324
 10
4.9978671709
 20
5.8955997325
 10
4.9928162083
 20
5.9067278353
 10
4.9879716596
 20
5.9178860613
 10
4.9833340107
 20
5.9290704708
 10
4.9788942266
 20
5.9402984227
 10
4.9746520383
 20
5.951566713
 10
4.9706073985
 20
5.962871567
 10
4.9667533197
 20
5.9742301567
 10
4.9630906074
 20
5.985639464
 10
4.9596200697
 20
5.997096461
 10
4.956336747
 20
6.0086190064
 10
4.9532425237
 20
6.0202041719
 10
4.9503386041
 20
6.0318492185
 10
4.9476203318
 20
6.0435724823
 10
4.9450889307
 20
6.0553703923
 10
4.942745514
 20
6.0672398164
 10
4.9405873358
 20
6.0792000974
 10
4.9386155079
 20
6.0912555292
 10
4.9368337587
 20
6.1033951126
 10
4.9353399424
 20
6.1148338101
  0
LINE
  5
240
100
AcDbEntity
  8
0
100
AcDbLine
 62
7
  6
CONTINUOUS
 10
4.2381559756
 20
5.7101923129
 11
4.4044771901
 21
5.7101923129
  0
LINE
  5
241
100
AcDbEntity
  8
0
100
AcDbLine
 62
7
  6
CONTINUOUS
 10
4.9820417384
 20
5.7101923129
 11
5.1477135896
 21
5.7101923129
  0
LINE
  5
242
100
AcDbEntity
  8
0
100
AcDbLine
 62
7
  6
CONTINUOUS
 10
4.2936966085
 20
5.7416923129
 11
4.4055442815
 21
5.7416923129
  0
LINE
  5
243
100
AcDbEntity
  8
0
100
AcDbLine
 62
7
  6
CONTINUOUS
 10
4.9809907085
 20
5.7416923129
 11
5.0921729168
 21
5.7416923129
  0
LINE
  5
244
100
AcDbEntity
  8
0
100
AcDbLine
 62
7
  6
CONTINUOUS
 10
4.9333691778
 20
6.1145918973
 11
4.9353398343
 21
6.1148337968
  0
LINE
  5
245
100
AcDbEntity
  8
0
100
AcDbLine
 62
7
  6
CONTINUOUS
 10
4.4525003051
 20
6.1145919066
 11
4.4505296202
 21
6.1148338097
  0
LWPOLYLINE
  5
246
100
AcDbEntity
  8
0
100
AcDbPolyline
 62
7
  6
CONTINUOUS
 90
28
 70
0
 10
4.8674123287
 20
6.0392914747
 10
4.8552271726
 20
6.0415833935
 10
4.8420638764
 20
6.0438678975
 10
4.828783676
 20
6.0459744298
 10
4.8153739416
 20
6.0479022485
 10
4.8018606415
 20
6.0496447386
 10
4.7883093175
 20
6.0511921458
 10
4.7747332425
 20
6.0525429246
 10
4.7611352794
 20
6.0536966379
 10
4.7475666516
 20
6.0546494982
 10
4.734048923
 20
6.0554016716
 10
4.7205770256
 20
6.0559550172
 10
4.7071623924
 20
6.056310331
 10
4.69381476
 20
6.056468647
 10
4.6805397836
 20
6.0564315773
 10
4.6673424944
 20
6.0562031882
 10
4.6542300132
 20
6.0557883149
 10
4.6412095207
 20
6.0551917358
 10
4.6282858755
 20
6.0544180294
 10
4.615465171
 20
6.0534717119
 10
4.6027545466
 20
6.052357319
 10
4.5901601315
 20
6.0510792676
 10
4.5776874907
 20
6.0496418532
 10
4.5653430726
 20
6.0480494211
 10
4.5531338884
 20
6.0463063927
 10
4.5410657261
 20
6.0444170266
 10
4.5291432702
 20
6.0423853707
 10
4.5181923665
 20
6.0403721305
  0
LWPOLYLINE
  5
247
100
AcDbEntity
  8
0
100
AcDbPolyline
 62
7
  6
CONTINUOUS
 90
19
 70
0
 10
4.9216786884
 20
6.1339662153
 10
4.9162441558
 20
6.1367154235
 10
4.9100998946
 20
6.1396842516
 10
4.9040105271
 20
6.1424808049
 10
4.8979884431
 20
6.1451040005
 10
4.8920295126
 20
6.1475604647
 10
4.8861126607
 20
6.1498629457
 10
4.8802414329
 20
6.1520133298
 10
4.874419341
 20
6.1540138497
 10
4.8686241664
 20
6.1558752253
 10
4.8628589278
 20
6.1575987013
 10
4.8571267847
 20
6.1591857054
 10
4.8514047954
 20
6.160644599
 10
4.845695662
 20
6.1619758584
 10
4.8400021999
 20
6.1631800643
 10
4.8343010952
 20
6.1642629877
 10
4.8285863213
 20
6.1652255194
 10
4.8228690528
 20
6.1660656265
 10
4.8179334044
 20
6.1666924753
  0
LWPOLYLINE
  5
248
100
AcDbEntity
  8
0
100
AcDbPolyline
 62
7
  6
CONTINUOUS
 90
19
 70
0
 10
4.5679364035
 20
6.1666925038
 10
4.5630710444
 20
6.1660752242
 10
4.5573535536
 20
6.1652365949
 10
4.551638539
 20
6.1642755369
 10
4.5459371113
 20
6.163194052
 10
4.5402432413
 20
6.1619912638
 10
4.5345336557
 20
6.1606614081
 10
4.528811186
 20
6.1592038879
 10
4.5230785251
 20
6.1576182341
 10
4.5173127537
 20
6.1558961017
 10
4.5115170381
 20
6.1540360538
 10
4.5056943977
 20
6.1520368403
 10
4.4998226308
 20
6.1498877567
 10
4.4939052404
 20
6.1475865756
 10
4.4879457864
 20
6.1451314023
 10
4.4819232094
 20
6.142509502
 10
4.475833375
 20
6.1397142595
 10
4.4696886818
 20
6.1367467488
 10
4.4641908755
 20
6.133966214
  0
LINE
  5
249
100
AcDbEntity
  8
0
100
AcDbLine
 62
7
  6
CONTINUOUS
 10
4.5679347829
 20
6.166692313
 11
4.8179347826
 21
6.1666923129
  0
LINE
  5
24A
100
AcDbEntity
  8
0
100
AcDbLine
 62
7
  6
CONTINUOUS
 10
4.5856654691
 20
6.2083369803
 11
4.8002040961
 21
6.2083369803
  0
LINE
  5
24B
100
AcDbEntity
  8
0
100
AcDbLine
 62
7
  6
CONTINUOUS
 10
4.8635290903
 20
6.2410597166
 11
4.522340475
 21
6.2410597166
  0
LINE
  5
24C
100
AcDbEntity
  8
0
100
AcDbLine
 62
7
  6
CONTINUOUS
 10
4.8790211628
 20
6.2572282739
 11
4.7614595836
 21
6.2572282739
  0
LINE
  5
24D
100
AcDbEntity
  8
0
100
AcDbLine
 62
7
  6
CONTINUOUS
 10
4.6252920876
 20
6.2572282739
 11
4.5068484024
 21
6.2572282739
  0
LINE
  5
24E
100
AcDbEntity
  8
0
100
AcDbLine
 62
7
  6
CONTINUOUS
 10
4.8351569814
 20
6.1641044316
 11
4.8347076669
 21
6.1641862592
  0
LINE
  5
24F
100
AcDbEntity
  8
0
100
AcDbLine
 62
7
  6
CONTINUOUS
 10
4.8949624365
 20
6.4851991077
 11
4.8206011012
 21
6.4851991077
  0
LINE
  5
250
100
AcDbEntity
  8
0
100
AcDbLine
 62
7
  6
CONTINUOUS
 10
4.565268464
 20
6.4851991077
 11
4.4909071288
 21
6.4851991077
  0
LINE
  5
251
100
AcDbEntity
  8
0
100
AcDbLine
 62
7
  6
CONTINUOUS
 10
4.8803855196
 20
6.5078480083
 11
4.8247885541
 21
6.5078480083
  0
LINE
  5
252
100
AcDbEntity
  8
0
100
AcDbLine
 62
7
  6
CONTINUOUS
 10
4.5610810111
 20
6.5078480083
 11
4.5054840456
 21
6.5078480083
  0
ARC
  5
253
100
AcDbEntity
  8
0
100
AcDbCircle
 62
7
  6
CONTINUOUS
 10
7.8835701434
 20
5.8376076749
 40
2.911008246
100
AcDbArc
 50
184.8942512872
 51
188.3891284413
  0
ARC
  5
254
100
AcDbEntity
  8
0
100
AcDbCircle
 62
7
  6
CONTINUOUS
 10
1.5023256087
 20
5.8376043625
 40
2.9109818561
100
AcDbArc
 50
351.6108608526
 51
355.1090262447
  0
ARC
  5
255
100
AcDbEntity
  8
0
100
AcDbCircle
 62
7
  6
CONTINUOUS
 10
3.1161518899
 20
6.2023941406
 40
1.4527627225
100
AcDbArc
 50
353.8742623993
 51
356.5482366443
  0
ARC
  5
256
100
AcDbEntity
  8
0
100
AcDbCircle
 62
7
  6
CONTINUOUS
 10
6.2623098689
 20
6.201788979
 40
1.4453319336
100
AcDbArc
 50
183.4455140934
 51
186.1693537613
  0
ARC
  5
257
100
AcDbEntity
  8
0
100
AcDbCircle
 62
7
  6
CONTINUOUS
 10
3.1627896731
 20
6.2027610243
 40
1.419128356
100
AcDbArc
 50
353.7840999951
 51
356.4514654466
  0
ARC
  5
258
100
AcDbEntity
  8
0
100
AcDbCircle
 62
7
  6
CONTINUOUS
 10
6.2109352613
 20
6.2016971126
 40
1.4069411942
100
AcDbArc
 50
183.5359024029
 51
186.2601053345
  0
ARC
  5
259
100
AcDbEntity
  8
0
100
AcDbCircle
 62
7
  6
CONTINUOUS
 10
4.6929375353
 20
6.0743103326
 40
1.0349622531
100
AcDbArc
 50
259.1834755118
 51
280.8162142565
  0
ARC
  5
25A
100
AcDbEntity
  8
0
100
AcDbCircle
 62
7
  6
CONTINUOUS
 10
4.6929347826
 20
6.0056609752
 40
0.5360313377
100
AcDbArc
 50
69.5309671574
 51
75.4217005991
  0
ARC
  5
25B
100
AcDbEntity
  8
0
100
AcDbCircle
 62
7
  6
CONTINUOUS
 10
4.6929347826
 20
6.0056609752
 40
0.5360313377
100
AcDbArc
 50
104.5782994009
 51
110.4690328426
  0
ARC
  5
25C
100
AcDbEntity
  8
0
100
AcDbCircle
 62
7
  6
CONTINUOUS
 10
4.7181713475
 20
5.9465278877
 40
0.5311760462
100
AcDbArc
 50
278.4990187313
 51
278.8071961816
  0
ARC
  5
25D
100
AcDbEntity
  8
0
100
AcDbCircle
 62
7
  6
CONTINUOUS
 10
4.6673880659
 20
5.944514421
 40
0.5291388525
100
AcDbArc
 50
261.1926343676
 51
261.502002935
  0
ARC
  5
25E
100
AcDbEntity
  8
0
100
AcDbCircle
 62
7
  6
CONTINUOUS
 10
4.6929347826
 20
5.6377203184
 40
0.3062
100
AcDbArc
 50
13.6907851686
 51
19.8171654136
  0
ARC
  5
25F
100
AcDbEntity
  8
0
100
AcDbCircle
 62
7
  6
CONTINUOUS
 10
4.6929347826
 20
5.6377203184
 40
0.3062
100
AcDbArc
 50
160.1500375663
 51
166.3092148314
  0
ARC
  5
260
100
AcDbEntity
  8
0
100
AcDbCircle
 62
7
  6
CONTINUOUS
 10
4.7858462936
 20
5.8946168271
 40
0.2739618815
100
AcDbArc
 50
79.7262755294
 51
80.5363231184
  0
ARC
  5
261
100
AcDbEntity
  8
0
100
AcDbCircle
 62
7
  6
CONTINUOUS
 10
4.7858830615
 20
5.894836022
 40
0.2737396244
100
AcDbArc
 50
80.5363706254
 51
80.952348362
  0
ARC
  5
262
100
AcDbEntity
  8
0
100
AcDbCircle
 62
7
  6
CONTINUOUS
 10
4.7859197714
 20
5.8950675943
 40
0.2735051604
100
AcDbArc
 50
80.9523142313
 51
81.5816279061
  0
ARC
  5
263
100
AcDbEntity
  8
0
100
AcDbCircle
 62
7
  6
CONTINUOUS
 10
4.7859669139
 20
5.8953860249
 40
0.2731832591
100
AcDbArc
 50
81.5816313231
 51
82.1642309985
  0
ARC
  5
264
100
AcDbEntity
  8
0
100
AcDbCircle
 62
7
  6
CONTINUOUS
 10
4.7860398918
 20
5.8959229979
 40
0.2726413506
100
AcDbArc
 50
82.1640395013
 51
83.2818820983
  0
ARC
  5
265
100
AcDbEntity
  8
0
100
AcDbCircle
 62
7
  6
CONTINUOUS
 10
4.511110199
 20
6.1416923129
 40
0.1
100
AcDbArc
 50
41.7934055852
 51
83.5519233076
  0
ARC
  5
266
100
AcDbEntity
  8
0
100
AcDbCircle
 62
7
  6
CONTINUOUS
 10
4.8747593663
 20
6.1416923129
 40
0.1
100
AcDbArc
 50
96.4480766924
 51
138.2065944148
  0
ARC
  5
267
100
AcDbEntity
  8
0
100
AcDbCircle
 62
7
  6
CONTINUOUS
 10
4.5913184922
 20
6.1127920528
 40
0.0251301642
100
AcDbArc
 50
173.2440223667
 51
175.129021152
  0
ARC
  5
268
100
AcDbEntity
  8
0
100
AcDbCircle
 62
7
  6
CONTINUOUS
 10
4.794639017
 20
6.1128009913
 40
0.0250417795
100
AcDbArc
 50
4.8667464555
 51
6.7593434447
  0
ARC
  5
269
100
AcDbEntity
  8
0
100
AcDbCircle
 62
7
  6
CONTINUOUS
 10
4.5670266527
 20
6.1916758134
 40
0.0249999999
100
AcDbArc
 50
272.0817389687
 51
41.7934079728
  0
ARC
  5
26A
100
AcDbEntity
  8
0
100
AcDbCircle
 62
7
  6
CONTINUOUS
 10
4.8188429125
 20
6.1916758134
 40
0.0249999999
100
AcDbArc
 50
138.2065920272
 51
267.9182610313
  0
ARC
  5
26B
100
AcDbEntity
  8
0
100
AcDbCircle
 62
7
  6
CONTINUOUS
 10
4.5599261681
 20
6.1423541184
 40
0.0238953182
100
AcDbArc
 50
337.2588658321
 51
339.0612158902
  0
ARC
  5
26C
100
AcDbEntity
  8
0
100
AcDbCircle
 62
7
  6
CONTINUOUS
 10
4.5133523199
 20
6.4867686284
 40
0.0225
100
AcDbArc
 50
110.4690328426
 51
184.0
  0
ARC
  5
26D
100
AcDbEntity
  8
0
100
AcDbCircle
 62
7
  6
CONTINUOUS
 10
4.8725172453
 20
6.4867686284
 40
0.0225
100
AcDbArc
 50
356.0
 51
69.5309671574
  0
ARC
  5
26E
100
AcDbEntity
  8
0
100
AcDbCircle
 62
7
  6
CONTINUOUS
 10
4.5243057733
 20
6.2584490122
 40
0.0175
100
AcDbArc
 50
184.0
 51
263.5519233076
  0
ARC
  5
26F
100
AcDbEntity
  8
0
100
AcDbCircle
 62
7
  6
CONTINUOUS
 10
4.8615637919
 20
6.2584490122
 40
0.0175
100
AcDbArc
 50
276.4480766924
 51
356.0
  0
ARC
  5
270
100
AcDbEntity
  8
0
100
AcDbCircle
 62
7
  6
CONTINUOUS
 10
4.8175820053
 20
6.1417749083
 40
0.0108973772
100
AcDbArc
 50
225.7729243223
 51
227.9926486756
  0
ARC
  5
271
100
AcDbEntity
  8
0
100
AcDbCircle
 62
7
  6
CONTINUOUS
 10
4.7984671042
 20
6.1144155104
 40
0.0082211196
100
AcDbArc
 50
3.5562824512
 51
5.8211424165
  0
ARC
  5
272
100
AcDbEntity
  8
0
100
AcDbCircle
 62
7
  6
CONTINUOUS
 10
4.5182855821
 20
6.0398742494
 40
0.0005080736
100
AcDbArc
 50
90.5478364593
 51
100.6069312694
  0
SPLINE
  5
273
100
AcDbEntity
  8
0
100
AcDbSpline
 62
7
  6
CONTINUOUS
 70
0
 71
3
 72
39
 73
35
 74
0
 42
0.0000001
 43
0.0000001
 44
0.0000000001
 40
0.0
 40
0.0
 40
0.0
 40
0.0
 40
0.0308237909
 40
0.0616634353
 40
0.0925354562
 40
0.123453998
 40
0.1544318448
 40
0.1854794619
 40
0.2166046646
 40
0.2478122767
 40
0.2791039782
 40
0.3104781946
 40
0.3419301928
 40
0.3734522166
 40
0.4050338227
 40
0.4366622516
 40
0.4683229424
 40
0.5000000798
 40
0.5316772157
 40
0.5633379021
 40
0.5949663237
 40
0.6265479202
 40
0.6580699321
 40
0.6895219167
 40
0.7208961183
 40
0.7521878042
 40
0.7833954008
 40
0.8145205884
 40
0.8455681915
 40
0.876546026
 40
0.9074645577
 40
0.9383365708
 40
0.9691762106
 40
1.0
 40
1.0
 40
1.0
 40
1.0
 10
4.5221847826
 20
6.7281968155
 30
0.0
 10
4.5221847826
 20
6.7227737484
 30
0.0
 10
4.5227366985
 20
6.7119167593
 30
0.0
 10
4.5252118027
 20
6.6957986149
 30
0.0
 10
4.5293090586
 20
6.6799957941
 30
0.0
 10
4.5349873746
 20
6.6646645308
 30
0.0
 10
4.5421897224
 20
6.649953147
 30
0.0
 10
4.5508442581
 20
6.6360039215
 30
0.0
 10
4.5608652216
 20
6.6229508672
 30
0.0
 10
4.5721538591
 20
6.610918652
 30
0.0
 10
4.5845996336
 20
6.6000214822
 30
0.0
 10
4.5980814833
 20
6.5903622609
 30
0.0
 10
4.6124689687
 20
6.5820316986
 30
0.0
 10
4.6276235742
 20
6.5751076178
 30
0.0
 10
4.643400062
 20
6.5696545075
 30
0.0
 10
4.6596477499
 20
6.5657230062
 30
0.0
 10
4.6762118413
 20
6.563349462
 30
0.0
 10
4.6929348246
 20
6.5625558227
 30
0.0
 10
4.7096578068
 20
6.563349469
 30
0.0
 10
4.7262218946
 20
6.565723022
 30
0.0
 10
4.742469577
 20
6.5696545299
 30
0.0
 10
4.7582460581
 20
6.5751076438
 30
0.0
 10
4.7734006549
 20
6.5820317291
 30
0.0
 10
4.7877881308
 20
6.5903622936
 30
0.0
 10
4.8012699718
 20
6.6000215136
 30
0.0
 10
4.8137157369
 20
6.6109186819
 30
0.0
 10
4.8250043656
 20
6.6229508941
 30
0.0
 10
4.8350253224
 20
6.6360039435
 30
0.0
 10
4.8436798522
 20
6.6499531641
 30
0.0
 10
4.8508821954
 20
6.664664543
 30
0.0
 10
4.8565605088
 20
6.6799958016
 30
0.0
 10
4.8606577633
 20
6.6957986186
 30
0.0
 10
4.8631328668
 20
6.7119167606
 30
0.0
 10
4.8636847826
 20
6.7227737487
 30
0.0
 10
4.8636847826
 20
6.7281968155
 30
0.0
  0
SPLINE
  5
274
100
AcDbEntity
  8
0
100
AcDbSpline
 62
7
  6
CONTINUOUS
 70
0
 71
3
 72
39
 73
35
 74
0
 42
0.0000001
 43
0.0000001
 44
0.0000000001
 40
0.0
 40
0.0
 40
0.0
 40
0.0
 40
0.0308237909
 40
0.0616634353
 40
0.0925354562
 40
0.123453998
 40
0.1544318448
 40
0.1854794619
 40
0.2166046646
 40
0.2478122767
 40
0.2791039782
 40
0.3104781946
 40
0.3419301928
 40
0.3734522166
 40
0.4050338227
 40
0.4366622516
 40
0.4683229424
 40
0.5000000798
 40
0.5316772157
 40
0.5633379021
 40
0.5949663237
 40
0.6265479202
 40
0.6580699321
 40
0.6895219167
 40
0.7208961183
 40
0.7521878042
 40
0.7833954008
 40
0.8145205884
 40
0.8455681915
 40
0.876546026
 40
0.9074645577
 40
0.9383365708
 40
0.9691762106
 40
1.0
 40
1.0
 40
1.0
 40
1.0
 10
4.8636847826
 20
6.7281968155
 30
0.0
 10
4.8636847826
 20
6.7336198827
 30
0.0
 10
4.8631328667
 20
6.7444768718
 30
0.0
 10
4.8606577625
 20
6.7605950162
 30
0.0
 10
4.8565605066
 20
6.776397837
 30
0.0
 10
4.8508821906
 20
6.7917291003
 30
0.0
 10
4.8436798428
 20
6.8064404841
 30
0.0
 10
4.8350253071
 20
6.8203897096
 30
0.0
 10
4.8250043436
 20
6.8334427639
 30
0.0
 10
4.8137157062
 20
6.8454749791
 30
0.0
 10
4.8012699316
 20
6.8563721488
 30
0.0
 10
4.787788082
 20
6.8660313701
 30
0.0
 10
4.7734005965
 20
6.8743619325
 30
0.0
 10
4.758245991
 20
6.8812860133
 30
0.0
 10
4.7424695032
 20
6.8867391236
 30
0.0
 10
4.7262218153
 20
6.8906706249
 30
0.0
 10
4.7096577239
 20
6.8930441691
 30
0.0
 10
4.6929347406
 20
6.8938378084
 30
0.0
 10
4.6762117584
 20
6.8930441621
 30
0.0
 10
4.6596476706
 20
6.8906706091
 30
0.0
 10
4.6433999882
 20
6.8867391012
 30
0.0
 10
4.6276235071
 20
6.8812859872
 30
0.0
 10
4.6124689104
 20
6.874361902
 30
0.0
 10
4.5980814345
 20
6.8660313375
 30
0.0
 10
4.5845995934
 20
6.8563721175
 30
0.0
 10
4.5721538283
 20
6.8454749492
 30
0.0
 10
4.5608651996
 20
6.833442737
 30
0.0
 10
4.5508442428
 20
6.8203896876
 30
0.0
 10
4.542189713
 20
6.806440467
 30
0.0
 10
4.5349873698
 20
6.7917290881
 30
0.0
 10
4.5293090564
 20
6.7763978295
 30
0.0
 10
4.525211802
 20
6.7605950125
 30
0.0
 10
4.5227366984
 20
6.7444768704
 30
0.0
 10
4.5221847826
 20
6.7336198824
 30
0.0
 10
4.5221847826
 20
6.7281968155
 30
0.0
  0
SPLINE
  5
275
100
AcDbEntity
  8
0
100
AcDbSpline
 62
7
  6
CONTINUOUS
 70
0
 71
3
 72
34
 73
30
 74
0
 42
0.0000001
 43
0.0000001
 44
0.0000000001
 40
0.0
 40
0.0
 40
0.0
 40
0.0
 40
0.1003790066
 40
0.1976368099
 40
0.2917412481
 40
0.3825921918
 40
0.4699561072
 40
0.5122206893
 40
0.5534533108
 40
0.5935595759
 40
0.6323983399
 40
0.6697954314
 40
0.7055540392
 40
0.771510301
 40
0.8014022962
 40
0.8290626777
 40
0.8543894932
 40
0.8773494774
 40
0.8980190282
 40
0.9165161455
 40
0.9329672671
 40
0.94749523
 40
0.960216434
 40
0.9712381706
 40
0.980651022
 40
0.9885361824
 40
0.9949633032
 40
0.9976514204
 40
1.0
 40
1.0
 40
1.0
 40
1.0
 10
4.9831847826
 20
5.5739423129
 30
0.0
 10
4.9831847826
 20
5.5824237153
 30
0.0
 10
4.9831790298
 20
5.599122802
 30
0.0
 10
4.9831221511
 20
5.6237730837
 30
0.0
 10
4.9829952393
 20
5.6476180566
 30
0.0
 10
4.9827795703
 20
5.6706264105
 30
0.0
 10
4.98250262
 20
5.6892536402
 30
0.0
 10
4.9822076866
 20
5.7036873662
 30
0.0
 10
4.9819486602
 20
5.7141279182
 30
0.0
 10
4.981645938
 20
5.7242777148
 30
0.0
 10
4.9813017355
 20
5.7341019179
 30
0.0
 10
4.9809209975
 20
5.743557135
 30
0.0
 10
4.9803908088
 20
5.7552992994
 30
0.0
 10
4.9798093428
 20
5.7664042658
 30
0.0
 10
4.9791850999
 20
5.7768213237
 30
0.0
 10
4.9787325769
 20
5.7838094918
 30
0.0
 10
4.978288286
 20
5.7902111794
 30
0.0
 10
4.977858764
 20
5.7960217292
 30
0.0
 10
4.9774468672
 20
5.8012548818
 30
0.0
 10
4.9770536945
 20
5.805937787
 30
0.0
 10
4.9766795543
 20
5.8101014696
 30
0.0
 10
4.9763245404
 20
5.8137767978
 30
0.0
 10
4.9759882847
 20
5.8169929616
 30
0.0
 10
4.9756705437
 20
5.8197763914
 30
0.0
 10
4.9753711537
 20
5.8221505083
 30
0.0
 10
4.9750901065
 20
5.8241354148
 30
0.0
 10
4.9748597003
 20
5.8255534332
 30
0.0
 10
4.9746813525
 20
5.8265055358
 30
0.0
 10
4.9745948273
 20
5.8269222613
 30
0.0
 10
4.9745518592
 20
5.8271159939
 30
0.0
  0
SPLINE
  5
276
100
AcDbEntity
  8
0
100
AcDbSpline
 62
7
  6
CONTINUOUS
 70
0
 71
3
 72
30
 73
26
 74
0
 42
0.0000001
 43
0.0000001
 44
0.0000000001
 40
0.0
 40
0.0
 40
0.0
 40
0.0
 40
0.1004766976
 40
0.1980094148
 40
0.2924688463
 40
0.3837415213
 40
0.471549933
 40
0.5553284664
 40
0.6342456877
 40
0.7071325947
 40
0.7726201121
 40
0.8021767038
 40
0.8294556258
 40
0.8769394181
 40
0.897256013
 40
0.9154918518
 40
0.9317947281
 40
0.9462837433
 40
0.9590622364
 40
0.9702175746
 40
0.9798272969
 40
0.9879575588
 40
0.9946660463
 40
0.997501892
 40
1.0
 40
1.0
 40
1.0
 40
1.0
 10
4.4026847826
 20
5.5739423129
 30
0.0
 10
4.4026847826
 20
5.5824956687
 30
0.0
 10
4.402715903
 20
5.5993517894
 30
0.0
 10
4.4028685577
 20
5.624248622
 30
0.0
 10
4.4031347512
 20
5.6483609624
 30
0.0
 10
4.4035198906
 20
5.6716437931
 30
0.0
 10
4.404017684
 20
5.6940150233
 30
0.0
 10
4.4046109364
 20
5.7153317413
 30
0.0
 10
4.4052859966
 20
5.7353751206
 30
0.0
 10
4.4060201805
 20
5.7538582059
 30
0.0
 10
4.4066765892
 20
5.7681388296
 30
0.0
 10
4.4072097214
 20
5.7785382825
 30
0.0
 10
4.4076975922
 20
5.7874053478
 30
0.0
 10
4.4081898343
 20
5.7954843997
 30
0.0
 10
4.4086949708
 20
5.8027910641
 30
0.0
 10
4.4090437468
 20
5.807447759
 30
0.0
 10
4.4093819108
 20
5.8116076891
 30
0.0
 10
4.4097091612
 20
5.81530231
 30
0.0
 10
4.4100249305
 20
5.8185579283
 30
0.0
 10
4.4103287503
 20
5.82139726
 30
0.0
 10
4.4106198878
 20
5.8238398455
 30
0.0
 10
4.4108978571
 20
5.8259025265
 30
0.0
 10
4.4111286412
 20
5.8273895049
 30
0.0
 10
4.4113091953
 20
5.828398666
 30
0.0
 10
4.4113973849
 20
5.8288441283
 30
0.0
 10
4.411441288
 20
5.8290522054
 30
0.0
  0
SPLINE
  5
277
100
AcDbEntity
  8
0
100
AcDbSpline
 62
7
  6
CONTINUOUS
 70
0
 71
3
 72
17
 73
13
 74
0
 42
0.0000001
 43
0.0000001
 44
0.0000000001
 40
0.0
 40
0.0
 40
0.0
 40
0.0
 40
0.0517206706
 40
0.1037548488
 40
0.1564082551
 40
0.2099708742
 40
0.3208178399
 40
0.4382696102
 40
0.5638573857
 40
0.6987745826
 40
0.8439291595
 40
1.0
 40
1.0
 40
1.0
 40
1.0
 10
4.4026847826
 20
5.5739422741
 30
0.0
 10
4.4026847825
 20
5.5734269266
 30
0.0
 10
4.4027269588
 20
5.5723926233
 30
0.0
 10
4.402915844
 20
5.5708440802
 30
0.0
 10
4.403229688
 20
5.5692971368
 30
0.0
 10
4.4038201467
 20
5.5672146277
 30
0.0
 10
4.4048840756
 20
5.5646046457
 30
0.0
 10
4.4066341688
 20
5.5615337282
 30
0.0
 10
4.4088641197
 20
5.5584900546
 30
0.0
 10
4.4115672082
 20
5.5554772475
 30
0.0
 10
4.4147375762
 20
5.5524985859
 30
0.0
 10
4.4170725286
 20
5.5506083492
 30
0.0
 10
4.4183108036
 20
5.5496676021
 30
0.0
  0
SPLINE
  5
278
100
AcDbEntity
  8
0
100
AcDbSpline
 62
7
  6
CONTINUOUS
 70
0
 71
3
 72
11
 73
7
 74
0
 42
0.0000001
 43
0.0000001
 44
0.0000000001
 40
0.0
 40
0.0
 40
0.0
 40
0.0
 40
0.2500002655
 40
0.5000003573
 40
0.750000263
 40
1.0
 40
1.0
 40
1.0
 40
1.0
 10
5.1210699816
 20
5.2058994777
 30
0.0
 10
5.1241198327
 20
5.2478748681
 30
0.0
 10
5.1298700461
 20
5.3318515658
 30
0.0
 10
5.1372981455
 20
5.4578930193
 30
0.0
 10
5.1433833918
 20
5.584006733
 30
0.0
 10
5.1464504191
 20
5.6681253199
 30
0.0
 10
5.1477135896
 20
5.7101923129
 30
0.0
  0
SPLINE
  5
279
100
AcDbEntity
  8
0
100
AcDbSpline
 62
7
  6
CONTINUOUS
 70
0
 71
3
 72
81
 73
77
 74
0
 42
0.0000001
 43
0.0000001
 44
0.0000000001
 40
0.0
 40
0.0
 40
0.0
 40
0.0
 40
0.0078119815
 40
0.0117185827
 40
0.0156251453
 40
0.0195317637
 40
0.023438371
 40
0.0273449789
 40
0.0312515814
 40
0.0351581955
 40
0.0390648037
 40
0.0429714153
 40
0.0468780303
 40
0.0546903756
 40
0.0625028433
 40
0.0703154187
 40
0.0781280941
 40
0.0859408694
 40
0.0937536961
 40
0.1015665106
 40
0.1093794116
 40
0.1171922371
 40
0.121098754
 40
0.1250051682
 40
0.12891155
 40
0.1328179764
 40
0.1367244391
 40
0.1406308664
 40
0.1445372505
 40
0.1484436203
 40
0.1562562931
 40
0.1640689465
 40
0.1718816709
 40
0.1796943192
 40
0.1875068595
 40
0.1953194727
 40
0.1992257908
 40
0.2031320699
 40
0.2109445372
 40
0.2187569981
 40
0.2265694855
 40
0.2343819654
 40
0.2421944291
 40
0.2500068822
 40
0.2578193342
 40
0.2656317978
 40
0.2812567388
 40
0.2968817028
 40
0.312506661
 40
0.3281316387
 40
0.3437566188
 40
0.3593816387
 40
0.375006668
 40
0.4062565099
 40
0.4218815613
 40
0.437506581
 40
0.4687564613
 40
0.5000062653
 40
0.5312561304
 40
0.5625058742
 40
0.5937556753
 40
0.6250053123
 40
0.6562549929
 40
0.6875045183
 40
0.7187539982
 40
0.7500035239
 40
0.781252994
 40
0.8125024137
 40
0.8281271276
 40
0.8437518723
 40
0.8593766464
 40
0.8750014283
 40
0.906250988
 40
0.9375007068
 40
0.96875049
 40
1.0
 40
1.0
 40
1.0
 40
1.0
 10
4.1257280549
 20
1.8618259387
 30
0.0
 10
4.1335338395
 20
1.866188544
 30
0.0
 10
4.1450157219
 20
1.8731536314
 30
0.0
 10
4.1597820612
 20
1.8832506777
 30
0.0
 10
4.170575522
 20
1.8912230701
 30
0.0
 10
4.1810714452
 20
1.8995827776
 30
0.0
 10
4.1912576702
 20
1.9083173275
 30
0.0
 10
4.2011241699
 20
1.9174113294
 30
0.0
 10
4.2106625153
 20
1.926848838
 30
0.0
 10
4.2198673603
 20
1.9366117604
 30
0.0
 10
4.2287348379
 20
1.9466819092
 30
0.0
 10
4.2372640135
 20
1.9570401207
 30
0.0
 10
4.2481850927
 20
1.9712083043
 30
0.0
 10
4.2610009512
 20
1.9895457244
 30
0.0
 10
4.2750793999
 20
2.0123988237
 30
0.0
 10
4.2879230495
 20
2.0359665584
 30
0.0
 10
4.2996090029
 20
2.060127235
 30
0.0
 10
4.310223175
 20
2.0847760156
 30
0.0
 10
4.3198550364
 20
2.1098235034
 30
0.0
 10
4.3285956979
 20
2.1351945732
 30
0.0
 10
4.3365330208
 20
2.1608271435
 30
0.0
 10
4.3425513325
 20
2.1823627756
 30
0.0
 10
4.3470507367
 20
2.1996743307
 30
0.0
 10
4.3502788262
 20
2.2126952416
 30
0.0
 10
4.3533698358
 20
2.2257492026
 30
0.0
 10
4.3563332464
 20
2.2388327523
 30
0.0
 10
4.3591783688
 20
2.2519425513
 30
0.0
 10
4.3619153966
 20
2.2650752708
 30
0.0
 10
4.3645480923
 20
2.2782291958
 30
0.0
 10
4.3679219341
 20
2.2957942973
 30
0.0
 10
4.3718896891
 20
2.3177977628
 30
0.0
 10
4.376271029
 20
2.3442673892
 30
0.0
 10
4.3803008482
 20
2.3707926795
 30
0.0
 10
4.384006277
 20
2.3973649695
 30
0.0
 10
4.387419608
 20
2.4239760845
 30
0.0
 10
4.3900540968
 20
2.4461778131
 30
0.0
 10
4.3920550277
 20
2.4639513575
 30
0.0
 10
4.3939916605
 20
2.4817318576
 30
0.0
 10
4.396298388
 20
2.5039695997
 30
0.0
 10
4.3989017888
 20
2.5306713583
 30
0.0
 10
4.4013589727
 20
2.5573869529
 30
0.0
 10
4.4036873181
 20
2.5841140728
 30
0.0
 10
4.4058852603
 20
2.6108521998
 30
0.0
 10
4.4079521335
 20
2.6376007442
 30
0.0
 10
4.40988678
 20
2.664359185
 30
0.0
 10
4.412290004
 20
2.7000494185
 30
0.0
 10
4.414970248
 20
2.7446834748
 30
0.0
 10
4.4176886498
 20
2.7982717828
 30
0.0
 10
4.4199254772
 20
2.8518823781
 30
0.0
 10
4.4216930715
 20
2.9055104726
 30
0.0
 10
4.4230047029
 20
2.9591516789
 30
0.0
 10
4.4238739477
 20
3.0128019373
 30
0.0
 10
4.4244613587
 20
3.0843421797
 30
0.0
 10
4.4242180569
 20
3.1558870866
 30
0.0
 10
4.423195439
 20
3.2274223177
 30
0.0
 10
4.4216700323
 20
3.2989487206
 30
0.0
 10
4.4188488822
 20
3.3883344884
 30
0.0
 10
4.4140893075
 20
3.495544266
 30
0.0
 10
4.4080869706
 20
3.602691062
 30
0.0
 10
4.4009773582
 20
3.7097695736
 30
0.0
 10
4.392907485
 20
3.8167793003
 30
0.0
 10
4.3840229892
 20
3.9237240332
 30
0.0
 10
4.374467217
 20
4.0306102612
 30
0.0
 10
4.3643826536
 20
4.1374474744
 30
0.0
 10
4.353917332
 20
4.2442477038
 30
0.0
 10
4.3432215067
 20
4.3510249239
 30
0.0
 10
4.3324418222
 20
4.4577936009
 30
0.0
 10
4.3234975229
 20
4.5467713435
 30
0.0
 10
4.3164311807
 20
4.6179624283
 30
0.0
 10
4.3111929091
 20
4.6713618989
 30
0.0
 10
4.3060296151
 20
4.7247687578
 30
0.0
 10
4.2992593505
 20
4.7959888939
 30
0.0
 10
4.291038762
 20
4.885037173
 30
0.0
 10
4.2816500819
 20
4.9919383298
 30
0.0
 10
4.2728294139
 20
5.098887913
 30
0.0
 10
4.2673917686
 20
5.1702229888
 30
0.0
 10
4.2647995836
 20
5.2058994777
 30
0.0
  0
SPLINE
  5
27A
100
AcDbEntity
  8
0
100
AcDbSpline
 62
7
  6
CONTINUOUS
 70
0
 71
3
 72
11
 73
7
 74
0
 42
0.0000001
 43
0.0000001
 44
0.0000000001
 40
0.0
 40
0.0
 40
0.0
 40
0.0
 40
0.2500002655
 40
0.5000003573
 40
0.7500002629
 40
1.0
 40
1.0
 40
1.0
 40
1.0
 10
4.2647995836
 20
5.2058994777
 30
0.0
 10
4.2617497325
 20
5.2478748681
 30
0.0
 10
4.2559995191
 20
5.3318515658
 30
0.0
 10
4.2485714197
 20
5.4578930192
 30
0.0
 10
4.2424861734
 20
5.5840067329
 30
0.0
 10
4.2394191461
 20
5.6681253199
 30
0.0
 10
4.2381559756
 20
5.7101923129
 30
0.0
  0
LINE
  5
27B
100
AcDbEntity
  8
0
100
AcDbLine
 62
7
  6
CONTINUOUS
 10
5.0037103711
 20
5.4129003734
 11
5.0045646019
 21
5.4062883131
  0
SPLINE
  5
27C
100
AcDbEntity
  8
0
100
AcDbSpline
 62
7
  6
CONTINUOUS
 70
0
 71
3
 72
39
 73
35
 74
0
 42
0.0000001
 43
0.0000001
 44
0.0000000001
 40
0.0
 40
0.0
 40
0.0
 40
0.0
 40
0.0317190711
 40
0.0634334307
 40
0.0951336705
 40
0.1268158383
 40
0.1584733954
 40
0.1901011983
 40
0.2216943557
 40
0.2532485796
 40
0.2847602361
 40
0.3162263624
 40
0.3476447541
 40
0.3790139839
 40
0.410333398
 40
0.4416031727
 40
0.4728242901
 40
0.5039984846
 40
0.535128251
 40
0.5662167988
 40
0.5972679751
 40
0.6282862239
 40
0.6592765201
 40
0.6902442523
 40
0.7211951672
 40
0.7521352817
 40
0.783070781
 40
0.8140079182
 40
0.8449529168
 40
0.8759118801
 40
0.9068906984
 40
0.9378949472
 40
0.9689298112
 40
1.0
 40
1.0
 40
1.0
 40
1.0
 10
4.6929347826
 20
6.282890501
 30
0.0
 10
4.6959311098
 20
6.282890501
 30
0.0
 10
4.701924948
 20
6.2830745865
 30
0.0
 10
4.7108789613
 20
6.2839017462
 30
0.0
 10
4.7197621524
 20
6.2852769626
 30
0.0
 10
4.7285386334
 20
6.2871947256
 30
0.0
 10
4.7371737232
 20
6.2896477988
 30
0.0
 10
4.7456329228
 20
6.2926266695
 30
0.0
 10
4.7538824732
 20
6.2961198298
 30
0.0
 10
4.7618893463
 20
6.3001137378
 30
0.0
 10
4.769621398
 20
6.3045928776
 30
0.0
 10
4.7770474815
 20
6.3095398062
 30
0.0
 10
4.7841375669
 20
6.3149351996
 30
0.0
 10
4.7908628821
 20
6.3207578844
 30
0.0
 10
4.7971960272
 20
6.3269849176
 30
0.0
 10
4.8031110791
 20
6.3335916736
 30
0.0
 10
4.8085837143
 20
6.3405519143
 30
0.0
 10
4.8135913106
 20
6.3478378835
 30
0.0
 10
4.8181130824
 20
6.3554203862
 30
0.0
 10
4.8221301885
 20
6.3632689021
 30
0.0
 10
4.8256258119
 20
6.3713517167
 30
0.0
 10
4.828585253
 20
6.3796360463
 30
0.0
 10
4.8309960144
 20
6.3880881739
 30
0.0
 10
4.8328478786
 20
6.3966735928
 30
0.0
 10
4.8341330015
 20
6.4053571574
 30
0.0
 10
4.834845924
 20
6.4141032594
 30
0.0
 10
4.8349836107
 20
6.4228759918
 30
0.0
 10
4.8345454685
 20
6.4316393192
 30
0.0
 10
4.8335333482
 20
6.4403572452
 30
0.0
 10
4.8319515635
 20
6.4489940039
 30
0.0
 10
4.8298068619
 20
6.457514182
 30
0.0
 10
4.8271082749
 20
6.4658830655
 30
0.0
 10
4.8238674331
 20
6.4740661122
 30
0.0
 10
4.8213554289
 20
6.4793732225
 30
0.0
 10
4.8200145949
 20
6.4819840787
 30
0.0
  0
SPLINE
  5
27D
100
AcDbEntity
  8
0
100
AcDbSpline
 62
7
  6
CONTINUOUS
 70
0
 71
3
 72
39
 73
35
 74
0
 42
0.0000001
 43
0.0000001
 44
0.0000000001
 40
0.0
 40
0.0
 40
0.0
 40
0.0
 40
0.0310701574
 40
0.0621049929
 40
0.0931092163
 40
0.1240880121
 40
0.1550469561
 40
0.1859919389
 40
0.2169290643
 40
0.2478645556
 40
0.2788046651
 40
0.3097555781
 40
0.3407233116
 40
0.3717136126
 40
0.4027318688
 40
0.4337830548
 40
0.4648716138
 40
0.4960013931
 40
0.527175602
 40
0.5583967346
 40
0.5896665248
 40
0.6209859542
 40
0.6523551987
 40
0.6837736045
 40
0.7152397438
 40
0.7467514117
 40
0.7783056451
 40
0.8098988099
 40
0.8415266179
 40
0.8731841778
 40
0.9048663458
 40
0.9365665825
 40
0.9682809375
 40
1.0
 40
1.0
 40
1.0
 40
1.0
 10
4.5658544866
 20
6.4819831358
 30
0.0
 10
4.56451368
 20
6.4793722812
 30
0.0
 10
4.5620017261
 20
6.4740651778
 30
0.0
 10
4.5587609602
 20
6.465882145
 30
0.0
 10
4.5560624454
 20
6.4575132804
 30
0.0
 10
4.5539178123
 20
6.4489931255
 30
0.0
 10
4.5523360917
 20
6.4403563941
 30
0.0
 10
4.5513240292
 20
6.4316384989
 30
0.0
 10
4.5508859408
 20
6.4228752051
 30
0.0
 10
4.551023678
 20
6.4141025086
 30
0.0
 10
4.5517366466
 20
6.4053564447
 30
0.0
 10
4.5530218106
 20
6.39667292
 30
0.0
 10
4.5548737101
 20
6.388087542
 30
0.0
 10
4.5572845014
 20
6.3796354558
 30
0.0
 10
4.5602439697
 20
6.3713511685
 30
0.0
 10
4.5637396159
 20
6.3632683969
 30
0.0
 10
4.5677567403
 20
6.3554199238
 30
0.0
 10
4.5722785254
 20
6.3478374633
 30
0.0
 10
4.57728613
 20
6.3405515351
 30
0.0
 10
4.5827587704
 20
6.3335913353
 30
0.0
 10
4.5886738237
 20
6.3269846192
 30
0.0
 10
4.5950069662
 20
6.3207576245
 30
0.0
 10
4.6017322747
 20
6.3149349765
 30
0.0
 10
4.6088223493
 20
6.3095396175
 30
0.0
 10
4.6162484188
 20
6.3045927216
 30
0.0
 10
4.6239804534
 20
6.3001136124
 30
0.0
 10
4.6319873059
 20
6.2961197322
 30
0.0
 10
4.6402368326
 20
6.2926265967
 30
0.0
 10
4.6486960058
 20
6.2896477474
 30
0.0
 10
4.6573310666
 20
6.2871946925
 30
0.0
 10
4.6661075163
 20
6.285276944
 30
0.0
 10
4.6749906744
 20
6.2839017382
 30
0.0
 10
4.6839446529
 20
6.283074585
 30
0.0
 10
4.6899384674
 20
6.282890501
 30
0.0
 10
4.6929347826
 20
6.282890501
 30
0.0
  0
LINE
  5
27E
100
AcDbEntity
  8
0
100
AcDbLine
 62
7
  6
CONTINUOUS
 10
4.3813049545
 20
5.4062882359
 11
4.3821591941
 21
5.4129003734
  0
SPLINE
  5
27F
100
AcDbEntity
  8
0
100
AcDbSpline
 62
7
  6
CONTINUOUS
 70
0
 71
3
 72
17
 73
13
 74
0
 42
0.0000001
 43
0.0000001
 44
0.0000000001
 40
0.0
 40
0.0
 40
0.0
 40
0.0
 40
0.1560708663
 40
0.3012254604
 40
0.4361426661
 40
0.5617304423
 40
0.6791822061
 40
0.7900291594
 40
0.8435917707
 40
0.8962451687
 40
0.9482793381
 40
1.0
 40
1.0
 40
1.0
 40
1.0
 10
4.9675587607
 20
5.5496675808
 30
0.0
 10
4.9687970358
 20
5.5506083275
 30
0.0
 10
4.9711319885
 20
5.5524985632
 30
0.0
 10
4.974302357
 20
5.5554772235
 30
0.0
 10
4.9770054457
 20
5.5584900292
 30
0.0
 10
4.9792353969
 20
5.5615337014
 30
0.0
 10
4.9809854901
 20
5.5646046176
 30
0.0
 10
4.982049419
 20
5.5672145985
 30
0.0
 10
4.9826398776
 20
5.5692971067
 30
0.0
 10
4.9829537216
 20
5.5708440495
 30
0.0
 10
4.9831426066
 20
5.572392592
 30
0.0
 10
4.9831847827
 20
5.5734268948
 30
0.0
 10
4.9831847826
 20
5.5739422421
 30
0.0
  0
LINE
  5
280
100
AcDbEntity
  8
0
100
AcDbLine
 62
7
  6
CONTINUOUS
 10
4.5177839341
 20
6.0401073665
 11
4.5181920609
 21
6.0403736416
  0
LINE
  5
281
100
AcDbEntity
  8
0
100
AcDbLine
 62
7
  6
CONTINUOUS
 10
4.8677918936
 20
6.0390419806
 11
4.8674123287
 21
6.0392914747
  0
SPLINE
  5
282
100
AcDbEntity
  8
0
100
AcDbSpline
 62
7
  6
CONTINUOUS
 70
0
 71
3
 72
81
 73
77
 74
0
 42
0.0000001
 43
0.0000001
 44
0.0000000001
 40
0.0
 40
0.0
 40
0.0
 40
0.0
 40
0.0078119813
 40
0.0117185824
 40
0.0156251451
 40
0.0195317633
 40
0.0234383706
 40
0.0273449784
 40
0.0312515808
 40
0.0351581949
 40
0.039064803
 40
0.0429714145
 40
0.0468780295
 40
0.0546903747
 40
0.0625028423
 40
0.0703154175
 40
0.0781280927
 40
0.0859408679
 40
0.0937536946
 40
0.1015665091
 40
0.1093794101
 40
0.117192236
 40
0.1210987529
 40
0.1250051669
 40
0.1289115488
 40
0.1328179753
 40
0.1367244382
 40
0.1406308654
 40
0.1445372496
 40
0.1484436194
 40
0.1562562922
 40
0.1640689457
 40
0.1718816702
 40
0.1796943185
 40
0.1875068589
 40
0.1953194722
 40
0.1992257904
 40
0.2031320694
 40
0.2109445367
 40
0.2187569977
 40
0.2265694852
 40
0.2343819651
 40
0.2421944288
 40
0.250006882
 40
0.257819334
 40
0.2656317976
 40
0.2812567387
 40
0.2968817028
 40
0.3125066611
 40
0.328131639
 40
0.3437566191
 40
0.359381639
 40
0.3750066681
 40
0.4062565096
 40
0.4218815608
 40
0.4375065804
 40
0.4687564607
 40
0.5000062648
 40
0.5312561298
 40
0.5625058737
 40
0.5937556748
 40
0.6250053118
 40
0.6562549925
 40
0.6875045179
 40
0.7187539978
 40
0.7500035236
 40
0.7812529936
 40
0.8125024133
 40
0.8281271273
 40
0.843751872
 40
0.8593766462
 40
0.8750014281
 40
0.9062509879
 40
0.9375007067
 40
0.96875049
 40
1.0
 40
1.0
 40
1.0
 40
1.0
 10
5.2601415103
 20
1.8618259387
 30
0.0
 10
5.2523357259
 20
1.866188544
 30
0.0
 10
5.2408538437
 20
1.8731536312
 30
0.0
 10
5.2260875046
 20
1.8832506772
 30
0.0
 10
5.215294044
 20
1.8912230695
 30
0.0
 10
5.2047981209
 20
1.8995827768
 30
0.0
 10
5.1946118961
 20
1.9083173265
 30
0.0
 10
5.1847453966
 20
1.9174113282
 30
0.0
 10
5.1752070512
 20
1.9268488365
 30
0.0
 10
5.1660022065
 20
1.9366117589
 30
0.0
 10
5.1571347288
 20
1.9466819072
 30
0.0
 10
5.1486055535
 20
1.9570401187
 30
0.0
 10
5.1376844741
 20
1.9712083019
 30
0.0
 10
5.1248686158
 20
1.9895457217
 30
0.0
 10
5.1107901671
 20
2.0123988205
 30
0.0
 10
5.0979465176
 20
2.0359665546
 30
0.0
 10
5.0862605644
 20
2.0601272307
 30
0.0
 10
5.075646392
 20
2.0847760109
 30
0.0
 10
5.0660145303
 20
2.1098234985
 30
0.0
 10
5.0572738696
 20
2.1351945686
 30
0.0
 10
5.0493365458
 20
2.1608271389
 30
0.0
 10
5.0433182317
 20
2.1823627708
 30
0.0
 10
5.0388188275
 20
2.1996743261
 30
0.0
 10
5.0355907412
 20
2.2126952377
 30
0.0
 10
5.0324997373
 20
2.2257492002
 30
0.0
 10
5.0295363302
 20
2.2388327512
 30
0.0
 10
5.0266912049
 20
2.2519425499
 30
0.0
 10
5.0239541665
 20
2.2650752673
 30
0.0
 10
5.0213214676
 20
2.2782291915
 30
0.0
 10
5.0179476249
 20
2.2957942929
 30
0.0
 10
5.0139798759
 20
2.3177977597
 30
0.0
 10
5.0095985388
 20
2.3442673869
 30
0.0
 10
5.0055687183
 20
2.3707926772
 30
0.0
 10
5.0018632927
 20
2.3973649678
 30
0.0
 10
4.9984499601
 20
2.4239760827
 30
0.0
 10
4.9958154669
 20
2.4461778112
 30
0.0
 10
4.9938145308
 20
2.4639513552
 30
0.0
 10
4.9918778935
 20
2.4817318548
 30
0.0
 10
4.9895711692
 20
2.5039695973
 30
0.0
 10
4.9869677766
 20
2.5306713569
 30
0.0
 10
4.9845105972
 20
2.5573869521
 30
0.0
 10
4.9821822513
 20
2.5841140722
 30
0.0
 10
4.9799843082
 20
2.6108521993
 30
0.0
 10
4.9779174333
 20
2.6376007436
 30
0.0
 10
4.9759827851
 20
2.6643591843
 30
0.0
 10
4.9735795599
 20
2.7000494178
 30
0.0
 10
4.9708993159
 20
2.7446834744
 30
0.0
 10
4.9681809158
 20
2.7982717828
 30
0.0
 10
4.9659440886
 20
2.8518823786
 30
0.0
 10
4.964176494
 20
2.9055104733
 30
0.0
 10
4.9628648622
 20
2.9591516797
 30
0.0
 10
4.9619956172
 20
3.012801938
 30
0.0
 10
4.9614082066
 20
3.0843421798
 30
0.0
 10
4.9616515085
 20
3.1558870857
 30
0.0
 10
4.962674126
 20
3.227422316
 30
0.0
 10
4.9641995323
 20
3.2989487186
 30
0.0
 10
4.9670206838
 20
3.3883344863
 30
0.0
 10
4.9717802588
 20
3.495544264
 30
0.0
 10
4.9777825936
 20
3.6026910602
 30
0.0
 10
4.9848922067
 20
3.7097695719
 30
0.0
 10
4.9929620801
 20
3.8167792986
 30
0.0
 10
5.0018465761
 20
3.9237240317
 30
0.0
 10
5.0114023486
 20
4.0306102598
 30
0.0
 10
5.0214869117
 20
4.1374474731
 30
0.0
 10
5.0319522316
 20
4.2442477028
 30
0.0
 10
5.0426480533
 20
4.3510249232
 30
0.0
 10
5.0534277421
 20
4.4577935998
 30
0.0
 10
5.0623720466
 20
4.5467713419
 30
0.0
 10
5.0694383895
 20
4.6179624268
 30
0.0
 10
5.0746766585
 20
4.6713618978
 30
0.0
 10
5.0798399512
 20
4.7247687571
 30
0.0
 10
5.0866102147
 20
4.7959888934
 30
0.0
 10
5.0948308031
 20
4.8850371727
 30
0.0
 10
5.1042194834
 20
4.9919383296
 30
0.0
 10
5.1130401514
 20
5.0988879129
 30
0.0
 10
5.1184777966
 20
5.1702229887
 30
0.0
 10
5.1210699816
 20
5.2058994777
 30
0.0
  0
SPLINE
  5
283
100
AcDbEntity
  8
0
100
AcDbSpline
 62
7
  6
CONTINUOUS
 70
0
 71
3
 72
36
 73
32
 74
0
 42
0.0000001
 43
0.0000001
 44
0.0000000001
 40
0.0
 40
0.0
 40
0.0
 40
0.0
 40
0.0207852376
 40
0.0426037895
 40
0.0654203851
 40
0.0892023068
 40
0.113905912
 40
0.1394802708
 40
0.1658689129
 40
0.1930197579
 40
0.2494104184
 40
0.2785409173
 40
0.308225371
 40
0.3384144848
 40
0.3690496683
 40
0.4000669661
 40
0.4314261595
 40
0.4631155275
 40
0.4951468417
 40
0.5275790368
 40
0.5604722602
 40
0.6278223507
 40
0.6623714458
 40
0.6975529067
 40
0.7698446682
 40
0.8069286376
 40
0.8446066558
 40
0.8828336665
 40
0.9215354249
 40
0.9606234855
 40
1.0
 40
1.0
 40
1.0
 40
1.0
 10
4.4987130762
 20
5.0577361437
 30
0.0
 10
4.4986398285
 20
5.0522062538
 30
0.0
 10
4.4985013714
 20
5.0408714037
 30
0.0
 10
4.4983270814
 20
5.0234657123
 30
0.0
 10
4.4981908621
 20
5.0052623145
 30
0.0
 10
4.4981065548
 20
4.9862909539
 30
0.0
 10
4.4980827075
 20
4.9665856519
 30
0.0
 10
4.4981255868
 20
4.9461868058
 30
0.0
 10
4.4982349579
 20
4.9251370571
 30
0.0
 10
4.4984742064
 20
4.8958886426
 30
0.0
 10
4.4988501476
 20
4.8659119028
 30
0.0
 10
4.4993686708
 20
4.8352632393
 30
0.0
 10
4.4998393241
 20
4.8115863667
 30
0.0
 10
4.5003900686
 20
4.7875107645
 30
0.0
 10
4.5010164376
 20
4.7630822667
 30
0.0
 10
4.5017099833
 20
4.7383441403
 30
0.0
 10
4.5024664193
 20
4.7133272395
 30
0.0
 10
4.5032853633
 20
4.688042363
 30
0.0
 10
4.5041670815
 20
4.6624739305
 30
0.0
 10
4.505114539
 20
4.6365873185
 30
0.0
 10
4.5064793759
 20
4.6013124201
 30
0.0
 10
4.5079699707
 20
4.5654788039
 30
0.0
 10
4.5095690029
 20
4.5290405102
 30
0.0
 10
4.5112767275
 20
4.4912909092
 30
0.0
 10
4.5130854003
 20
4.4528707669
 30
0.0
 10
4.5149780002
 20
4.4137896434
 30
0.0
 10
4.5164550353
 20
4.3837627096
 30
0.0
 10
4.5179701446
 20
4.3533066865
 30
0.0
 10
4.5195110307
 20
4.32247631
 30
0.0
 10
4.5210666646
 20
4.2913404377
 30
0.0
 10
4.5221049705
 20
4.2704890271
 30
0.0
 10
4.5226250461
 20
4.2600249455
 30
0.0
  0
SPLINE
  5
284
100
AcDbEntity
  8
0
100
AcDbSpline
 62
7
  6
CONTINUOUS
 70
0
 71
3
 72
26
 73
22
 74
0
 42
0.0000001
 43
0.0000001
 44
0.0000000001
 40
0.0
 40
0.0
 40
0.0
 40
0.0
 40
0.0784647205
 40
0.1553904885
 40
0.2301495156
 40
0.3024428211
 40
0.3721703175
 40
0.439517014
 40
0.5048528954
 40
0.5685867227
 40
0.6309472685
 40
0.6917513217
 40
0.7505633137
 40
0.8069595927
 40
0.8341109176
 40
0.8604996618
 40
0.8860757573
 40
0.9107833442
 40
0.9345704609
 40
0.9573919395
 40
1.0
 40
1.0
 40
1.0
 40
1.0
 10
4.8632445191
 20
4.2600249455
 30
0.0
 10
4.8642808473
 20
4.2808761899
 30
0.0
 10
4.8663480264
 20
4.3221689767
 30
0.0
 10
4.8694008785
 20
4.3833283447
 30
0.0
 10
4.872308664
 20
4.442850872
 30
0.0
 10
4.8750248244
 20
4.5004651853
 30
0.0
 10
4.8775075266
 20
4.5561159806
 30
0.0
 10
4.8797422816
 20
4.6099246159
 30
0.0
 10
4.8817217853
 20
4.6621474433
 30
0.0
 10
4.8834366316
 20
4.7130522749
 30
0.0
 10
4.884879943
 20
4.7627592809
 30
0.0
 10
4.8860400403
 20
4.8111638343
 30
0.0
 10
4.8869009126
 20
4.8579874796
 30
0.0
 10
4.8873815913
 20
4.8958620543
 30
0.0
 10
4.8876201849
 20
4.925111706
 30
0.0
 10
4.8877290844
 20
4.9461617672
 30
0.0
 10
4.887772831
 20
4.9665618622
 30
0.0
 10
4.8877524216
 20
4.986269783
 30
0.0
 10
4.8876728798
 20
5.0052446306
 30
0.0
 10
4.8875010609
 20
5.0289817667
 30
0.0
 10
4.8873078972
 20
5.04638951
 30
0.0
 10
4.8871577549
 20
5.0577251738
 30
0.0
  0
SPLINE
  5
285
100
AcDbEntity
  8
0
100
AcDbSpline
 62
7
  6
CONTINUOUS
 70
0
 71
3
 72
23
 73
19
 74
0
 42
0.0000001
 43
0.0000001
 44
0.0000000001
 40
0.0
 40
0.0
 40
0.0
 40
0.0
 40
0.0927579156
 40
0.1793924526
 40
0.2604368894
 40
0.3364135119
 40
0.4078277564
 40
0.4751614256
 40
0.5388652944
 40
0.5993515946
 40
0.6569869933
 40
0.7120867132
 40
0.7649103577
 40
0.8156598199
 40
0.86447942
 40
0.9114581954
 40
0.9566341212
 40
1.0
 40
1.0
 40
1.0
 40
1.0
 10
4.2647995836
 20
5.2058994777
 30
0.0
 10
4.2702622373
 20
5.2093794239
 30
0.0
 10
4.2806645368
 20
5.2163700564
 30
0.0
 10
4.2951948173
 20
5.2273201633
 30
0.0
 10
4.308180859
 20
5.2383274312
 30
0.0
 10
4.3197128645
 20
5.2493619344
 30
0.0
 10
4.3298816246
 20
5.2603938411
 30
0.0
 10
4.3387778739
 20
5.2713929018
 30
0.0
 10
4.3464925989
 20
5.2823285993
 30
0.0
 10
4.3531171019
 20
5.2931702082
 30
0.0
 10
4.358743075
 20
5.303886938
 30
0.0
 10
4.3634625933
 20
5.3144480875
 30
0.0
 10
4.3673680436
 20
5.3248231851
 30
0.0
 10
4.370552003
 20
5.334982086
 30
0.0
 10
4.3731070978
 20
5.3448950011
 30
0.0
 10
4.375125874
 20
5.3545325181
 30
0.0
 10
4.3767006943
 20
5.363865435
 30
0.0
 10
4.3775333217
 20
5.3699925708
 30
0.0
 10
4.3779042013
 20
5.3729978451
 30
0.0
  0
SPLINE
  5
286
100
AcDbEntity
  8
0
100
AcDbSpline
 62
7
  6
CONTINUOUS
 70
0
 71
3
 72
33
 73
29
 74
0
 42
0.0000001
 43
0.0000001
 44
0.0000000001
 40
0.0
 40
0.0
 40
0.0
 40
0.0
 40
0.0147637766
 40
0.0297479035
 40
0.045157439
 40
0.0611813705
 40
0.0779864917
 40
0.0957133074
 40
0.1144774777
 40
0.1343725596
 40
0.1554729981
 40
0.1778366873
 40
0.2015074829
 40
0.2265176593
 40
0.2528892593
 40
0.280636279
 40
0.3097649601
 40
0.3402757138
 40
0.3721623406
 40
0.4054142335
 40
0.4400152988
 40
0.4759460248
 40
0.5516974123
 40
0.6324550106
 40
0.7179647645
 40
0.8079397837
 40
0.9020654431
 40
1.0
 40
1.0
 40
1.0
 40
1.0
 10
4.9004152938
 20
5.4676905112
 30
0.0
 10
4.90041523
 20
5.4682773103
 30
0.0
 10
4.9003395059
 20
5.469460984
 30
0.0
 10
4.9000009225
 20
5.4712279574
 30
0.0
 10
4.8994382666
 20
5.4729893835
 30
0.0
 10
4.898653242
 20
5.4747425843
 30
0.0
 10
4.8976475036
 20
5.4764858153
 30
0.0
 10
4.8964229744
 20
5.4782175963
 30
0.0
 10
4.8949814468
 20
5.4799365134
 30
0.0
 10
4.8933247394
 20
5.4816411673
 30
0.0
 10
4.891454675
 20
5.4833300934
 30
0.0
 10
4.8893731883
 20
5.4850017683
 30
0.0
 10
4.8870823701
 20
5.4866546223
 30
0.0
 10
4.8845844769
 20
5.4882869996
 30
0.0
 10
4.8818820044
 20
5.4898972895
 30
0.0
 10
4.8789776247
 20
5.491483772
 30
0.0
 10
4.8758742814
 20
5.4930448364
 30
0.0
 10
4.872575127
 20
5.4945787427
 30
0.0
 10
4.8690836349
 20
5.4960839457
 30
0.0
 10
4.865403508
 20
5.497558748
 30
0.0
 10
4.8615387518
 20
5.4990016966
 30
0.0
 10
4.8560479486
 20
5.5009148135
 30
0.0
 10
4.848748277
 20
5.5032058954
 30
0.0
 10
4.8394722611
 20
5.505758941
 30
0.0
 10
4.8295709837
 20
5.5081509094
 30
0.0
 10
4.8190863256
 20
5.5103713569
 30
0.0
 10
4.8080625233
 20
5.5124106034
 30
0.0
 10
4.8005246563
 20
5.5136207002
 30
0.0
 10
4.7966749071
 20
5.514195976
 30
0.0
  0
SPLINE
  5
287
100
AcDbEntity
  8
0
100
AcDbSpline
 62
7
  6
CONTINUOUS
 70
0
 71
3
 72
33
 73
29
 74
0
 42
0.0000001
 43
0.0000001
 44
0.0000000001
 40
0.0
 40
0.0
 40
0.0
 40
0.0
 40
0.0979627153
 40
0.1920572506
 40
0.2819582708
 40
0.3673629676
 40
0.4479967797
 40
0.5236158441
 40
0.5594807811
 40
0.5940184252
 40
0.6272105443
 40
0.6590427155
 40
0.6895054396
 40
0.7185938519
 40
0.7463097412
 40
0.7726606021
 40
0.7976617943
 40
0.8213364631
 40
0.8437179795
 40
0.86485091
 40
0.8847937615
 40
0.90362114
 40
0.9214269275
 40
0.9383267374
 40
0.9544597562
 40
0.9699899066
 40
0.9851028536
 40
1.0
 40
1.0
 40
1.0
 40
1.0
 10
4.7994996873
 20
5.4216148538
 30
0.0
 10
4.8032551934
 20
5.4221967826
 30
0.0
 10
4.8106058543
 20
5.423417617
 30
0.0
 10
4.821351598
 20
5.4254660669
 30
0.0
 10
4.831564857
 20
5.4276885781
 30
0.0
 10
4.841204039
 20
5.4300755072
 30
0.0
 10
4.8502295249
 20
5.4326167979
 30
0.0
 10
4.8573286272
 20
5.4348927009
 30
0.0
 10
4.8626663934
 20
5.4367904642
 30
0.0
 10
4.8664225094
 20
5.438220621
 30
0.0
 10
4.8699984548
 20
5.4396812897
 30
0.0
 10
4.8733904687
 20
5.4411710306
 30
0.0
 10
4.8765950532
 20
5.4426882482
 30
0.0
 10
4.8796089328
 20
5.4442314574
 30
0.0
 10
4.8824291545
 20
5.445798979
 30
0.0
 10
4.8850529526
 20
5.4473892874
 30
0.0
 10
4.8874778364
 20
5.4490007145
 30
0.0
 10
4.8897014547
 20
5.4506317409
 30
0.0
 10
4.8917216953
 20
5.4522807606
 30
0.0
 10
4.8935365527
 20
5.4539463016
 30
0.0
 10
4.8951441889
 20
5.455626885
 30
0.0
 10
4.8965428125
 20
5.457321156
 30
0.0
 10
4.8977307324
 20
5.4590277468
 30
0.0
 10
4.8987063598
 20
5.4607452488
 30
0.0
 10
4.8994679512
 20
5.4624722111
 30
0.0
 10
4.9000137407
 20
5.4642070302
 30
0.0
 10
4.9003419691
 20
5.4659471325
 30
0.0
 10
4.9004152759
 20
5.4671125975
 30
0.0
 10
4.9004152938
 20
5.4676905112
 30
0.0
  0
LINE
  5
288
100
AcDbEntity
  8
0
100
AcDbLine
 62
7
  6
CONTINUOUS
 10
4.803626054
 20
6.1338146492
 11
4.6929347826
 21
6.1337746848
  0
SPLINE
  5
289
100
AcDbEntity
  8
0
100
AcDbSpline
 62
7
  6
CONTINUOUS
 70
0
 71
3
 72
15
 73
11
 74
0
 42
0.0000001
 43
0.0000001
 44
0.0000000001
 40
0.0
 40
0.0
 40
0.0
 40
0.0
 40
0.1467561872
 40
0.2863088096
 40
0.4188875884
 40
0.5449663424
 40
0.6652128376
 40
0.7804707682
 40
0.8917198928
 40
1.0
 40
1.0
 40
1.0
 40
1.0
 10
4.803626054
 20
6.1338146492
 30
0.0
 10
4.8017292015
 20
6.1360089548
 30
0.0
 10
4.7979235395
 20
6.140200965
 30
0.0
 10
4.7920135363
 20
6.1460057832
 30
0.0
 10
4.7860469605
 20
6.1511478421
 30
0.0
 10
4.7800268912
 20
6.1556144102
 30
0.0
 10
4.7739570169
 20
6.1594021354
 30
0.0
 10
4.767841835
 20
6.1625165728
 30
0.0
 10
4.7616869619
 20
6.1649703289
 30
0.0
 10
4.7575152939
 20
6.166190934
 30
0.0
 10
4.7554347826
 20
6.1666923129
 30
0.0
  0
SPLINE
  5
28A
100
AcDbEntity
  8
0
100
AcDbSpline
 62
7
  6
CONTINUOUS
 70
0
 71
3
 72
14
 73
10
 74
0
 42
0.0000001
 43
0.0000001
 44
0.0000000001
 40
0.0
 40
0.0
 40
0.0
 40
0.0
 40
0.2499484711
 40
0.3749390865
 40
0.4999314232
 40
0.6249311097
 40
0.7499409016
 40
0.8749615726
 40
1.0
 40
1.0
 40
1.0
 40
1.0
 10
4.9214803482
 20
6.1335821995
 30
0.0
 10
4.9147094606
 20
6.1371592733
 30
0.0
 10
4.9043722421
 20
6.142195962
 30
0.0
 10
4.8902606571
 20
6.1481569831
 30
0.0
 10
4.8795157796
 20
6.1522310769
 30
0.0
 10
4.8686212108
 20
6.1558877452
 30
0.0
 10
4.8575887155
 20
6.1591084994
 30
0.0
 10
4.8464332552
 20
6.1618779681
 30
0.0
 10
4.8389252358
 20
6.1634149267
 30
0.0
 10
4.8351569814
 20
6.1641044316
 30
0.0
  0
LINE
  5
28B
100
AcDbEntity
  8
0
100
AcDbLine
 62
7
  6
CONTINUOUS
 10
4.9214803482
 20
6.1335821995
 11
4.8102891976
 21
6.1336775144
  0
SPLINE
  5
28C
100
AcDbEntity
  8
0
100
AcDbSpline
 62
7
  6
CONTINUOUS
 70
0
 71
3
 72
15
 73
11
 74
0
 42
0.0000001
 43
0.0000001
 44
0.0000000001
 40
0.0
 40
0.0
 40
0.0
 40
0.0
 40
0.1456369883
 40
0.2853944254
 40
0.4191254316
 40
0.5467938192
 40
0.6684740476
 40
0.7843569728
 40
0.8947415088
 40
1.0
 40
1.0
 40
1.0
 40
1.0
 10
4.8099810432
 20
6.133966054
 30
0.0
 10
4.8077431484
 20
6.1361482988
 30
0.0
 10
4.8032525417
 20
6.1403188706
 30
0.0
 10
4.7963342428
 20
6.1460757015
 30
0.0
 10
4.7893965615
 20
6.151183927
 30
0.0
 10
4.7824715007
 20
6.1556272686
 30
0.0
 10
4.7755923331
 20
6.1593992513
 30
0.0
 10
4.7687921354
 20
6.1625031624
 30
0.0
 10
4.7621033624
 20
6.1649506114
 30
0.0
 10
4.757636245
 20
6.1661851415
 30
0.0
 10
4.7554347826
 20
6.1666923129
 30
0.0
  0
SPLINE
  5
28D
100
AcDbEntity
  8
0
100
AcDbSpline
 62
7
  6
CONTINUOUS
 70
0
 71
3
 72
15
 73
11
 74
0
 42
0.0000001
 43
0.0000001
 44
0.0000000001
 40
0.0
 40
0.0
 40
0.0
 40
0.0
 40
0.1303808676
 40
0.2602404821
 40
0.3890623264
 40
0.5163322342
 40
0.6415479364
 40
0.7642132951
 40
0.8838508276
 40
1.0
 40
1.0
 40
1.0
 40
1.0
 10
4.6929347842
 20
5.4139905642
 30
0.0
 10
4.6974581458
 20
5.4139906062
 30
0.0
 10
4.7064869702
 20
5.4140675291
 30
0.0
 10
4.7199811264
 20
5.414411193
 30
0.0
 10
4.7333596314
 20
5.4149816849
 30
0.0
 10
4.7465652561
 20
5.415777186
 30
0.0
 10
4.7595415203
 20
5.4167935326
 30
0.0
 10
4.7722329998
 20
5.4180270091
 30
0.0
 10
4.7845854886
 20
5.4194719803
 30
0.0
 10
4.7926897844
 20
5.4205896013
 30
0.0
 10
4.7966751688
 20
5.4211850073
 30
0.0
  0
SPLINE
  5
28E
100
AcDbEntity
  8
0
100
AcDbSpline
 62
7
  6
CONTINUOUS
 70
0
 71
3
 72
15
 73
11
 74
0
 42
0.0000001
 43
0.0000001
 44
0.0000000001
 40
0.0
 40
0.0
 40
0.0
 40
0.0
 40
0.1161488023
 40
0.2357873963
 40
0.3584523915
 40
0.4836679893
 40
0.6109377757
 40
0.7397593488
 40
0.8696191346
 40
1.0
 40
1.0
 40
1.0
 40
1.0
 10
4.5891946581
 20
5.4211849681
 30
0.0
 10
4.5931800152
 20
5.4205895341
 30
0.0
 10
4.6012843127
 20
5.4194718907
 30
0.0
 10
4.6136367993
 20
5.4180270755
 30
0.0
 10
4.6263282582
 20
5.4167935131
 30
0.0
 10
4.639304471
 20
5.4157771797
 30
0.0
 10
4.6525100447
 20
5.4149816826
 30
0.0
 10
4.6658885049
 20
5.4144110978
 30
0.0
 10
4.679382627
 20
5.4140675398
 30
0.0
 10
4.688411434
 20
5.4139906179
 30
0.0
 10
4.6929347842
 20
5.4139905642
 30
0.0
  0
SPLINE
  5
28F
100
AcDbEntity
  8
0
100
AcDbSpline
 62
7
  6
CONTINUOUS
 70
0
 71
3
 72
33
 73
29
 74
0
 42
0.0000001
 43
0.0000001
 44
0.0000000001
 40
0.0
 40
0.0
 40
0.0
 40
0.0
 40
0.0148971946
 40
0.030010232
 40
0.045540146
 40
0.0616726563
 40
0.0785723187
 40
0.0963784444
 40
0.1152061224
 40
0.1351489606
 40
0.1562817549
 40
0.1786631837
 40
0.2023378909
 40
0.2273392639
 40
0.2536903517
 40
0.2814063965
 40
0.3104948158
 40
0.3409573592
 40
0.3727892897
 40
0.4059813167
 40
0.4405190438
 40
0.476384171
 40
0.5520035274
 40
0.6326371567
 40
0.7180418621
 40
0.8079434137
 40
0.9020367485
 40
1.0
 40
1.0
 40
1.0
 40
1.0
 10
4.4854542714
 20
5.4676904329
 30
0.0
 10
4.4854543343
 20
5.4671125169
 30
0.0
 10
4.4855277553
 20
5.465947052
 30
0.0
 10
4.4858560837
 20
5.4642069779
 30
0.0
 10
4.4864017529
 20
5.4624721532
 30
0.0
 10
4.4871631721
 20
5.4607451478
 30
0.0
 10
4.4881387852
 20
5.4590276432
 30
0.0
 10
4.489326792
 20
5.4573210868
 30
0.0
 10
4.4907254702
 20
5.4556268295
 30
0.0
 10
4.4923331052
 20
5.4539462351
 30
0.0
 10
4.4941479465
 20
5.4522806867
 30
0.0
 10
4.4961681784
 20
5.4506316636
 30
0.0
 10
4.4983918069
 20
5.4490006379
 30
0.0
 10
4.5008167197
 20
5.4473892181
 30
0.0
 10
4.5034405513
 20
5.4457989177
 30
0.0
 10
4.5062607963
 20
5.4442314012
 30
0.0
 10
4.5092746791
 20
5.4426881938
 30
0.0
 10
4.5124792457
 20
5.4411709687
 30
0.0
 10
4.5158712371
 20
5.4396812175
 30
0.0
 10
4.5194471756
 20
5.438220548
 30
0.0
 10
4.5232033047
 20
5.4367903957
 30
0.0
 10
4.528541104
 20
5.4348926447
 30
0.0
 10
4.5356402312
 20
5.4326167603
 30
0.0
 10
4.5446657244
 20
5.43007545
 30
0.0
 10
4.5543049271
 20
5.4276885046
 30
0.0
 10
4.5645181909
 20
5.4254660969
 30
0.0
 10
4.5752639075
 20
5.423417483
 30
0.0
 10
4.5826145596
 20
5.4221967033
 30
0.0
 10
4.5863700942
 20
5.4216148001
 30
0.0
  0
SPLINE
  5
290
100
AcDbEntity
  8
0
100
AcDbSpline
 62
7
  6
CONTINUOUS
 70
0
 71
3
 72
33
 73
29
 74
0
 42
0.0000001
 43
0.0000001
 44
0.0000000001
 40
0.0
 40
0.0
 40
0.0
 40
0.0
 40
0.0979336773
 40
0.1920605065
 40
0.2820353038
 40
0.3675448924
 40
0.4483027342
 40
0.5240539234
 40
0.5599844573
 40
0.5945854118
 40
0.6278373523
 40
0.6597242051
 40
0.6902351795
 40
0.7193639013
 40
0.7471108006
 40
0.7734821874
 40
0.7984921755
 40
0.822162914
 40
0.8445266825
 40
0.8656272616
 40
0.8855223876
 40
0.9042862971
 40
0.9220127636
 40
0.9388179943
 40
0.9548424325
 40
0.970252223
 40
0.9852362676
 40
1.0
 40
1.0
 40
1.0
 40
1.0
 10
4.5891943963
 20
5.5141959368
 30
0.0
 10
4.5853446904
 20
5.5136206408
 30
0.0
 10
4.5778068376
 20
5.5124104504
 30
0.0
 10
4.5667830161
 20
5.5103713701
 30
0.0
 10
4.5562983523
 20
5.5081508563
 30
0.0
 10
4.5463970986
 20
5.5057588723
 30
0.0
 10
4.5371210914
 20
5.503205857
 30
0.0
 10
4.52982144
 20
5.5009147601
 30
0.0
 10
4.5243306705
 20
5.4990016288
 30
0.0
 10
4.5204659327
 20
5.4975586748
 30
0.0
 10
4.5167858048
 20
5.496083871
 30
0.0
 10
4.5132942927
 20
5.4945786769
 30
0.0
 10
4.5099951171
 20
5.4930447805
 30
0.0
 10
4.5068917724
 20
5.4914837157
 30
0.0
 10
4.5039874129
 20
5.4898972287
 30
0.0
 10
4.5012849737
 20
5.4882869309
 30
0.0
 10
4.4987871119
 20
5.4866545458
 30
0.0
 10
4.4964963079
 20
5.4850016897
 30
0.0
 10
4.4944148148
 20
5.4833300182
 30
0.0
 10
4.4925447345
 20
5.4816410989
 30
0.0
 10
4.4908880224
 20
5.4799364571
 30
0.0
 10
4.4894465431
 20
5.4782175298
 30
0.0
 10
4.4882221038
 20
5.4764857129
 30
0.0
 10
4.4872163639
 20
5.47474248
 30
0.0
 10
4.4864311684
 20
5.4729893243
 30
0.0
 10
4.4858683826
 20
5.4712279064
 30
0.0
 10
4.4855298971
 20
5.4694609036
 30
0.0
 10
4.4854542896
 20
5.4682772296
 30
0.0
 10
4.4854542714
 20
5.4676904329
 30
0.0
  0
SPLINE
  5
291
100
AcDbEntity
  8
0
100
AcDbSpline
 62
7
  6
CONTINUOUS
 70
0
 71
3
 72
15
 73
11
 74
0
 42
0.0000001
 43
0.0000001
 44
0.0000000001
 40
0.0
 40
0.0
 40
0.0
 40
0.0
 40
0.1303808676
 40
0.2602404822
 40
0.3890623264
 40
0.5163322342
 40
0.6415479364
 40
0.7642132951
 40
0.8838508276
 40
1.0
 40
1.0
 40
1.0
 40
1.0
 10
4.692934781
 20
5.5213903799
 30
0.0
 10
4.6884114194
 20
5.5213903379
 30
0.0
 10
4.679382595
 20
5.521313415
 30
0.0
 10
4.6658884388
 20
5.5209697511
 30
0.0
 10
4.6525099338
 20
5.5203992592
 30
0.0
 10
4.6393043091
 20
5.5196037581
 30
0.0
 10
4.6263280449
 20
5.5185874115
 30
0.0
 10
4.6136365654
 20
5.517353935
 30
0.0
 10
4.6012840766
 20
5.5159089638
 30
0.0
 10
4.5931797808
 20
5.5147913428
 30
0.0
 10
4.5891943963
 20
5.5141959368
 30
0.0
  0
SPLINE
  5
292
100
AcDbEntity
  8
0
100
AcDbSpline
 62
7
  6
CONTINUOUS
 70
0
 71
3
 72
15
 73
11
 74
0
 42
0.0000001
 43
0.0000001
 44
0.0000000001
 40
0.0
 40
0.0
 40
0.0
 40
0.0
 40
0.1161488023
 40
0.2357873963
 40
0.3584523915
 40
0.4836679893
 40
0.6109377757
 40
0.7397593488
 40
0.8696191346
 40
1.0
 40
1.0
 40
1.0
 40
1.0
 10
4.7966749071
 20
5.514195976
 30
0.0
 10
4.79268955
 20
5.51479141
 30
0.0
 10
4.7845852525
 20
5.5159090534
 30
0.0
 10
4.772232766
 20
5.5173538686
 30
0.0
 10
4.759541307
 20
5.518587431
 30
0.0
 10
4.7465650942
 20
5.5196037644
 30
0.0
 10
4.7333595205
 20
5.5203992615
 30
0.0
 10
4.7199810603
 20
5.5209698463
 30
0.0
 10
4.7064869382
 20
5.5213134043
 30
0.0
 10
4.6974581312
 20
5.5213903262
 30
0.0
 10
4.692934781
 20
5.5213903799
 30
0.0
  0
SPLINE
  5
293
100
AcDbEntity
  8
0
100
AcDbSpline
 62
7
  6
CONTINUOUS
 70
0
 71
3
 72
39
 73
35
 74
0
 42
0.0000001
 43
0.0000001
 44
0.0000000001
 40
0.0
 40
0.0
 40
0.0
 40
0.0
 40
0.0306540104
 40
0.0613592825
 40
0.0921303644
 40
0.1229795425
 40
0.1539167086
 40
0.1849489997
 40
0.2160806228
 40
0.2473127474
 40
0.2786435011
 40
0.3100680535
 40
0.3415787865
 40
0.3731655426
 40
0.4048159408
 40
0.4365157508
 40
0.4682493141
 40
0.5
 40
0.5317506859
 40
0.5634842492
 40
0.5951840592
 40
0.6268344574
 40
0.6584212135
 40
0.6899319465
 40
0.7213564989
 40
0.7526872526
 40
0.7839193772
 40
0.8150510003
 40
0.8460832914
 40
0.8770204575
 40
0.9078696356
 40
0.9386407175
 40
0.9693459896
 40
1.0
 40
1.0
 40
1.0
 40
1.0
 10
4.5797175909
 20
6.4070473765
 30
0.0
 10
4.580303806
 20
6.4038767979
 30
0.0
 10
4.5817646683
 20
6.3975796625
 30
0.0
 10
4.5847982989
 20
6.3883630214
 30
0.0
 10
4.5886531713
 20
6.3794354158
 30
0.0
 10
4.5932997466
 20
6.3708656764
 30
0.0
 10
4.5987026558
 20
6.3627185904
 30
0.0
 10
4.6048207478
 20
6.35505605
 30
0.0
 10
4.611607467
 20
6.347936143
 30
0.0
 10
4.6190112009
 20
6.3414128374
 30
0.0
 10
4.62697568
 20
6.3355355462
 30
0.0
 10
4.6354404078
 20
6.3303487686
 30
0.0
 10
4.6443411212
 20
6.3258917579
 30
0.0
 10
4.6536102776
 20
6.3221982321
 30
0.0
 10
4.6631775649
 20
6.3192961242
 30
0.0
 10
4.6729704312
 20
6.3172073766
 30
0.0
 10
4.682914631
 20
6.3159477792
 30
0.0
 10
4.6929347826
 20
6.3155268528
 30
0.0
 10
4.7029549342
 20
6.3159477792
 30
0.0
 10
4.712899134
 20
6.3172073766
 30
0.0
 10
4.7226920004
 20
6.3192961242
 30
0.0
 10
4.7322592876
 20
6.3221982321
 30
0.0
 10
4.741528444
 20
6.3258917579
 30
0.0
 10
4.7504291574
 20
6.3303487686
 30
0.0
 10
4.7588938853
 20
6.3355355462
 30
0.0
 10
4.7668583643
 20
6.3414128374
 30
0.0
 10
4.7742620982
 20
6.347936143
 30
0.0
 10
4.7810488174
 20
6.35505605
 30
0.0
 10
4.7871669094
 20
6.3627185904
 30
0.0
 10
4.7925698186
 20
6.3708656764
 30
0.0
 10
4.7972163939
 20
6.3794354158
 30
0.0
 10
4.8010712664
 20
6.3883630214
 30
0.0
 10
4.804104897
 20
6.3975796625
 30
0.0
 10
4.8055657592
 20
6.4038767979
 30
0.0
 10
4.8061519744
 20
6.4070473765
 30
0.0
  0
SPLINE
  5
294
100
AcDbEntity
  8
0
100
AcDbSpline
 62
7
  6
CONTINUOUS
 70
0
 71
3
 72
35
 73
31
 74
0
 42
0.0000001
 43
0.0000001
 44
0.0000000001
 40
0.0
 40
0.0
 40
0.0
 40
0.0
 40
0.0979170951
 40
0.1919939399
 40
0.2819323624
 40
0.3674409777
 40
0.4482382196
 40
0.4867874056
 40
0.524060042
 40
0.5600259605
 40
0.594656826
 40
0.6279265357
 40
0.6598117195
 40
0.6902961919
 40
0.7193826381
 40
0.747081146
 40
0.7734061067
 40
0.7983771998
 40
0.8220206265
 40
0.844370646
 40
0.8654714785
 40
0.8853796238
 40
0.9041666153
 40
0.921922144
 40
0.9304492637
 40
0.9387622345
 40
0.9548126275
 40
0.9702400399
 40
0.9852323278
 40
1.0
 40
1.0
 40
1.0
 40
1.0
 10
4.5478097826
 20
5.6390000373
 30
0.0
 10
4.5424260314
 20
5.6381955477
 30
0.0
 10
4.5318866733
 20
5.6365011693
 30
0.0
 10
4.5164743373
 20
5.6336433199
 30
0.0
 10
4.50181522
 20
5.630532562
 30
0.0
 10
4.4879668662
 20
5.6271841502
 30
0.0
 10
4.4769838713
 20
5.6241631637
 30
0.0
 10
4.468653382
 20
5.6216290752
 30
0.0
 10
4.4627426931
 20
5.6197079846
 30
0.0
 10
4.4570780618
 20
5.6177384696
 30
0.0
 10
4.4516666387
 20
5.6157223908
 30
0.0
 10
4.4465155748
 20
5.6136616379
 30
0.0
 10
4.4416317937
 20
5.6115580203
 30
0.0
 10
4.4370213299
 20
5.6094128182
 30
0.0
 10
4.4326880493
 20
5.6072290221
 30
0.0
 10
4.4286347346
 20
5.6050092527
 30
0.0
 10
4.4248639687
 20
5.6027560037
 30
0.0
 10
4.4213783172
 20
5.6004717408
 30
0.0
 10
4.4181803358
 20
5.5981588864
 30
0.0
 10
4.4152725729
 20
5.595819797
 30
0.0
 10
4.4126576027
 20
5.5934567672
 30
0.0
 10
4.4103380022
 20
5.5910719253
 30
0.0
 10
4.4083165915
 20
5.588667506
 30
0.0
 10
4.4068636966
 20
5.5866219511
 30
0.0
 10
4.4058610671
 20
5.5849798939
 30
0.0
 10
4.4049842499
 20
5.5833746949
 30
0.0
 10
4.4040710353
 20
5.5813550056
 30
0.0
 10
4.4032740334
 20
5.5788914696
 30
0.0
 10
4.4027927338
 20
5.5764196262
 30
0.0
 10
4.4026847825
 20
5.5747632738
 30
0.0
 10
4.4026847826
 20
5.5739422914
 30
0.0
  0
SPLINE
  5
295
100
AcDbEntity
  8
0
100
AcDbSpline
 62
7
  6
CONTINUOUS
 70
0
 71
3
 72
14
 73
10
 74
0
 42
0.0000001
 43
0.0000001
 44
0.0000000001
 40
0.0
 40
0.0
 40
0.0
 40
0.0
 40
0.130383199
 40
0.2602445816
 40
0.5163274759
 40
0.6415446012
 40
0.7642143155
 40
0.8838555205
 40
1.0
 40
1.0
 40
1.0
 40
1.0
 10
4.6929347809
 20
5.5400527254
 30
0.0
 10
4.6879941188
 20
5.5400526839
 30
0.0
 10
4.6781323166
 20
5.5399696405
 30
0.0
 10
4.6585725758
 20
5.5394746133
 30
0.0
 10
4.6392231791
 20
5.5384887482
 30
0.0
 10
4.620183589
 20
5.5369965705
 30
0.0
 10
4.606321298
 20
5.5356472984
 30
0.0
 10
4.592829641
 20
5.5340666586
 30
0.0
 10
4.5839780351
 20
5.5328449306
 30
0.0
 10
4.5796252316
 20
5.5321946544
 30
0.0
  0
SPLINE
  5
296
100
AcDbEntity
  8
0
100
AcDbSpline
 62
7
  6
CONTINUOUS
 70
0
 71
3
 72
15
 73
11
 74
0
 42
0.0000001
 43
0.0000001
 44
0.0000000001
 40
0.0
 40
0.0
 40
0.0
 40
0.0
 40
0.1161433464
 40
0.2357833628
 40
0.3584518597
 40
0.4836677325
 40
0.6109375723
 40
0.7397580202
 40
0.8696181074
 40
1.0
 40
1.0
 40
1.0
 40
1.0
 10
4.8062440294
 20
5.5321946999
 30
0.0
 10
4.8018912412
 20
5.532845006
 30
0.0
 10
4.7930396623
 20
5.5340667536
 30
0.0
 10
4.7795480106
 20
5.5356472348
 30
0.0
 10
4.7656858088
 20
5.5369965746
 30
0.0
 10
4.7515125
 20
5.5381074091
 30
0.0
 10
4.7370887438
 20
5.5389755052
 30
0.0
 10
4.7224761199
 20
5.5395967795
 30
0.0
 10
4.7077371548
 20
5.5399696404
 30
0.0
 10
4.6978754296
 20
5.540052676
 30
0.0
 10
4.6929347809
 20
5.5400527254
 30
0.0
  0
SPLINE
  5
297
100
AcDbEntity
  8
0
100
AcDbSpline
 62
7
  6
CONTINUOUS
 70
0
 71
3
 72
15
 73
11
 74
0
 42
0.0000001
 43
0.0000001
 44
0.0000000001
 40
0.0
 40
0.0
 40
0.0
 40
0.0
 40
0.1456370146
 40
0.2853944658
 40
0.4191254744
 40
0.5467938617
 40
0.6684740793
 40
0.7843569869
 40
0.8947415098
 40
1.0
 40
1.0
 40
1.0
 40
1.0
 10
4.5758885204
 20
6.133966053
 30
0.0
 10
4.5781264147
 20
6.1361482993
 30
0.0
 10
4.582617024
 20
6.1403188698
 30
0.0
 10
4.589535324
 20
6.146075701
 30
0.0
 10
4.5964730057
 20
6.151183927
 30
0.0
 10
4.6033980666
 20
6.1556272685
 30
0.0
 10
4.6102772336
 20
6.1593992512
 30
0.0
 10
4.6170774304
 20
6.1625031626
 30
0.0
 10
4.6237662029
 20
6.1649506116
 30
0.0
 10
4.6282333203
 20
6.1661851409
 30
0.0
 10
4.6304347826
 20
6.1666923129
 30
0.0
  0
LINE
  5
298
100
AcDbEntity
  8
0
100
AcDbLine
 62
7
  6
CONTINUOUS
 10
4.5755644936
 20
6.1336629282
 11
4.5758885204
 21
6.133966053
  0
LINE
  5
299
100
AcDbEntity
  8
0
100
AcDbLine
 62
7
  6
CONTINUOUS
 10
4.5755644936
 20
6.1336629282
 11
4.464389222
 21
6.1335822026
  0
LINE
  5
29A
100
AcDbEntity
  8
0
100
AcDbLine
 62
7
  6
CONTINUOUS
 10
4.6929347826
 20
6.1337746848
 11
4.5822435046
 21
6.1338146431
  0
SPLINE
  5
29B
100
AcDbEntity
  8
0
100
AcDbSpline
 62
7
  6
CONTINUOUS
 70
0
 71
3
 72
15
 73
11
 74
0
 42
0.0000001
 43
0.0000001
 44
0.0000000001
 40
0.0
 40
0.0
 40
0.0
 40
0.0
 40
0.1467561759
 40
0.286308793
 40
0.4188876012
 40
0.5449663625
 40
0.6652128618
 40
0.7804707853
 40
0.8917198943
 40
1.0
 40
1.0
 40
1.0
 40
1.0
 10
4.5822435046
 20
6.1338146431
 30
0.0
 10
4.584140357
 20
6.1360089491
 30
0.0
 10
4.5879460175
 20
6.1402009614
 30
0.0
 10
4.5938560227
 20
6.14600578
 30
0.0
 10
4.5998226012
 20
6.1511478385
 30
0.0
 10
4.6058426717
 20
6.1556144084
 30
0.0
 10
4.6119125472
 20
6.1594021341
 30
0.0
 10
4.6180277293
 20
6.1625165726
 30
0.0
 10
4.6241826031
 20
6.1649703287
 30
0.0
 10
4.6283542715
 20
6.1661909334
 30
0.0
 10
4.630434783
 20
6.166692313
 30
0.0
  0
SPLINE
  5
29C
100
AcDbEntity
  8
0
100
AcDbSpline
 62
7
  6
CONTINUOUS
 70
0
 71
3
 72
15
 73
11
 74
0
 42
0.0000001
 43
0.0000001
 44
0.0000000001
 40
0.0
 40
0.0
 40
0.0
 40
0.0
 40
0.1163070332
 40
0.2360177613
 40
0.3587049291
 40
0.483910584
 40
0.6111518814
 40
0.7399265129
 40
0.8697178656
 40
1.0
 40
1.0
 40
1.0
 40
1.0
 10
4.8380597822
 20
5.6390000709
 30
0.0
 10
4.8361599035
 20
5.6351015122
 30
0.0
 10
4.8324872787
 20
5.6271000772
 30
0.0
 10
4.8274317516
 20
5.6147130026
 30
0.0
 10
4.8227702666
 20
5.601818899
 30
0.0
 10
4.8185276668
 20
5.5884862911
 30
0.0
 10
4.8147263907
 20
5.5747856542
 30
0.0
 10
4.8113865934
 20
5.5607894937
 30
0.0
 10
4.8085260136
 20
5.5465721693
 30
0.0
 10
4.8069492966
 20
5.5370011896
 30
0.0
 10
4.8062440294
 20
5.5321946999
 30
0.0
  0
SPLINE
  5
29D
100
AcDbEntity
  8
0
100
AcDbSpline
 62
7
  6
CONTINUOUS
 70
0
 71
3
 72
34
 73
30
 74
0
 42
0.0000001
 43
0.0000001
 44
0.0000000001
 40
0.0
 40
0.0
 40
0.0
 40
0.0
 40
0.0147650259
 40
0.0297535452
 40
0.0451692889
 40
0.0611995939
 40
0.0695002921
 40
0.0780143709
 40
0.0957437889
 40
0.1145090762
 40
0.1344041825
 40
0.1555036192
 40
0.1778654639
 40
0.2015338272
 40
0.226541257
 40
0.2529101336
 40
0.2806547616
 40
0.309781687
 40
0.3402914022
 40
0.3721774665
 40
0.4054289906
 40
0.4400296163
 40
0.4759596913
 40
0.5517091668
 40
0.6324645012
 40
0.7179719462
 40
0.8079445557
 40
0.9020679417
 40
1.0
 40
1.0
 40
1.0
 40
1.0
 10
4.9195535804
 20
5.4813995087
 30
0.0
 10
4.9195535342
 20
5.4820405111
 30
0.0
 10
4.9194709864
 20
5.4833336531
 30
0.0
 10
4.9191015852
 20
5.4852643005
 30
0.0
 10
4.9184873487
 20
5.4871890819
 30
0.0
 10
4.9177812209
 20
5.4887673696
 30
0.0
 10
4.9171018334
 20
5.490021559
 30
0.0
 10
4.9163240219
 20
5.4913043982
 30
0.0
 10
4.9151948501
 20
5.4929024694
 30
0.0
 10
4.9136206266
 20
5.494780377
 30
0.0
 10
4.9118111367
 20
5.496642486
 30
0.0
 10
4.9097684706
 20
5.4984870408
 30
0.0
 10
4.9074947465
 20
5.5003124209
 30
0.0
 10
4.9049923034
 20
5.50211696
 30
0.0
 10
4.9022636347
 20
5.5038989274
 30
0.0
 10
4.8993114998
 20
5.5056566714
 30
0.0
 10
4.8961388484
 20
5.5073884487
 30
0.0
 10
4.8927489828
 20
5.509092754
 30
0.0
 10
4.889145416
 20
5.51076791
 30
0.0
 10
4.8853319252
 20
5.5124122259
 30
0.0
 10
4.8813125639
 20
5.5140238556
 30
0.0
 10
4.8770916254
 20
5.5156009837
 30
0.0
 10
4.8710947804
 20
5.5176920859
 30
0.0
 10
4.8631221994
 20
5.5201961325
 30
0.0
 10
4.8529906536
 20
5.5229853993
 30
0.0
 10
4.8421757867
 20
5.5255972198
 30
0.0
 10
4.8307234912
 20
5.528020526
 30
0.0
 10
4.8186822959
 20
5.5302455114
 30
0.0
 10
4.8104489158
 20
5.5315663231
 30
0.0
 10
4.8062440293
 20
5.5321946999
 30
0.0
  0
SPLINE
  5
29E
100
AcDbEntity
  8
0
100
AcDbSpline
 62
7
  6
CONTINUOUS
 70
0
 71
3
 72
17
 73
13
 74
0
 42
0.0000001
 43
0.0000001
 44
0.0000000001
 40
0.0
 40
0.0
 40
0.0
 40
0.0
 40
0.1260411267
 40
0.2517652412
 40
0.3771731056
 40
0.4397712206
 40
0.5022934502
 40
0.6270979641
 40
0.7516283876
 40
0.8138085206
 40
0.8759328593
 40
1.0
 40
1.0
 40
1.0
 40
1.0
 10
4.9831847818
 20
5.5739423134
 30
0.0
 10
4.9794502976
 20
5.5709476293
 30
0.0
 10
4.9722042485
 20
5.5646935357
 30
0.0
 10
4.9620610877
 20
5.5545619261
 30
0.0
 10
4.9542611789
 20
5.5455390299
 30
0.0
 10
4.9484440077
 20
5.5380073073
 30
0.0
 10
4.942921372
 20
5.5302851207
 30
0.0
 10
4.9365690983
 20
5.5202750492
 30
0.0
 10
4.9309826931
 20
5.5098328863
 30
0.0
 10
4.9269964874
 20
5.5012620082
 30
0.0
 10
4.9233397948
 20
5.4925650383
 30
0.0
 10
4.9209657816
 20
5.4858948469
 30
0.0
 10
4.9195535804
 20
5.4813995087
 30
0.0
  0
SPLINE
  5
29F
100
AcDbEntity
  8
0
100
AcDbSpline
 62
7
  6
CONTINUOUS
 70
0
 71
3
 72
43
 73
39
 74
0
 42
0.0000001
 43
0.0000001
 44
0.0000000001
 40
0.0
 40
0.0
 40
0.0
 40
0.0
 40
0.0306715756
 40
0.0460338153
 40
0.061413277
 40
0.0922220574
 40
0.123112038
 40
0.1385924669
 40
0.154095134
 40
0.1851623279
 40
0.2163210127
 40
0.2475700136
 40
0.2789059329
 40
0.3103232038
 40
0.341814262
 40
0.3733697589
 40
0.4049787472
 40
0.4366290444
 40
0.468307418
 40
0.5000000158
 40
0.5316926135
 40
0.5633709864
 40
0.5950212826
 40
0.6266302695
 40
0.6581857646
 40
0.6896768207
 40
0.7210940893
 40
0.752430006
 40
0.7836790042
 40
0.8148376863
 40
0.8459048774
 40
0.8614075431
 40
0.8768879707
 40
0.9077779487
 40
0.9385867269
 40
0.9539661875
 40
0.9693284261
 40
1.0
 40
1.0
 40
1.0
 40
1.0
 10
4.8541630236
 20
6.6737751761
 30
0.0
 10
4.852842881
 20
6.669658286
 30
0.0
 10
4.850606734
 20
6.6635568387
 30
0.0
 10
4.84713584
 20
6.6556246632
 30
0.0
 10
4.8433365489
 20
6.6478223541
 30
0.0
 10
4.8379875625
 20
6.6383511018
 30
0.0
 10
4.8318833085
 20
6.6293310177
 30
0.0
 10
4.8265680989
 20
6.6224138071
 30
0.0
 10
4.820964144
 20
6.615695852
 30
0.0
 10
4.8134455243
 20
6.6077090208
 30
0.0
 10
4.8036712404
 20
6.5988533127
 30
0.0
 10
4.7931985886
 20
6.5907729563
 30
0.0
 10
4.7820940026
 20
6.583519238
 30
0.0
 10
4.7704274566
 20
6.5771376872
 30
0.0
 10
4.758272554
 20
6.5716684811
 30
0.0
 10
4.7457059285
 20
6.5671460079
 30
0.0
 10
4.7328067923
 20
6.5635987047
 30
0.0
 10
4.7196564398
 20
6.561048874
 30
0.0
 10
4.7063377304
 20
6.5595125418
 30
0.0
 10
4.6929345804
 20
6.5589993663
 30
0.0
 10
4.6795314318
 20
6.5595125727
 30
0.0
 10
4.6662127262
 20
6.5610489356
 30
0.0
 10
4.65306238
 20
6.5635987967
 30
0.0
 10
4.6401632526
 20
6.5671461297
 30
0.0
 10
4.6275966383
 20
6.5716686319
 30
0.0
 10
4.6154417493
 20
6.5771378659
 30
0.0
 10
4.6037752192
 20
6.5835194436
 30
0.0
 10
4.5926706511
 20
6.5907731876
 30
0.0
 10
4.5821980194
 20
6.5988535681
 30
0.0
 10
4.5724237575
 20
6.6077092988
 30
0.0
 10
4.5649051576
 20
6.6156961474
 30
0.0
 10
4.5593012194
 20
6.6224141154
 30
0.0
 10
4.553986027
 20
6.6293313383
 30
0.0
 10
4.5478817954
 20
6.6383514365
 30
0.0
 10
4.5425328326
 20
6.6478227012
 30
0.0
 10
4.5387335608
 20
6.655625019
 30
0.0
 10
4.5352626865
 20
6.6635572025
 30
0.0
 10
4.5330265547
 20
6.669658655
 30
0.0
 10
4.5317064224
 20
6.6737755481
 30
0.0
  0
SPLINE
  5
2A0
100
AcDbEntity
  8
0
100
AcDbSpline
 62
7
  6
CONTINUOUS
 70
0
 71
3
 72
23
 73
19
 74
0
 42
0.0000001
 43
0.0000001
 44
0.0000000001
 40
0.0
 40
0.0
 40
0.0
 40
0.0
 40
0.0433705778
 40
0.0885502867
 40
0.1355321318
 40
0.1843542722
 40
0.2351058954
 40
0.2879314252
 40
0.3430328004
 40
0.4006696045
 40
0.4611569708
 40
0.5248614085
 40
0.5921949268
 40
0.6636080221
 40
0.7395821726
 40
0.8206224549
 40
0.9072507711
 40
1.0
 40
1.0
 40
1.0
 40
1.0
 10
5.0079710558
 20
5.3729517467
 30
0.0
 10
5.0083422686
 20
5.3699468592
 30
0.0
 10
5.0091756695
 20
5.3638206118
 30
0.0
 10
5.0107518625
 20
5.3544892337
 30
0.0
 10
5.0127721414
 20
5.3448535892
 30
0.0
 10
5.0153287792
 20
5.3349428533
 30
0.0
 10
5.0185142311
 20
5.324786411
 30
0.0
 10
5.0224210324
 20
5.3144140234
 30
0.0
 10
5.0271416685
 20
5.3038558063
 30
0.0
 10
5.0327684346
 20
5.2931422019
 30
0.0
 10
5.0393933145
 20
5.282303881
 30
0.0
 10
5.0471079093
 20
5.2713716029
 30
0.0
 10
5.0560034317
 20
5.260376062
 30
0.0
 10
5.066170779
 20
5.2493477444
 30
0.0
 10
5.0777005975
 20
5.2383168689
 30
0.0
 10
5.0906835897
 20
5.2273132376
 30
0.0
 10
5.1052098704
 20
5.2163667466
 30
0.0
 10
5.1156090501
 20
5.2093783268
 30
0.0
 10
5.1210699816
 20
5.2058994777
 30
0.0
  0
SPLINE
  5
2A1
100
AcDbEntity
  8
0
100
AcDbSpline
 62
7
  6
CONTINUOUS
 70
0
 71
3
 72
23
 73
19
 74
0
 42
0.0000001
 43
0.0000001
 44
0.0000000001
 40
0.0
 40
0.0
 40
0.0
 40
0.0
 40
0.062183411
 40
0.1243642285
 40
0.186554699
 40
0.2487641165
 40
0.3110001388
 40
0.3732701035
 40
0.4355823417
 40
0.4979474871
 40
0.5603793475
 40
0.6228911055
 40
0.6854924758
 40
0.7481909068
 40
0.8109919751
 40
0.8738961515
 40
0.9369003518
 40
1.0
 40
1.0
 40
1.0
 40
1.0
 10
5.0037103696
 20
5.4129003832
 30
0.0
 10
5.0045637176
 20
5.4049646825
 30
0.0
 10
5.0058432181
 20
5.3890443903
 30
0.0
 10
5.0064855089
 20
5.3650973589
 30
0.0
 10
5.0058580458
 20
5.3411460065
 30
0.0
 10
5.0039677228
 20
5.3172542801
 30
0.0
 10
5.0008215058
 20
5.2934849742
 30
0.0
 10
4.9964262715
 20
5.2699011908
 30
0.0
 10
4.9907888635
 20
5.2465659843
 30
0.0
 10
4.9839160522
 20
5.2235424211
 30
0.0
 10
4.9758149664
 20
5.2008946157
 30
0.0
 10
4.9665152927
 20
5.1786794054
 30
0.0
 10
4.9560464116
 20
5.1569527858
 30
0.0
 10
4.9444376871
 20
5.1357708981
 30
0.0
 10
4.9317190476
 20
5.1151907387
 30
0.0
 10
4.9179304691
 20
5.0952638059
 30
0.0
 10
4.9031125551
 20
5.076042457
 30
0.0
 10
4.8925807457
 20
5.0637406512
 30
0.0
 10
4.8871577425
 20
5.0577251972
 30
0.0
  0
SPLINE
  5
2A2
100
AcDbEntity
  8
0
100
AcDbSpline
 62
7
  6
CONTINUOUS
 70
0
 71
3
 72
9
 73
5
 74
0
 42
0.0000001
 43
0.0000001
 44
0.0000000001
 40
0.0
 40
0.0
 40
0.0
 40
0.0
 40
0.4944551672
 40
1.0
 40
1.0
 40
1.0
 40
1.0
 10
4.4663159848
 20
5.4813994178
 30
0.0
 10
4.4663160422
 20
5.4806035609
 30
0.0
 10
4.4664440645
 20
5.4789915665
 30
0.0
 10
4.4668191713
 20
5.4774194265
 30
0.0
 10
4.4670635682
 20
5.4766432897
 30
0.0
  0
SPLINE
  5
2A3
100
AcDbEntity
  8
0
100
AcDbSpline
 62
7
  6
CONTINUOUS
 70
0
 71
3
 72
17
 73
13
 74
0
 42
0.0000001
 43
0.0000001
 44
0.0000000001
 40
0.0
 40
0.0
 40
0.0
 40
0.0
 40
0.1260418201
 40
0.2517664179
 40
0.3771745558
 40
0.4397727303
 40
0.5022949697
 40
0.627099361
 40
0.7516294817
 40
0.8138094001
 40
0.8759334835
 40
1.0
 40
1.0
 40
1.0
 40
1.0
 10
4.4026847834
 20
5.5739423134
 30
0.0
 10
4.4064192649
 20
5.5709475821
 30
0.0
 10
4.4136653079
 20
5.564693411
 30
0.0
 10
4.4238084694
 20
5.5545617208
 30
0.0
 10
4.4316083821
 20
5.5455387842
 30
0.0
 10
4.4374255559
 20
5.5380070447
 30
0.0
 10
4.4429481896
 20
5.5302848568
 30
0.0
 10
4.4493004617
 20
5.5202748003
 30
0.0
 10
4.4548868697
 20
5.5098326637
 30
0.0
 10
4.4588730768
 20
5.5012618164
 30
0.0
 10
4.4625297685
 20
5.492564889
 30
0.0
 10
4.4649037828
 20
5.4858947319
 30
0.0
 10
4.4663159848
 20
5.4813994178
 30
0.0
  0
SPLINE
  5
2A4
100
AcDbEntity
  8
0
100
AcDbSpline
 62
7
  6
CONTINUOUS
 70
0
 71
3
 72
34
 73
30
 74
0
 42
0.0000001
 43
0.0000001
 44
0.0000000001
 40
0.0
 40
0.0
 40
0.0
 40
0.0
 40
0.0979321063
 40
0.1920555352
 40
0.2820281672
 40
0.3675356394
 40
0.4482909738
 40
0.5240404536
 40
0.5599705291
 40
0.5945711496
 40
0.6278226595
 40
0.6597087028
 40
0.690218392
 40
0.719345296
 40
0.7470899166
 40
0.7734587947
 40
0.7984662268
 40
0.8221345728
 40
0.8444963791
 40
0.8655957617
 40
0.8854908347
 40
0.9042561741
 40
0.9219856954
 40
0.9304997757
 40
0.938800398
 40
0.9548303914
 40
0.97024597
 40
0.9852347158
 40
1.0
 40
1.0
 40
1.0
 40
1.0
 10
4.5796252316
 20
5.5321946544
 30
0.0
 10
4.5754203539
 20
5.5315662519
 30
0.0
 10
4.567187
 20
5.5302453447
 30
0.0
 10
4.5551457887
 20
5.528020529
 30
0.0
 10
4.5436935205
 20
5.5255971589
 30
0.0
 10
4.5328786746
 20
5.5229853233
 30
0.0
 10
4.5227471379
 20
5.5201960814
 30
0.0
 10
4.5147745744
 20
5.5176920222
 30
0.0
 10
4.5087777462
 20
5.5156009031
 30
0.0
 10
4.5045568197
 20
5.514023766
 30
0.0
 10
4.500537468
 20
5.5124121365
 30
0.0
 10
4.4967239815
 20
5.5107678345
 30
0.0
 10
4.4931204184
 20
5.5090926925
 30
0.0
 10
4.4897305618
 20
5.5073883878
 30
0.0
 10
4.486557923
 20
5.505656602
 30
0.0
 10
4.4836058017
 20
5.5038988463
 30
0.0
 10
4.4808771459
 20
5.50211687
 30
0.0
 10
4.4783747133
 20
5.5003123292
 30
0.0
 10
4.4761009971
 20
5.4984869544
 30
0.0
 10
4.4740583374
 20
5.4966424073
 30
0.0
 10
4.4722488527
 20
5.4947803008
 30
0.0
 10
4.4706746453
 20
5.4929023772
 30
0.0
 10
4.4695454946
 20
5.4913042867
 30
0.0
 10
4.4687676926
 20
5.4900214434
 30
0.0
 10
4.4680883125
 20
5.4887672719
 30
0.0
 10
4.4673821769
 20
5.4871890175
 30
0.0
 10
4.4667679292
 20
5.485264254
 30
0.0
 10
4.4663985263
 20
5.4833335952
 30
0.0
 10
4.4663160031
 20
5.4820404303
 30
0.0
 10
4.4663159849
 20
5.4813994178
 30
0.0
  0
SPLINE
  5
2A5
100
AcDbEntity
  8
0
100
AcDbSpline
 62
7
  6
CONTINUOUS
 70
0
 71
3
 72
15
 73
11
 74
0
 42
0.0000001
 43
0.0000001
 44
0.0000000001
 40
0.0
 40
0.0
 40
0.0
 40
0.0
 40
0.1163061746
 40
0.236016519
 40
0.3587036286
 40
0.4839094337
 40
0.6111509991
 40
0.7399259462
 40
0.8697176074
 40
1.0
 40
1.0
 40
1.0
 40
1.0
 10
4.5478097829
 20
5.6390000709
 30
0.0
 10
4.5497094984
 20
5.6351014766
 30
0.0
 10
4.5533818472
 20
5.6270999848
 30
0.0
 10
4.5584371015
 20
5.6147128781
 30
0.0
 10
4.5630984367
 20
5.6018187587
 30
0.0
 10
4.5673409921
 20
5.5884861493
 30
0.0
 10
4.571142313
 20
5.574785523
 30
0.0
 10
4.5744822309
 20
5.5607893836
 30
0.0
 10
4.5773429955
 20
5.5465720891
 30
0.0
 10
4.5789198758
 20
5.5370011323
 30
0.0
 10
4.5796252316
 20
5.5321946544
 30
0.0
  0
SPLINE
  5
2A6
100
AcDbEntity
  8
0
100
AcDbSpline
 62
7
  6
CONTINUOUS
 70
0
 71
3
 72
11
 73
7
 74
0
 42
0.0000001
 43
0.0000001
 44
0.0000000001
 40
0.0
 40
0.0
 40
0.0
 40
0.0
 40
0.2641277032
 40
0.5164979133
 40
0.7604276937
 40
1.0
 40
1.0
 40
1.0
 40
1.0
 10
4.7966751688
 20
5.4211850073
 30
0.0
 10
4.7969186356
 20
5.4210758659
 30
0.0
 10
4.7974079721
 20
5.4208901992
 30
0.0
 10
4.798158456
 20
5.4207152676
 30
0.0
 10
4.7989018761
 20
5.4206530022
 30
0.0
 10
4.799391399
 20
5.4206873824
 30
0.0
 10
4.7996307478
 20
5.4207231453
 30
0.0
  0
SPLINE
  5
2A7
100
AcDbEntity
  8
0
100
AcDbSpline
 62
7
  6
CONTINUOUS
 70
0
 71
3
 72
11
 73
7
 74
0
 42
0.0000001
 43
0.0000001
 44
0.0000000001
 40
0.0
 40
0.0
 40
0.0
 40
0.0
 40
0.2641278779
 40
0.5164979076
 40
0.7604275006
 40
1.0
 40
1.0
 40
1.0
 40
1.0
 10
4.5891946581
 20
5.4211849681
 30
0.0
 10
4.5889511879
 20
5.421075825
 30
0.0
 10
4.5884618442
 20
5.4208901564
 30
0.0
 10
4.5877113487
 20
5.4207152278
 30
0.0
 10
4.5869679175
 20
5.4206529715
 30
0.0
 10
4.5864783882
 20
5.420687362
 30
0.0
 10
4.5862390368
 20
5.420723131
 30
0.0
  0
SPLINE
  5
2A8
100
AcDbEntity
  8
0
100
AcDbSpline
 62
7
  6
CONTINUOUS
 70
0
 71
3
 72
15
 73
11
 74
0
 42
0.0000001
 43
0.0000001
 44
0.0000000001
 40
0.0
 40
0.0
 40
0.0
 40
0.0
 40
0.1266510951
 40
0.2530842394
 40
0.3791188645
 40
0.5045975397
 40
0.6294234324
 40
0.7535646068
 40
0.8770523818
 40
1.0
 40
1.0
 40
1.0
 40
1.0
 10
4.4854542714
 20
5.4676904329
 30
0.0
 10
4.4843921174
 20
5.467690434
 30
0.0
 10
4.4822659962
 20
5.467854317
 30
0.0
 10
4.4791594337
 20
5.4685859338
 30
0.0
 10
4.4762112693
 20
5.4697847785
 30
0.0
 10
4.4734971634
 20
5.4714209118
 30
0.0
 10
4.4710858308
 20
5.4734530759
 30
0.0
 10
4.4690387227
 20
5.4758303022
 30
0.0
 10
4.4674083519
 20
5.4784913897
 30
0.0
 10
4.4666250488
 20
5.4804157262
 30
0.0
 10
4.4663160223
 20
5.481399423
 30
0.0
  0
SPLINE
  5
2A9
100
AcDbEntity
  8
0
100
AcDbSpline
 62
7
  6
CONTINUOUS
 70
0
 71
3
 72
20
 73
16
 74
0
 42
0.0000001
 43
0.0000001
 44
0.0000000001
 40
0.0
 40
0.0
 40
0.0
 40
0.0
 40
0.0880028866
 40
0.1364036099
 40
0.1878914727
 40
0.2424967571
 40
0.300170951
 40
0.360801524
 40
0.4242218519
 40
0.4902204757
 40
0.5585461155
 40
0.7009958978
 40
0.7745139808
 40
0.8490963557
 40
1.0
 40
1.0
 40
1.0
 40
1.0
 10
4.5891943963
 20
5.5141959368
 30
0.0
 10
4.5886302489
 20
5.5144488374
 30
0.0
 10
4.5878072157
 20
5.5149603875
 30
0.0
 10
4.5867980114
 20
5.5158120713
 30
0.0
 10
4.5860321659
 20
5.5165833194
 30
0.0
 10
4.5852870128
 20
5.5174611514
 30
0.0
 10
4.5845667422
 20
5.5184404306
 30
0.0
 10
4.5838758869
 20
5.5195149081
 30
0.0
 10
4.5832186996
 20
5.5206778651
 30
0.0
 10
4.5825993332
 20
5.5219220374
 30
0.0
 10
4.5818183637
 20
5.5237033591
 30
0.0
 10
4.581143761
 20
5.5255864032
 30
0.0
 10
4.5805740491
 20
5.527546883
 30
0.0
 10
4.580069204
 20
5.5295863303
 30
0.0
 10
4.5797791476
 20
5.5311457545
 30
0.0
 10
4.5796252313
 20
5.5321946542
 30
0.0
  0
SPLINE
  5
2AA
100
AcDbEntity
  8
0
100
AcDbSpline
 62
7
  6
CONTINUOUS
 70
0
 71
3
 72
20
 73
16
 74
0
 42
0.0000001
 43
0.0000001
 44
0.0000000001
 40
0.0
 40
0.0
 40
0.0
 40
0.0
 40
0.0880025293
 40
0.13640314
 40
0.187890928
 40
0.2424961704
 40
0.3001703504
 40
0.360800933
 40
0.4242212903
 40
0.4902199595
 40
0.5585456575
 40
0.7009955836
 40
0.7745137455
 40
0.8490962007
 40
1.0
 40
1.0
 40
1.0
 40
1.0
 10
4.7966749071
 20
5.514195976
 30
0.0
 10
4.7972390481
 20
5.5144488807
 30
0.0
 10
4.7980620708
 20
5.5149604362
 30
0.0
 10
4.7990712614
 20
5.5158121247
 30
0.0
 10
4.7998370971
 20
5.5165833763
 30
0.0
 10
4.8005822405
 20
5.5174612111
 30
0.0
 10
4.8013025019
 20
5.5184404926
 30
0.0
 10
4.8019933486
 20
5.5195149717
 30
0.0
 10
4.8026505277
 20
5.5206779298
 30
0.0
 10
4.8032698867
 20
5.5219221027
 30
0.0
 10
4.8040508472
 20
5.5237034245
 30
0.0
 10
4.8047254428
 20
5.5255864674
 30
0.0
 10
4.8052951495
 20
5.5275469452
 30
0.0
 10
4.8057999908
 20
5.5295863898
 30
0.0
 10
4.8060900462
 20
5.5311458115
 30
0.0
 10
4.8062439627
 20
5.5321947093
 30
0.0
  0
SPLINE
  5
2AB
100
AcDbEntity
  8
0
100
AcDbSpline
 62
7
  6
CONTINUOUS
 70
0
 71
3
 72
15
 73
11
 74
0
 42
0.0000001
 43
0.0000001
 44
0.0000000001
 40
0.0
 40
0.0
 40
0.0
 40
0.0
 40
0.1266510662
 40
0.2530842108
 40
0.3791188581
 40
0.5045975667
 40
0.6294234909
 40
0.7535646808
 40
0.8770524408
 40
1.0
 40
1.0
 40
1.0
 40
1.0
 10
4.9004152938
 20
5.4676905112
 30
0.0
 10
4.901477448
 20
5.4676905141
 30
0.0
 10
4.9036035694
 20
5.4678544008
 30
0.0
 10
4.9067101317
 20
5.4685860226
 30
0.0
 10
4.909658296
 20
5.4697848718
 30
0.0
 10
4.9123724018
 20
5.4714210089
 30
0.0
 10
4.9147837343
 20
5.4734531758
 30
0.0
 10
4.9168308423
 20
5.475830404
 30
0.0
 10
4.918461213
 20
5.4784914922
 30
0.0
 10
4.9192445163
 20
5.4804158287
 30
0.0
 10
4.9195535429
 20
5.4813995254
 30
0.0
  0
SPLINE
  5
2AC
100
AcDbEntity
  8
0
100
AcDbSpline
 62
7
  6
CONTINUOUS
 70
0
 71
3
 72
15
 73
11
 74
0
 42
0.0000001
 43
0.0000001
 44
0.0000000001
 40
0.0
 40
0.0
 40
0.0
 40
0.0
 40
0.1241656853
 40
0.2485169282
 40
0.3730903173
 40
0.4979254124
 40
0.6230365272
 40
0.7484299329
 40
0.8740945078
 40
1.0
 40
1.0
 40
1.0
 40
1.0
 10
4.7614595836
 20
6.2572282739
 30
0.0
 10
4.7632842415
 20
6.2595346048
 30
0.0
 10
4.7667665233
 20
6.2642871748
 30
0.0
 10
4.7715136964
 20
6.2717465705
 30
0.0
 10
4.7758181233
 20
6.2794875693
 30
0.0
 10
4.7797018761
 20
6.2874670999
 30
0.0
 10
4.7831809058
 20
6.2956518807
 30
0.0
 10
4.7862646184
 20
6.3040143444
 30
0.0
 10
4.7889565289
 20
6.312530401
 30
0.0
 10
4.7904885103
 20
6.3182910443
 30
0.0
 10
4.7911887021
 20
6.3211897224
 30
0.0
  0
SPLINE
  5
2AD
100
AcDbEntity
  8
0
100
AcDbSpline
 62
7
  6
CONTINUOUS
 70
0
 71
3
 72
15
 73
11
 74
0
 42
0.0000001
 43
0.0000001
 44
0.0000000001
 40
0.0
 40
0.0
 40
0.0
 40
0.0
 40
0.1258824055
 40
0.2515233354
 40
0.3768963415
 40
0.5019937874
 40
0.6268256678
 40
0.7514097382
 40
0.8757887057
 40
1.0
 40
1.0
 40
1.0
 40
1.0
 10
4.5955037285
 20
6.3204356447
 30
0.0
 10
4.5962140019
 20
6.3175689382
 30
0.0
 10
4.5977652009
 20
6.3118727916
 30
0.0
 10
4.6004822672
 20
6.3034548248
 30
0.0
 10
4.6035866007
 20
6.2951911607
 30
0.0
 10
4.607080701
 20
6.2871050554
 30
0.0
 10
4.610972545
 20
6.2792229096
 30
0.0
 10
4.6152763866
 20
6.2715764567
 30
0.0
 10
4.6200123634
 20
6.2642066935
 30
0.0
 10
4.6234782701
 20
6.2595091755
 30
0.0
 10
4.6252920876
 20
6.2572282739
 30
0.0
  0
SPLINE
  5
2AE
100
AcDbEntity
  8
0
100
AcDbSpline
 62
7
  6
CONTINUOUS
 70
0
 71
3
 72
22
 73
18
 74
0
 42
0.0000001
 43
0.0000001
 44
0.0000000001
 40
0.0
 40
0.0
 40
0.0
 40
0.0
 40
0.0453605497
 40
0.0932538647
 40
0.1436325543
 40
0.1964520644
 40
0.2516627233
 40
0.3092118129
 40
0.3690446191
 40
0.4311040387
 40
0.4953311703
 40
0.5616643845
 40
0.6300392058
 40
0.700388515
 40
0.7726412903
 40
0.8467197432
 40
1.0
 40
1.0
 40
1.0
 40
1.0
 10
5.1857898399
 20
1.8251923129
 30
0.0
 10
5.1825620683
 20
1.8251923129
 30
0.0
 10
5.17592615
 20
1.8252656574
 30
0.0
 10
5.1657097258
 20
1.8255772201
 30
0.0
 10
5.1549704365
 20
1.8260988991
 30
0.0
 10
5.1437221981
 20
1.8268398946
 30
0.0
 10
5.1319796414
 20
1.8278137914
 30
0.0
 10
5.1197587573
 20
1.8290371997
 30
0.0
 10
5.1070770985
 20
1.8305314453
 30
0.0
 10
5.0939539921
 20
1.8323218969
 30
0.0
 10
5.0804109029
 20
1.8344377822
 30
0.0
 10
5.0664720835
 20
1.8369133511
 30
0.0
 10
5.0521650031
 20
1.8397871148
 30
0.0
 10
5.0375212063
 20
1.8431018144
 30
0.0
 10
5.0225766502
 20
1.8469048712
 30
0.0
 10
5.0020750311
 20
1.8527605377
 30
0.0
 10
4.9867340946
 20
1.8579518913
 30
0.0
 10
4.9765381464
 20
1.8618259387
 30
0.0
  0
SPLINE
  5
2AF
100
AcDbEntity
  8
0
100
AcDbSpline
 62
7
  6
CONTINUOUS
 70
0
 71
3
 72
37
 73
33
 74
0
 42
0.0000001
 43
0.0000001
 44
0.0000000001
 40
0.0
 40
0.0
 40
0.0
 40
0.0
 40
0.0308229268
 40
0.0616169018
 40
0.0923891945
 40
0.1231474049
 40
0.1538993413
 40
0.1846528412
 40
0.2154157565
 40
0.2461958374
 40
0.2770005483
 40
0.3078369985
 40
0.3387118819
 40
0.3696313851
 40
0.4006010062
 40
0.4316255768
 40
0.4627092019
 40
0.493855163
 40
0.52506586
 40
0.5563428438
 40
0.5876868148
 40
0.6190975178
 40
0.6505738212
 40
0.6821137521
 40
0.7137145222
 40
0.7453724935
 40
0.7770833152
 40
0.8088419956
 40
0.8406428259
 40
0.8724797645
 40
0.9362092516
 40
1.0
 40
1.0
 40
1.0
 40
1.0
 10
4.5698800794
 20
6.4602224854
 30
0.0
 10
4.5692065911
 20
6.457941428
 30
0.0
 10
4.5679957361
 20
6.453340173
 30
0.0
 10
4.5665954038
 20
6.4463458628
 30
0.0
 10
4.5656162925
 20
6.4392850366
 30
0.0
 10
4.5650618007
 20
6.4321815627
 30
0.0
 10
4.5649337804
 20
6.4250590602
 30
0.0
 10
4.5652326185
 20
6.4179413209
 30
0.0
 10
4.5659573171
 20
6.4108520863
 30
0.0
 10
4.5671054975
 20
6.4038150165
 30
0.0
 10
4.5686733006
 20
6.3968535903
 30
0.0
 10
4.5706554583
 20
6.3899910269
 30
0.0
 10
4.573045372
 20
6.3832502224
 30
0.0
 10
4.5758350841
 20
6.3766536729
 30
0.0
 10
4.579015231
 20
6.3702233615
 30
0.0
 10
4.5825751912
 20
6.3639807281
 30
0.0
 10
4.5865031137
 20
6.3579466058
 30
0.0
 10
4.5907858702
 20
6.3521411037
 30
0.0
 10
4.5954091375
 20
6.3465835517
 30
0.0
 10
4.6003575047
 20
6.3412924812
 30
0.0
 10
4.605614483
 20
6.336285545
 30
0.0
 10
4.6111625016
 20
6.331579391
 30
0.0
 10
4.6169830519
 20
6.3271896895
 30
0.0
 10
4.6230567473
 20
6.3231310915
 30
0.0
 10
4.629363329
 20
6.319417106
 30
0.0
 10
4.6358817475
 20
6.3160600673
 30
0.0
 10
4.6425903016
 20
6.3130711644
 30
0.0
 10
4.6494665765
 20
6.3104603939
 30
0.0
 10
4.6564878836
 20
6.3082363579
 30
0.0
 10
4.6660127328
 20
6.3057961311
 30
0.0
 10
4.6781643464
 20
6.3037473683
 30
0.0
 10
4.6880124654
 20
6.3031993295
 30
0.0
 10
4.6929347826
 20
6.3031993295
 30
0.0
  0
SPLINE
  5
2B0
100
AcDbEntity
  8
0
100
AcDbSpline
 62
7
  6
CONTINUOUS
 70
0
 71
3
 72
23
 73
19
 74
0
 42
0.0000001
 43
0.0000001
 44
0.0000000001
 40
0.0
 40
0.0
 40
0.0
 40
0.0
 40
0.0575283802
 40
0.1158706794
 40
0.1750362554
 40
0.2350178618
 40
0.2957870385
 40
0.3573031192
 40
0.4195153975
 40
0.4823656684
 40
0.5457906318
 40
0.6097234493
 40
0.6740946538
 40
0.7388331531
 40
0.8038659012
 40
0.8691201793
 40
0.9345252831
 40
1.0
 40
1.0
 40
1.0
 40
1.0
 10
4.9765381464
 20
1.8618259387
 30
0.0
 10
4.9713993823
 20
1.8598340509
 30
0.0
 10
4.9609440775
 20
1.8560889267
 30
0.0
 10
4.944910872
 20
1.8511606006
 30
0.0
 10
4.9284644767
 20
1.8468262259
 30
0.0
 10
4.9116479002
 20
1.8430312864
 30
0.0
 10
4.8944998827
 20
1.8397243441
 30
0.0
 10
4.877056711
 20
1.8368579375
 30
0.0
 10
4.8593519316
 20
1.8343891987
 30
0.0
 10
4.8414169572
 20
1.8322796278
 30
0.0
 10
4.8232813527
 20
1.8304950299
 30
0.0
 10
4.8049730671
 20
1.8290062323
 30
0.0
 10
4.7865188195
 20
1.8277879803
 30
0.0
 10
4.7679443863
 20
1.8268190513
 30
0.0
 10
4.7492746803
 20
1.8260829529
 30
0.0
 10
4.730533775
 20
1.8255662482
 30
0.0
 10
4.7117459583
 20
1.8252598826
 30
0.0
 10
4.6992073617
 20
1.8251923129
 30
0.0
 10
4.6929347826
 20
1.8251923129
 30
0.0
  0
SPLINE
  5
2B1
100
AcDbEntity
  8
0
100
AcDbSpline
 62
7
  6
CONTINUOUS
 70
0
 71
3
 72
35
 73
31
 74
0
 42
0.0000001
 43
0.0000001
 44
0.0000000001
 40
0.0
 40
0.0
 40
0.0
 40
0.0
 40
0.0147676722
 40
0.0297599601
 40
0.0451873725
 40
0.0612377655
 40
0.0695507363
 40
0.078077856
 40
0.0958333847
 40
0.1146203761
 40
0.1345285215
 40
0.1556293539
 40
0.1779793735
 40
0.2016228002
 40
0.2265938933
 40
0.252918854
 40
0.2806173619
 40
0.3097038081
 40
0.3401882805
 40
0.3720734643
 40
0.4053431739
 40
0.4399740395
 40
0.475939958
 40
0.5132125944
 40
0.5517617804
 40
0.6325590223
 40
0.7180676376
 40
0.8080060601
 40
0.9020829049
 40
1.0
 40
1.0
 40
1.0
 40
1.0
 10
4.9831847826
 20
5.5739422914
 30
0.0
 10
4.9831847827
 20
5.5747632738
 30
0.0
 10
4.9830768314
 20
5.5764196261
 30
0.0
 10
4.9825955319
 20
5.5788914695
 30
0.0
 10
4.98179853
 20
5.5813550056
 30
0.0
 10
4.9808853153
 20
5.5833746948
 30
0.0
 10
4.9800084981
 20
5.5849798939
 30
0.0
 10
4.9790058686
 20
5.586621951
 30
0.0
 10
4.9775529737
 20
5.588667506
 30
0.0
 10
4.975531563
 20
5.5910719253
 30
0.0
 10
4.9732119625
 20
5.5934567671
 30
0.0
 10
4.9705969923
 20
5.5958197969
 30
0.0
 10
4.9676892294
 20
5.5981588864
 30
0.0
 10
4.964491248
 20
5.6004717408
 30
0.0
 10
4.9610055965
 20
5.6027560037
 30
0.0
 10
4.9572348306
 20
5.6050092527
 30
0.0
 10
4.9531815159
 20
5.6072290221
 30
0.0
 10
4.9488482353
 20
5.6094128182
 30
0.0
 10
4.9442377715
 20
5.6115580203
 30
0.0
 10
4.9393539905
 20
5.6136616379
 30
0.0
 10
4.9342029265
 20
5.6157223908
 30
0.0
 10
4.9287915034
 20
5.6177384696
 30
0.0
 10
4.9231268721
 20
5.6197079845
 30
0.0
 10
4.9172161833
 20
5.6216290751
 30
0.0
 10
4.9088856939
 20
5.6241631637
 30
0.0
 10
4.897902699
 20
5.6271841502
 30
0.0
 10
4.8840543453
 20
5.630532562
 30
0.0
 10
4.8693952279
 20
5.6336433199
 30
0.0
 10
4.8539828919
 20
5.6365011693
 30
0.0
 10
4.8434435338
 20
5.6381955477
 30
0.0
 10
4.8380597826
 20
5.6390000373
 30
0.0
  0
SPLINE
  5
2B2
100
AcDbEntity
  8
0
100
AcDbSpline
 62
7
  6
CONTINUOUS
 70
0
 71
3
 72
37
 73
33
 74
0
 42
0.0000001
 43
0.0000001
 44
0.0000000001
 40
0.0
 40
0.0
 40
0.0
 40
0.0
 40
0.0637907484
 40
0.1275202355
 40
0.1593571741
 40
0.1911580044
 40
0.2229166848
 40
0.2546275065
 40
0.2862854778
 40
0.3178862479
 40
0.3494261788
 40
0.3809024822
 40
0.4123131852
 40
0.4436571562
 40
0.47493414
 40
0.506144837
 40
0.5372907981
 40
0.5683744232
 40
0.5993989938
 40
0.6303686149
 40
0.6612881181
 40
0.6921630015
 40
0.7229994517
 40
0.7538041626
 40
0.7845842435
 40
0.8153471588
 40
0.8461006587
 40
0.8768525951
 40
0.9076108055
 40
0.9383830982
 40
0.9691770732
 40
1.0
 40
1.0
 40
1.0
 40
1.0
 10
4.6929347826
 20
6.3031993295
 30
0.0
 10
4.6978570998
 20
6.3031993295
 30
0.0
 10
4.7077052188
 20
6.3037473683
 30
0.0
 10
4.7198568324
 20
6.3057961311
 30
0.0
 10
4.7293816816
 20
6.3082363579
 30
0.0
 10
4.7364029887
 20
6.3104603939
 30
0.0
 10
4.7432792636
 20
6.3130711644
 30
0.0
 10
4.7499878177
 20
6.3160600673
 30
0.0
 10
4.7565062362
 20
6.319417106
 30
0.0
 10
4.7628128179
 20
6.3231310915
 30
0.0
 10
4.7688865133
 20
6.3271896895
 30
0.0
 10
4.7747070636
 20
6.331579391
 30
0.0
 10
4.7802550823
 20
6.336285545
 30
0.0
 10
4.7855120605
 20
6.3412924812
 30
0.0
 10
4.7904604277
 20
6.3465835517
 30
0.0
 10
4.7950836951
 20
6.3521411037
 30
0.0
 10
4.7993664515
 20
6.3579466058
 30
0.0
 10
4.803294374
 20
6.3639807281
 30
0.0
 10
4.8068543342
 20
6.3702233615
 30
0.0
 10
4.8100344811
 20
6.3766536729
 30
0.0
 10
4.8128241932
 20
6.3832502223
 30
0.0
 10
4.8152141069
 20
6.3899910269
 30
0.0
 10
4.8171962646
 20
6.3968535903
 30
0.0
 10
4.8187640677
 20
6.4038150165
 30
0.0
 10
4.8199122481
 20
6.4108520863
 30
0.0
 10
4.8206369467
 20
6.4179413209
 30
0.0
 10
4.8209357849
 20
6.4250590601
 30
0.0
 10
4.8208077645
 20
6.4321815627
 30
0.0
 10
4.8202532727
 20
6.4392850366
 30
0.0
 10
4.8192741614
 20
6.4463458628
 30
0.0
 10
4.8178738291
 20
6.453340173
 30
0.0
 10
4.8166629741
 20
6.457941428
 30
0.0
 10
4.8159894858
 20
6.4602224854
 30
0.0
  0
SPLINE
  5
2B3
100
AcDbEntity
  8
0
100
AcDbSpline
 62
7
  6
CONTINUOUS
 70
0
 71
3
 72
15
 73
11
 74
0
 42
0.0000001
 43
0.0000001
 44
0.0000000001
 40
0.0
 40
0.0
 40
0.0
 40
0.0
 40
0.1250459742
 40
0.2500764555
 40
0.3750842098
 40
0.5000789521
 40
0.6250629592
 40
0.7500401022
 40
0.875021964
 40
1.0
 40
1.0
 40
1.0
 40
1.0
 10
4.5679347829
 20
6.166692313
 30
0.0
 10
4.5634090173
 20
6.1661592294
 30
0.0
 10
4.5543831737
 20
6.1648657598
 30
0.0
 10
4.5409606471
 20
6.1622524711
 30
0.0
 10
4.5276850797
 20
6.1589803868
 30
0.0
 10
4.5145852279
 20
6.1550707652
 30
0.0
 10
4.5016848918
 20
6.1505504575
 30
0.0
 10
4.4890030455
 20
6.1454513901
 30
0.0
 10
4.4765543176
 20
6.1398090666
 30
0.0
 10
4.468416349
 20
6.1357097415
 30
0.0
 10
4.464389222
 20
6.1335822026
 30
0.0
  0
SPLINE
  5
2B4
100
AcDbEntity
  8
0
100
AcDbSpline
 62
7
  6
CONTINUOUS
 70
0
 71
3
 72
9
 73
5
 74
0
 42
0.0000001
 43
0.0000001
 44
0.0000000001
 40
0.0
 40
0.0
 40
0.0
 40
0.0
 40
0.5055424291
 40
1.0
 40
1.0
 40
1.0
 40
1.0
 10
4.9188069346
 20
5.476646282
 30
0.0
 10
4.9190510417
 20
5.4774219702
 30
0.0
 10
4.9194257128
 20
5.4789931624
 30
0.0
 10
4.9195535577
 20
5.4806041478
 30
0.0
 10
4.9195535804
 20
5.4813995087
 30
0.0
  0
LINE
  5
2B5
100
AcDbEntity
  8
0
100
AcDbLine
 62
7
  6
CONTINUOUS
 10
4.5791971724
 20
6.114925458
 11
4.5792237348
 21
6.1152493234
  0
SPLINE
  5
2B6
100
AcDbEntity
  8
0
100
AcDbSpline
 62
7
  6
CONTINUOUS
 70
0
 71
3
 72
12
 73
8
 74
0
 42
0.0000001
 43
0.0000001
 44
0.0000000001
 40
0.0
 40
0.0
 40
0.0
 40
0.0
 40
0.2500002102
 40
0.3750005924
 40
0.5000007344
 40
0.7500005356
 40
1.0
 40
1.0
 40
1.0
 40
1.0
 10
4.6929347826
 20
6.1167542497
 30
0.0
 10
4.6834578183
 20
6.1167542255
 30
0.0
 10
4.6692422943
 20
6.116698051
 30
0.0
 10
4.6502891596
 20
6.1165208335
 30
0.0
 10
4.6313367269
 20
6.1162803373
 30
0.0
 10
4.6076477227
 20
6.1158741302
 30
0.0
 10
4.5886981955
 20
6.1154659141
 30
0.0
 10
4.5792237348
 20
6.1152493234
 30
0.0
  0
SPLINE
  5
2B7
100
AcDbEntity
  8
0
100
AcDbSpline
 62
7
  6
CONTINUOUS
 70
0
 71
3
 72
12
 73
8
 74
0
 42
0.0000001
 43
0.0000001
 44
0.0000000001
 40
0.0
 40
0.0
 40
0.0
 40
0.0
 40
0.2499994645
 40
0.4999992656
 40
0.6249994076
 40
0.7499997899
 40
1.0
 40
1.0
 40
1.0
 40
1.0
 10
4.8066458304
 20
6.1152493243
 30
0.0
 10
4.7971713698
 20
6.1154659186
 30
0.0
 10
4.7782218425
 20
6.1158741321
 30
0.0
 10
4.7545328383
 20
6.1162803325
 30
0.0
 10
4.7355804055
 20
6.1165208273
 30
0.0
 10
4.7166272709
 20
6.1166980475
 30
0.0
 10
4.7024117469
 20
6.1167542262
 30
0.0
 10
4.6929347826
 20
6.1167542497
 30
0.0
  0
SPLINE
  5
2B8
100
AcDbEntity
  8
0
100
AcDbSpline
 62
7
  6
CONTINUOUS
 70
0
 71
3
 72
22
 73
18
 74
0
 42
0.0000001
 43
0.0000001
 44
0.0000000001
 40
0.0
 40
0.0
 40
0.0
 40
0.0
 40
0.1249883438
 40
0.1874888389
 40
0.2499895545
 40
0.3124904167
 40
0.374991168
 40
0.4374919771
 40
0.49999273
 40
0.5624935261
 40
0.6249943615
 40
0.6874951866
 40
0.7499960942
 40
0.8124970598
 40
0.8749975555
 40
0.937499822
 40
1.0
 40
1.0
 40
1.0
 40
1.0
 10
5.0904575954
 20
5.7416923087
 30
0.0
 10
5.0799998997
 20
5.7551804467
 30
0.0
 10
5.0648885864
 20
5.7758715608
 30
0.0
 10
5.0460388867
 20
5.8043364385
 30
0.0
 10
5.0325789227
 20
5.8261220862
 30
0.0
 10
5.0198295859
 20
5.8483309131
 30
0.0
 10
5.0078207701
 20
5.8709490895
 30
0.0
 10
4.9965803735
 20
5.8939589588
 30
0.0
 10
4.9861355612
 20
5.9173409115
 30
0.0
 10
4.9765101713
 20
5.9410720721
 30
0.0
 10
4.9677237803
 20
5.9651265868
 30
0.0
 10
4.9597914374
 20
5.9894761474
 30
0.0
 10
4.9527260208
 20
6.0140912993
 30
0.0
 10
4.9465366563
 20
6.0389410949
 30
0.0
 10
4.9412251688
 20
6.0639933956
 30
0.0
 10
4.9367900276
 20
6.0892150603
 30
0.0
 10
4.9344135781
 20
6.1061220218
 30
0.0
 10
4.93336911
 20
6.1145923465
 30
0.0
  0
SPLINE
  5
2B9
100
AcDbEntity
  8
0
100
AcDbSpline
 62
7
  6
CONTINUOUS
 70
0
 71
3
 72
17
 73
13
 74
0
 42
0.0000001
 43
0.0000001
 44
0.0000000001
 40
0.0
 40
0.0
 40
0.0
 40
0.0
 40
0.1254324549
 40
0.2507631943
 40
0.3133807991
 40
0.3759624091
 40
0.5010155485
 40
0.6259286763
 40
0.6883358427
 40
0.750713065
 40
0.8753939141
 40
1.0
 40
1.0
 40
1.0
 40
1.0
 10
4.93336911
 20
6.1145923465
 30
0.0
 10
4.9286142591
 20
6.1147818679
 30
0.0
 10
4.9191076052
 20
6.1151411281
 30
0.0
 10
4.9072241979
 20
6.1155094136
 30
0.0
 10
4.8977223268
 20
6.1157365992
 30
0.0
 10
4.8882298879
 20
6.1159118624
 30
0.0
 10
4.8763728013
 20
6.1160278087
 30
0.0
 10
4.8645217652
 20
6.1160025304
 30
0.0
 10
4.8550493697
 20
6.1158939252
 30
0.0
 10
4.845586622
 20
6.1157279353
 30
0.0
 10
4.8337664709
 20
6.1154245336
 30
0.0
 10
4.8243145146
 20
6.1151014647
 30
0.0
 10
4.8195905148
 20
6.114925502
 30
0.0
  0
SPLINE
  5
2BA
100
AcDbEntity
  8
0
100
AcDbSpline
 62
7
  6
CONTINUOUS
 70
0
 71
3
 72
23
 73
19
 74
0
 42
0.0000001
 43
0.0000001
 44
0.0000000001
 40
0.0
 40
0.0
 40
0.0
 40
0.0
 40
0.062183411
 40
0.1243642285
 40
0.186554699
 40
0.2487641165
 40
0.3110001388
 40
0.3732701035
 40
0.4355823417
 40
0.4979474871
 40
0.5603793475
 40
0.6228911055
 40
0.6854924758
 40
0.7481909068
 40
0.8109919751
 40
0.8738961515
 40
0.9369003518
 40
1.0
 40
1.0
 40
1.0
 40
1.0
 10
4.3821591956
 20
5.4129003832
 30
0.0
 10
4.3813058476
 20
5.4049646825
 30
0.0
 10
4.3800263472
 20
5.3890443903
 30
0.0
 10
4.3793840564
 20
5.3650973589
 30
0.0
 10
4.3800115194
 20
5.3411460065
 30
0.0
 10
4.3819018424
 20
5.3172542801
 30
0.0
 10
4.3850480594
 20
5.2934849742
 30
0.0
 10
4.3894432937
 20
5.2699011908
 30
0.0
 10
4.3950807017
 20
5.2465659843
 30
0.0
 10
4.401953513
 20
5.2235424211
 30
0.0
 10
4.4100545989
 20
5.2008946156
 30
0.0
 10
4.4193542726
 20
5.1786794054
 30
0.0
 10
4.4298231537
 20
5.1569527857
 30
0.0
 10
4.4414318781
 20
5.1357708981
 30
0.0
 10
4.4541505177
 20
5.1151907386
 30
0.0
 10
4.4679390961
 20
5.0952638058
 30
0.0
 10
4.4827570102
 20
5.0760424569
 30
0.0
 10
4.4932888196
 20
5.0637406511
 30
0.0
 10
4.4987118228
 20
5.0577251971
 30
0.0
  0
SPLINE
  5
2BB
100
AcDbEntity
  8
0
100
AcDbSpline
 62
7
  6
CONTINUOUS
 70
0
 71
3
 72
22
 73
18
 74
0
 42
0.0000001
 43
0.0000001
 44
0.0000000001
 40
0.0
 40
0.0
 40
0.0
 40
0.0
 40
0.062500178
 40
0.1250024515
 40
0.1875029518
 40
0.2500039228
 40
0.3125048361
 40
0.3750056645
 40
0.4375064976
 40
0.5000072834
 40
0.5625080389
 40
0.6250088464
 40
0.6875096017
 40
0.7500104526
 40
0.8125111682
 40
0.8750116619
 40
1.0
 40
1.0
 40
1.0
 40
1.0
 10
4.452500453
 20
6.1145923412
 30
0.0
 10
4.4514559881
 20
6.1061220157
 30
0.0
 10
4.449079579
 20
6.0892150476
 30
0.0
 10
4.4446445448
 20
6.0639933613
 30
0.0
 10
4.4393330635
 20
6.038941053
 30
0.0
 10
4.4331434791
 20
6.0140913083
 30
0.0
 10
4.4260780066
 20
5.9894761721
 30
0.0
 10
4.4181457621
 20
5.965126579
 30
0.0
 10
4.4093594885
 20
5.9410720192
 30
0.0
 10
4.399733966
 20
5.9173409117
 30
0.0
 10
4.3892892086
 20
5.8939589386
 30
0.0
 10
4.3780490401
 20
5.8709489564
 30
0.0
 10
4.366040311
 20
5.8483307298
 30
0.0
 10
4.3532907285
 20
5.8261220403
 30
0.0
 10
4.3398304892
 20
5.8043365661
 30
0.0
 10
4.3209809396
 20
5.7758715999
 30
0.0
 10
4.3058699207
 20
5.7551802496
 30
0.0
 10
4.2954119703
 20
5.7416923093
 30
0.0
  0
SPLINE
  5
2BC
100
AcDbEntity
  8
0
100
AcDbSpline
 62
7
  6
CONTINUOUS
 70
0
 71
3
 72
17
 73
13
 74
0
 42
0.0000001
 43
0.0000001
 44
0.0000000001
 40
0.0
 40
0.0
 40
0.0
 40
0.0
 40
0.1246061123
 40
0.2492870554
 40
0.3116643218
 40
0.3740715111
 40
0.4989846194
 40
0.624037691
 40
0.6866192701
 40
0.7492368552
 40
0.8745675743
 40
1.0
 40
1.0
 40
1.0
 40
1.0
 10
4.5662790695
 20
6.114925912
 30
0.0
 10
4.5615550681
 20
6.1151018741
 30
0.0
 10
4.5521031032
 20
6.1154248571
 30
0.0
 10
4.5402829399
 20
6.1157280723
 30
0.0
 10
4.5308201833
 20
6.1158939436
 30
0.0
 10
4.5213477844
 20
6.1160024809
 30
0.0
 10
4.50949675
 20
6.1160277568
 30
0.0
 10
4.4976396664
 20
6.1159118517
 30
0.0
 10
4.4881472307
 20
6.115736609
 30
0.0
 10
4.4786453614
 20
6.1155094252
 30
0.0
 10
4.4667619561
 20
6.1151411238
 30
0.0
 10
4.4572553035
 20
6.1147818573
 30
0.0
 10
4.452500453
 20
6.1145923412
 30
0.0
  0
SPLINE
  5
2BD
100
AcDbEntity
  8
0
100
AcDbSpline
 62
7
  6
CONTINUOUS
 70
0
 71
3
 72
22
 73
18
 74
0
 42
0.0000001
 43
0.0000001
 44
0.0000000001
 40
0.0
 40
0.0
 40
0.0
 40
0.0
 40
0.1532802835
 40
0.2273587419
 40
0.2996115056
 40
0.3699608045
 40
0.4383356035
 40
0.504668789
 40
0.5688958981
 40
0.6309552905
 40
0.6907880793
 40
0.7483371785
 40
0.803547848
 40
0.8563673691
 40
0.9067460859
 40
0.9546394364
 40
1.0
 40
1.0
 40
1.0
 40
1.0
 10
4.4093314188
 20
1.8618259387
 30
0.0
 10
4.3991354689
 20
1.8579518906
 30
0.0
 10
4.3837945303
 20
1.8527605359
 30
0.0
 10
4.3632929095
 20
1.84690487
 30
0.0
 10
4.3483483545
 20
1.8431018136
 30
0.0
 10
4.3337045609
 20
1.8397871141
 30
0.0
 10
4.3193974845
 20
1.8369133524
 30
0.0
 10
4.3054586705
 20
1.8344377835
 30
0.0
 10
4.2919155868
 20
1.8323218988
 30
0.0
 10
4.2787924849
 20
1.8305314497
 30
0.0
 10
4.2661108291
 20
1.8290371997
 30
0.0
 10
4.2538899445
 20
1.8278137948
 30
0.0
 10
4.2421473857
 20
1.826839896
 30
0.0
 10
4.230899144
 20
1.8260988984
 30
0.0
 10
4.2201598493
 20
1.8255772215
 30
0.0
 10
4.2099434198
 20
1.8252656562
 30
0.0
 10
4.2033074979
 20
1.8251923129
 30
0.0
 10
4.2000797253
 20
1.8251923129
 30
0.0
  0
SPLINE
  5
2BE
100
AcDbEntity
  8
0
100
AcDbSpline
 62
7
  6
CONTINUOUS
 70
0
 71
3
 72
23
 73
19
 74
0
 42
0.0000001
 43
0.0000001
 44
0.0000000001
 40
0.0
 40
0.0
 40
0.0
 40
0.0
 40
0.0654746837
 40
0.1308797008
 40
0.1961339246
 40
0.2611666575
 40
0.3259051437
 40
0.390276344
 40
0.4542091936
 40
0.5176342047
 40
0.5804845127
 40
0.6426968137
 40
0.7042129104
 40
0.7649821072
 40
0.8249637303
 40
0.8841293233
 40
0.9424716268
 40
1.0
 40
1.0
 40
1.0
 40
1.0
 10
4.6929347826
 20
1.8251923129
 30
0.0
 10
4.6866622067
 20
1.8251923129
 30
0.0
 10
4.6741236216
 20
1.8252598848
 30
0.0
 10
4.6553358215
 20
1.8255662456
 30
0.0
 10
4.6365949313
 20
1.826082954
 30
0.0
 10
4.6179252331
 20
1.826819049
 30
0.0
 10
4.5993508028
 20
1.8277879742
 30
0.0
 10
4.5808965542
 20
1.829006232
 30
0.0
 10
4.5625882607
 20
1.8304950223
 30
0.0
 10
4.5444526452
 20
1.8322796238
 30
0.0
 10
4.5265176606
 20
1.8343891956
 30
0.0
 10
4.5088128738
 20
1.836857934
 30
0.0
 10
4.4913696965
 20
1.8397243412
 30
0.0
 10
4.4742216741
 20
1.8430312848
 30
0.0
 10
4.4574050924
 20
1.8468262247
 30
0.0
 10
4.4409586936
 20
1.8511606006
 30
0.0
 10
4.4249254868
 20
1.8560889269
 30
0.0
 10
4.4144701823
 20
1.8598340512
 30
0.0
 10
4.4093314188
 20
1.8618259387
 30
0.0
  0
SPLINE
  5
2BF
100
AcDbEntity
  8
0
100
AcDbSpline
 62
7
  6
CONTINUOUS
 70
0
 71
3
 72
14
 73
10
 74
0
 42
0.0000001
 43
0.0000001
 44
0.0000000001
 40
0.0
 40
0.0
 40
0.0
 40
0.0
 40
0.2716846272
 40
0.4030562659
 40
0.5309144942
 40
0.6548794149
 40
0.7745962658
 40
0.8897366746
 40
1.0
 40
1.0
 40
1.0
 40
1.0
 10
4.7614595836
 20
6.2572282739
 30
0.0
 10
4.7593601303
 20
6.2601237691
 30
0.0
 10
4.7563360262
 20
6.2644865058
 30
0.0
 10
4.752561006
 20
6.2703690121
 30
0.0
 10
4.7499421192
 20
6.2746811006
 30
0.0
 10
4.7475133043
 20
6.2789271604
 30
0.0
 10
4.7452832266
 20
6.2830920025
 30
0.0
 10
4.743259864
 20
6.2871606097
 30
0.0
 10
4.742025829
 20
6.2898598736
 30
0.0
 10
4.7414465809
 20
6.291190826
 30
0.0
  0
SPLINE
  5
2C0
100
AcDbEntity
  8
0
100
AcDbSpline
 62
7
  6
CONTINUOUS
 70
0
 71
3
 72
64
 73
60
 74
0
 42
0.0000001
 43
0.0000001
 44
0.0000000001
 40
0.0
 40
0.0
 40
0.0
 40
0.0
 40
0.0108952816
 40
0.0166597683
 40
0.0226336332
 40
0.0288114439
 40
0.0351844726
 40
0.0417412755
 40
0.0484685212
 40
0.055351776
 40
0.062376181
 40
0.0695269641
 40
0.0767899695
 40
0.0841519392
 40
0.0916004986
 40
0.0991246242
 40
0.1067142124
 40
0.1143604311
 40
0.1220553396
 40
0.1297921388
 40
0.1375645706
 40
0.1453675921
 40
0.1531962751
 40
0.1689156155
 40
0.1846976793
 40
0.200529745
 40
0.2164025063
 40
0.2243514118
 40
0.2323072578
 40
0.2482363419
 40
0.2562078492
 40
0.2641829697
 40
0.2721612982
 40
0.2801424486
 40
0.2881260209
 40
0.2961116317
 40
0.304099116
 40
0.3120884157
 40
0.328072228
 40
0.344062593
 40
0.3600588325
 40
0.3760601781
 40
0.3920658861
 40
0.424088016
 40
0.4561208167
 40
0.4881603426
 40
0.5202029339
 40
0.5522455712
 40
0.5842854192
 40
0.616320194
 40
0.6483477627
 40
0.6803665825
 40
0.7123754225
 40
0.7443734039
 40
0.776360409
 40
0.8083363318
 40
0.8722569004
 40
0.9361414854
 40
1.0
 40
1.0
 40
1.0
 40
1.0
 10
4.9765381464
 20
1.8618259387
 30
0.0
 10
4.9706719188
 20
1.8683831364
 30
0.0
 10
4.9623198915
 20
1.8789775834
 30
0.0
 10
4.9521490221
 20
1.8941682251
 30
0.0
 10
4.9446937234
 20
1.9065745077
 30
0.0
 10
4.9375727817
 20
1.9197351972
 30
0.0
 10
4.9307966769
 20
1.933602277
 30
0.0
 10
4.9243722183
 20
1.948121564
 30
0.0
 10
4.9183010914
 20
1.9632365301
 30
0.0
 10
4.9125807013
 20
1.9788898571
 30
0.0
 10
4.9072046427
 20
1.9950252643
 30
0.0
 10
4.9021633284
 20
2.0115888368
 30
0.0
 10
4.8974444479
 20
2.028529983
 30
0.0
 10
4.8930339579
 20
2.0458020597
 30
0.0
 10
4.8889163217
 20
2.0633627248
 30
0.0
 10
4.8850752398
 20
2.0811738489
 30
0.0
 10
4.8814938695
 20
2.0992016199
 30
0.0
 10
4.8781552766
 20
2.1174160275
 30
0.0
 10
4.8750424615
 20
2.1357908524
 30
0.0
 10
4.8721388611
 20
2.1543029807
 30
0.0
 10
4.8694276806
 20
2.1729324185
 30
0.0
 10
4.8668933495
 20
2.1916615564
 30
0.0
 10
4.8637242379
 20
2.2167796138
 30
0.0
 10
4.8601290187
 20
2.2483368839
 30
0.0
 10
4.8562748634
 20
2.2863660824
 30
0.0
 10
4.8528452122
 20
2.3245602674
 30
0.0
 10
4.8503120093
 20
2.3564820234
 30
0.0
 10
4.8484586868
 20
2.3820763672
 30
0.0
 10
4.8467123561
 20
2.407723823
 30
0.0
 10
4.8451152461
 20
2.4333994766
 30
0.0
 10
4.8436382467
 20
2.4590976751
 30
0.0
 10
4.8425835778
 20
2.4783890098
 30
0.0
 10
4.8415779512
 20
2.4976907525
 30
0.0
 10
4.8406165982
 20
2.5170015821
 30
0.0
 10
4.8396949935
 20
2.5363202328
 30
0.0
 10
4.838808007
 20
2.555645622
 30
0.0
 10
4.8379549632
 20
2.5749771699
 30
0.0
 10
4.8368633313
 20
2.6007632203
 30
0.0
 10
4.8355851856
 20
2.6330096772
 30
0.0
 10
4.8341920071
 20
2.6717222428
 30
0.0
 10
4.832936007
 20
2.710453664
 30
0.0
 10
4.8318131785
 20
2.7492015682
 30
0.0
 10
4.8304884183
 20
2.8008901503
 30
0.0
 10
4.8291498651
 20
2.8655281372
 30
0.0
 10
4.8280316447
 20
2.9431196983
 30
0.0
 10
4.8273805412
 20
3.0207330841
 30
0.0
 10
4.8271757172
 20
3.0983568302
 30
0.0
 10
4.8273974969
 20
3.1759807549
 30
0.0
 10
4.8280261269
 20
3.2535961053
 30
0.0
 10
4.8290441606
 20
3.331195129
 30
0.0
 10
4.8304350849
 20
3.4087713513
 30
0.0
 10
4.8321774212
 20
3.4863194936
 30
0.0
 10
4.8342479299
 20
3.5638356345
 30
0.0
 10
4.8366225654
 20
3.6413173163
 30
0.0
 10
4.839272925
 20
3.7187634285
 30
0.0
 10
4.8431366823
 20
3.8219610107
 30
0.0
 10
4.8485172889
 20
3.950877383
 30
0.0
 10
4.8556394456
 20
4.1054878581
 30
0.0
 10
4.8606847135
 20
4.2085208619
 30
0.0
 10
4.8632445191
 20
4.2600249455
 30
0.0
  0
SPLINE
  5
2C1
100
AcDbEntity
  8
0
100
AcDbSpline
 62
7
  6
CONTINUOUS
 70
0
 71
3
 72
62
 73
58
 74
0
 42
0.0000001
 43
0.0000001
 44
0.0000000001
 40
0.0
 40
0.0
 40
0.0
 40
0.0
 40
0.0638583643
 40
0.1277427893
 40
0.1916632651
 40
0.2236390987
 40
0.2556260691
 40
0.2876240113
 40
0.3196327641
 40
0.3516515862
 40
0.3836791046
 40
0.4157138406
 40
0.4477536491
 40
0.479796238
 40
0.5118388112
 40
0.5438782761
 40
0.5759110636
 40
0.6079331647
 40
0.6399400514
 40
0.6559362776
 40
0.6719267223
 40
0.6879106362
 40
0.7038872894
 40
0.7118726762
 40
0.7198559854
 40
0.7278371164
 40
0.7358156796
 40
0.751762546
 40
0.7676916033
 40
0.7835963321
 40
0.7915371278
 40
0.7994689019
 40
0.8153010916
 40
0.8231994389
 40
0.8310839012
 40
0.8389523487
 40
0.8468026614
 40
0.8546315194
 40
0.8624344963
 40
0.8779436587
 40
0.8856386117
 40
0.8932848895
 40
0.9008745228
 40
0.9083986905
 40
0.9158473343
 40
0.923209308
 40
0.9304724114
 40
0.9376232447
 40
0.9446476973
 40
0.9515310277
 40
0.9582583352
 40
0.9648151964
 40
0.9711882895
 40
0.9773661619
 40
0.9833400833
 40
0.9891046106
 40
1.0
 40
1.0
 40
1.0
 40
1.0
 10
4.5226250461
 20
4.2600249455
 30
0.0
 10
4.5251848454
 20
4.2085209896
 30
0.0
 10
4.5302301058
 20
4.1054882492
 30
0.0
 10
4.5373522699
 20
3.9508781194
 30
0.0
 10
4.5427327801
 20
3.8219620355
 30
0.0
 10
4.5465965122
 20
3.7187646405
 30
0.0
 10
4.5492469998
 20
3.6413186741
 30
0.0
 10
4.5516218633
 20
3.5638371394
 30
0.0
 10
4.5536925216
 20
3.4863211113
 30
0.0
 10
4.5554339318
 20
3.408773067
 30
0.0
 10
4.556824942
 20
3.3311969278
 30
0.0
 10
4.5578435538
 20
3.2535980249
 30
0.0
 10
4.5584722557
 20
3.1759827858
 30
0.0
 10
4.5586938369
 20
3.0983589564
 30
0.0
 10
4.558489046
 20
3.0207353216
 30
0.0
 10
4.5578377879
 20
2.9431220262
 30
0.0
 10
4.5567197142
 20
2.8655305387
 30
0.0
 10
4.5551142527
 20
2.7879738939
 30
0.0
 10
4.5533519517
 20
2.7233746507
 30
0.0
 10
4.5516763714
 20
2.671725034
 30
0.0
 10
4.5502843522
 20
2.6330122931
 30
0.0
 10
4.5487541128
 20
2.5943205911
 30
0.0
 10
4.5473611166
 20
2.562093055
 30
0.0
 10
4.5461744749
 20
2.536323529
 30
0.0
 10
4.5452479247
 20
2.5170055269
 30
0.0
 10
4.544284981
 20
2.4976948195
 30
0.0
 10
4.5429475078
 20
2.4719640461
 30
0.0
 10
4.5411564752
 20
2.4398300499
 30
0.0
 10
4.5387605408
 20
2.4013199006
 30
0.0
 10
4.5365141562
 20
2.3692789587
 30
0.0
 10
4.5345426122
 20
2.3436935981
 30
0.0
 10
4.5324494047
 20
2.3181766955
 30
0.0
 10
4.53016184
 20
2.2927103845
 30
0.0
 10
4.5276646374
 20
2.2673026432
 30
0.0
 10
4.5256827241
 20
2.2483065284
 30
0.0
 10
4.523580217
 20
2.2293623913
 30
0.0
 10
4.5213489501
 20
2.2104781854
 30
0.0
 10
4.5189756057
 20
2.1916645026
 30
0.0
 10
4.5156045487
 20
2.1667439878
 30
0.0
 10
4.5118759503
 20
2.1419814944
 30
0.0
 10
4.5077145912
 20
2.1174182989
 30
0.0
 10
4.5043760945
 20
2.0992037354
 30
0.0
 10
4.5007947376
 20
2.0811758482
 30
0.0
 10
4.4969536847
 20
2.063364577
 30
0.0
 10
4.4928360214
 20
2.0458038127
 30
0.0
 10
4.4884255493
 20
2.0285315787
 30
0.0
 10
4.4837066721
 20
2.0115903057
 30
0.0
 10
4.4786653146
 20
1.9950265838
 30
0.0
 10
4.4732892977
 20
1.9788910174
 30
0.0
 10
4.4675688683
 20
1.9632375473
 30
0.0
 10
4.4614976877
 20
1.9481224348
 30
0.0
 10
4.4550732056
 20
1.9336029979
 30
0.0
 10
4.4482970967
 20
1.9197357563
 30
0.0
 10
4.4411760972
 20
1.9065749318
 30
0.0
 10
4.4337207347
 20
1.8941685402
 30
0.0
 10
4.4235497896
 20
1.8789777533
 30
0.0
 10
4.4151977038
 20
1.8683832005
 30
0.0
 10
4.4093314188
 20
1.8618259387
 30
0.0
  0
SPLINE
  5
2C2
100
AcDbEntity
  8
0
100
AcDbSpline
 62
7
  6
CONTINUOUS
 70
0
 71
3
 72
51
 73
47
 74
0
 42
0.0000001
 43
0.0000001
 44
0.0000000001
 40
0.0
 40
0.0
 40
0.0
 40
0.0
 40
0.0003759549
 40
0.0007891941
 40
0.0012605637
 40
0.0018042692
 40
0.0024297836
 40
0.0031433997
 40
0.00394941
 40
0.0048508428
 40
0.0058499084
 40
0.0069483014
 40
0.0094486781
 40
0.0123620416
 40
0.0156958889
 40
0.0194569079
 40
0.023652865
 40
0.0282914593
 40
0.0333802859
 40
0.0389291137
 40
0.044948988
 40
0.0584481147
 40
0.0739891431
 40
0.0917059327
 40
0.1117491988
 40
0.134250984
 40
0.1593447901
 40
0.1871049311
 40
0.2174946161
 40
0.2504088847
 40
0.2857176547
 40
0.3232718108
 40
0.3629003172
 40
0.4044120627
 40
0.4476045845
 40
0.4922797743
 40
0.5382758337
 40
0.5854660402
 40
0.6337571126
 40
0.683093241
 40
0.7334400485
 40
0.7847785405
 40
0.8371000353
 40
0.8904048789
 40
0.944702871
 40
1.0
 40
1.0
 40
1.0
 40
1.0
 10
4.5182807242
 20
6.0403822998
 30
0.0
 10
4.5183313205
 20
6.0403827788
 30
0.0
 10
4.5184380836
 20
6.0403675695
 30
0.0
 10
4.5185956307
 20
6.0403010541
 30
0.0
 10
4.5187554137
 20
6.0401924924
 30
0.0
 10
4.518918127
 20
6.0400423652
 30
0.0
 10
4.5190843457
 20
6.0398505704
 30
0.0
 10
4.5192543088
 20
6.0396168639
 30
0.0
 10
4.5194281062
 20
6.0393410187
 30
0.0
 10
4.519605738
 20
6.0390228495
 30
0.0
 10
4.5197871876
 20
6.0386622102
 30
0.0
 10
4.5200454515
 20
6.0380997579
 30
0.0
 10
4.5203742407
 20
6.0372868442
 30
0.0
 10
4.5207687156
 20
6.0361773417
 30
0.0
 10
4.5211779741
 20
6.0348938355
 30
0.0
 10
4.5216018657
 20
6.0334344214
 30
0.0
 10
4.5220401156
 20
6.0317967443
 30
0.0
 10
4.5224926152
 20
6.0299782136
 30
0.0
 10
4.5229593754
 20
6.027975851
 30
0.0
 10
4.5234402826
 20
6.0257861001
 30
0.0
 10
4.5241267942
 20
6.0224828282
 30
0.0
 10
4.5250161414
 20
6.01784849
 30
0.0
 10
4.5261028194
 20
6.0116499487
 30
0.0
 10
4.5272445249
 20
6.0045675611
 30
0.0
 10
4.5284387293
 20
5.9965453459
 30
0.0
 10
4.5296838371
 20
5.9875274513
 30
0.0
 10
4.5309744849
 20
5.9774678818
 30
0.0
 10
4.5323001253
 20
5.9663429511
 30
0.0
 10
4.5336468476
 20
5.9541610136
 30
0.0
 10
4.5350028405
 20
5.9409583658
 30
0.0
 10
4.5363441088
 20
5.92678533
 30
0.0
 10
4.5376521056
 20
5.9117019311
 30
0.0
 10
4.5389108442
 20
5.8957767551
 30
0.0
 10
4.5401053798
 20
5.8790857531
 30
0.0
 10
4.541223664
 20
5.8617087982
 30
0.0
 10
4.5422605923
 20
5.8437222557
 30
0.0
 10
4.5432190417
 20
5.8251926068
 30
0.0
 10
4.5440992864
 20
5.8061718994
 30
0.0
 10
4.5448963106
 20
5.786697608
 30
0.0
 10
4.5456053374
 20
5.7667948019
 30
0.0
 10
4.5462223798
 20
5.7464785963
 30
0.0
 10
4.546744635
 20
5.725757816
 30
0.0
 10
4.5471721825
 20
5.7046366744
 30
0.0
 10
4.5475022094
 20
5.6831154207
 30
0.0
 10
4.5477267667
 20
5.6611923013
 30
0.0
 10
4.5477967768
 20
5.6464423195
 30
0.0
 10
4.5478097826
 20
5.6390000706
 30
0.0
  0
SPLINE
  5
2C3
100
AcDbEntity
  8
0
100
AcDbSpline
 62
7
  6
CONTINUOUS
 70
0
 71
3
 72
50
 73
46
 74
0
 42
0.0000001
 43
0.0000001
 44
0.0000000001
 40
0.0
 40
0.0
 40
0.0
 40
0.0
 40
0.0002162109
 40
0.0004358425
 40
0.0009108096
 40
0.0014700188
 40
0.0021398624
 40
0.002935152
 40
0.0038641694
 40
0.0049316121
 40
0.0061401465
 40
0.0074912326
 40
0.0089855791
 40
0.0124043862
 40
0.0163952564
 40
0.0209537391
 40
0.026073891
 40
0.0317488871
 40
0.0379701796
 40
0.0447263473
 40
0.0520053954
 40
0.059795155
 40
0.0680833335
 40
0.0768575491
 40
0.0958141542
 40
0.1165650025
 40
0.1390096949
 40
0.163049075
 40
0.1885847926
 40
0.2155486065
 40
0.2440017533
 40
0.2740402663
 40
0.339284812
 40
0.4121582968
 40
0.4517436303
 40
0.4935801933
 40
0.5377523498
 40
0.5843328108
 40
0.684048986
 40
0.7362054072
 40
0.7892136214
 40
0.8425860428
 40
0.8958361554
 40
0.9484722079
 40
1.0
 40
1.0
 40
1.0
 40
1.0
 10
4.8674123287
 20
6.0392914747
 30
0.0
 10
4.8673838467
 20
6.0392970344
 30
0.0
 10
4.8673252431
 20
6.0393029315
 30
0.0
 10
4.8672028176
 20
6.0392924176
 30
0.0
 10
4.8670421827
 20
6.0392330084
 30
0.0
 10
4.8668540883
 20
6.0391001564
 30
0.0
 10
4.866662244
 20
6.0389063908
 30
0.0
 10
4.8664655957
 20
6.0386515458
 30
0.0
 10
4.8662635802
 20
6.0383355404
 30
0.0
 10
4.8660561894
 20
6.0379583973
 30
0.0
 10
4.8658435088
 20
6.037520313
 30
0.0
 10
4.8656256667
 20
6.0370215777
 30
0.0
 10
4.8653144007
 20
6.0362404133
 30
0.0
 10
4.8649181913
 20
6.0351124142
 30
0.0
 10
4.8644427524
 20
6.0335777891
 30
0.0
 10
4.8639499094
 20
6.0318103084
 30
0.0
 10
4.8634408818
 20
6.029813286
 30
0.0
 10
4.8629169978
 20
6.0275901514
 30
0.0
 10
4.8623795439
 20
6.0251449344
 30
0.0
 10
4.8618297592
 20
6.0224822371
 30
0.0
 10
4.8612689774
 20
6.0196070449
 30
0.0
 10
4.8606985211
 20
6.0165243977
 30
0.0
 10
4.8601196911
 20
6.0132393438
 30
0.0
 10
4.8593176514
 20
6.0084718766
 30
0.0
 10
4.8583072947
 20
6.0020434415
 30
0.0
 10
4.8571106213
 20
5.9937875785
 30
0.0
 10
4.855910966
 20
5.9848433369
 30
0.0
 10
4.8547187151
 20
5.9752506071
 30
0.0
 10
4.8535437466
 20
5.9650449396
 30
0.0
 10
4.8523939181
 20
5.9542404669
 30
0.0
 10
4.851272483
 20
5.9428255854
 30
0.0
 10
4.8497739177
 20
5.9262854921
 30
0.0
 10
4.8479810746
 20
5.9037863534
 30
0.0
 10
4.8463711695
 20
5.8799891669
 30
0.0
 10
4.8451260678
 20
5.8593172569
 30
0.0
 10
4.8441909518
 20
5.8424860915
 30
0.0
 10
4.8432798392
 20
5.8247134395
 30
0.0
 10
4.842071748
 20
5.7991774987
 30
0.0
 10
4.8409626684
 20
5.7725641624
 30
0.0
 10
4.8399923
 20
5.7450823896
 30
0.0
 10
4.8393428079
 20
5.7238135843
 30
0.0
 10
4.838802033
 20
5.7023948798
 30
0.0
 10
4.8383895775
 20
5.6810232425
 30
0.0
 10
4.8381251472
 20
5.6598968412
 30
0.0
 10
4.8380597826
 20
5.6459160604
 30
0.0
 10
4.8380597826
 20
5.6390000706
 30
0.0
  0
SPLINE
  5
2C4
100
AcDbEntity
  8
0
100
AcDbSpline
 62
7
  6
CONTINUOUS
 70
0
 71
3
 72
23
 73
19
 74
0
 42
0.0000001
 43
0.0000001
 44
0.0000000001
 40
0.0
 40
0.0
 40
0.0
 40
0.0
 40
0.0654011685
 40
0.1307113473
 40
0.1958693531
 40
0.260816044
 40
0.3254945274
 40
0.3898503913
 40
0.4538319626
 40
0.5173905938
 40
0.5804697456
 40
0.6429714495
 40
0.7047902303
 40
0.7658249181
 40
0.8259751689
 40
0.885128629
 40
0.9431728008
 40
1.0
 40
1.0
 40
1.0
 40
1.0
 10
4.2647995836
 20
5.2058994777
 30
0.0
 10
4.2676261695
 20
5.1846233817
 30
0.0
 10
4.2735405717
 20
5.1421354672
 30
0.0
 10
4.2832417914
 20
5.0785903999
 30
0.0
 10
4.2938033278
 20
5.0153335186
 30
0.0
 10
4.3052591318
 20
4.9524429374
 30
0.0
 10
4.3176431826
 20
4.8899965915
 30
0.0
 10
4.3309894712
 20
4.8280724462
 30
0.0
 10
4.3453319792
 20
4.7667484362
 30
0.0
 10
4.3607038898
 20
4.7061060699
 30
0.0
 10
4.3771328613
 20
4.6462445512
 30
0.0
 10
4.3946324737
 20
4.5872821126
 30
0.0
 10
4.4132124429
 20
4.5293548266
 30
0.0
 10
4.4328810272
 20
4.4726034556
 30
0.0
 10
4.4536437994
 20
4.4171757282
 30
0.0
 10
4.4754697399
 20
4.363214487
 30
0.0
 10
4.4983255709
 20
4.3108690932
 30
0.0
 10
4.5144077791
 20
4.276766267
 30
0.0
 10
4.5226250461
 20
4.2600249455
 30
0.0
  0
SPLINE
  5
2C5
100
AcDbEntity
  8
0
100
AcDbSpline
 62
7
  6
CONTINUOUS
 70
0
 71
3
 72
15
 73
11
 74
0
 42
0.0000001
 43
0.0000001
 44
0.0000000001
 40
0.0
 40
0.0
 40
0.0
 40
0.0
 40
0.116170212
 40
0.2358633197
 40
0.3585838099
 40
0.4838314259
 40
0.6111026838
 40
0.7398921142
 40
0.8696933307
 40
1.0
 40
1.0
 40
1.0
 40
1.0
 10
4.8380597826
 20
5.6390000389
 30
0.0
 10
4.8324835867
 20
5.6398332855
 30
0.0
 10
4.8211423907
 20
5.6413953393
 30
0.0
 10
4.8038551902
 20
5.6434108906
 30
0.0
 10
4.7860934925
 20
5.645131592
 30
0.0
 10
4.7679364114
 20
5.6465518842
 30
0.0
 10
4.7494629447
 20
5.6476662576
 30
0.0
 10
4.7307521303
 20
5.6484692308
 30
0.0
 10
4.7118831014
 20
5.6489553511
 30
0.0
 10
4.6992589775
 20
5.6490645083
 30
0.0
 10
4.6929347826
 20
5.6490645083
 30
0.0
  0
SPLINE
  5
2C6
100
AcDbEntity
  8
0
100
AcDbSpline
 62
7
  6
CONTINUOUS
 70
0
 71
3
 72
23
 73
19
 74
0
 42
0.0000001
 43
0.0000001
 44
0.0000000001
 40
0.0
 40
0.0
 40
0.0
 40
0.0
 40
0.0654011685
 40
0.1307113473
 40
0.1958693531
 40
0.260816044
 40
0.3254945274
 40
0.3898503913
 40
0.4538319626
 40
0.5173905938
 40
0.5804697456
 40
0.6429714495
 40
0.7047902303
 40
0.7658249181
 40
0.8259751689
 40
0.885128629
 40
0.9431728008
 40
1.0
 40
1.0
 40
1.0
 40
1.0
 10
5.1210699816
 20
5.2058994777
 30
0.0
 10
5.1182433957
 20
5.1846233817
 30
0.0
 10
5.1123289935
 20
5.1421354672
 30
0.0
 10
5.1026277738
 20
5.0785903999
 30
0.0
 10
5.0920662374
 20
5.0153335186
 30
0.0
 10
5.0806104335
 20
4.9524429374
 30
0.0
 10
5.0682263827
 20
4.8899965915
 30
0.0
 10
5.0548800941
 20
4.8280724462
 30
0.0
 10
5.040537586
 20
4.7667484362
 30
0.0
 10
5.0251656755
 20
4.7061060699
 30
0.0
 10
5.0087367039
 20
4.6462445512
 30
0.0
 10
4.9912370916
 20
4.5872821126
 30
0.0
 10
4.9726571223
 20
4.5293548266
 30
0.0
 10
4.952988538
 20
4.4726034556
 30
0.0
 10
4.9322257658
 20
4.4171757282
 30
0.0
 10
4.9103998253
 20
4.363214487
 30
0.0
 10
4.8875439944
 20
4.3108690932
 30
0.0
 10
4.8714617861
 20
4.276766267
 30
0.0
 10
4.8632445191
 20
4.2600249455
 30
0.0
  0
SPLINE
  5
2C7
100
AcDbEntity
  8
0
100
AcDbSpline
 62
7
  6
CONTINUOUS
 70
0
 71
3
 72
15
 73
11
 74
0
 42
0.0000001
 43
0.0000001
 44
0.0000000001
 40
0.0
 40
0.0
 40
0.0
 40
0.0
 40
0.1267675501
 40
0.253200782
 40
0.3791770675
 40
0.5045988548
 40
0.6294029016
 40
0.753560867
 40
0.8770805932
 40
1.0
 40
1.0
 40
1.0
 40
1.0
 10
4.9333691263
 20
6.1145923459
 30
0.0
 10
4.9332733247
 20
6.1155687921
 30
0.0
 10
4.9329687059
 20
6.1175099086
 30
0.0
 10
4.9321797859
 20
6.1203430747
 30
0.0
 10
4.931072204
 20
6.1230566692
 30
0.0
 10
4.9296638891
 20
6.1256125592
 30
0.0
 10
4.9279769123
 20
6.1279764563
 30
0.0
 10
4.9260366431
 20
6.1301175868
 30
0.0
 10
4.9238719334
 20
6.1320087946
 30
0.0
 10
4.9222949402
 20
6.1330907633
 30
0.0
 10
4.9214803488
 20
6.1335822002
 30
0.0
  0
SPLINE
  5
2C8
100
AcDbEntity
  8
0
100
AcDbSpline
 62
7
  6
CONTINUOUS
 70
0
 71
3
 72
16
 73
12
 74
0
 42
0.0000001
 43
0.0000001
 44
0.0000000001
 40
0.0
 40
0.0
 40
0.0
 40
0.0
 40
0.2655310193
 40
0.39548446
 40
0.5227866672
 40
0.6472041125
 40
0.7681900393
 40
0.8271267556
 40
0.8853027895
 40
0.9430482877
 40
1.0
 40
1.0
 40
1.0
 40
1.0
 10
4.8195067379
 20
6.1157483922
 30
0.0
 10
4.8192914941
 20
6.1175650065
 30
0.0
 10
4.8187448168
 20
6.1202523428
 30
0.0
 10
4.817565752
 20
6.1236591567
 30
0.0
 10
4.8164790523
 20
6.1260582875
 30
0.0
 10
4.815190616
 20
6.1282842595
 30
0.0
 10
4.8139596912
 20
6.129986209
 30
0.0
 10
4.8129035652
 20
6.131242067
 30
0.0
 10
4.8120761207
 20
6.1321187318
 30
0.0
 10
4.8112032616
 20
6.1329301013
 30
0.0
 10
4.8105946406
 20
6.1334347143
 30
0.0
 10
4.8102863966
 20
6.1336774688
 30
0.0
  0
LINE
  5
2C9
100
AcDbEntity
  8
0
100
AcDbLine
 62
7
  6
CONTINUOUS
 10
4.8039057146
 20
6.1331169597
 11
4.8036260592
 21
6.1338146501
  0
SPLINE
  5
2CA
100
AcDbEntity
  8
0
100
AcDbSpline
 62
7
  6
CONTINUOUS
 70
0
 71
3
 72
21
 73
17
 74
0
 42
0.0000001
 43
0.0000001
 44
0.0000000001
 40
0.0
 40
0.0
 40
0.0
 40
0.0
 40
0.1463569622
 40
0.2184003878
 40
0.2893979235
 40
0.3591657202
 40
0.4275231329
 40
0.4942886816
 40
0.5592888717
 40
0.6223702994
 40
0.6833875039
 40
0.7422023343
 40
0.7986817547
 40
0.9043278465
 40
0.9534342326
 40
1.0
 40
1.0
 40
1.0
 40
1.0
 10
4.8066458304
 20
6.1152493242
 30
0.0
 10
4.8066224557
 20
6.1161349063
 30
0.0
 10
4.8065699909
 20
6.1174560223
 30
0.0
 10
4.8064679371
 20
6.1192047855
 30
0.0
 10
4.8063755148
 20
6.1204896345
 30
0.0
 10
4.8062648982
 20
6.1217506569
 30
0.0
 10
4.8061358533
 20
6.1229841756
 30
0.0
 10
4.8059898002
 20
6.1241867295
 30
0.0
 10
4.8058274771
 20
6.1253549681
 30
0.0
 10
4.8056483627
 20
6.1264855524
 30
0.0
 10
4.805451999
 20
6.127575247
 30
0.0
 10
4.8052395824
 20
6.1286212123
 30
0.0
 10
4.8049437734
 20
6.1299254352
 30
0.0
 10
4.8046128847
 20
6.1311616586
 30
0.0
 10
4.8042263224
 20
6.1323176473
 30
0.0
 10
4.8040159557
 20
6.1328575528
 30
0.0
 10
4.8039057146
 20
6.1331169597
 30
0.0
  0
SPLINE
  5
2CB
100
AcDbEntity
  8
0
100
AcDbSpline
 62
7
  6
CONTINUOUS
 70
0
 71
3
 72
15
 73
11
 74
0
 42
0.0000001
 43
0.0000001
 44
0.0000000001
 40
0.0
 40
0.0
 40
0.0
 40
0.0
 40
0.1463654584
 40
0.2894115095
 40
0.427540641
 40
0.5593050306
 40
0.6833937442
 40
0.7986933203
 40
0.9043850455
 40
1.0
 40
1.0
 40
1.0
 40
1.0
 10
4.5792237348
 20
6.1152493234
 30
0.0
 10
4.5792466791
 20
6.1161349231
 30
0.0
 10
4.5793143622
 20
6.1178855552
 30
0.0
 10
4.5794842454
 20
6.1204680468
 30
0.0
 10
4.5797213408
 20
6.1229565481
 30
0.0
 10
4.5800250429
 20
6.1253222503
 30
0.0
 10
4.5803945307
 20
6.1275387146
 30
0.0
 10
4.5808293714
 20
6.1295824947
 30
0.0
 10
4.5813336082
 20
6.1314325026
 30
0.0
 10
4.5817425544
 20
6.1325822198
 30
0.0
 10
4.581963849
 20
6.1331169613
 30
0.0
  0
SPLINE
  5
2CC
100
AcDbEntity
  8
0
100
AcDbSpline
 62
7
  6
CONTINUOUS
 70
0
 71
3
 72
15
 73
11
 74
0
 42
0.0000001
 43
0.0000001
 44
0.0000000001
 40
0.0
 40
0.0
 40
0.0
 40
0.0
 40
0.1229194141
 40
0.2464391285
 40
0.3705970855
 40
0.4954011298
 40
0.6208229182
 40
0.7467992079
 40
0.8732324452
 40
1.0
 40
1.0
 40
1.0
 40
1.0
 10
4.464389222
 20
6.1335822023
 30
0.0
 10
4.4635746301
 20
6.1330907652
 30
0.0
 10
4.4619976356
 20
6.1320087969
 30
0.0
 10
4.4598329251
 20
6.1301175882
 30
0.0
 10
4.4578926552
 20
6.127976457
 30
0.0
 10
4.4562056776
 20
6.1256125589
 30
0.0
 10
4.4547973621
 20
6.1230566679
 30
0.0
 10
4.4536897796
 20
6.1203430721
 30
0.0
 10
4.4529008591
 20
6.1175099047
 30
0.0
 10
4.45259624
 20
6.1155687872
 30
0.0
 10
4.4525004384
 20
6.1145923406
 30
0.0
  0
SPLINE
  5
2CD
100
AcDbEntity
  8
0
100
AcDbSpline
 62
7
  6
CONTINUOUS
 70
0
 71
3
 72
14
 73
10
 74
0
 42
0.0000001
 43
0.0000001
 44
0.0000000001
 40
0.0
 40
0.0
 40
0.0
 40
0.0
 40
0.2655184034
 40
0.3954869211
 40
0.5227460855
 40
0.6469019886
 40
0.7677454601
 40
0.8853599744
 40
1.0
 40
1.0
 40
1.0
 40
1.0
 10
4.5663628271
 20
6.1157483905
 30
0.0
 10
4.5665776488
 20
6.1175628033
 30
0.0
 10
4.5671239587
 20
6.1202469939
 30
0.0
 10
4.5683022808
 20
6.123649297
 30
0.0
 10
4.5693855803
 20
6.1260441584
 30
0.0
 10
4.570662103
 20
6.1282696829
 30
0.0
 10
4.5721186193
 20
6.1303013888
 30
0.0
 10
4.5737428509
 20
6.1321149676
 30
0.0
 10
4.5749430745
 20
6.1331769844
 30
0.0
 10
4.575564493
 20
6.1336629277
 30
0.0
  0
SPLINE
  5
2CE
100
AcDbEntity
  8
0
100
AcDbSpline
 62
7
  6
CONTINUOUS
 70
0
 71
3
 72
35
 73
31
 74
0
 42
0.0000001
 43
0.0000001
 44
0.0000000001
 40
0.0
 40
0.0
 40
0.0
 40
0.0
 40
0.0964009821
 40
0.1869568119
 40
0.2716095817
 40
0.3117188418
 40
0.350351045
 40
0.38751147
 40
0.4232087423
 40
0.4574565382
 40
0.4902753706
 40
0.521692227
 40
0.5517426889
 40
0.5804742044
 40
0.6079462273
 40
0.6342333111
 40
0.6594300616
 40
0.707002412
 40
0.7297142197
 40
0.7519448776
 40
0.7739100426
 40
0.7958478736
 40
0.8180086323
 40
0.8406504388
 40
0.8640293698
 40
0.8883906765
 40
0.9139668111
 40
0.9409706789
 40
0.9695925223
 40
1.0
 40
1.0
 40
1.0
 40
1.0
 10
5.1857898399
 20
1.8251923129
 30
0.0
 10
5.1888349202
 20
1.8251923129
 30
0.0
 10
5.1947407404
 20
1.8252538167
 30
0.0
 10
5.203315915
 20
1.8255531733
 30
0.0
 10
5.2101048939
 20
1.8259842118
 30
0.0
 10
5.2152457214
 20
1.8264456234
 30
0.0
 10
5.2188855366
 20
1.8268418113
 30
0.0
 10
5.2223780772
 20
1.8272963049
 30
0.0
 10
5.2257222587
 20
1.8278109509
 30
0.0
 10
5.2289170611
 20
1.8283878895
 30
0.0
 10
5.2319614569
 20
1.8290299074
 30
0.0
 10
5.2348545345
 20
1.829739692
 30
0.0
 10
5.2375954765
 20
1.8305201415
 30
0.0
 10
5.2401834298
 20
1.8313749199
 30
0.0
 10
5.2426175564
 20
1.8323075923
 30
0.0
 10
5.2448975314
 20
1.833322226
 30
0.0
 10
5.2476766367
 20
1.8347621549
 30
0.0
 10
5.250217459
 20
1.8364112751
 30
0.0
 10
5.2524577907
 20
1.8382924
 30
0.0
 10
5.2539544085
 20
1.8397887572
 30
0.0
 10
5.2552917918
 20
1.8413975074
 30
0.0
 10
5.2564692081
 20
1.8431242901
 30
0.0
 10
5.2574861304
 20
1.8449746251
 30
0.0
 10
5.258342494
 20
1.8469540837
 30
0.0
 10
5.2590387689
 20
1.8490684252
 30
0.0
 10
5.2595757221
 20
1.8513238049
 30
0.0
 10
5.2599548124
 20
1.8537266572
 30
0.0
 10
5.2601774859
 20
1.856283808
 30
0.0
 10
5.2602456614
 20
1.8590020021
 30
0.0
 10
5.2601914015
 20
1.8608667346
 30
0.0
 10
5.2601415103
 20
1.8618259387
 30
0.0
  0
SPLINE
  5
2CF
100
AcDbEntity
  8
0
100
AcDbSpline
 62
7
  6
CONTINUOUS
 70
0
 71
3
 72
35
 73
31
 74
0
 42
0.0000001
 43
0.0000001
 44
0.0000000001
 40
0.0
 40
0.0
 40
0.0
 40
0.0
 40
0.096400979
 40
0.1869567992
 40
0.2716095635
 40
0.3117188225
 40
0.3503510258
 40
0.3875114509
 40
0.4232087219
 40
0.4574565179
 40
0.4902753516
 40
0.5216922083
 40
0.5517426723
 40
0.5804741916
 40
0.6079462165
 40
0.6342333022
 40
0.6594300551
 40
0.707002408
 40
0.7297142175
 40
0.7519448766
 40
0.7739100421
 40
0.7958478735
 40
0.8180086326
 40
0.8406504393
 40
0.8640293707
 40
0.8883906775
 40
0.9139668117
 40
0.9409706791
 40
0.9695925223
 40
1.0
 40
1.0
 40
1.0
 40
1.0
 10
4.2000797253
 20
1.8251923129
 30
0.0
 10
4.1970346451
 20
1.8251923129
 30
0.0
 10
4.1911288254
 20
1.8252538169
 30
0.0
 10
4.1825536513
 20
1.825553173
 30
0.0
 10
4.1757646729
 20
1.825984212
 30
0.0
 10
4.1706238456
 20
1.8264456231
 30
0.0
 10
4.1669840304
 20
1.8268418111
 30
0.0
 10
4.1634914899
 20
1.8272963049
 30
0.0
 10
4.1601473084
 20
1.8278109504
 30
0.0
 10
4.1569525059
 20
1.8283878891
 30
0.0
 10
4.1539081101
 20
1.8290299073
 30
0.0
 10
4.1510150323
 20
1.8297396915
 30
0.0
 10
4.1482740901
 20
1.8305201409
 30
0.0
 10
4.1456861366
 20
1.8313749196
 30
0.0
 10
4.1432520098
 20
1.8323075919
 30
0.0
 10
4.1409720345
 20
1.8333222255
 30
0.0
 10
4.1381929291
 20
1.8347621546
 30
0.0
 10
4.1356521065
 20
1.8364112748
 30
0.0
 10
4.1334117747
 20
1.8382923998
 30
0.0
 10
4.1319151567
 20
1.8397887571
 30
0.0
 10
4.1305777735
 20
1.8413975074
 30
0.0
 10
4.1294003571
 20
1.8431242901
 30
0.0
 10
4.1283834348
 20
1.8449746251
 30
0.0
 10
4.1275270712
 20
1.8469540837
 30
0.0
 10
4.1268307963
 20
1.8490684253
 30
0.0
 10
4.1262938431
 20
1.851323805
 30
0.0
 10
4.1259147528
 20
1.8537266572
 30
0.0
 10
4.1256920793
 20
1.856283808
 30
0.0
 10
4.1256239039
 20
1.8590020021
 30
0.0
 10
4.1256781637
 20
1.8608667346
 30
0.0
 10
4.1257280549
 20
1.8618259387
 30
0.0
  0
SPLINE
  5
2D0
100
AcDbEntity
  8
0
100
AcDbSpline
 62
7
  6
CONTINUOUS
 70
0
 71
3
 72
47
 73
43
 74
0
 42
0.0000001
 43
0.0000001
 44
0.0000000001
 40
0.0
 40
0.0
 40
0.0
 40
0.0
 40
0.015337055
 40
0.0306792027
 40
0.0460256251
 40
0.0613803226
 40
0.0921161364
 40
0.1229158213
 40
0.1383500783
 40
0.1538065483
 40
0.1692868785
 40
0.1847924723
 40
0.2158742828
 40
0.2470677455
 40
0.2783746293
 40
0.3097923671
 40
0.3413141645
 40
0.3729293218
 40
0.4046236615
 40
0.4363800682
 40
0.4681791659
 40
0.5
 40
0.5318208341
 40
0.5636199318
 40
0.5953763385
 40
0.6270706782
 40
0.6586858355
 40
0.6902076329
 40
0.7216253707
 40
0.7529322545
 40
0.7841257172
 40
0.8152075277
 40
0.8307131215
 40
0.8461934517
 40
0.8616499217
 40
0.8770841787
 40
0.9078838636
 40
0.9386196774
 40
0.9539743749
 40
0.9693207973
 40
0.984662945
 40
1.0
 40
1.0
 40
1.0
 40
1.0
 10
4.8109347826
 20
6.7343432982
 30
0.0
 10
4.8109347826
 20
6.7324830142
 30
0.0
 10
4.8108399093
 20
6.7287611281
 30
0.0
 10
4.8104136899
 20
6.7231925433
 30
0.0
 10
4.8097042378
 20
6.7176504736
 30
0.0
 10
4.8083830916
 20
6.7103139099
 30
0.0
 10
4.8060319487
 20
6.701271209
 30
0.0
 10
4.8027750436
 20
6.6925037742
 30
0.0
 10
4.7996465919
 20
6.6857036185
 30
0.0
 10
4.7970412043
 20
6.6807161911
 30
0.0
 10
4.7941849068
 20
6.675858063
 30
0.0
 10
4.7900488933
 20
6.6695644876
 30
0.0
 10
4.7842832402
 20
6.6620756458
 30
0.0
 10
4.7764926402
 20
6.6537957777
 30
0.0
 10
4.7678976184
 20
6.6462916524
 30
0.0
 10
4.7585814638
 20
6.6396359746
 30
0.0
 10
4.7486338388
 20
6.6338924615
 30
0.0
 10
4.7381505657
 20
6.6291162553
 30
0.0
 10
4.727232536
 20
6.6253531178
 30
0.0
 10
4.7159847751
 20
6.622639109
 30
0.0
 10
4.7045154381
 20
6.6210002284
 30
0.0
 10
4.6929347826
 20
6.6204521805
 30
0.0
 10
4.6813541271
 20
6.6210002284
 30
0.0
 10
4.6698847901
 20
6.622639109
 30
0.0
 10
4.6586370292
 20
6.6253531178
 30
0.0
 10
4.6477189995
 20
6.6291162553
 30
0.0
 10
4.6372357264
 20
6.6338924615
 30
0.0
 10
4.6272881015
 20
6.6396359746
 30
0.0
 10
4.6179719468
 20
6.6462916524
 30
0.0
 10
4.6093769251
 20
6.6537957777
 30
0.0
 10
4.601586325
 20
6.6620756458
 30
0.0
 10
4.5958206719
 20
6.6695644876
 30
0.0
 10
4.5916846584
 20
6.675858063
 30
0.0
 10
4.5888283609
 20
6.6807161911
 30
0.0
 10
4.5862229733
 20
6.6857036185
 30
0.0
 10
4.5830945216
 20
6.6925037742
 30
0.0
 10
4.5798376165
 20
6.701271209
 30
0.0
 10
4.5774864736
 20
6.7103139099
 30
0.0
 10
4.5761653274
 20
6.7176504736
 30
0.0
 10
4.5754558753
 20
6.7231925433
 30
0.0
 10
4.5750296559
 20
6.7287611281
 30
0.0
 10
4.5749347826
 20
6.7324830142
 30
0.0
 10
4.5749347826
 20
6.7343432982
 30
0.0
  0
SPLINE
  5
2D1
100
AcDbEntity
  8
0
100
AcDbSpline
 62
7
  6
CONTINUOUS
 70
0
 71
3
 72
47
 73
43
 74
0
 42
0.0000001
 43
0.0000001
 44
0.0000000001
 40
0.0
 40
0.0
 40
0.0
 40
0.0
 40
0.015337055
 40
0.0306792027
 40
0.0460256251
 40
0.0613803226
 40
0.0921161364
 40
0.1229158213
 40
0.1383500783
 40
0.1538065483
 40
0.1692868785
 40
0.1847924723
 40
0.2158742828
 40
0.2470677455
 40
0.2783746293
 40
0.3097923671
 40
0.3413141645
 40
0.3729293218
 40
0.4046236615
 40
0.4363800682
 40
0.4681791659
 40
0.5
 40
0.5318208341
 40
0.5636199318
 40
0.5953763385
 40
0.6270706782
 40
0.6586858355
 40
0.6902076329
 40
0.7216253707
 40
0.7529322545
 40
0.7841257172
 40
0.8152075277
 40
0.8307131215
 40
0.8461934517
 40
0.8616499217
 40
0.8770841787
 40
0.9078838636
 40
0.9386196774
 40
0.9539743749
 40
0.9693207973
 40
0.984662945
 40
1.0
 40
1.0
 40
1.0
 40
1.0
 10
4.8109347826
 20
6.7343432982
 30
0.0
 10
4.8109347826
 20
6.7362035822
 30
0.0
 10
4.8108399093
 20
6.7399254682
 30
0.0
 10
4.8104136899
 20
6.7454940531
 30
0.0
 10
4.8097042378
 20
6.7510361228
 30
0.0
 10
4.8083830916
 20
6.7583726865
 30
0.0
 10
4.8060319487
 20
6.7674153874
 30
0.0
 10
4.8027750436
 20
6.7761828222
 30
0.0
 10
4.7996465919
 20
6.7829829779
 30
0.0
 10
4.7970412043
 20
6.7879704053
 30
0.0
 10
4.7941849068
 20
6.7928285334
 30
0.0
 10
4.7900488933
 20
6.7991221088
 30
0.0
 10
4.7842832402
 20
6.8066109506
 30
0.0
 10
4.7764926402
 20
6.8148908186
 30
0.0
 10
4.7678976184
 20
6.822394944
 30
0.0
 10
4.7585814638
 20
6.8290506218
 30
0.0
 10
4.7486338388
 20
6.8347941349
 30
0.0
 10
4.7381505657
 20
6.8395703411
 30
0.0
 10
4.727232536
 20
6.8433334786
 30
0.0
 10
4.7159847751
 20
6.8460474874
 30
0.0
 10
4.7045154381
 20
6.847686368
 30
0.0
 10
4.6929347826
 20
6.8482344159
 30
0.0
 10
4.6813541271
 20
6.847686368
 30
0.0
 10
4.6698847901
 20
6.8460474874
 30
0.0
 10
4.6586370292
 20
6.8433334786
 30
0.0
 10
4.6477189995
 20
6.8395703411
 30
0.0
 10
4.6372357264
 20
6.8347941349
 30
0.0
 10
4.6272881015
 20
6.8290506218
 30
0.0
 10
4.6179719468
 20
6.822394944
 30
0.0
 10
4.6093769251
 20
6.8148908186
 30
0.0
 10
4.601586325
 20
6.8066109506
 30
0.0
 10
4.5958206719
 20
6.7991221088
 30
0.0
 10
4.5916846584
 20
6.7928285334
 30
0.0
 10
4.5888283609
 20
6.7879704053
 30
0.0
 10
4.5862229733
 20
6.7829829779
 30
0.0
 10
4.5830945216
 20
6.7761828222
 30
0.0
 10
4.5798376165
 20
6.7674153874
 30
0.0
 10
4.5774864736
 20
6.7583726865
 30
0.0
 10
4.5761653274
 20
6.7510361228
 30
0.0
 10
4.5754558753
 20
6.7454940531
 30
0.0
 10
4.5750296559
 20
6.7399254682
 30
0.0
 10
4.5749347826
 20
6.7362035822
 30
0.0
 10
4.5749347826
 20
6.7343432982
 30
0.0
  0
SPLINE
  5
2D2
100
AcDbEntity
  8
0
100
AcDbSpline
 62
7
  6
CONTINUOUS
 70
0
 71
3
 72
39
 73
35
 74
0
 42
0.0000001
 43
0.0000001
 44
0.0000000001
 40
0.0
 40
0.0
 40
0.0
 40
0.0
 40
0.0306716207
 40
0.0613652677
 40
0.0921034525
 40
0.1229055773
 40
0.1537889861
 40
0.1847676928
 40
0.2158519467
 40
0.2470478596
 40
0.2783572083
 40
0.3097774141
 40
0.3413016894
 40
0.372919333
 40
0.404616162
 40
0.436375068
 40
0.4681766635
 40
0.5
 40
0.5318233365
 40
0.563624932
 40
0.595383838
 40
0.627080667
 40
0.6586983106
 40
0.6902225859
 40
0.7216427917
 40
0.7529521404
 40
0.7841480533
 40
0.8152323072
 40
0.8462110139
 40
0.8770944227
 40
0.9078965475
 40
0.9386347323
 40
0.9693283793
 40
1.0
 40
1.0
 40
1.0
 40
1.0
 10
4.8406847826
 20
6.7343432982
 30
0.0
 10
4.8406847826
 20
6.7296854493
 30
0.0
 10
4.8402093169
 20
6.7203594397
 30
0.0
 10
4.8380768032
 20
6.706512711
 30
0.0
 10
4.8345457268
 20
6.6929331227
 30
0.0
 10
4.8296501686
 20
6.6797535306
 30
0.0
 10
4.8234376041
 20
6.6671005478
 30
0.0
 10
4.8159681892
 20
6.6550961959
 30
0.0
 10
4.8073141542
 20
6.6438560065
 30
0.0
 10
4.7975590832
 20
6.6334881405
 30
0.0
 10
4.7867971703
 20
6.6240922264
 30
0.0
 10
4.7751322168
 20
6.6157584904
 30
0.0
 10
4.7626766162
 20
6.608566937
 30
0.0
 10
4.7495503103
 20
6.6025865605
 30
0.0
 10
4.7358796442
 20
6.5978746572
 30
0.0
 10
4.7217961148
 20
6.5944763807
 30
0.0
 10
4.7074351387
 20
6.5924243269
 30
0.0
 10
4.6929347826
 20
6.5917381257
 30
0.0
 10
4.6784344265
 20
6.5924243269
 30
0.0
 10
4.6640734504
 20
6.5944763807
 30
0.0
 10
4.649989921
 20
6.5978746572
 30
0.0
 10
4.6363192549
 20
6.6025865605
 30
0.0
 10
4.623192949
 20
6.608566937
 30
0.0
 10
4.6107373485
 20
6.6157584904
 30
0.0
 10
4.5990723949
 20
6.6240922264
 30
0.0
 10
4.588310482
 20
6.6334881405
 30
0.0
 10
4.578555411
 20
6.6438560065
 30
0.0
 10
4.5699013761
 20
6.6550961959
 30
0.0
 10
4.5624319611
 20
6.6671005478
 30
0.0
 10
4.5562193966
 20
6.6797535306
 30
0.0
 10
4.5513238384
 20
6.6929331227
 30
0.0
 10
4.547792762
 20
6.706512711
 30
0.0
 10
4.5456602484
 20
6.7203594397
 30
0.0
 10
4.5451847826
 20
6.7296854493
 30
0.0
 10
4.5451847826
 20
6.7343432982
 30
0.0
  0
SPLINE
  5
2D3
100
AcDbEntity
  8
0
100
AcDbSpline
 62
7
  6
CONTINUOUS
 70
0
 71
3
 72
39
 73
35
 74
0
 42
0.0000001
 43
0.0000001
 44
0.0000000001
 40
0.0
 40
0.0
 40
0.0
 40
0.0
 40
0.0306716207
 40
0.0613652677
 40
0.0921034525
 40
0.1229055773
 40
0.1537889861
 40
0.1847676928
 40
0.2158519467
 40
0.2470478596
 40
0.2783572083
 40
0.3097774141
 40
0.3413016894
 40
0.372919333
 40
0.404616162
 40
0.436375068
 40
0.4681766635
 40
0.5
 40
0.5318233365
 40
0.563624932
 40
0.595383838
 40
0.627080667
 40
0.6586983106
 40
0.6902225859
 40
0.7216427917
 40
0.7529521404
 40
0.7841480533
 40
0.8152323072
 40
0.8462110139
 40
0.8770944227
 40
0.9078965475
 40
0.9386347323
 40
0.9693283793
 40
1.0
 40
1.0
 40
1.0
 40
1.0
 10
4.8406847826
 20
6.7343432982
 30
0.0
 10
4.8406847826
 20
6.7390011471
 30
0.0
 10
4.8402093169
 20
6.7483271567
 30
0.0
 10
4.8380768032
 20
6.7621738854
 30
0.0
 10
4.8345457268
 20
6.7757534737
 30
0.0
 10
4.8296501686
 20
6.7889330658
 30
0.0
 10
4.8234376041
 20
6.8015860485
 30
0.0
 10
4.8159681892
 20
6.8135904004
 30
0.0
 10
4.8073141542
 20
6.8248305899
 30
0.0
 10
4.7975590832
 20
6.8351984559
 30
0.0
 10
4.7867971703
 20
6.84459437
 30
0.0
 10
4.7751322168
 20
6.852928106
 30
0.0
 10
4.7626766162
 20
6.8601196593
 30
0.0
 10
4.7495503103
 20
6.8661000358
 30
0.0
 10
4.7358796442
 20
6.8708119392
 30
0.0
 10
4.7217961148
 20
6.8742102156
 30
0.0
 10
4.7074351387
 20
6.8762622695
 30
0.0
 10
4.6929347826
 20
6.8769484707
 30
0.0
 10
4.6784344265
 20
6.8762622695
 30
0.0
 10
4.6640734504
 20
6.8742102156
 30
0.0
 10
4.649989921
 20
6.8708119392
 30
0.0
 10
4.6363192549
 20
6.8661000358
 30
0.0
 10
4.623192949
 20
6.8601196593
 30
0.0
 10
4.6107373485
 20
6.852928106
 30
0.0
 10
4.5990723949
 20
6.84459437
 30
0.0
 10
4.588310482
 20
6.8351984559
 30
0.0
 10
4.578555411
 20
6.8248305899
 30
0.0
 10
4.5699013761
 20
6.8135904004
 30
0.0
 10
4.5624319611
 20
6.8015860485
 30
0.0
 10
4.5562193966
 20
6.7889330658
 30
0.0
 10
4.5513238384
 20
6.7757534737
 30
0.0
 10
4.547792762
 20
6.7621738854
 30
0.0
 10
4.5456602484
 20
6.7483271567
 30
0.0
 10
4.5451847826
 20
6.7390011471
 30
0.0
 10
4.5451847826
 20
6.7343432982
 30
0.0
  0
SPLINE
  5
2D4
100
AcDbEntity
  8
0
100
AcDbSpline
 62
7
  6
CONTINUOUS
 70
0
 71
3
 72
36
 73
32
 74
0
 42
0.0000001
 43
0.0000001
 44
0.0000000001
 40
0.0
 40
0.0
 40
0.0
 40
0.0
 40
0.0219005893
 40
0.044493
 40
0.0919152474
 40
0.1168205067
 40
0.142540492
 40
0.1690850966
 40
0.196448138
 40
0.224605344
 40
0.2535208203
 40
0.2831536377
 40
0.313458278
 40
0.3443879467
 40
0.3758959871
 40
0.4079368341
 40
0.4404657705
 40
0.4734391572
 40
0.5068160888
 40
0.5405572654
 40
0.5746274222
 40
0.643625164
 40
0.7135930854
 40
0.7488851633
 40
0.7843555745
 40
0.8199852733
 40
0.8557582433
 40
0.8916614116
 40
0.927680951
 40
0.9638000151
 40
1.0
 40
1.0
 40
1.0
 40
1.0
 10
4.9826447379
 20
5.6794016357
 30
0.0
 10
4.9855199075
 20
5.6770840028
 30
0.0
 10
4.9912180917
 20
5.6721950807
 30
0.0
 10
5.0023763542
 20
5.6614282361
 30
0.0
 10
5.0129237667
 20
5.6493400847
 30
0.0
 10
5.0228359589
 20
5.6361026919
 30
0.0
 10
5.0301304473
 20
5.6253203457
 30
0.0
 10
5.0371414691
 20
5.6138640061
 30
0.0
 10
5.0438542412
 20
5.6017585329
 30
0.0
 10
5.0502604947
 20
5.5890394212
 30
0.0
 10
5.0563558179
 20
5.5757466102
 30
0.0
 10
5.0621367238
 20
5.561921153
 30
0.0
 10
5.0676038882
 20
5.5476048526
 30
0.0
 10
5.0727592387
 20
5.5328382911
 30
0.0
 10
5.0776061244
 20
5.5176602604
 30
0.0
 10
5.082149371
 20
5.5021076678
 30
0.0
 10
5.0863953324
 20
5.4862155969
 30
0.0
 10
5.0903518517
 20
5.4700171612
 30
0.0
 10
5.0940277989
 20
5.4535434138
 30
0.0
 10
5.0974328255
 20
5.4368228611
 30
0.0
 10
5.1016423303
 20
5.4141398701
 30
0.0
 10
5.106263644
 20
5.3853250743
 30
0.0
 10
5.110079694
 20
5.3561860584
 30
0.0
 10
5.1127024184
 20
5.3326003774
 30
0.0
 10
5.1144653021
 20
5.3147464475
 30
0.0
 10
5.1160276774
 20
5.2967925343
 30
0.0
 10
5.1173966918
 20
5.2787496805
 30
0.0
 10
5.1185778775
 20
5.2606277041
 30
0.0
 10
5.1195764511
 20
5.2424363383
 30
0.0
 10
5.1204088086
 20
5.2241865789
 30
0.0
 10
5.1208641338
 20
5.2120001994
 30
0.0
 10
5.1210699816
 20
5.2058994777
 30
0.0
  0
SPLINE
  5
2D5
100
AcDbEntity
  8
0
100
AcDbSpline
 62
7
  6
CONTINUOUS
 70
0
 71
3
 72
11
 73
7
 74
0
 42
0.0000001
 43
0.0000001
 44
0.0000000001
 40
0.0
 40
0.0
 40
0.0
 40
0.0
 40
0.23611425
 40
0.4812427742
 40
0.735906117
 40
1.0
 40
1.0
 40
1.0
 40
1.0
 10
4.5758885216
 20
6.1339660507
 30
0.0
 10
4.5763777762
 20
6.1340934242
 30
0.0
 10
4.5773960196
 20
6.1342772335
 30
0.0
 10
4.5789749735
 20
6.1343393039
 30
0.0
 10
4.5806081407
 20
6.1341928802
 30
0.0
 10
4.5816975593
 20
6.1339619687
 30
0.0
 10
4.582243501
 20
6.1338146365
 30
0.0
  0
SPLINE
  5
2D6
100
AcDbEntity
  8
0
100
AcDbSpline
 62
7
  6
CONTINUOUS
 70
0
 71
3
 72
11
 73
7
 74
0
 42
0.0000001
 43
0.0000001
 44
0.0000000001
 40
0.0
 40
0.0
 40
0.0
 40
0.0
 40
0.2316761376
 40
0.4752110042
 40
0.7313725918
 40
1.0
 40
1.0
 40
1.0
 40
1.0
 10
4.5755644935
 20
6.1336629278
 30
0.0
 10
4.576054481
 20
6.1337714662
 30
0.0
 10
4.5770799839
 20
6.1339084371
 30
0.0
 10
4.5786691658
 20
6.1338787254
 30
0.0
 10
4.5803181092
 20
6.1336210428
 30
0.0
 10
4.5814140478
 20
6.133307596
 30
0.0
 10
4.5819638488
 20
6.1331169706
 30
0.0
  0
SPLINE
  5
2D7
100
AcDbEntity
  8
0
100
AcDbSpline
 62
7
  6
CONTINUOUS
 70
0
 71
3
 72
14
 73
10
 74
0
 42
0.0000001
 43
0.0000001
 44
0.0000000001
 40
0.0
 40
0.0
 40
0.0
 40
0.0
 40
0.0846462511
 40
0.1845550973
 40
0.2981435974
 40
0.423566648
 40
0.5587626874
 40
0.7014956939
 40
1.0
 40
1.0
 40
1.0
 40
1.0
 10
4.5663628355
 20
6.1157483892
 30
0.0
 10
4.5667251829
 20
6.1157773697
 30
0.0
 10
4.5675169669
 20
6.1158185493
 30
0.0
 10
4.5687972673
 20
6.115840752
 30
0.0
 10
4.5702528124
 20
6.1158276118
 30
0.0
 10
4.5718591699
 20
6.1157791143
 30
0.0
 10
4.5735894092
 20
6.1156958824
 30
0.0
 10
4.5760598613
 20
6.1155378577
 30
0.0
 10
4.5779480866
 20
6.1153757282
 30
0.0
 10
4.5792237348
 20
6.1152493233
 30
0.0
  0
SPLINE
  5
2D8
100
AcDbEntity
  8
0
100
AcDbSpline
 62
7
  6
CONTINUOUS
 70
0
 71
3
 72
14
 73
10
 74
0
 42
0.0000001
 43
0.0000001
 44
0.0000000001
 40
0.0
 40
0.0
 40
0.0
 40
0.0
 40
0.084762684
 40
0.1847723244
 40
0.2984379073
 40
0.423905373
 40
0.5591036865
 40
0.7017871957
 40
1.0
 40
1.0
 40
1.0
 40
1.0
 10
4.5662794181
 20
6.1149254129
 30
0.0
 10
4.5666421732
 20
6.1149688188
 30
0.0
 10
4.5674355726
 20
6.1150413484
 30
0.0
 10
4.5687199971
 20
6.1151138775
 30
0.0
 10
4.5701812581
 20
6.1151576153
 30
0.0
 10
4.5717947301
 20
6.1151715871
 30
0.0
 10
4.5735332519
 20
6.1151553663
 30
0.0
 10
4.5760156036
 20
6.1150926873
 30
0.0
 10
4.5779141652
 20
6.1150030618
 30
0.0
 10
4.5791971724
 20
6.1149254583
 30
0.0
  0
SPLINE
  5
2D9
100
AcDbEntity
  8
0
100
AcDbSpline
 62
7
  6
CONTINUOUS
 70
0
 71
3
 72
11
 73
7
 74
0
 42
0.0000001
 43
0.0000001
 44
0.0000000001
 40
0.0
 40
0.0
 40
0.0
 40
0.0
 40
0.2640938785
 40
0.5187572311
 40
0.763885744
 40
1.0
 40
1.0
 40
1.0
 40
1.0
 10
4.8036260624
 20
6.1338146372
 30
0.0
 10
4.8041720041
 20
6.1339619696
 30
0.0
 10
4.8052614228
 20
6.1341928811
 30
0.0
 10
4.80689459
 20
6.1343393048
 30
0.0
 10
4.808473544
 20
6.1342772347
 30
0.0
 10
4.8094917875
 20
6.1340934254
 30
0.0
 10
4.8099810421
 20
6.133966052
 30
0.0
  0
SPLINE
  5
2DA
100
AcDbEntity
  8
0
100
AcDbSpline
 62
7
  6
CONTINUOUS
 70
0
 71
3
 72
11
 73
7
 74
0
 42
0.0000001
 43
0.0000001
 44
0.0000000001
 40
0.0
 40
0.0
 40
0.0
 40
0.0
 40
0.2686275096
 40
0.52478852
 40
0.7683236084
 40
1.0
 40
1.0
 40
1.0
 40
1.0
 10
4.8039057154
 20
6.1331169961
 30
0.0
 10
4.8044555183
 20
6.1333076154
 30
0.0
 10
4.8055514572
 20
6.1336210524
 30
0.0
 10
4.807200399
 20
6.1338787341
 30
0.0
 10
4.8087895797
 20
6.1339084368
 30
0.0
 10
4.8098150825
 20
6.1337714654
 30
0.0
 10
4.8103050702
 20
6.1336629273
 30
0.0
  0
SPLINE
  5
2DB
100
AcDbEntity
  8
0
100
AcDbSpline
 62
7
  6
CONTINUOUS
 70
0
 71
3
 72
14
 73
10
 74
0
 42
0.0000001
 43
0.0000001
 44
0.0000000001
 40
0.0
 40
0.0
 40
0.0
 40
0.0
 40
0.2985263663
 40
0.4412658373
 40
0.5764640007
 40
0.7018845821
 40
0.8154664119
 40
0.9153653809
 40
1.0
 40
1.0
 40
1.0
 40
1.0
 10
4.8066458304
 20
6.1152491297
 30
0.0
 10
4.80792123
 20
6.1153755014
 30
0.0
 10
4.8098090703
 20
6.1155375813
 30
0.0
 10
4.8122789904
 20
6.115695538
 30
0.0
 10
4.8140087914
 20
6.1157787183
 30
0.0
 10
4.8156146873
 20
6.115827166
 30
0.0
 10
4.8170697591
 20
6.1158402609
 30
0.0
 10
4.8183495929
 20
6.1158180202
 30
0.0
 10
4.8191410697
 20
6.1157768204
 30
0.0
 10
4.8195032682
 20
6.115747832
 30
0.0
  0
SPLINE
  5
2DC
100
AcDbEntity
  8
0
100
AcDbSpline
 62
7
  6
CONTINUOUS
 70
0
 71
3
 72
14
 73
10
 74
0
 42
0.0000001
 43
0.0000001
 44
0.0000000001
 40
0.0
 40
0.0
 40
0.0
 40
0.0
 40
0.2982097981
 40
0.4408924627
 40
0.5760905114
 40
0.7015583155
 40
0.8152247897
 40
0.9152357515
 40
1.0
 40
1.0
 40
1.0
 40
1.0
 10
4.8066723928
 20
6.1149254582
 30
0.0
 10
4.8079554153
 20
6.11500305
 30
0.0
 10
4.8098540014
 20
6.1150926632
 30
0.0
 10
4.8123363885
 20
6.1151553376
 30
0.0
 10
4.8140749442
 20
6.1151715608
 30
0.0
 10
4.8156884548
 20
6.1151575966
 30
0.0
 10
4.8171497585
 20
6.1151138714
 30
0.0
 10
4.8184342277
 20
6.1150413591
 30
0.0
 10
4.8192276579
 20
6.1149688446
 30
0.0
 10
4.8195904287
 20
6.1149254473
 30
0.0
  0
SPLINE
  5
2DD
100
AcDbEntity
  8
0
100
AcDbSpline
 62
7
  6
CONTINUOUS
 70
0
 71
3
 72
15
 73
11
 74
0
 42
0.0000001
 43
0.0000001
 44
0.0000000001
 40
0.0
 40
0.0
 40
0.0
 40
0.0
 40
0.1303066693
 40
0.2601078858
 40
0.3888973162
 40
0.5161685741
 40
0.6414161901
 40
0.7641366803
 40
0.883829788
 40
1.0
 40
1.0
 40
1.0
 40
1.0
 10
4.6929347826
 20
5.6490645085
 30
0.0
 10
4.6866105877
 20
5.6490645085
 30
0.0
 10
4.6739864638
 20
5.6489553513
 30
0.0
 10
4.6551174349
 20
5.6484692309
 30
0.0
 10
4.6364066205
 20
5.6476662577
 30
0.0
 10
4.6179331538
 20
5.6465518843
 30
0.0
 10
4.5997760727
 20
5.6451315922
 30
0.0
 10
4.582014375
 20
5.6434108908
 30
0.0
 10
4.5647271746
 20
5.6413953395
 30
0.0
 10
4.5533859785
 20
5.6398332857
 30
0.0
 10
4.5478097826
 20
5.639000039
 30
0.0
  0
SPLINE
  5
2DE
100
AcDbEntity
  8
0
100
AcDbSpline
 62
7
  6
CONTINUOUS
 70
0
 71
3
 72
29
 73
25
 74
0
 42
0.0000001
 43
0.0000001
 44
0.0000000001
 40
0.0
 40
0.0
 40
0.0
 40
0.0
 40
0.0189983534
 40
0.038419438
 40
0.0585018045
 40
0.0794600959
 40
0.1014651177
 40
0.1246439718
 40
0.1490838179
 40
0.1748366095
 40
0.201921763
 40
0.2303313207
 40
0.2600340918
 40
0.2909777842
 40
0.3562788676
 40
0.4255354979
 40
0.4978518981
 40
0.5722113028
 40
0.6475214545
 40
0.7226561974
 40
0.7964954586
 40
0.8679664926
 40
0.9360825189
 40
1.0
 40
1.0
 40
1.0
 40
1.0
 10
4.6304347838
 20
6.166692313
 30
0.0
 10
4.6307309414
 20
6.1667138431
 30
0.0
 10
4.6313275232
 20
6.1668002129
 30
0.0
 10
4.632208467
 20
6.1670546784
 30
0.0
 10
4.6330770432
 20
6.1674332809
 30
0.0
 10
4.6339285778
 20
6.1679333804
 30
0.0
 10
4.634759172
 20
6.1685519789
 30
0.0
 10
4.6355648611
 20
6.1692857959
 30
0.0
 10
4.6363419771
 20
6.1701309434
 30
0.0
 10
4.6370868386
 20
6.1710832121
 30
0.0
 10
4.6377959404
 20
6.1721378548
 30
0.0
 10
4.6384658903
 20
6.1732896494
 30
0.0
 10
4.6390934195
 20
6.1745329464
 30
0.0
 10
4.639883612
 20
6.1763367979
 30
0.0
 10
4.64073839
 20
6.1787827623
 30
0.0
 10
4.6415346412
 20
6.1819202155
 30
0.0
 10
4.6421036037
 20
6.1852502552
 30
0.0
 10
4.642433959
 20
6.1887070921
 30
0.0
 10
4.6425191318
 20
6.1922226042
 30
0.0
 10
4.6423574084
 20
6.1957273116
 30
0.0
 10
4.6419520499
 20
6.19915196
 30
0.0
 10
4.6413110488
 20
6.202429136
 30
0.0
 10
4.6404473134
 20
6.2054940623
 30
0.0
 10
4.6397077722
 20
6.2074249211
 30
0.0
 10
4.6393001267
 20
6.2083369807
 30
0.0
  0
SPLINE
  5
2DF
100
AcDbEntity
  8
0
100
AcDbSpline
 62
7
  6
CONTINUOUS
 70
0
 71
3
 72
29
 73
25
 74
0
 42
0.0000001
 43
0.0000001
 44
0.0000000001
 40
0.0
 40
0.0
 40
0.0
 40
0.0
 40
0.0189981661
 40
0.038419083
 40
0.0585013049
 40
0.0794594759
 40
0.1014644019
 40
0.1246431836
 40
0.1490829791
 40
0.1748357399
 40
0.2019208807
 40
0.2303304413
 40
0.2600332289
 40
0.2909769494
 40
0.3562781171
 40
0.4255348571
 40
0.4978513804
 40
0.572210911
 40
0.6475211823
 40
0.7226560306
 40
0.7964953763
 40
0.8679664685
 40
0.936082523
 40
1.0
 40
1.0
 40
1.0
 40
1.0
 10
4.755434782
 20
6.166692313
 30
0.0
 10
4.7551386277
 20
6.166713843
 30
0.0
 10
4.7545420525
 20
6.1668002129
 30
0.0
 10
4.7536611182
 20
6.1670546785
 30
0.0
 10
4.752792551
 20
6.167433281
 30
0.0
 10
4.7519410247
 20
6.1679333805
 30
0.0
 10
4.751110438
 20
6.168551979
 30
0.0
 10
4.7503047558
 20
6.1692857959
 30
0.0
 10
4.7495276459
 20
6.1701309434
 30
0.0
 10
4.7487827897
 20
6.171083212
 30
0.0
 10
4.7480736924
 20
6.1721378546
 30
0.0
 10
4.7474037462
 20
6.1732896492
 30
0.0
 10
4.74677622
 20
6.1745329461
 30
0.0
 10
4.7459860304
 20
6.1763367979
 30
0.0
 10
4.745131254
 20
6.1787827623
 30
0.0
 10
4.744335002
 20
6.1819202152
 30
0.0
 10
4.7437660361
 20
6.1852502548
 30
0.0
 10
4.7434356747
 20
6.1887070916
 30
0.0
 10
4.7433504937
 20
6.1922226036
 30
0.0
 10
4.7435122072
 20
6.195727311
 30
0.0
 10
4.7439175544
 20
6.1991519594
 30
0.0
 10
4.744558543
 20
6.2024291353
 30
0.0
 10
4.7454222653
 20
6.2054940616
 30
0.0
 10
4.7461617975
 20
6.2074249209
 30
0.0
 10
4.7465694386
 20
6.2083369808
 30
0.0
  0
SPLINE
  5
2E0
100
AcDbEntity
  8
0
100
AcDbSpline
 62
7
  6
CONTINUOUS
 70
0
 71
3
 72
36
 73
32
 74
0
 42
0.0000001
 43
0.0000001
 44
0.0000000001
 40
0.0
 40
0.0
 40
0.0
 40
0.0
 40
0.0362197558
 40
0.0723583697
 40
0.1083971645
 40
0.1443192394
 40
0.180110721
 40
0.2157584787
 40
0.2512463809
 40
0.2865553029
 40
0.3565545443
 40
0.4255796158
 40
0.4596615374
 40
0.4934129165
 40
0.5267982844
 40
0.559778112
 40
0.5923112469
 40
0.6243538509
 40
0.655860964
 40
0.6867868179
 40
0.7170845461
 40
0.7467071386
 40
0.7756090349
 40
0.8037493344
 40
0.8310922492
 40
0.8576142129
 40
0.8833097756
 40
0.9081894321
 40
0.9555582502
 40
0.9781243966
 40
1.0
 40
1.0
 40
1.0
 40
1.0
 10
4.2647995836
 20
5.2058994777
 30
0.0
 10
4.2650057947
 20
5.2120109704
 30
0.0
 10
4.265462001
 20
5.2242188331
 30
0.0
 10
4.2662962359
 20
5.2425006951
 30
0.0
 10
4.2672973467
 20
5.2607239179
 30
0.0
 10
4.2684817665
 20
5.2788774527
 30
0.0
 10
4.2698547157
 20
5.2969515182
 30
0.0
 10
4.2714217569
 20
5.3149362351
 30
0.0
 10
4.2731901122
 20
5.3328204867
 30
0.0
 10
4.2758212248
 20
5.3564454896
 30
0.0
 10
4.2796498918
 20
5.3856318488
 30
0.0
 10
4.2842872253
 20
5.4144921662
 30
0.0
 10
4.2885118074
 20
5.4372094254
 30
0.0
 10
4.2919292034
 20
5.4539539253
 30
0.0
 10
4.2956187125
 20
5.470450067
 30
0.0
 10
4.2995900356
 20
5.4866691277
 30
0.0
 10
4.3038520501
 20
5.5025798338
 30
0.0
 10
4.3084126209
 20
5.5181488301
 30
0.0
 10
4.3132780684
 20
5.5333407976
 30
0.0
 10
4.3184532081
 20
5.5481185667
 30
0.0
 10
4.3239413535
 20
5.5624430728
 30
0.0
 10
4.3297444098
 20
5.5762734568
 30
0.0
 10
4.3358629413
 20
5.5895676855
 30
0.0
 10
4.3422933114
 20
5.6022845343
 30
0.0
 10
4.3490311197
 20
5.6143839109
 30
0.0
 10
4.3560676278
 20
5.625830555
 30
0.0
 10
4.3633878178
 20
5.6365998651
 30
0.0
 10
4.3733332585
 20
5.6498157012
 30
0.0
 10
4.3839151206
 20
5.6618764535
 30
0.0
 10
4.3951076357
 20
5.6726095153
 30
0.0
 10
4.400822367
 20
5.6774799029
 30
0.0
 10
4.4037056699
 20
5.6797878613
 30
0.0
  0
SPLINE
  5
2E1
100
AcDbEntity
  8
0
100
AcDbSpline
 62
7
  6
CONTINUOUS
 70
0
 71
3
 72
14
 73
10
 74
0
 42
0.0000001
 43
0.0000001
 44
0.0000000001
 40
0.0
 40
0.0
 40
0.0
 40
0.0
 40
0.2715611355
 40
0.4029033306
 40
0.5307524915
 40
0.654728149
 40
0.7744754134
 40
0.8896660543
 40
1.0
 40
1.0
 40
1.0
 40
1.0
 10
4.6252920876
 20
6.2572282739
 30
0.0
 10
4.6273782619
 20
6.2600974318
 30
0.0
 10
4.63038203
 20
6.2644222738
 30
0.0
 10
4.6341285411
 20
6.270256722
 30
0.0
 10
4.6367264379
 20
6.2745357713
 30
0.0
 10
4.6391341953
 20
6.2787510498
 30
0.0
 10
4.6413431601
 20
6.282887368
 30
0.0
 10
4.6433453708
 20
6.2869296993
 30
0.0
 10
4.6445648385
 20
6.2896122834
 30
0.0
 10
4.6451367827
 20
6.2909352434
 30
0.0
  0
SPLINE
  5
2E2
100
AcDbEntity
  8
0
100
AcDbSpline
 62
7
  6
CONTINUOUS
 70
0
 71
3
 72
15
 73
11
 74
0
 42
0.0000001
 43
0.0000001
 44
0.0000000001
 40
0.0
 40
0.0
 40
0.0
 40
0.0
 40
0.1274118477
 40
0.254616403
 40
0.3814018908
 40
0.5075455188
 40
0.6327989099
 40
0.7568729428
 40
0.879424179
 40
1.0
 40
1.0
 40
1.0
 40
1.0
 10
4.6929347826
 20
6.2516077572
 30
0.0
 10
4.695859245
 20
6.2516077583
 30
0.0
 10
4.7017035357
 20
6.2516564742
 30
0.0
 10
4.7104553718
 20
6.2518798357
 30
0.0
 10
4.7191726856
 20
6.2522616446
 30
0.0
 10
4.7278360823
 20
6.2528141604
 30
0.0
 10
4.7364231151
 20
6.2535549833
 30
0.0
 10
4.7449066719
 20
6.254506831
 30
0.0
 10
4.7532518063
 20
6.2556975283
 30
0.0
 10
4.7587465276
 20
6.256681744
 30
0.0
 10
4.7614595836
 20
6.2572282739
 30
0.0
  0
SPLINE
  5
2E3
100
AcDbEntity
  8
0
100
AcDbSpline
 62
7
  6
CONTINUOUS
 70
0
 71
3
 72
15
 73
11
 74
0
 42
0.0000001
 43
0.0000001
 44
0.0000000001
 40
0.0
 40
0.0
 40
0.0
 40
0.0
 40
0.1207006628
 40
0.2433335464
 40
0.3674430874
 40
0.4926957619
 40
0.6188077788
 40
0.745536958
 40
0.8726701204
 40
1.0
 40
1.0
 40
1.0
 40
1.0
 10
4.6252920876
 20
6.2572282739
 30
0.0
 10
4.6279728117
 20
6.2566858655
 30
0.0
 10
4.6334007511
 20
6.2557067975
 30
0.0
 10
4.64164297
 20
6.2545180787
 30
0.0
 10
4.6500194095
 20
6.2535654743
 30
0.0
 10
4.6584958736
 20
6.2528224892
 30
0.0
 10
4.6670460177
 20
6.252267121
 30
0.0
 10
4.6756480982
 20
6.2518827267
 30
0.0
 10
4.6842833188
 20
6.2516571262
 30
0.0
 10
4.690049518
 20
6.2516077597
 30
0.0
 10
4.6929347826
 20
6.2516077572
 30
0.0
  0
ENDSEC
  0
SECTION
  2
OBJECTS
  0
DICTIONARY
  5
C
100
AcDbDictionary
280
0
281
1
  3
ACAD_GROUP
350
D
  3
ACAD_MLINESTYLE
350
17
  3
ACAD_LAYOUT
350
1A
  3
ACAD_PLOTSETTINGS
350
19
  3
ACAD_PLOTSTYLENAME
350
E
  0
DICTIONARY
  5
D
102
{ACAD_REACTORS
330
C
102
}
100
AcDbDictionary
280
0
281
1
  0
ACDBDICTIONARYWDFLT
  5
E
102
{ACAD_REACTORS
330
C
102
}
100
AcDbDictionary
281
1
  3
Normal
350
F
100
AcDbDictionaryWithDefault
340
F
  0
DICTIONARY
  5
17
102
{ACAD_REACTORS
330
C
102
}
100
AcDbDictionary
280
0
281
1
  3
Standard
350
18
  0
DICTIONARY
  5
19
102
{ACAD_REACTORS
330
C
102
}
100
AcDbDictionary
281
1
  0
DICTIONARY
  5
1A
102
{ACAD_REACTORS
330
C
102
}
100
AcDbDictionary
281
1
  3
Model
350
2E4
  3
Layout1
350
2E5
  0
ACDBPLACEHOLDER
  5
F
102
{ACAD_REACTORS
330
E
102
}
  0
MLINESTYLE
  5
18
102
{ACAD_REACTORS
330
17
102
}
100
AcDbMlineStyle
  2
STANDARD
 70
0
  3

 62
256
 51
90.0
 52
90.0
 71
2
 49
0.5
 62
256
  6
BYLAYER
 49
-0.5
 62
256
  6
BYLAYER
  0
LAYOUT
  5
2E4
102
{ACAD_REACTORS
330
1A
102
}
100
AcDbPlotSettings
  1

  2
none_device
  4
ANSI_A_(11.00_x_8.50_Inches)
  6

 40
0.0
 41
0.0
 42
0.0
 43
0.0
 44
279.4
 45
215.9
 46
0.0
 47
0.0
 48
0.0
 49
0.0
140
0.0
141
0.0
142
1.0
143
1.0
 70
1024
 72
0
 73
0
 74
0
  7

 75
0
147
1.0
148
0.0
149
0.0
100
AcDbLayout
  1
Model
 70
0
 71
0
 10
0.0
 20
0.0
 11
11.0
 21
8.5
 12
0.0
 22
0.0
 32
0.0
 14
0.0
 24
0.0
 34
0.0
 15
0.0
 25
0.0
 35
0.0
146
0.0
 13
0.0
 23
0.0
 33
0.0
 16
1.0
 26
0.0
 36
0.0
 17
0.0
 27
1.0
 37
0.0
 76
0
330
202
345
0
346
0
  0
LAYOUT
  5
2E5
102
{ACAD_REACTORS
330
1A
102
}
100
AcDbPlotSettings
  1

  2
none_device
  4
ANSI_A_(11.00_x_8.50_Inches)
  6

 40
0.0
 41
0.0
 42
0.0
 43
0.0
 44
279.4
 45
215.9
 46
0.0
 47
0.0
 48
0.0
 49
0.0
140
0.0
141
0.0
142
1.0
143
1.0
 70
0
 72
0
 73
0
 74
0
  7

 75
0
147
1.0
148
0.0
149
0.0
100
AcDbLayout
  1
Layout1
 70
0
 71
1
 10
0.0
 20
0.0
 11
11.0
 21
8.5
 12
0.0
 22
0.0
 32
0.0
 14
0.0
 24
0.0
 34
0.0
 15
0.0
 25
0.0
 35
0.0
146
0.0
 13
0.0
 23
0.0
 33
0.0
 16
1.0
 26
0.0
 36
0.0
 17
0.0
 27
1.0
 37
0.0
 76
0
330
203
345
0
346
0
  0
ENDSEC
  0
EOF
