999
DXF file: 1203-1_right.dxf
999
Pro/ENGINEER 2018400 by Parametric Technology Corporation
  0
SECTION
  2
HEADER
  9
$ACADVER
  1
AC1027
  9
$DWGCODEPAGE
  3
ANSI_1252
  9
$EXTMAX
 10
11.0
 20
8.5
 30
0.0
  9
$EXTMIN
 10
0.0
 20
0.0
 30
0.0
  9
$LIMMIN
 10
0.0
 20
0.0
  9
$LIMMAX
 10
11.0
 20
8.5
  9
$VIEWCTR
 10
5.5
 20
4.25
  9
$VIEWSIZE
 40
8.5
  9
$CLAYER
  8
0
  9
$LTSCALE
 40
0.605
  9
$CELTYPE
  6
BYLAYER
  9
$DIMSCALE
 40
1.0
  9
$DIMASZ
 40
0.1
  9
$DIMEXO
 40
0.0625
  9
$DIMDLI
 40
0.418
  9
$DIMEXE
 40
0.125
  9
$DIMCEN
 40
0.099
  9
$DIMLFAC
 40
1.0
  9
$DIMBLK
  1
_FILLED
  9
$DIMALT
 70
1
  9
$DIMALTD
 70
1
  9
$DIMALTTD
 70
2
  9
$DIMALTF
 40
25.4
  9
$DIMTXT
 40
0.08
  9
$DIMTOL
 70
1
  9
$DIMLIM
 70
0
  9
$DIMTFAC
 40
1.0
  9
$DIMTP
 40
0.01
  9
$DIMTM
 40
0.01
  9
$DIMGAP
 40
0.09
  9
$DIMDSEP
 70
46
  9
$AUNITS
 70
0
  9
$PDMODE
 70
3
  9
$PDSIZE
 40
0.3125
  9
$HANDSEED
  5
2E5
  9
$TILEMODE
 70
1
  9
$MEASUREMENT
 70
0
  9
$INSUNITS
 70
1
  0
ENDSEC
  0
SECTION
  2
CLASSES
  0
CLASS
  1
ACDBDICTIONARYWDFLT
  2
AcDbDictionaryWithDefault
  3
AutoCAD 2000
 90
0
 91
1
280
0
281
0
  0
CLASS
  1
ACDBPLACEHOLDER
  2
AcDbPlaceHolder
  3
AutoCAD 2000
 90
0
 91
1
280
0
281
0
  0
CLASS
  1
LAYOUT
  2
AcDbLayout
  3
AutoCAD 2000
 90
0
 91
0
280
0
281
0
  0
ENDSEC
  0
SECTION
  2
TABLES
  0
TABLE
  2
VPORT
  5
8
100
AcDbSymbolTable
 70
2
  0
VPORT
  5
1F4
100
AcDbSymbolTableRecord
100
AcDbViewportTableRecord
  2
*ACTIVE
 70
0
 10
0.0
 20
0.0
 11
1.0
 21
1.0
 12
5.5
 22
4.25
 13
0.0
 23
0.0
 14
1.0
 24
1.0
 15
0.0
 25
0.0
 16
0.0
 26
0.0
 36
1.0
 17
0.0
 27
0.0
 37
0.0
 40
8.5
 41
1.2941176471
 42
50.0
 43
0.0
 44
0.0
 50
0.0
 51
0.0
 71
0
 72
100
 73
1
 74
1
 75
0
 76
0
 77
0
 78
0
  0
ENDTAB
  0
TABLE
  2
LTYPE
  5
5
100
AcDbSymbolTable
 70
6
  0
LTYPE
  5
14
100
AcDbSymbolTableRecord
100
AcDbLinetypeTableRecord
  2
BYBLOCK
 70
0
  3

 72
65
 73
0
 40
0.0
  0
LTYPE
  5
15
100
AcDbSymbolTableRecord
100
AcDbLinetypeTableRecord
  2
BYLAYER
 70
0
  3

 72
65
 73
0
 40
0.0
  0
LTYPE
  5
16
100
AcDbSymbolTableRecord
100
AcDbLinetypeTableRecord
  2
CONTINUOUS
 70
64
  3
Solid line
 72
65
 73
0
 40
0.0
  0
LTYPE
  5
1F5
100
AcDbSymbolTableRecord
100
AcDbLinetypeTableRecord
  2
CENTER
 70
64
  3
____ _ ____ _ ____ _ ____ _ ____ _ ____ _ ____
 72
65
 73
4
 40
0.6
 49
0.375
 74
0
 49
-0.075
 74
0
 49
0.075
 74
0
 49
-0.075
 74
0
  0
LTYPE
  5
1F6
100
AcDbSymbolTableRecord
100
AcDbLinetypeTableRecord
  2
HIDDEN
 70
64
  3
- - - - - - - - - - - - - - - - - - - -
 72
65
 73
2
 40
0.2
 49
0.1
 74
0
 49
-0.1
 74
0
  0
LTYPE
  5
1F7
100
AcDbSymbolTableRecord
100
AcDbLinetypeTableRecord
  2
PHANTOM
 70
64
  3
_____ _ _ _____ _ _ _____ _ _ _____
 72
65
 73
6
 40
0.8
 49
0.45
 74
0
 49
-0.05
 74
0
 49
0.1
 74
0
 49
-0.05
 74
0
 49
0.1
 74
0
 49
-0.05
 74
0
  0
LTYPE
  5
1F8
100
AcDbSymbolTableRecord
100
AcDbLinetypeTableRecord
  2
DOT
 70
64
  3
. . . . . . . . . . . . . . . . . . . .
 72
65
 73
2
 40
0.2
 49
0.1
 74
0
 49
-0.1
 74
0
  0
LTYPE
  5
1F9
100
AcDbSymbolTableRecord
100
AcDbLinetypeTableRecord
  2
DASHED
 70
64
  3
- - - - - - - - - - - - - - - - - - - -
 72
65
 73
2
 40
0.2
 49
0.1
 74
0
 49
-0.1
 74
0
  0
ENDTAB
  0
TABLE
  2
LAYER
  5
2
100
AcDbSymbolTable
 70
36
  0
LAYER
  5
10
100
AcDbSymbolTableRecord
100
AcDbLayerTableRecord
  2
0
 70
0
 62
7
  6
CONTINUOUS
370
-3
390
F
  0
LAYER
  5
1FA
100
AcDbSymbolTableRecord
100
AcDbLayerTableRecord
  2
DEFAULT_1
 70
0
 62
7
  6
CENTER
370
-3
390
F
  0
LAYER
  5
1FB
100
AcDbSymbolTableRecord
100
AcDbLayerTableRecord
  2
DEFAULT_2
 70
0
 62
8
  6
HIDDEN
370
-3
390
F
  0
LAYER
  5
1FC
100
AcDbSymbolTableRecord
100
AcDbLayerTableRecord
  2
DEFAULT_3
 70
0
 62
7
  6
PHANTOM
370
-3
390
F
  0
LAYER
  5
1FD
100
AcDbSymbolTableRecord
100
AcDbLayerTableRecord
  2
DEFAULT_COORDINATE_SYSTEM
 70
0
 62
7
  6
CONTINUOUS
370
-3
390
F
  0
LAYER
  5
1FE
100
AcDbSymbolTableRecord
100
AcDbLayerTableRecord
  2
DEFAULT_DATUM_AXES
 70
0
 62
7
  6
CONTINUOUS
370
-3
390
F
  0
LAYER
  5
1FF
100
AcDbSymbolTableRecord
100
AcDbLayerTableRecord
  2
DEFAULT_DATUM_PLANES
 70
0
 62
7
  6
CONTINUOUS
370
-3
390
F
  0
ENDTAB
  0
TABLE
  2
STYLE
  5
3
100
AcDbSymbolTable
 70
1
  0
STYLE
  5
11
100
AcDbSymbolTableRecord
100
AcDbTextStyleTableRecord
  2
STANDARD
 70
0
 40
0.0
 41
0.8
 50
0.0
 71
0
 42
0.2
  3
txt
  4

  0
STYLE
  5
200
100
AcDbSymbolTableRecord
100
AcDbTextStyleTableRecord
  2
TEXTSTYLE_1
 70
0
 40
0.0
 41
0.8
 50
0.0
 71
0
 42
0.2
  3
gdt
  4

  0
ENDTAB
  0
TABLE
  2
VIEW
  5
6
100
AcDbSymbolTable
 70
0
  0
ENDTAB
  0
TABLE
  2
UCS
  5
7
100
AcDbSymbolTable
 70
0
  0
ENDTAB
  0
TABLE
  2
APPID
  5
9
100
AcDbSymbolTable
 70
1
  0
APPID
  5
201
100
AcDbSymbolTableRecord
100
AcDbRegAppTableRecord
  2
ACAD
 70
0
  0
ENDTAB
  0
TABLE
  2
BLOCK_RECORD
  5
1
100
AcDbSymbolTable
 70
0
  0
BLOCK_RECORD
  5
202
100
AcDbSymbolTableRecord
100
AcDbBlockTableRecord
  2
*Model_Space
  0
BLOCK_RECORD
  5
203
100
AcDbSymbolTableRecord
100
AcDbBlockTableRecord
  2
*Paper_Space
  0
BLOCK_RECORD
  5
204
100
AcDbSymbolTableRecord
100
AcDbBlockTableRecord
  2
_FILLED
  0
ENDTAB
  0
TABLE
  2
DIMSTYLE
  5
A
100
AcDbSymbolTable
 70
1
100
AcDbDimStyleTable
 71
0
  0
DIMSTYLE
105
205
100
AcDbSymbolTableRecord
100
AcDbDimStyleTableRecord
  2
STANDARD
 70
0
  3

  4

 40
1.0
 41
0.1
 42
0.0625
 43
0.38
 44
0.125
 45
0.0
 46
0.0
 47
0.01
 48
0.01
140
0.08
141
0.09
142
0.0
143
25.4
144
1.0
145
0.0
146
1.0
147
0.09
 71
1.0
 72
0.0
 73
1
 74
1
 75
0
 76
0
 77
0
 78
4
 79
1
170
1
171
1
172
0
173
0
174
0
175
0
176
0
177
0
178
0
270
2
179
2
271
2
272
2
273
2
274
2
275
0
280
0
281
0
282
0
283
1
284
4
285
0
286
0
287
3
288
0
340
11
278
46
341
204
342
204
343
204
344
204
  0
ENDTAB
  0
ENDSEC
  0
SECTION
  2
BLOCKS
  0
BLOCK
  5
20
100
AcDbEntity
  8
0
100
AcDbBlockBegin
  2
*Model_Space
 70
0
 10
0.0
 20
0.0
 30
0.0
  3
*Model_Space
  1

  0
ENDBLK
  5
21
100
AcDbEntity
  8
0
100
AcDbBlockEnd
  0
BLOCK
  5
1C
100
AcDbEntity
  8
0
100
AcDbBlockBegin
  2
*Paper_Space
 70
0
 10
0.0
 20
0.0
 30
0.0
  3
*Paper_Space
  1

  0
ENDBLK
  5
1D
100
AcDbEntity
  8
0
100
AcDbBlockEnd
  0
BLOCK
  5
206
100
AcDbEntity
  8
0
100
AcDbBlockBegin
  2
_FILLED
 70
64
 10
0.0
 20
0.0
  3
_FILLED
  1

  0
SOLID
  5
207
100
AcDbEntity
  8
0
  6
BYBLOCK
 62
0
100
AcDbTrace
 10
0.0
 20
0.0
 11
-1.0
 21
0.2
 12
-1.0
 22
-0.2
 13
-1.0
 23
-0.2
  0
ENDBLK
  5
208
100
AcDbEntity
  8
0
  6
BYBLOCK
 62
0
100
AcDbBlockEnd
  0
ENDSEC
  0
SECTION
  2
ENTITIES
  0
MTEXT
  5
209
100
AcDbEntity
  8
0
100
AcDbMText
 62
2
  6
CONTINUOUS
  7
STANDARD
 71
3
 72
1
 10
5.7096219436
 20
1.1424826856
 30
0.0
 11
1.0
 21
0.0
 31
0.0
 73
2
 44
0.9
  1
SCALE  .500
 40
0.08
 41
0.704
  0
LINE
  5
20A
100
AcDbEntity
  8
0
100
AcDbLine
 62
7
  6
CONTINUOUS
 10
0.0
 20
0.0
 11
0.0
 21
8.5
  0
LINE
  5
20B
100
AcDbEntity
  8
0
100
AcDbLine
 62
7
  6
CONTINUOUS
 10
0.0
 20
0.0
 11
11.0
 21
0.0
  0
LINE
  5
20C
100
AcDbEntity
  8
0
100
AcDbLine
 62
7
  6
CONTINUOUS
 10
0.0
 20
8.5
 11
11.0
 21
8.5
  0
LINE
  5
20D
100
AcDbEntity
  8
0
100
AcDbLine
 62
7
  6
CONTINUOUS
 10
11.0
 20
0.0
 11
11.0
 21
8.5
  0
LINE
  5
20E
100
AcDbEntity
  8
0
100
AcDbLine
 62
7
  6
CONTINUOUS
 10
6.5030647681
 20
1.7101923129
 11
5.3530647681
 21
1.7101923129
  0
LINE
  5
20F
100
AcDbEntity
  8
0
100
AcDbLine
 62
7
  6
CONTINUOUS
 10
4.5166841827
 20
6.8843957335
 11
4.5080681009
 21
6.879520989
  0
LINE
  5
210
100
AcDbEntity
  8
0
100
AcDbLine
 62
7
  6
CONTINUOUS
 10
6.4971647681
 20
1.8251923129
 11
5.3589647681
 21
1.8251923129
  0
LINE
  5
211
100
AcDbEntity
  8
0
100
AcDbLine
 62
7
  6
CONTINUOUS
 10
3.1346945272
 20
5.4676905112
 11
3.1631647683
 21
5.5739423134
  0
LWPOLYLINE
  5
212
100
AcDbEntity
  8
0
100
AcDbPolyline
 62
7
  6
CONTINUOUS
 90
158
 70
0
 10
3.4435247392
 20
5.4988200938
 10
3.4435248026
 20
5.4990161275
 10
3.4435348162
 20
5.4996450849
 10
3.4435597243
 20
5.5002870198
 10
3.443599522
 20
5.5009419481
 10
3.4436541521
 20
5.501609093
 10
3.4437234218
 20
5.5022868816
 10
3.4438072108
 20
5.5029750889
 10
3.4439053632
 20
5.5036732264
 10
3.4440174546
 20
5.5043793017
 10
3.4441430806
 20
5.5050920758
 10
3.4442821234
 20
5.5058120303
 10
3.4444345522
 20
5.5065397915
 10
3.4446001247
 20
5.5072748267
 10
3.4447787025
 20
5.5080170833
 10
3.4449705633
 20
5.5087680434
 10
3.4451756576
 20
5.5095276468
 10
3.4453938547
 20
5.5102955302
 10
3.4456254746
 20
5.5110728403
 10
3.445870526
 20
5.5118595204
 10
3.4461289478
 20
5.5126552885
 10
3.4464010735
 20
5.5134610289
 10
3.4466871113
 20
5.514277128
 10
3.4469869029
 20
5.5151029085
 10
3.4473002563
 20
5.5159376764
 10
3.4476271685
 20
5.516781284
 10
3.4479676162
 20
5.5176335331
 10
3.448321326
 20
5.5184936276
 10
3.448688182
 20
5.519361207
 10
3.4490682047
 20
5.5202362372
 10
3.449461292
 20
5.5211183962
 10
3.4498673287
 20
5.5220073533
 10
3.4502862856
 20
5.5229030094
 10
3.4507181928
 20
5.5238053879
 10
3.451162944
 20
5.5247142161
 10
3.451620475
 20
5.5256293078
 10
3.4520908993
 20
5.5265508192
 10
3.4525741067
 20
5.5274784498
 10
3.4530700487
 20
5.5284120197
 10
3.4535789622
 20
5.5293518669
 10
3.4541007423
 20
5.5302976725
 10
3.4546353554
 20
5.5312492495
 10
3.4551831882
 20
5.532207134
 10
3.4557442416
 20
5.533171151
 10
3.4563184073
 20
5.5341409362
 10
3.4569059441
 20
5.5351167362
 10
3.4575068801
 20
5.5360983892
 10
3.4581210827
 20
5.5370854688
 10
3.4587485821
 20
5.5380778118
 10
3.459389279
 20
5.5390750459
 10
3.4600431374
 20
5.5400768972
 10
3.4607102861
 20
5.5410833354
 10
3.4613906109
 20
5.5420939521
 10
3.4620840699
 20
5.5431084468
 10
3.4627909127
 20
5.5441269315
 10
3.4635110149
 20
5.5451489611
 10
3.464244329
 20
5.5461741994
 10
3.4649912403
 20
5.5472028967
 10
3.4657518096
 20
5.5482348039
 10
3.4665259963
 20
5.5492693701
 10
3.4673140622
 20
5.5503063732
 10
3.4681162248
 20
5.5513455127
 10
3.4689325847
 20
5.5523863227
 10
3.4697632329
 20
5.5534283167
 10
3.4706083212
 20
5.5544710754
 10
3.4714680201
 20
5.5555141895
 10
3.472342448
 20
5.5565571735
 10
3.4732317605
 20
5.5575995754
 10
3.474136133
 20
5.5586409524
 10
3.4750557143
 20
5.5596808173
 10
3.4759906653
 20
5.5607186832
 10
3.4769411676
 20
5.5617540717
 10
3.4779074044
 20
5.5627864905
 10
3.4788895433
 20
5.563815415
 10
3.4798877738
 20
5.5648403282
 10
3.480902318
 20
5.5658607293
 10
3.4819333517
 20
5.5668760521
 10
3.4829810741
 20
5.5678857375
 10
3.4840457507
 20
5.5688892706
 10
3.4851276652
 20
5.569886129
 10
3.4862269314
 20
5.5708756143
 10
3.4873435653
 20
5.5718569317
 10
3.4884778785
 20
5.5728294722
 10
3.4896303569
 20
5.5737926264
 10
3.4908013013
 20
5.5747455985
 10
3.491991187
 20
5.5756877245
 10
3.4932006267
 20
5.5766184259
 10
3.4944301302
 20
5.5775370184
 10
3.4956803069
 20
5.5784428687
 10
3.4969516949
 20
5.5793352669
 10
3.4982446963
 20
5.5802133913
 10
3.4995599831
 20
5.5810765874
 10
3.5008980753
 20
5.5819240752
 10
3.5022591298
 20
5.5827548414
 10
3.5036438622
 20
5.5835682128
 10
3.50505277
 20
5.5843633631
 10
3.5064856438
 20
5.5851390805
 10
3.5079432293
 20
5.5858946915
 10
3.509425983
 20
5.5866293498
 10
3.5109331943
 20
5.5873416654
 10
3.5124650008
 20
5.5880307214
 10
3.5140224062
 20
5.5886959843
 10
3.5156059164
 20
5.5893366835
 10
3.5172151082
 20
5.5899522759
 10
3.5188500007
 20
5.5905432266
 10
3.5205115847
 20
5.5911103536
 10
3.5221994019
 20
5.5916539201
 10
3.5239128129
 20
5.5921741504
 10
3.5256525898
 20
5.5926716869
 10
3.5274181622
 20
5.5931467518
 10
3.5292089812
 20
5.5935995966
 10
3.5310259033
 20
5.5940308162
 10
3.5328683041
 20
5.5944406242
 10
3.5347356356
 20
5.594829277
 10
3.5366289074
 20
5.5951973446
 10
3.5385471088
 20
5.5955449841
 10
3.5404899931
 20
5.5958725235
 10
3.5424597612
 20
5.5961806663
 10
3.544455551
 20
5.5964695857
 10
3.5464768903
 20
5.596739547
 10
3.5485266165
 20
5.5969912269
 10
3.5506039638
 20
5.5972248033
 10
3.5527082515
 20
5.5974403918
 10
3.554842518
 20
5.597638171
 10
3.5570059112
 20
5.5978178417
 10
3.5591977696
 20
5.5979791413
 10
3.5614214389
 20
5.5981220604
 10
3.563676647
 20
5.598246273
 10
3.5659618706
 20
5.5983514007
 10
3.5682785301
 20
5.5984372036
 10
3.5706258823
 20
5.5985033262
 10
3.5730024387
 20
5.5985494126
 10
3.5754083933
 20
5.5985751521
 10
3.5778421823
 20
5.5985802114
 10
3.5803025931
 20
5.5985642845
 10
3.5827901928
 20
5.5985270476
 10
3.5853024085
 20
5.5984682165
 10
3.5878383771
 20
5.5983875008
 10
3.5904010172
 20
5.598284436
 10
3.5929887335
 20
5.5981586517
 10
3.5955995439
 20
5.5980098169
 10
3.5982356545
 20
5.5978373439
 10
3.6008952715
 20
5.597640847
 10
3.603575898
 20
5.5974200217
 10
3.6062783446
 20
5.5971742887
 10
3.6089999394
 20
5.5969033518
 10
3.611738015
 20
5.5966069498
 10
3.6144929716
 20
5.5962844787
 10
3.6172615663
 20
5.5959357237
 10
3.6200403967
 20
5.5955605278
 10
3.6228290957
 20
5.5951583163
 10
3.6256236828
 20
5.5947290023
 10
3.6284211202
 20
5.5942729847
 10
3.6312237851
 20
5.5937910592
 10
3.6340311578
 20
5.593284832
 10
3.636842961
 20
5.5927561313
 10
3.6396621226
 20
5.5922064274
 10
3.6424884495
 20
5.5916380496
  0
LINE
  5
213
100
AcDbEntity
  8
0
100
AcDbLine
 62
7
  6
CONTINUOUS
 10
3.6560449189
 20
5.5887607955
 11
3.769524561
 21
6.0122744882
  0
LINE
  5
214
100
AcDbEntity
  8
0
100
AcDbLine
 62
7
  6
CONTINUOUS
 10
4.3868126373
 20
6.5919670138
 11
4.4657815136
 21
6.8767195826
  0
LINE
  5
215
100
AcDbEntity
  8
0
100
AcDbLine
 62
7
  6
CONTINUOUS
 10
4.4212178161
 20
6.5663489794
 11
4.508466771
 21
6.8809585469
  0
LINE
  5
216
100
AcDbEntity
  8
0
100
AcDbLine
 62
7
  6
CONTINUOUS
 10
4.4264912308
 20
6.5591704555
 11
4.5166841827
 21
6.8843957335
  0
LINE
  5
217
100
AcDbEntity
  8
0
100
AcDbLine
 62
7
  6
CONTINUOUS
 10
6.2066523465
 20
5.8657274942
 11
5.9280647681
 21
5.7416923129
  0
LWPOLYLINE
  5
218
100
AcDbEntity
  8
0
100
AcDbPolyline
 62
7
  6
CONTINUOUS
 90
33
 70
0
 10
5.5342147681
 20
5.7101923129
 10
5.5335840338
 20
5.7092797446
 10
5.5328969123
 20
5.7083596826
 10
5.5321601219
 20
5.7074452919
 10
5.5313834487
 20
5.7065532699
 10
5.5305699297
 20
5.7056911174
 10
5.5297113091
 20
5.7048514886
 10
5.5288045312
 20
5.7040330387
 10
5.5278505861
 20
5.7032381089
 10
5.5268456182
 20
5.7024646286
 10
5.5257880542
 20
5.7017124841
 10
5.5246811931
 20
5.7009849183
 10
5.5235298327
 20
5.7002854057
 10
5.5223375285
 20
5.6996159735
 10
5.5211048516
 20
5.6989767439
 10
5.5198326709
 20
5.6983681033
 10
5.5185220823
 20
5.6977902917
 10
5.5171750885
 20
5.6972432253
 10
5.5157940252
 20
5.6967265195
 10
5.5143798816
 20
5.6962389704
 10
5.5129345566
 20
5.6957794558
 10
5.5114620756
 20
5.6953471732
 10
5.5099641576
 20
5.6949403174
 10
5.5084416782
 20
5.6945568272
 10
5.5068976364
 20
5.6941949571
 10
5.5053328569
 20
5.6938521567
 10
5.5037482009
 20
5.6935256921
 10
5.5021468599
 20
5.6932130794
 10
5.5005296739
 20
5.6929116191
 10
5.4988968537
 20
5.6926199922
 10
5.4972507172
 20
5.6923375096
 10
5.4955919083
 20
5.6920630978
 10
5.4939200613
 20
5.6917954631
  0
LINE
  5
219
100
AcDbEntity
  8
0
100
AcDbLine
 62
7
  6
CONTINUOUS
 10
5.2240785875
 20
5.6653694157
 11
5.2282271161
 21
5.6808616801
  0
LINE
  5
21A
100
AcDbEntity
  8
0
100
AcDbLine
 62
7
  6
CONTINUOUS
 10
5.2282271161
 20
5.6808616801
 11
5.2285058297
 21
5.6819028264
  0
LINE
  5
21B
100
AcDbEntity
  8
0
100
AcDbLine
 62
7
  6
CONTINUOUS
 10
5.0590339462
 20
5.0577360998
 11
5.0540798767
 21
5.0393492272
  0
LINE
  5
21C
100
AcDbEntity
  8
0
100
AcDbLine
 62
7
  6
CONTINUOUS
 10
5.2240537472
 20
5.665374649
 11
5.0590523224
 21
5.0577251709
  0
LINE
  5
21D
100
AcDbEntity
  8
0
100
AcDbLine
 62
7
  6
CONTINUOUS
 10
5.5022093014
 20
6.3031993295
 11
5.5705894142
 21
6.5497700504
  0
LINE
  5
21E
100
AcDbEntity
  8
0
100
AcDbLine
 62
7
  6
CONTINUOUS
 10
5.5377972816
 20
6.2858031262
 11
5.6100539736
 21
6.5463523402
  0
LINE
  5
21F
100
AcDbEntity
  8
0
100
AcDbLine
 62
7
  6
CONTINUOUS
 10
5.7264873111
 20
6.4915089054
 11
5.7264659067
 21
6.4914103918
  0
LINE
  5
220
100
AcDbEntity
  8
0
100
AcDbLine
 62
7
  6
CONTINUOUS
 10
5.7264659068
 20
6.4914103918
 11
5.726435581
 21
6.4912734716
  0
LWPOLYLINE
  5
221
100
AcDbEntity
  8
0
100
AcDbPolyline
 62
7
  6
CONTINUOUS
 90
51
 70
0
 10
5.726435581
 20
6.4912734716
 10
5.7261756829
 20
6.490205088
 10
5.7258745571
 20
6.4891394693
 10
5.7255315827
 20
6.4880777015
 10
5.7251465853
 20
6.4870221687
 10
5.724720068
 20
6.48597646
 10
5.724252053
 20
6.484942346
 10
5.7237426018
 20
6.4839215424
 10
5.7231927759
 20
6.4829174119
 10
5.7226030359
 20
6.4819317188
 10
5.7219738137
 20
6.4809660514
 10
5.7213065674
 20
6.4800233133
 10
5.7206020491
 20
6.4791050468
 10
5.7198610977
 20
6.4782128015
 10
5.7190856868
 20
6.4773492441
 10
5.7182769699
 20
6.4765157915
 10
5.7174360321
 20
6.475713689
 10
5.7165650721
 20
6.4749450576
 10
5.7156657734
 20
6.4742112709
 10
5.7147391995
 20
6.4735130879
 10
5.7137867848
 20
6.4728515142
 10
5.7128100967
 20
6.4722275546
 10
5.7118105185
 20
6.4716420115
 10
5.7107892381
 20
6.4710955343
 10
5.7097477645
 20
6.4705889115
 10
5.7086876752
 20
6.4701228912
 10
5.7076102677
 20
6.4696980432
 10
5.7065170435
 20
6.4693149841
 10
5.705409718
 20
6.4689743391
 10
5.704289932
 20
6.4686766309
 10
5.7031593211
 20
6.4684223138
 10
5.7020195944
 20
6.4682117917
 10
5.7008725313
 20
6.4680454057
 10
5.69971984
 20
6.4679234109
 10
5.6985632399
 20
6.4678459967
 10
5.6974045426
 20
6.4678132865
 10
5.6962454723
 20
6.4678253262
 10
5.6950877623
 20
6.4678820947
 10
5.693933239
 20
6.4679834936
 10
5.6927836214
 20
6.4681293568
 10
5.691640624
 20
6.4683194518
 10
5.6905060519
 20
6.4685534565
 10
5.6893815908
 20
6.4688309952
 10
5.6882689107
 20
6.4691516269
 10
5.6871697636
 20
6.4695148112
 10
5.6860857681
 20
6.4699199706
 10
5.6850185314
 20
6.4703664611
 10
5.6839697447
 20
6.4708535223
 10
5.6829409399
 20
6.4713803803
 10
5.6819336291
 20
6.4719461969
 10
5.6809494136
 20
6.4725499962
  0
LINE
  5
222
100
AcDbEntity
  8
0
100
AcDbLine
 62
7
  6
CONTINUOUS
 10
5.3530647681
 20
1.7101923129
 11
5.3589647681
 21
1.8251923129
  0
LINE
  5
223
100
AcDbEntity
  8
0
100
AcDbLine
 62
7
  6
CONTINUOUS
 10
3.3351054577
 20
5.4139905642
 11
2.9342838887
 21
5.5213903799
  0
LINE
  5
224
100
AcDbEntity
  8
0
100
AcDbLine
 62
7
  6
CONTINUOUS
 10
3.4435247392
 20
5.4988200851
 11
2.8828047971
 21
5.6490645408
  0
LWPOLYLINE
  5
225
100
AcDbEntity
  8
0
100
AcDbPolyline
 62
7
  6
CONTINUOUS
 90
67
 70
0
 10
5.0541130715
 20
5.0394049119
 10
5.0660808108
 20
5.0321695569
 10
5.0792709059
 20
5.0239493651
 10
5.0929653162
 20
5.0151363366
 10
5.1072085256
 20
5.0056620932
 10
5.1219154101
 20
4.9955416377
 10
5.1368781893
 20
4.9848835427
 10
5.1520793431
 20
4.9736717288
 10
5.1675045966
 20
4.9618875539
 10
5.1829614865
 20
4.9496592984
 10
5.1984313099
 20
4.9369939906
 10
5.2139047424
 20
4.9238919437
 10
5.2292148153
 20
4.9104938468
 10
5.2443558713
 20
4.8968105891
 10
5.2593169293
 20
4.8828581066
 10
5.2739411325
 20
4.8687976666
 10
5.2882286546
 20
4.8546551852
 10
5.302199828
 20
4.840436651
 10
5.3157478695
 20
4.8262807464
 10
5.3288488741
 20
4.8122477383
 10
5.3415577239
 20
4.798312598
 10
5.3538911426
 20
4.7844878172
 10
5.3658565631
 20
4.7707955549
 10
5.3774806782
 20
4.7572346582
 10
5.3888093095
 20
4.7437784401
 10
5.3998587367
 20
4.7304321526
 10
5.4106399578
 20
4.7172060342
 10
5.4211878722
 20
4.7040792002
 10
5.4315219917
 20
4.6910431742
 10
5.4416320527
 20
4.6781028296
 10
5.4515074945
 20
4.6652572754
 10
5.4611476072
 20
4.6524947215
 10
5.470549044
 20
4.6398083807
 10
5.4796986169
 20
4.6272068535
 10
5.4885947982
 20
4.614685117
 10
5.4972385787
 20
4.6022361654
 10
5.505619384
 20
4.5898691045
 10
5.5137266365
 20
4.5775900798
 10
5.5215572145
 20
4.5653955741
 10
5.529107794
 20
4.553284191
 10
5.5363729867
 20
4.5412599048
 10
5.5433505588
 20
4.5293237023
 10
5.5500431232
 20
4.5174698201
 10
5.5564486215
 20
4.5057020895
 10
5.5625668837
 20
4.4940229351
 10
5.568403381
 20
4.482427818
 10
5.5739547069
 20
4.470934107
 10
5.5792240118
 20
4.4595472365
 10
5.5842252373
 20
4.4482478685
 10
5.5889587973
 20
4.4370449241
 10
5.5934255397
 20
4.4259473357
 10
5.5976380962
 20
4.4149336548
 10
5.6015974738
 20
4.4040099196
 10
5.6053043624
 20
4.3931839876
 10
5.6087687
 20
4.3824355564
 10
5.6119928232
 20
4.371766322
 10
5.6149800892
 20
4.3611831725
 10
5.6177399571
 20
4.3506726743
 10
5.6202770939
 20
4.34023665
 10
5.6225958582
 20
4.3298782636
 10
5.6247036406
 20
4.3195856039
 10
5.6266042224
 20
4.3093613077
 10
5.628301625
 20
4.299206946
 10
5.6298020252
 20
4.2891085999
 10
5.6311092058
 20
4.2790627424
 10
5.6322255118
 20
4.2690764073
 10
5.6330796515
 20
4.2600249455
  0
LINE
  5
226
100
AcDbEntity
  8
0
100
AcDbLine
 62
7
  6
CONTINUOUS
 10
3.6424884495
 20
5.5916380496
 11
3.6481659534
 21
5.5904553733
  0
LINE
  5
227
100
AcDbEntity
  8
0
100
AcDbLine
 62
7
  6
CONTINUOUS
 10
3.6481659534
 20
5.5904553733
 11
3.6560461076
 21
5.5887663277
  0
LWPOLYLINE
  5
228
100
AcDbEntity
  8
0
100
AcDbPolyline
 62
7
  6
CONTINUOUS
 90
34
 70
0
 10
3.6560449189
 20
5.5887607955
 10
3.700616277
 20
5.578960456
 10
3.7457661972
 20
5.56857385
 10
3.7907128826
 20
5.557769854
 10
3.8354545724
 20
5.546549896
 10
3.8799937603
 20
5.5349143584
 10
3.9243371133
 20
5.5228623771
 10
3.9684848774
 20
5.5103946659
 10
4.0124373757
 20
5.497511917
 10
4.0562012429
 20
5.4842128682
 10
4.0997767536
 20
5.4704980164
 10
4.1431640519
 20
5.456367899
 10
4.1863694296
 20
5.4418209519
 10
4.2293929417
 20
5.4268575434
 10
4.2722348086
 20
5.4114779853
 10
4.3149014232
 20
5.3956802652
 10
4.3573928629
 20
5.3794645313
 10
4.3997091748
 20
5.3628309429
 10
4.441856557
 20
5.3457771359
 10
4.4838349878
 20
5.3283030847
 10
4.5256444648
 20
5.3104087555
 10
4.5672910665
 20
5.2920914036
 10
4.6087747572
 20
5.2733507913
 10
4.6500953985
 20
5.2541867265
 10
4.6912587669
 20
5.2345961686
 10
4.7322646561
 20
5.2145787458
 10
4.7731129532
 20
5.1941340414
 10
4.813809427
 20
5.1732585823
 10
4.8543538717
 20
5.1519517736
 10
4.8947460235
 20
5.1302130501
 10
4.9349914161
 20
5.1080386162
 10
4.9750916554
 20
5.0854266171
 10
5.0150445014
 20
5.0623773412
 10
5.0540798767
 20
5.0393492272
  0
LINE
  5
229
100
AcDbEntity
  8
0
100
AcDbLine
 62
7
  6
CONTINUOUS
 10
4.4264912308
 20
6.5591704555
 11
4.4216164862
 21
6.5677865373
  0
LWPOLYLINE
  5
22A
100
AcDbEntity
  8
0
100
AcDbPolyline
 62
7
  6
CONTINUOUS
 90
3
 70
0
 10
5.9280648888
 20
1.8697173762
 10
5.9280647681
 20
1.8738498854
 10
5.9280645443
 20
1.8781025699
  0
LINE
  5
22B
100
AcDbEntity
  8
0
100
AcDbLine
 62
7
  6
CONTINUOUS
 10
5.9280647681
 20
1.8618259387
 11
5.9280647681
 21
5.7101923129
  0
LINE
  5
22C
100
AcDbEntity
  8
0
100
AcDbLine
 62
7
  6
CONTINUOUS
 10
5.9280647683
 20
6.166692313
 11
5.9280647682
 21
6.2083369808
  0
LINE
  5
22D
100
AcDbEntity
  8
0
100
AcDbLine
 62
7
  6
CONTINUOUS
 10
5.9280648877
 20
5.4337582456
 11
5.9280647681
 21
5.4544977711
  0
LINE
  5
22E
100
AcDbEntity
  8
0
100
AcDbLine
 62
7
  6
CONTINUOUS
 10
5.9280649928
 20
5.496001351
 11
5.9280647681
 21
5.5168358609
  0
LINE
  5
22F
100
AcDbEntity
  8
0
100
AcDbLine
 62
7
  6
CONTINUOUS
 10
5.9280651394
 20
5.247314922
 11
5.9280647681
 21
5.268024216
  0
LINE
  5
230
100
AcDbEntity
  8
0
100
AcDbLine
 62
7
  6
CONTINUOUS
 10
5.9280650768
 20
5.5587226401
 11
5.9280647681
 21
5.5798419124
  0
LINE
  5
231
100
AcDbEntity
  8
0
100
AcDbLine
 62
7
  6
CONTINUOUS
 10
5.9280669017
 20
5.1231914115
 11
5.9280647681
 21
5.2058994777
  0
LINE
  5
232
100
AcDbEntity
  8
0
100
AcDbLine
 62
7
  6
CONTINUOUS
 10
5.9280647681
 20
1.8618259387
 11
5.9280649139
 21
1.8657091292
  0
LINE
  5
233
100
AcDbEntity
  8
0
100
AcDbLine
 62
7
  6
CONTINUOUS
 10
5.9280647681
 20
1.9524553067
 11
5.9280650576
 21
1.959028881
  0
LINE
  5
234
100
AcDbEntity
  8
0
100
AcDbLine
 62
7
  6
CONTINUOUS
 10
5.9280647681
 20
1.9727984762
 11
5.9280650909
 21
1.9800174021
  0
LINE
  5
235
100
AcDbEntity
  8
0
100
AcDbLine
 62
7
  6
CONTINUOUS
 10
5.9280647681
 20
2.0199183376
 11
5.9280651758
 21
2.0287611932
  0
LINE
  5
236
100
AcDbEntity
  8
0
100
AcDbLine
 62
7
  6
CONTINUOUS
 10
5.9280651646
 20
5.6224983215
 11
5.9280647681
 21
5.7101923129
  0
LINE
  5
237
100
AcDbEntity
  8
0
100
AcDbLine
 62
7
  6
CONTINUOUS
 10
5.9280647681
 20
3.8067361001
 11
5.9280783219
 21
3.9683675494
  0
LINE
  5
238
100
AcDbEntity
  8
0
100
AcDbLine
 62
7
  6
CONTINUOUS
 10
5.9280647681
 20
3.2158020186
 11
5.9280647681
 21
3.8067361001
  0
LINE
  5
239
100
AcDbEntity
  8
0
100
AcDbLine
 62
7
  6
CONTINUOUS
 10
5.9280687454
 20
2.4120922957
 11
5.9280554356
 21
2.5246918808
  0
LWPOLYLINE
  5
23A
100
AcDbEntity
  8
0
100
AcDbPolyline
 62
7
  6
CONTINUOUS
 90
3
 70
0
 10
5.9280590399
 20
2.9969039884
 10
5.9280647681
 20
3.0483726816
 10
5.9280746144
 20
3.1022660988
  0
LWPOLYLINE
  5
23B
100
AcDbEntity
  8
0
100
AcDbPolyline
 62
7
  6
CONTINUOUS
 90
3
 70
0
 10
5.9280593377
 20
2.7310926343
 10
5.9280647681
 20
2.7707655755
 10
5.9280672755
 20
2.8121267357
  0
LWPOLYLINE
  5
23C
100
AcDbEntity
  8
0
100
AcDbPolyline
 62
7
  6
CONTINUOUS
 90
3
 70
0
 10
5.928057874
 20
2.8552071951
 10
5.9280647681
 20
2.9003393128
 10
5.9280696021
 20
2.9475963238
  0
LWPOLYLINE
  5
23D
100
AcDbEntity
  8
0
100
AcDbPolyline
 62
7
  6
CONTINUOUS
 90
3
 70
0
 10
5.9280598905
 20
2.6216264932
 10
5.9280647681
 20
2.6566516799
 10
5.9280669681
 20
2.693135743
  0
LWPOLYLINE
  5
23E
100
AcDbEntity
  8
0
100
AcDbPolyline
 62
7
  6
CONTINUOUS
 90
5
 70
0
 10
5.92804591
 20
4.4334392918
 10
5.9280712641
 20
4.5380422053
 10
5.9280647681
 20
4.6418305668
 10
5.9280369552
 20
4.7446537846
 10
5.9280647681
 20
4.9442377494
  0
LWPOLYLINE
  5
23F
100
AcDbEntity
  8
0
100
AcDbPolyline
 62
7
  6
CONTINUOUS
 90
3
 70
0
 10
5.9280647681
 20
4.0542737576
 10
5.9280897535
 20
4.2361906466
 10
5.92804591
 20
4.4334392918
  0
LINE
  5
240
100
AcDbEntity
  8
0
100
AcDbLine
 62
7
  6
CONTINUOUS
 10
5.9280554356
 20
2.5246918808
 11
5.9280647681
 21
2.5557701304
  0
LINE
  5
241
100
AcDbEntity
  8
0
100
AcDbLine
 62
7
  6
CONTINUOUS
 10
6.130092422
 20
6.4851991077
 11
6.1141511484
 21
6.2572282739
  0
LINE
  5
242
100
AcDbEntity
  8
0
100
AcDbLine
 62
7
  6
CONTINUOUS
 10
5.4939200613
 20
5.6917954631
 11
5.4905401136
 21
5.691275787
  0
LINE
  5
243
100
AcDbEntity
  8
0
100
AcDbLine
 62
7
  6
CONTINUOUS
 10
5.4905401136
 20
5.691275787
 11
5.4674572936
 21
5.6878722141
  0
LINE
  5
244
100
AcDbEntity
  8
0
100
AcDbLine
 62
7
  6
CONTINUOUS
 10
5.4674572936
 20
5.6878722141
 11
5.4599713849
 21
5.6867949881
  0
LINE
  5
245
100
AcDbEntity
  8
0
100
AcDbLine
 62
7
  6
CONTINUOUS
 10
5.4599713849
 20
5.6867949881
 11
5.4523026772
 21
5.6857300775
  0
LINE
  5
246
100
AcDbEntity
  8
0
100
AcDbLine
 62
7
  6
CONTINUOUS
 10
5.4523026772
 20
5.6857300775
 11
5.4444464959
 21
5.6846809601
  0
LINE
  5
247
100
AcDbEntity
  8
0
100
AcDbLine
 62
7
  6
CONTINUOUS
 10
5.4444464959
 20
5.6846809601
 11
5.4363901861
 21
5.6836502447
  0
LINE
  5
248
100
AcDbEntity
  8
0
100
AcDbLine
 62
7
  6
CONTINUOUS
 10
5.4363901861
 20
5.6836502447
 11
5.4302088166
 21
5.6828911383
  0
LINE
  5
249
100
AcDbEntity
  8
0
100
AcDbLine
 62
7
  6
CONTINUOUS
 10
5.4302088166
 20
5.6828911383
 11
5.4239019302
 21
5.6821456545
  0
LWPOLYLINE
  5
24A
100
AcDbEntity
  8
0
100
AcDbPolyline
 62
7
  6
CONTINUOUS
 90
3
 70
0
 10
5.4239019302
 20
5.6821456545
 10
5.4174637863
 20
5.6814160251
 10
5.4152874789
 20
5.6811768658
  0
LINE
  5
24B
100
AcDbEntity
  8
0
100
AcDbLine
 62
7
  6
CONTINUOUS
 10
3.7125239778
 20
5.7995449089
 11
5.1554967638
 21
5.4129003734
  0
LINE
  5
24C
100
AcDbEntity
  8
0
100
AcDbLine
 62
7
  6
CONTINUOUS
 10
5.4152874789
 20
5.6811768658
 11
5.4086650614
 21
5.6804733754
  0
LINE
  5
24D
100
AcDbEntity
  8
0
100
AcDbLine
 62
7
  6
CONTINUOUS
 10
5.4086650614
 20
5.6804733754
 11
5.401897259
 21
5.6797937714
  0
LINE
  5
24E
100
AcDbEntity
  8
0
100
AcDbLine
 62
7
  6
CONTINUOUS
 10
5.401897259
 20
5.6797937714
 11
5.3949775566
 21
5.6791421806
  0
LINE
  5
24F
100
AcDbEntity
  8
0
100
AcDbLine
 62
7
  6
CONTINUOUS
 10
5.3949775566
 20
5.6791421806
 11
5.390276849
 21
5.6787256117
  0
LINE
  5
250
100
AcDbEntity
  8
0
100
AcDbLine
 62
7
  6
CONTINUOUS
 10
5.390276849
 20
5.6787256117
 11
5.3855037461
 21
5.678325025
  0
LINE
  5
251
100
AcDbEntity
  8
0
100
AcDbLine
 62
7
  6
CONTINUOUS
 10
5.3855037461
 20
5.678325025
 11
5.3806560578
 21
5.6779418858
  0
LINE
  5
252
100
AcDbEntity
  8
0
100
AcDbLine
 62
7
  6
CONTINUOUS
 10
5.3806560578
 20
5.6779418858
 11
5.3757322337
 21
5.6775776715
  0
LINE
  5
253
100
AcDbEntity
  8
0
100
AcDbLine
 62
7
  6
CONTINUOUS
 10
5.3757322337
 20
5.6775776715
 11
5.3707300584
 21
5.6772338991
  0
LINE
  5
254
100
AcDbEntity
  8
0
100
AcDbLine
 62
7
  6
CONTINUOUS
 10
5.3707300584
 20
5.6772338991
 11
5.365647331
 21
5.6769121965
  0
LINE
  5
255
100
AcDbEntity
  8
0
100
AcDbLine
 62
7
  6
CONTINUOUS
 10
5.365647331
 20
5.6769121965
 11
5.3604823176
 21
5.6766143332
  0
LINE
  5
256
100
AcDbEntity
  8
0
100
AcDbLine
 62
7
  6
CONTINUOUS
 10
5.3604823176
 20
5.6766143332
 11
5.3552323264
 21
5.6763421423
  0
LINE
  5
257
100
AcDbEntity
  8
0
100
AcDbLine
 62
7
  6
CONTINUOUS
 10
5.3552323264
 20
5.6763421423
 11
5.3498941755
 21
5.6760975752
  0
LINE
  5
258
100
AcDbEntity
  8
0
100
AcDbLine
 62
7
  6
CONTINUOUS
 10
5.3498941755
 20
5.6760975752
 11
5.3444657175
 21
5.6758827202
  0
LINE
  5
259
100
AcDbEntity
  8
0
100
AcDbLine
 62
7
  6
CONTINUOUS
 10
5.3444657175
 20
5.6758827202
 11
5.3389438202
 21
5.6756991442
  0
LINE
  5
25A
100
AcDbEntity
  8
0
100
AcDbLine
 62
7
  6
CONTINUOUS
 10
5.3389438202
 20
5.6756991442
 11
5.3333253789
 21
5.6755481505
  0
LINE
  5
25B
100
AcDbEntity
  8
0
100
AcDbLine
 62
7
  6
CONTINUOUS
 10
5.3333253789
 20
5.6755481505
 11
5.327608213
 21
5.6754311265
  0
LINE
  5
25C
100
AcDbEntity
  8
0
100
AcDbLine
 62
7
  6
CONTINUOUS
 10
5.327608213
 20
5.6754311265
 11
5.3217893102
 21
5.6753494998
  0
LINE
  5
25D
100
AcDbEntity
  8
0
100
AcDbLine
 62
7
  6
CONTINUOUS
 10
5.3217893102
 20
5.6753494998
 11
5.315865434
 21
5.6753047671
  0
LINE
  5
25E
100
AcDbEntity
  8
0
100
AcDbLine
 62
7
  6
CONTINUOUS
 10
5.5342147681
 20
5.7101923129
 11
6.3219147681
 21
5.7101923129
  0
LINE
  5
25F
100
AcDbEntity
  8
0
100
AcDbLine
 62
7
  6
CONTINUOUS
 10
5.5806825695
 20
5.7416923129
 11
5.9280647681
 21
5.7416923129
  0
LINE
  5
260
100
AcDbEntity
  8
0
100
AcDbLine
 62
7
  6
CONTINUOUS
 10
5.315865434
 20
5.6753047671
 11
5.3098335578
 21
5.6752985003
  0
LINE
  5
261
100
AcDbEntity
  8
0
100
AcDbLine
 62
7
  6
CONTINUOUS
 10
5.3098335578
 20
5.6752985003
 11
5.3036883731
 21
5.6753329607
  0
LWPOLYLINE
  5
262
100
AcDbEntity
  8
0
100
AcDbPolyline
 62
7
  6
CONTINUOUS
 90
22
 70
0
 10
5.3036883731
 20
5.6753329607
 10
5.2974246955
 20
5.6754152622
 10
5.2942479928
 20
5.6754774248
 10
5.2910396899
 20
5.6755553871
 10
5.2877999156
 20
5.675650551
 10
5.2845287945
 20
5.6757643773
 10
5.2812246028
 20
5.6758984671
 10
5.2778875654
 20
5.6760544332
 10
5.2745177649
 20
5.676233961
 10
5.271113275
 20
5.6764389349
 10
5.2676743508
 20
5.6766712195
 10
5.2642013505
 20
5.6769331474
 10
5.2606929128
 20
5.6772281482
 10
5.2571501455
 20
5.6775597602
 10
5.2535741621
 20
5.6779316969
 10
5.2499637734
 20
5.6783481346
 10
5.2463203134
 20
5.6788132222
 10
5.2426451056
 20
5.6793313146
 10
5.2389370808
 20
5.6799073724
 10
5.2351969473
 20
5.6805464196
 10
5.2314271767
 20
5.6812534354
 10
5.2284946889
 20
5.6818497445
  0
LWPOLYLINE
  5
263
100
AcDbEntity
  8
0
100
AcDbPolyline
 62
7
  6
CONTINUOUS
 90
12
 70
0
 10
5.2285058297
 20
5.6819028264
 10
5.1072244125
 20
5.7074520318
 10
4.9851724533
 20
5.7335117276
 10
4.8631933511
 20
5.7599054723
 10
4.7412861962
 20
5.7866334899
 10
4.6194519095
 20
5.813695606
 10
4.4976932368
 20
5.841091222
 10
4.3760101781
 20
5.8688203379
 10
4.2544027333
 20
5.8968829533
 10
4.1328736381
 20
5.9252784249
 10
4.0114237987
 20
5.9540065129
 10
3.8900522975
 20
5.9830674065
  0
LWPOLYLINE
  5
264
100
AcDbEntity
  8
0
100
AcDbPolyline
 62
7
  6
CONTINUOUS
 90
94
 70
0
 10
3.8900522975
 20
5.9830674065
 10
3.7489795759
 20
6.0172609931
 10
3.7283878959
 20
6.0221698087
 10
3.708457176
 20
6.0267559793
 10
3.689326131
 20
6.030950976
 10
3.6709589012
 20
6.0347546076
 10
3.6530554678
 20
6.0382266533
 10
3.6356260982
 20
6.0413638007
 10
3.6187846259
 20
6.0441539995
 10
3.6023413734
 20
6.0466395175
 10
3.5862949849
 20
6.0488278953
 10
3.5707383447
 20
6.0507162829
 10
3.5555942704
 20
6.0523229046
 10
3.5409361871
 20
6.0536473457
 10
3.5267371608
 20
6.0547019153
 10
3.5127548615
 20
6.0555092507
 10
3.4990167412
 20
6.0560681041
 10
3.4855235539
 20
6.0563858599
 10
3.4719865227
 20
6.0564768001
 10
3.458321788
 20
6.0563392281
 10
3.4446383336
 20
6.0559718205
 10
3.4309345673
 20
6.0553740073
 10
3.4171785718
 20
6.0545421975
 10
3.4034279421
 20
6.0534774759
 10
3.3898144443
 20
6.0521916193
 10
3.3763680506
 20
6.0506923561
 10
3.3630809395
 20
6.048983522
 10
3.3500254632
 20
6.0470801199
 10
3.3372205263
 20
6.044992833
 10
3.3246643719
 20
6.0427295091
 10
3.3123956191
 20
6.0403055907
 10
3.3004339082
 20
6.0377344096
 10
3.2887702227
 20
6.0350232935
 10
3.2773984028
 20
6.0321792861
 10
3.2663340641
 20
6.0292146923
 10
3.2555679604
 20
6.0261353381
 10
3.2450575097
 20
6.0229357094
 10
3.2348019947
 20
6.0196208364
 10
3.2248086453
 20
6.0161982778
 10
3.2150490727
 20
6.0126627413
 10
3.2055160732
 20
6.0090151885
 10
3.1962212803
 20
6.0052639757
 10
3.1871649948
 20
6.0014134116
 10
3.1783463623
 20
5.9974672253
 10
3.1697682926
 20
5.9934308194
 10
3.1614360546
 20
5.9893110246
 10
3.1533602758
 20
5.9851183677
 10
3.1455214296
 20
5.9808501675
 10
3.1378804181
 20
5.9764920258
 10
3.1304406591
 20
5.972052192
 10
3.1231819375
 20
5.9675249927
 10
3.1160348593
 20
5.9628706009
 10
3.1089949987
 20
5.9580871368
 10
3.1020572754
 20
5.9531722732
 10
3.0951576996
 20
5.9480790997
 10
3.0882858805
 20
5.9427953123
 10
3.0814482902
 20
5.9373213861
 10
3.0746104683
 20
5.9316242276
 10
3.0677663136
 20
5.9256915954
 10
3.0609186136
 20
5.9195189377
 10
3.0540479015
 20
5.913081322
 10
3.0471355607
 20
5.9063525417
 10
3.0401936378
 20
5.8993359822
 10
3.0332471519
 20
5.8920516313
 10
3.0262765172
 20
5.8844751265
 10
3.0192887645
 20
5.876610898
 10
3.0123461197
 20
5.8685311012
 10
3.0054457808
 20
5.8602382401
 10
2.9985846012
 20
5.8517340083
 10
2.9918247534
 20
5.8431046161
 10
2.985168287
 20
5.8343656555
 10
2.9786069574
 20
5.8255191214
 10
2.9721869784
 20
5.8166410448
 10
2.9659218857
 20
5.8077572454
 10
2.9598212671
 20
5.7988841566
 10
2.9539313415
 20
5.7900937696
 10
2.9482777429
 20
5.7814324249
 10
2.9428502024
 20
5.7728929263
 10
2.937638011
 20
5.764465343
 10
2.9326518929
 20
5.7561740294
 10
2.9278882377
 20
5.7480210044
 10
2.9233164429
 20
5.7399594326
 10
2.9189387152
 20
5.7319963627
 10
2.914759341
 20
5.7241430093
 10
2.9107550603
 20
5.7163569585
 10
2.9069311291
 20
5.7086473169
 10
2.9032909383
 20
5.7010198012
 10
2.8998140008
 20
5.6934267868
 10
2.8965079559
 20
5.6858764252
 10
2.893379666
 20
5.678375205
 10
2.8904147745
 20
5.670874307
 10
2.8876180702
 20
5.6633636246
 10
2.8850090377
 20
5.6558707277
 10
2.8828048
 20
5.6490645503
  0
LINE
  5
265
100
AcDbEntity
  8
0
100
AcDbLine
 62
7
  6
CONTINUOUS
 10
6.5030647681
 20
1.7101923129
 11
6.4971647681
 21
1.8251923129
  0
LINE
  5
266
100
AcDbEntity
  8
0
100
AcDbLine
 62
7
  6
CONTINUOUS
 10
6.1399464115
 20
6.1152493239
 11
6.1399081312
 21
6.1155897223
  0
LINE
  5
267
100
AcDbEntity
  8
0
100
AcDbLine
 62
7
  6
CONTINUOUS
 10
5.8030647681
 20
6.1666923129
 11
6.0530647681
 21
6.1666923129
  0
LINE
  5
268
100
AcDbEntity
  8
0
100
AcDbLine
 62
7
  6
CONTINUOUS
 10
5.8207954547
 20
6.2083369803
 11
6.0353340816
 21
6.2083369803
  0
LINE
  5
269
100
AcDbEntity
  8
0
100
AcDbLine
 62
7
  6
CONTINUOUS
 10
6.0986590758
 20
6.2410597166
 11
5.7574704605
 21
6.2410597166
  0
LINE
  5
26A
100
AcDbEntity
  8
0
100
AcDbLine
 62
7
  6
CONTINUOUS
 10
6.1141511484
 20
6.2572282739
 11
5.7550546744
 21
6.2572282739
  0
LINE
  5
26B
100
AcDbEntity
  8
0
100
AcDbLine
 62
7
  6
CONTINUOUS
 10
6.130092422
 20
6.4851991077
 11
5.7308845521
 21
6.4851991077
  0
LINE
  5
26C
100
AcDbEntity
  8
0
100
AcDbLine
 62
7
  6
CONTINUOUS
 10
6.1155155051
 20
6.5078480083
 11
5.7406140312
 21
6.5078480083
  0
LINE
  5
26D
100
AcDbEntity
  8
0
100
AcDbLine
 62
7
  6
CONTINUOUS
 10
5.5056669443
 20
6.3156671868
 11
4.4264912308
 21
6.5591704555
  0
LINE
  5
26E
100
AcDbEntity
  8
0
100
AcDbLine
 62
7
  6
CONTINUOUS
 10
5.5671317708
 20
6.5373021911
 11
4.5166841827
 21
6.8843957335
  0
LINE
  5
26F
100
AcDbEntity
  8
0
100
AcDbLine
 62
7
  6
CONTINUOUS
 10
5.6809494136
 20
6.4725499962
 11
5.680758658
 21
6.4726731533
  0
ARC
  5
270
100
AcDbEntity
  8
0
100
AcDbCircle
 62
7
  6
CONTINUOUS
 10
-69.650949624
 20
6.1758987868
 40
75.5864950369
100
AcDbArc
 50
359.6729721747
 51
359.9535285135
  0
ARC
  5
271
100
AcDbEntity
  8
0
100
AcDbCircle
 62
7
  6
CONTINUOUS
 10
5.9280647681
 20
6.0056609752
 40
0.5360313377
100
AcDbArc
 50
69.5309671574
 51
110.4690328426
  0
ARC
  5
272
100
AcDbEntity
  8
0
100
AcDbCircle
 62
7
  6
CONTINUOUS
 10
5.9280647681
 20
5.6377203184
 40
0.3062
100
AcDbArc
 50
13.6907851686
 51
42.0716796443
  0
ARC
  5
273
100
AcDbEntity
  8
0
100
AcDbCircle
 62
7
  6
CONTINUOUS
 10
5.9280647681
 20
5.6377203184
 40
0.3062
100
AcDbArc
 50
160.1500375663
 51
166.3092148314
  0
ARC
  5
274
100
AcDbEntity
  8
0
100
AcDbCircle
 62
7
  6
CONTINUOUS
 10
5.6444544531
 20
6.0876888971
 40
0.225
100
AcDbArc
 50
86.8578612207
 51
118.2963341054
  0
ARC
  5
275
100
AcDbEntity
  8
0
100
AcDbCircle
 62
7
  6
CONTINUOUS
 10
5.8035133844
 20
6.6612368745
 40
0.225
100
AcDbArc
 50
210.7036658523
 51
236.9359167317
  0
ARC
  5
276
100
AcDbEntity
  8
0
100
AcDbCircle
 62
7
  6
CONTINUOUS
 10
2.7195787051
 20
5.5334910147
 40
0.2000000005
100
AcDbArc
 50
1.8801290262
 51
35.3007010221
  0
ARC
  5
277
100
AcDbEntity
  8
0
100
AcDbCircle
 62
7
  6
CONTINUOUS
 10
3.5270959184
 20
5.3171174296
 40
0.2000000005
100
AcDbArc
 50
114.6992989779
 51
148.1198709738
  0
ARC
  5
278
100
AcDbEntity
  8
0
100
AcDbCircle
 62
7
  6
CONTINUOUS
 10
4.5091468814
 20
6.7113670135
 40
0.146
100
AcDbArc
 50
110.5776965749
 51
218.4223034251
  0
ARC
  5
279
100
AcDbEntity
  8
0
100
AcDbCircle
 62
7
  6
CONTINUOUS
 10
5.7462401845
 20
6.1416923129
 40
0.1
100
AcDbArc
 50
41.7934061786
 51
83.5519233076
  0
ARC
  5
27A
100
AcDbEntity
  8
0
100
AcDbCircle
 62
7
  6
CONTINUOUS
 10
5.6513073546
 20
6.2125238125
 40
0.0999771287
100
AcDbArc
 50
23.0123079786
 51
86.857861221
  0
ARC
  5
27B
100
AcDbEntity
  8
0
100
AcDbCircle
 62
7
  6
CONTINUOUS
 10
5.8117961909
 20
6.1092471839
 40
0.0883716409
100
AcDbArc
 50
175.7811283249
 51
176.3159227178
  0
ARC
  5
27C
100
AcDbEntity
  8
0
100
AcDbCircle
 62
7
  6
CONTINUOUS
 10
5.7412417557
 20
6.1125806524
 40
0.0252014792
100
AcDbArc
 50
125.4272673158
 51
173.9210775142
  0
ARC
  5
27D
100
AcDbEntity
  8
0
100
AcDbCircle
 62
7
  6
CONTINUOUS
 10
5.7412070696
 20
6.1141735022
 40
0.025
100
AcDbArc
 50
128.3673603972
 51
174.0748068043
  0
ARC
  5
27E
100
AcDbEntity
  8
0
100
AcDbCircle
 62
7
  6
CONTINUOUS
 10
5.8021566381
 20
6.1916758135
 40
0.0249999999
100
AcDbArc
 50
272.0817387426
 51
41.7934076709
  0
ARC
  5
27F
100
AcDbEntity
  8
0
100
AcDbCircle
 62
7
  6
CONTINUOUS
 10
5.741060448
 20
6.1128718035
 40
0.0248601645
100
AcDbArc
 50
122.6028169177
 51
125.4757411096
  0
ARC
  5
280
100
AcDbEntity
  8
0
100
AcDbCircle
 62
7
  6
CONTINUOUS
 10
5.5890958707
 20
6.5339065156
 40
0.024375
100
AcDbArc
 50
30.7036658946
 51
139.3971789411
  0
ARC
  5
281
100
AcDbEntity
  8
0
100
AcDbCircle
 62
7
  6
CONTINUOUS
 10
5.5262427547
 20
6.307265501
 40
0.024375
100
AcDbArc
 50
189.6028210589
 51
298.2963341054
  0
ARC
  5
282
100
AcDbEntity
  8
0
100
AcDbCircle
 62
7
  6
CONTINUOUS
 10
4.4089761058
 20
6.5858204161
 40
0.023
100
AcDbArc
 50
164.5
 51
302.1573945478
  0
ARC
  5
283
100
AcDbEntity
  8
0
100
AcDbCircle
 62
7
  6
CONTINUOUS
 10
4.4879450459
 20
6.870573215
 40
0.023
100
AcDbArc
 50
26.8426054522
 51
164.5
  0
ARC
  5
284
100
AcDbEntity
  8
0
100
AcDbCircle
 62
7
  6
CONTINUOUS
 10
5.7484823054
 20
6.4867686284
 40
0.0225
100
AcDbArc
 50
110.4690328385
 51
167.8379041344
  0
ARC
  5
285
100
AcDbEntity
  8
0
100
AcDbCircle
 62
7
  6
CONTINUOUS
 10
3.3402817692
 20
5.4333090993
 40
0.02
100
AcDbArc
 50
255.00020579
 51
328.1199307283
  0
ARC
  5
286
100
AcDbEntity
  8
0
100
AcDbCircle
 62
7
  6
CONTINUOUS
 10
2.939460339
 20
5.5407088778
 40
0.02
100
AcDbArc
 50
181.8800692717
 51
254.99979421
  0
ARC
  5
287
100
AcDbEntity
  8
0
100
AcDbCircle
 62
7
  6
CONTINUOUS
 10
5.7594357588
 20
6.2584490122
 40
0.0175
100
AcDbArc
 50
203.0123079787
 51
263.551923308
  0
ARC
  5
288
100
AcDbEntity
  8
0
100
AcDbCircle
 62
7
  6
CONTINUOUS
 10
5.9280647696
 20
6.1171345499
 40
0.0168316655
100
AcDbArc
 50
77.73763873
 51
102.2623691639
  0
ARC
  5
289
100
AcDbEntity
  8
0
100
AcDbCircle
 62
7
  6
CONTINUOUS
 10
5.7368970511
 20
6.1261688549
 40
0.0094267561
100
AcDbArc
 50
124.1944611895
 51
127.2003397616
  0
ARC
  5
28A
100
AcDbEntity
  8
0
100
AcDbCircle
 62
7
  6
CONTINUOUS
 10
81.5489938583
 20
6.1760356746
 40
75.6284099608
100
AcDbArc
 50
180.0465492224
 51
180.3290585931
  0
ARC
  5
28B
100
AcDbEntity
  8
0
100
AcDbCircle
 62
7
  6
CONTINUOUS
 10
6.1098893518
 20
6.1416923129
 40
0.1
100
AcDbArc
 50
96.4480766924
 51
138.2065938214
  0
ARC
  5
28C
100
AcDbEntity
  8
0
100
AcDbCircle
 62
7
  6
CONTINUOUS
 10
6.0548635891
 20
6.1099745204
 40
0.0778164389
100
AcDbArc
 50
3.6480919386
 51
4.2551776213
  0
ARC
  5
28D
100
AcDbEntity
  8
0
100
AcDbCircle
 62
7
  6
CONTINUOUS
 10
6.1148771429
 20
6.1125725097
 40
0.0252145322
100
AcDbArc
 50
10.6886345995
 51
54.5637754784
  0
ARC
  5
28E
100
AcDbEntity
  8
0
100
AcDbCircle
 62
7
  6
CONTINUOUS
 10
6.1149814183
 20
6.1126116276
 40
0.0251039973
100
AcDbArc
 50
8.3373242303
 51
10.6450440077
  0
ARC
  5
28F
100
AcDbEntity
  8
0
100
AcDbCircle
 62
7
  6
CONTINUOUS
 10
6.1150296892
 20
6.1126187171
 40
0.0250552086
100
AcDbArc
 50
6.8100608828
 51
8.3372894626
  0
ARC
  5
290
100
AcDbEntity
  8
0
100
AcDbCircle
 62
7
  6
CONTINUOUS
 10
6.1149224666
 20
6.1141735024
 40
0.025
100
AcDbArc
 50
5.9251927046
 51
51.6326392626
  0
ARC
  5
291
100
AcDbEntity
  8
0
100
AcDbCircle
 62
7
  6
CONTINUOUS
 10
6.0539728982
 20
6.1916758135
 40
0.0249999999
100
AcDbArc
 50
138.2065923291
 51
267.9182612574
  0
ARC
  5
292
100
AcDbEntity
  8
0
100
AcDbCircle
 62
7
  6
CONTINUOUS
 10
6.1150894205
 20
6.1129018999
 40
0.0248238539
100
AcDbArc
 50
54.5221750235
 51
57.3992599737
  0
ARC
  5
293
100
AcDbEntity
  8
0
100
AcDbCircle
 62
7
  6
CONTINUOUS
 10
6.1076472309
 20
6.4867686284
 40
0.0225
100
AcDbArc
 50
355.9999999994
 51
69.5309671615
  0
ARC
  5
294
100
AcDbEntity
  8
0
100
AcDbCircle
 62
7
  6
CONTINUOUS
 10
6.0966937775
 20
6.2584490122
 40
0.0175
100
AcDbArc
 50
276.448076692
 51
355.9999999996
  0
ARC
  5
295
100
AcDbEntity
  8
0
100
AcDbCircle
 62
7
  6
CONTINUOUS
 10
6.1188312487
 20
6.1256010703
 40
0.0101218942
100
AcDbArc
 50
52.7950038588
 51
55.733190311
  0
ARC
  5
296
100
AcDbEntity
  8
0
100
AcDbCircle
 62
7
  6
CONTINUOUS
 10
14.9413137709
 20
51.7894386455
 40
47.1365508069
100
AcDbArc
 50
256.2847773211
 51
258.1030981366
  0
SPLINE
  5
297
100
AcDbEntity
  8
0
100
AcDbSpline
 62
7
  6
CONTINUOUS
 70
0
 71
3
 72
8
 73
4
 74
0
 42
0.0000001
 43
0.0000001
 44
0.0000000001
 40
0.0
 40
0.0
 40
0.0
 40
0.0
 40
1.0
 40
1.0
 40
1.0
 40
1.0
 10
5.4368493328
 20
1.8618259387
 30
0.0
 10
5.413644033
 20
1.8468502803
 30
0.0
 10
5.3878018137
 20
1.8344652792
 30
0.0
 10
5.3589647681
 20
1.8251923129
 30
0.0
  0
SPLINE
  5
298
100
AcDbEntity
  8
0
100
AcDbSpline
 62
7
  6
CONTINUOUS
 70
0
 71
3
 72
12
 73
8
 74
0
 42
0.0000001
 43
0.0000001
 44
0.0000000001
 40
0.0
 40
0.0
 40
0.0
 40
0.0
 40
0.0369706243
 40
0.1815764533
 40
0.287656604
 40
0.6641947774
 40
1.0
 40
1.0
 40
1.0
 40
1.0
 10
5.4368493328
 20
1.8618259387
 30
0.0
 10
5.462399262
 20
1.8783147156
 30
0.0
 10
5.572184263
 20
1.9747219529
 30
0.0
 10
5.6422051654
 20
2.2208731438
 30
0.0
 10
5.6970530358
 20
2.7256954965
 30
0.0
 10
5.7029060954
 20
3.4032118094
 30
0.0
 10
5.6566743849
 20
3.9859375111
 30
0.0
 10
5.6330796515
 20
4.2600249455
 30
0.0
  0
SPLINE
  5
299
100
AcDbEntity
  8
0
100
AcDbSpline
 62
7
  6
CONTINUOUS
 70
0
 71
3
 72
13
 73
9
 74
0
 42
0.0000001
 43
0.0000001
 44
0.0000000001
 40
0.0
 40
0.0
 40
0.0
 40
0.0
 40
0.0232386477
 40
0.1141336211
 40
0.1808124856
 40
0.417493313
 40
0.7021593894
 40
1.0
 40
1.0
 40
1.0
 40
1.0
 10
6.4192802035
 20
1.8618259387
 30
0.0
 10
6.3937302743
 20
1.8783147156
 30
0.0
 10
6.2839452733
 20
1.9747219529
 30
0.0
 10
6.2139243709
 20
2.2208731438
 30
0.0
 10
6.1590765005
 20
2.7256954965
 30
0.0
 10
6.1523861769
 20
3.5001286399
 30
0.0
 10
6.2524014031
 20
4.5641465629
 30
0.0
 10
6.3117301708
 20
5.3185472071
 30
0.0
 10
6.3219147681
 20
5.7101923129
 30
0.0
  0
SPLINE
  5
29A
100
AcDbEntity
  8
0
100
AcDbSpline
 62
7
  6
CONTINUOUS
 70
0
 71
3
 72
8
 73
4
 74
0
 42
0.0000001
 43
0.0000001
 44
0.0000000001
 40
0.0
 40
0.0
 40
0.0
 40
0.0
 40
1.0
 40
1.0
 40
1.0
 40
1.0
 10
6.4971647681
 20
1.8251923129
 30
0.0
 10
6.4683277226
 20
1.8344652792
 30
0.0
 10
6.4424855033
 20
1.8468502803
 30
0.0
 10
6.4192802035
 20
1.8618259387
 30
0.0
  0
SPLINE
  5
29B
100
AcDbEntity
  8
0
100
AcDbSpline
 62
7
  6
CONTINUOUS
 70
0
 71
3
 72
15
 73
11
 74
0
 42
0.0000001
 43
0.0000001
 44
0.0000000001
 40
0.0
 40
0.0
 40
0.0
 40
0.0
 40
0.1282237836
 40
0.2544330298
 40
0.3791575493
 40
0.5029462179
 40
0.6263603986
 40
0.7499665567
 40
0.8743285341
 40
1.0
 40
1.0
 40
1.0
 40
1.0
 10
6.0530647681
 20
6.1666923129
 30
0.0
 10
6.0566654007
 20
6.1661814156
 30
0.0
 10
6.0637813007
 20
6.1649489138
 30
0.0
 10
6.0742453143
 20
6.1624385183
 30
0.0
 10
6.0844022757
 20
6.1592830299
 30
0.0
 10
6.0942510407
 20
6.1554824351
 30
0.0
 10
6.1037910647
 20
6.1510368245
 30
0.0
 10
6.113021821
 20
6.1459463704
 30
0.0
 10
6.1219423531
 20
6.1402118347
 30
0.0
 10
6.1276454142
 20
6.135987056
 30
0.0
 10
6.13044
 20
6.1337746848
 30
0.0
  0
SPLINE
  5
29C
100
AcDbEntity
  8
0
100
AcDbSpline
 62
7
  6
CONTINUOUS
 70
0
 71
3
 72
15
 73
11
 74
0
 42
0.0000001
 43
0.0000001
 44
0.0000000001
 40
0.0
 40
0.0
 40
0.0
 40
0.0
 40
0.1282237836
 40
0.2544330298
 40
0.3791575493
 40
0.5029462179
 40
0.6263603986
 40
0.7499665567
 40
0.8743285341
 40
1.0
 40
1.0
 40
1.0
 40
1.0
 10
5.8030647681
 20
6.1666923129
 30
0.0
 10
5.7994641356
 20
6.1661814156
 30
0.0
 10
5.7923482356
 20
6.1649489138
 30
0.0
 10
5.781884222
 20
6.1624385183
 30
0.0
 10
5.7717272606
 20
6.1592830299
 30
0.0
 10
5.7618784956
 20
6.1554824351
 30
0.0
 10
5.7523384716
 20
6.1510368245
 30
0.0
 10
5.7431077153
 20
6.1459463704
 30
0.0
 10
5.7341871832
 20
6.1402118347
 30
0.0
 10
5.7284841221
 20
6.135987056
 30
0.0
 10
5.7256895363
 20
6.1337746848
 30
0.0
  0
LINE
  5
29D
100
AcDbEntity
  8
0
100
AcDbLine
 62
7
  6
CONTINUOUS
 10
5.7161831248
 20
6.1152493243
 11
5.7163406315
 21
6.1167542497
  0
LINE
  5
29E
100
AcDbEntity
  8
0
100
AcDbLine
 62
7
  6
CONTINUOUS
 10
5.7161488835
 20
6.1149254581
 11
5.7161831248
 21
6.1152493243
  0
SPLINE
  5
29F
100
AcDbEntity
  8
0
100
AcDbSpline
 62
7
  6
CONTINUOUS
 70
0
 71
3
 72
9
 73
5
 74
0
 42
0.0000001
 43
0.0000001
 44
0.0000000001
 40
0.0
 40
0.0
 40
0.0
 40
0.0
 40
0.5439078797
 40
1.0
 40
1.0
 40
1.0
 40
1.0
 10
5.5806825695
 20
5.7416923127
 30
0.0
 10
5.6220166285
 20
5.803510439
 30
0.0
 10
5.6812375629
 20
5.9230159702
 30
0.0
 10
5.7096193405
 20
6.053277042
 30
0.0
 10
5.7161488835
 20
6.1149254581
 30
0.0
  0
SPLINE
  5
2A0
100
AcDbEntity
  8
0
100
AcDbSpline
 62
7
  6
CONTINUOUS
 70
0
 71
3
 72
9
 73
5
 74
0
 42
0.0000001
 43
0.0000001
 44
0.0000000001
 40
0.0
 40
0.0
 40
0.0
 40
0.0
 40
0.2961033548
 40
1.0
 40
1.0
 40
1.0
 40
1.0
 10
6.2066523465
 20
5.8657274941
 30
0.0
 10
6.196237943
 20
5.8889865148
 30
0.0
 10
6.1649002609
 20
5.9688739569
 30
0.0
 10
6.1465101959
 20
6.0532770419
 30
0.0
 10
6.1399806529
 20
6.114925458
 30
0.0
  0
LINE
  5
2A1
100
AcDbEntity
  8
0
100
AcDbLine
 62
7
  6
CONTINUOUS
 10
6.1399806529
 20
6.114925458
 11
6.1399464115
 21
6.115249324
  0
LINE
  5
2A2
100
AcDbEntity
  8
0
100
AcDbLine
 62
7
  6
CONTINUOUS
 10
6.1397889048
 20
6.1167542497
 11
6.1399464115
 21
6.115249324
  0
LINE
  5
2A3
100
AcDbEntity
  8
0
100
AcDbLine
 62
7
  6
CONTINUOUS
 10
6.1398615998
 20
6.1160565372
 11
6.1397889048
 21
6.1167542497
  0
LINE
  5
2A4
100
AcDbEntity
  8
0
100
AcDbLine
 62
7
  6
CONTINUOUS
 10
3.3572649367
 20
5.4227462034
 11
3.3279382205
 21
5.4306042721
  0
SPLINE
  5
2A5
100
AcDbEntity
  8
0
100
AcDbSpline
 62
7
  6
CONTINUOUS
 70
0
 71
3
 72
65
 73
61
 74
0
 42
0.0000001
 43
0.0000001
 44
0.0000000001
 40
0.0
 40
0.0
 40
0.0
 40
0.0
 40
0.0139936914
 40
0.0282089745
 40
0.0427236626
 40
0.0576161279
 40
0.0729502086
 40
0.0887292748
 40
0.1049421427
 40
0.1215784599
 40
0.1386194672
 40
0.1560100482
 40
0.1736866069
 40
0.1915864874
 40
0.2096491989
 40
0.2278200115
 40
0.2460472518
 40
0.2642815796
 40
0.3006216125
 40
0.3366690376
 40
0.372283726
 40
0.4073213909
 40
0.4416394348
 40
0.4584889482
 40
0.4751097706
 40
0.491485826
 40
0.507601156
 40
0.5234400257
 40
0.5389870411
 40
0.5542266332
 40
0.5691413397
 40
0.583714039
 40
0.5979288502
 40
0.6117834039
 40
0.6253244125
 40
0.6386106726
 40
0.651700611
 40
0.6646526839
 40
0.6775273234
 40
0.6903840155
 40
0.7032801469
 40
0.7162709983
 40
0.7294103042
 40
0.7563356521
 40
0.7702175301
 40
0.7844295895
 40
0.7990048573
 40
0.8139749278
 40
0.829348486
 40
0.8450472238
 40
0.860972361
 40
0.8770267806
 40
0.8931166582
 40
0.909155552
 40
0.9250611313
 40
0.9407546428
 40
0.9561615121
 40
0.9712116463
 40
0.9858421688
 40
1.0
 40
1.0
 40
1.0
 40
1.0
 10
3.7654136496
 20
5.9969318515
 30
0.0
 10
3.7607369954
 20
5.9980732058
 30
0.0
 10
3.7513102017
 20
6.0003763229
 30
0.0
 10
3.7370247799
 20
6.003831083
 30
0.0
 10
3.7224213008
 20
6.0072854804
 30
0.0
 10
3.7074172662
 20
6.0107170392
 30
0.0
 10
3.6919561854
 20
6.0140982684
 30
0.0
 10
3.6760147956
 20
6.0174052512
 30
0.0
 10
3.659595323
 20
6.0206076513
 30
0.0
 10
3.6427083021
 20
6.0236734538
 30
0.0
 10
3.6253801858
 20
6.0265684341
 30
0.0
 10
3.6076574233
 20
6.0292614833
 30
0.0
 10
3.5896020292
 20
6.0317181762
 30
0.0
 10
3.5712788272
 20
6.0339037057
 30
0.0
 10
3.5527506484
 20
6.0357833627
 30
0.0
 10
3.5340771611
 20
6.0373137636
 30
0.0
 10
3.5153161566
 20
6.0384518189
 30
0.0
 10
3.4902873794
 20
6.0393876884
 30
0.0
 10
3.4590984822
 20
6.0393653045
 30
0.0
 10
3.4219776105
 20
6.0374947724
 30
0.0
 10
3.3854386678
 20
6.033849561
 30
0.0
 10
3.3497122913
 20
6.0284985268
 30
0.0
 10
3.3206278334
 20
6.0226381785
 30
0.0
 10
3.29795926
 20
6.0171573699
 30
0.0
 10
3.2813995334
 20
6.0126986683
 30
0.0
 10
3.2652044363
 20
6.0078797119
 30
0.0
 10
3.2493995658
 20
6.0027130521
 30
0.0
 10
3.2340106661
 20
5.9972113057
 30
0.0
 10
3.2190636467
 20
5.991387137
 30
0.0
 10
3.204585377
 20
5.9852536933
 30
0.0
 10
3.1906046698
 20
5.9788227932
 30
0.0
 10
3.1771514759
 20
5.9721065358
 30
0.0
 10
3.1642521343
 20
5.9651153264
 30
0.0
 10
3.1519163267
 20
5.957847908
 30
0.0
 10
3.1401254604
 20
5.9503033661
 30
0.0
 10
3.1288417301
 20
5.9424721467
 30
0.0
 10
3.1180236207
 20
5.9343423409
 30
0.0
 10
3.1076285515
 20
5.9259012259
 30
0.0
 10
3.0976115587
 20
5.9171363969
 30
0.0
 10
3.087926352
 20
5.9080346966
 30
0.0
 10
3.0785262896
 20
5.8985827471
 30
0.0
 10
3.0693643121
 20
5.8887667617
 30
0.0
 10
3.0573049571
 20
5.8750640746
 30
0.0
 10
3.045609061
 20
5.8606448322
 30
0.0
 10
3.03414575
 20
5.8455835128
 30
0.0
 10
3.0254692601
 20
5.8337428901
 30
0.0
 10
3.0167625854
 20
5.8214630056
 30
0.0
 10
3.0079914646
 20
5.8087408103
 30
0.0
 10
2.9991424075
 20
5.7956040612
 30
0.0
 10
2.9902812445
 20
5.7820806944
 30
0.0
 10
2.981495367
 20
5.7682299146
 30
0.0
 10
2.9728761395
 20
5.7541166417
 30
0.0
 10
2.9645138905
 20
5.7398039499
 30
0.0
 10
2.9564939203
 20
5.7253548573
 30
0.0
 10
2.948900259
 20
5.7108304611
 30
0.0
 10
2.9418167087
 20
5.6962914421
 30
0.0
 10
2.9353271838
 20
5.6817988663
 30
0.0
 10
2.9295170437
 20
5.6674132783
 30
0.0
 10
2.924472172
 20
5.6531962272
 30
0.0
 10
2.9216264583
 20
5.6437044972
 30
0.0
 10
2.920365911
 20
5.6390000706
 30
0.0
  0
SPLINE
  5
2A6
100
AcDbEntity
  8
0
100
AcDbSpline
 62
7
  6
CONTINUOUS
 70
0
 71
3
 72
65
 73
61
 74
0
 42
0.0000001
 43
0.0000001
 44
0.0000000001
 40
0.0
 40
0.0
 40
0.0
 40
0.0
 40
0.015627293
 40
0.0234422738
 40
0.0312569519
 40
0.0468851838
 40
0.0546995997
 40
0.0625138943
 40
0.0781421322
 40
0.0937704939
 40
0.1093985086
 40
0.1250265308
 40
0.1562795714
 40
0.1875316254
 40
0.203158224
 40
0.2187843009
 40
0.2344096702
 40
0.250034467
 40
0.2656581513
 40
0.2812813017
 40
0.2969033473
 40
0.3125246691
 40
0.3281454125
 40
0.3437656619
 40
0.3593852822
 40
0.3750047696
 40
0.3906242827
 40
0.4062440112
 40
0.4140542836
 40
0.4218646332
 40
0.4374852438
 40
0.453106101
 40
0.4687275884
 40
0.4999679048
 40
0.5312108351
 40
0.5624559756
 40
0.578080427
 40
0.5937050868
 40
0.624953732
 40
0.6562037716
 40
0.6718298173
 40
0.6874561404
 40
0.7030827915
 40
0.7187095829
 40
0.7499625225
 40
0.7655896296
 40
0.7812169571
 40
0.7968446034
 40
0.8124723667
 40
0.843726838
 40
0.8593546478
 40
0.8749826191
 40
0.8906105995
 40
0.9062382822
 40
0.9218656198
 40
0.9374930958
 40
0.9531204301
 40
0.9687470246
 40
0.9843735078
 40
1.0
 40
1.0
 40
1.0
 40
1.0
 10
3.1631647681
 20
5.5739423129
 30
0.0
 10
3.1640770496
 20
5.5773158946
 30
0.0
 10
3.1655527801
 20
5.582348272
 30
0.0
 10
3.1677113989
 20
5.5889969155
 30
0.0
 10
3.1699901
 20
5.5956056818
 30
0.0
 10
3.1724402303
 20
5.6021539648
 30
0.0
 10
3.1750455638
 20
5.6086405417
 30
0.0
 10
3.177749233
 20
5.6150867953
 30
0.0
 10
3.1813069249
 20
5.6230686104
 30
0.0
 10
3.1858406925
 20
5.6325239389
 30
0.0
 10
3.190622091
 20
5.6418564395
 30
0.0
 10
3.1973123063
 20
5.6541319443
 30
0.0
 10
3.206238988
 20
5.6691611825
 30
0.0
 10
3.2158789645
 20
5.6837425766
 30
0.0
 10
3.2240054316
 20
5.6951170081
 30
0.0
 10
3.2303064492
 20
5.7034968833
 30
0.0
 10
3.2368153607
 20
5.7117158007
 30
0.0
 10
3.2435328471
 20
5.7197645967
 30
0.0
 10
3.2504678434
 20
5.7276263229
 30
0.0
 10
3.257628405
 20
5.7352825815
 30
0.0
 10
3.2650246126
 20
5.7427110922
 30
0.0
 10
3.2726672471
 20
5.7498853949
 30
0.0
 10
3.2805578676
 20
5.7567856291
 30
0.0
 10
3.2886944525
 20
5.7633936786
 30
0.0
 10
3.2970740679
 20
5.7696905034
 30
0.0
 10
3.3056921562
 20
5.77565675
 30
0.0
 10
3.3145390837
 20
5.7812781083
 30
0.0
 10
3.3220934291
 20
5.7856640633
 30
0.0
 10
3.3282388118
 20
5.7889880259
 30
0.0
 10
3.3344501826
 20
5.792187425
 30
0.0
 10
3.3423307085
 20
5.7959566852
 30
0.0
 10
3.351950401
 20
5.8001210309
 30
0.0
 10
3.364964785
 20
5.8052142305
 30
0.0
 10
3.3815406594
 20
5.8107618244
 30
0.0
 10
3.4017872205
 20
5.8162258968
 30
0.0
 10
3.4188773337
 20
5.8198801203
 30
0.0
 10
3.4326416035
 20
5.8223076591
 30
0.0
 10
3.4464589838
 20
5.824417747
 30
0.0
 10
3.4638134333
 20
5.8264802012
 30
0.0
 10
3.4812373974
 20
5.8278270037
 30
0.0
 10
3.4951992185
 20
5.8285030569
 30
0.0
 10
3.5056788413
 20
5.828814314
 30
0.0
 10
3.516162532
 20
5.8289345959
 30
0.0
 10
3.5301412074
 20
5.8288467098
 30
0.0
 10
3.5441156328
 20
5.828392067
 30
0.0
 10
3.5580712404
 20
5.8275821262
 30
0.0
 10
3.5685269534
 20
5.8268016177
 30
0.0
 10
3.5789688374
 20
5.8258526692
 30
0.0
 10
3.5928695742
 20
5.8243699171
 30
0.0
 10
3.6067342031
 20
5.8225622249
 30
0.0
 10
3.6205497192
 20
5.8204259484
 30
0.0
 10
3.6308850488
 20
5.8186598083
 30
0.0
 10
3.6411915164
 20
5.816732797
 30
0.0
 10
3.6514668843
 20
5.814646981
 30
0.0
 10
3.6617094268
 20
5.8124063108
 30
0.0
 10
3.6719207273
 20
5.8100280345
 30
0.0
 10
3.6821027219
 20
5.8075281789
 30
0.0
 10
3.692257881
 20
5.8049227129
 30
0.0
 10
3.7023949559
 20
5.8022488721
 30
0.0
 10
3.7091474587
 20
5.8004455631
 30
0.0
 10
3.7125239778
 20
5.7995449089
 30
0.0
  0
LINE
  5
2A7
100
AcDbEntity
  8
0
100
AcDbLine
 62
7
  6
CONTINUOUS
 10
5.7276654886
 20
6.1338146492
 11
5.7256895363
 21
6.1337746848
  0
SPLINE
  5
2A8
100
AcDbEntity
  8
0
100
AcDbSpline
 62
7
  6
CONTINUOUS
 70
0
 71
3
 72
15
 73
11
 74
0
 42
0.0000001
 43
0.0000001
 44
0.0000000001
 40
0.0
 40
0.0
 40
0.0
 40
0.0
 40
0.1258005866
 40
0.2513477998
 40
0.3766422035
 40
0.5017069288
 40
0.6265574285
 40
0.7512113391
 40
0.8756939502
 40
1.0
 40
1.0
 40
1.0
 40
1.0
 10
5.7276654886
 20
6.1338146492
 30
0.0
 10
5.7311406493
 20
6.1360608027
 30
0.0
 10
5.7382152901
 20
6.1403492661
 30
0.0
 10
5.7491746578
 20
6.1461406957
 30
0.0
 10
5.7604356251
 20
6.1512641355
 30
0.0
 10
5.7719566787
 20
6.1557083435
 30
0.0
 10
5.7836951969
 20
6.1594720701
 30
0.0
 10
5.7956083352
 20
6.1625633165
 30
0.0
 10
5.8076539217
 20
6.1649970291
 30
0.0
 10
5.8157531614
 20
6.166195649
 30
0.0
 10
5.8198115927
 20
6.1666923129
 30
0.0
  0
SPLINE
  5
2A9
100
AcDbEntity
  8
0
100
AcDbSpline
 62
7
  6
CONTINUOUS
 70
0
 71
3
 72
17
 73
13
 74
0
 42
0.0000001
 43
0.0000001
 44
0.0000000001
 40
0.0
 40
0.0
 40
0.0
 40
0.0
 40
0.1850769111
 40
0.3550380335
 40
0.5087529934
 40
0.6451587121
 40
0.7632665516
 40
0.862216617
 40
0.9042818647
 40
0.941307488
 40
0.973230523
 40
1.0
 40
1.0
 40
1.0
 40
1.0
 10
5.9244899143
 20
6.1335821995
 30
0.0
 10
5.924655072
 20
6.1356303505
 30
0.0
 10
5.9249871949
 20
6.1395581652
 30
0.0
 10
5.9255119771
 20
6.1451821897
 30
0.0
 10
5.9260331945
 20
6.1502636194
 30
0.0
 10
5.926538196
 20
6.1547677837
 30
0.0
 10
5.927011267
 20
6.158663515
 30
0.0
 10
5.9273814266
 20
6.1615165157
 30
0.0
 10
5.9276434803
 20
6.1634757508
 30
0.0
 10
5.9278079097
 20
6.1646972558
 30
0.0
 10
5.9279479025
 20
6.1657506948
 30
0.0
 10
5.9280297362
 20
6.1663971792
 30
0.0
 10
5.9280647681
 20
6.1666923129
 30
0.0
  0
LINE
  5
2AA
100
AcDbEntity
  8
0
100
AcDbLine
 62
7
  6
CONTINUOUS
 10
5.9244899143
 20
6.1335821995
 11
5.7311975982
 21
6.1336775144
  0
SPLINE
  5
2AB
100
AcDbEntity
  8
0
100
AcDbSpline
 62
7
  6
CONTINUOUS
 70
0
 71
3
 72
15
 73
11
 74
0
 42
0.0000001
 43
0.0000001
 44
0.0000000001
 40
0.0
 40
0.0
 40
0.0
 40
0.0
 40
0.1246444203
 40
0.2490097726
 40
0.3732719975
 40
0.497633794
 40
0.6223009075
 40
0.7474701722
 40
0.8733217959
 40
1.0
 40
1.0
 40
1.0
 40
1.0
 10
5.7315991819
 20
6.133966054
 30
0.0
 10
5.7348611536
 20
6.1361877927
 30
0.0
 10
5.7415089718
 20
6.140437465
 30
0.0
 10
5.7518399645
 20
6.1461934688
 30
0.0
 10
5.7624992047
 20
6.1512968753
 30
0.0
 10
5.7734639223
 20
6.155731109
 30
0.0
 10
5.7847081426
 20
6.1594900675
 30
0.0
 10
5.7962033397
 20
6.1625779886
 30
0.0
 10
5.807919521
 20
6.1650079261
 30
0.0
 10
5.8158309897
 20
6.1661985064
 30
0.0
 10
5.8198115927
 20
6.1666923129
 30
0.0
  0
SPLINE
  5
2AC
100
AcDbEntity
  8
0
100
AcDbSpline
 62
7
  6
CONTINUOUS
 70
0
 71
3
 72
17
 73
13
 74
0
 42
0.0000001
 43
0.0000001
 44
0.0000000001
 40
0.0
 40
0.0
 40
0.0
 40
0.0
 40
0.1850769139
 40
0.3550380478
 40
0.5087530074
 40
0.6451587311
 40
0.7632665728
 40
0.8622166307
 40
0.9042818722
 40
0.9413074894
 40
0.9732305241
 40
1.0
 40
1.0
 40
1.0
 40
1.0
 10
5.931639624
 20
6.1335821835
 30
0.0
 10
5.9314744666
 20
6.1356303356
 30
0.0
 10
5.9311423433
 20
6.1395581523
 30
0.0
 10
5.9306175605
 20
6.1451821797
 30
0.0
 10
5.9300963427
 20
6.150263612
 30
0.0
 10
5.92959134
 20
6.1547677784
 30
0.0
 10
5.929118268
 20
6.1586635116
 30
0.0
 10
5.9287481086
 20
6.1615165135
 30
0.0
 10
5.9284860557
 20
6.1634757494
 30
0.0
 10
5.9283216264
 20
6.164697255
 30
0.0
 10
5.9281816337
 20
6.1657506944
 30
0.0
 10
5.9280998
 20
6.1663971791
 30
0.0
 10
5.9280647681
 20
6.166692313
 30
0.0
  0
SPLINE
  5
2AD
100
AcDbEntity
  8
0
100
AcDbSpline
 62
7
  6
CONTINUOUS
 70
0
 71
3
 72
15
 73
11
 74
0
 42
0.0000001
 43
0.0000001
 44
0.0000000001
 40
0.0
 40
0.0
 40
0.0
 40
0.0
 40
0.1246444058
 40
0.2490097471
 40
0.3732719757
 40
0.4976337785
 40
0.6223008997
 40
0.7474701726
 40
0.8733217974
 40
1.0
 40
1.0
 40
1.0
 40
1.0
 10
6.124530355
 20
6.1339660526
 30
0.0
 10
6.1212683845
 20
6.1361877922
 30
0.0
 10
6.1146205669
 20
6.1404374645
 30
0.0
 10
6.104289575
 20
6.1461934687
 30
0.0
 10
6.0936303347
 20
6.1512968751
 30
0.0
 10
6.0826656163
 20
6.155731109
 30
0.0
 10
6.0714213951
 20
6.1594900675
 30
0.0
 10
6.0599261972
 20
6.1625779886
 30
0.0
 10
6.0482100154
 20
6.1650079261
 30
0.0
 10
6.0402985466
 20
6.1661985058
 30
0.0
 10
6.0363179436
 20
6.1666923129
 30
0.0
  0
LINE
  5
2AE
100
AcDbEntity
  8
0
100
AcDbLine
 62
7
  6
CONTINUOUS
 10
6.12495164
 20
6.1336629282
 11
5.931639624
 21
6.1335821835
  0
LINE
  5
2AF
100
AcDbEntity
  8
0
100
AcDbLine
 62
7
  6
CONTINUOUS
 10
6.13044
 20
6.1337746848
 11
6.128464058
 21
6.1338146425
  0
SPLINE
  5
2B0
100
AcDbEntity
  8
0
100
AcDbSpline
 62
7
  6
CONTINUOUS
 70
0
 71
3
 72
15
 73
11
 74
0
 42
0.0000001
 43
0.0000001
 44
0.0000000001
 40
0.0
 40
0.0
 40
0.0
 40
0.0
 40
0.1258005935
 40
0.2513478009
 40
0.376642193
 40
0.5017069226
 40
0.6265574271
 40
0.7512113418
 40
0.8756939525
 40
1.0
 40
1.0
 40
1.0
 40
1.0
 10
6.128464058
 20
6.1338146425
 30
0.0
 10
6.1249888976
 20
6.1360607979
 30
0.0
 10
6.1179142552
 20
6.140349261
 30
0.0
 10
6.1069548865
 20
6.1461406913
 30
0.0
 10
6.0956939185
 20
6.1512641325
 30
0.0
 10
6.0841728636
 20
6.1557083415
 30
0.0
 10
6.0724343436
 20
6.1594720689
 30
0.0
 10
6.0605212035
 20
6.1625633163
 30
0.0
 10
6.0484756152
 20
6.1649970287
 30
0.0
 10
6.0403763746
 20
6.1661956484
 30
0.0
 10
6.0363179429
 20
6.166692313
 30
0.0
  0
SPLINE
  5
2B1
100
AcDbEntity
  8
0
100
AcDbSpline
 62
7
  6
CONTINUOUS
 70
0
 71
3
 72
27
 73
23
 74
0
 42
0.0000001
 43
0.0000001
 44
0.0000000001
 40
0.0
 40
0.0
 40
0.0
 40
0.0
 40
0.0285207516
 40
0.0571213706
 40
0.0858330496
 40
0.1147027809
 40
0.1730245401
 40
0.2323783803
 40
0.2625151088
 40
0.2929597902
 40
0.3547442592
 40
0.4177269835
 40
0.4817732526
 40
0.5466722474
 40
0.6121546351
 40
0.6450347213
 40
0.6779431456
 40
0.7436498159
 40
0.8089825778
 40
0.873643758
 40
0.9373777542
 40
1.0
 40
1.0
 40
1.0
 40
1.0
 10
5.8198115923
 20
6.166692313
 30
0.0
 10
5.8203219755
 20
6.1667137349
 30
0.0
 10
5.8213429013
 20
6.1667985262
 30
0.0
 10
5.8228611376
 20
6.1670500952
 30
0.0
 10
5.824360277
 20
6.1674251999
 30
0.0
 10
5.8263291343
 20
6.1680891474
 30
0.0
 10
5.8287093587
 20
6.1692224361
 30
0.0
 10
5.8309060637
 20
6.1707188587
 30
0.0
 10
5.8325389829
 20
6.1721170933
 30
0.0
 10
5.8340977097
 20
6.1736602069
 30
0.0
 10
5.8358597726
 20
6.1758230804
 30
0.0
 10
5.8376253895
 20
6.1787188465
 30
0.0
 10
5.8390198117
 20
6.1818715163
 30
0.0
 10
5.8400156284
 20
6.1852178209
 30
0.0
 10
5.8404968398
 20
6.1881102998
 30
0.0
 10
5.8406680618
 20
6.190456503
 30
0.0
 10
5.8406954737
 20
6.1928128101
 30
0.0
 10
5.840459761
 20
6.1957478262
 30
0.0
 10
5.8397504502
 20
6.1991894222
 30
0.0
 10
5.8386283261
 20
6.2024828158
 30
0.0
 10
5.8371157503
 20
6.2055617968
 30
0.0
 10
5.8358534136
 20
6.2074500645
 30
0.0
 10
5.8351668178
 20
6.2083369808
 30
0.0
  0
SPLINE
  5
2B2
100
AcDbEntity
  8
0
100
AcDbSpline
 62
7
  6
CONTINUOUS
 70
0
 71
3
 72
27
 73
23
 74
0
 42
0.0000001
 43
0.0000001
 44
0.0000000001
 40
0.0
 40
0.0
 40
0.0
 40
0.0
 40
0.0285206684
 40
0.0571212121
 40
0.0858328247
 40
0.1147024989
 40
0.1730241733
 40
0.2323779682
 40
0.2625146881
 40
0.2929593694
 40
0.3547438609
 40
0.4177266319
 40
0.4817729639
 40
0.5466720298
 40
0.6121544888
 40
0.6450346086
 40
0.677943064
 40
0.7436497868
 40
0.8089825847
 40
0.8736437817
 40
0.9373777751
 40
1.0
 40
1.0
 40
1.0
 40
1.0
 10
6.0363179433
 20
6.166692313
 30
0.0
 10
6.0358075621
 20
6.166713735
 30
0.0
 10
6.0347866402
 20
6.1667985264
 30
0.0
 10
6.0332684094
 20
6.1670500954
 30
0.0
 10
6.0317692753
 20
6.1674252003
 30
0.0
 10
6.0298004241
 20
6.1680891479
 30
0.0
 10
6.0274202063
 20
6.169222437
 30
0.0
 10
6.0252235073
 20
6.1707188596
 30
0.0
 10
6.0235905919
 20
6.1721170939
 30
0.0
 10
6.0220318678
 20
6.1736602078
 30
0.0
 10
6.0202698075
 20
6.1758230814
 30
0.0
 10
6.0185041921
 20
6.1787188474
 30
0.0
 10
6.0171097696
 20
6.1818715169
 30
0.0
 10
6.0161139511
 20
6.1852178213
 30
0.0
 10
6.0156327368
 20
6.1881103001
 30
0.0
 10
6.0154615119
 20
6.1904565032
 30
0.0
 10
6.0154340967
 20
6.1928128101
 30
0.0
 10
6.0156698046
 20
6.195747826
 30
0.0
 10
6.0163791087
 20
6.1991894218
 30
0.0
 10
6.0175012255
 20
6.2024828153
 30
0.0
 10
6.0190137936
 20
6.2055617964
 30
0.0
 10
6.0202761253
 20
6.2074500644
 30
0.0
 10
6.0209627186
 20
6.2083369807
 30
0.0
  0
SPLINE
  5
2B3
100
AcDbEntity
  8
0
100
AcDbSpline
 62
7
  6
CONTINUOUS
 70
0
 71
3
 72
18
 73
14
 74
0
 42
0.0000001
 43
0.0000001
 44
0.0000000001
 40
0.0
 40
0.0
 40
0.0
 40
0.0
 40
0.1177827725
 40
0.2365317326
 40
0.2966057203
 40
0.3572249567
 40
0.4184616221
 40
0.480370266
 40
0.6062246115
 40
0.734958165
 40
0.8003875751
 40
0.8664299734
 40
1.0
 40
1.0
 40
1.0
 40
1.0
 10
3.3082554306
 20
5.4211850073
 30
0.0
 10
3.3091450676
 20
5.4209466319
 30
0.0
 10
3.3109801092
 20
5.4206325284
 30
0.0
 10
3.3133123497
 20
5.4206654059
 30
0.0
 10
3.3151664122
 20
5.4209407334
 30
0.0
 10
3.316551711
 20
5.4212725581
 30
0.0
 10
3.3179168816
 20
5.4217267678
 30
0.0
 10
3.3197079785
 20
5.4224953475
 30
0.0
 10
3.3218538998
 20
5.4237513683
 30
0.0
 10
3.3237967452
 20
5.4253448305
 30
0.0
 10
3.3252168093
 20
5.4268043557
 30
0.0
 10
3.3265495848
 20
5.4283933326
 30
0.0
 10
3.3274203118
 20
5.4296972503
 30
0.0
 10
3.3279381816
 20
5.4306042943
 30
0.0
  0
SPLINE
  5
2B4
100
AcDbEntity
  8
0
100
AcDbSpline
 62
7
  6
CONTINUOUS
 70
0
 71
3
 72
36
 73
32
 74
0
 42
0.0000001
 43
0.0000001
 44
0.0000000001
 40
0.0
 40
0.0
 40
0.0
 40
0.0
 40
0.0000575181
 40
0.000230237
 40
0.0005181846
 40
0.0009213892
 40
0.001439879
 40
0.0020736823
 40
0.0036873422
 40
0.0057625954
 40
0.0082996691
 40
0.0112987907
 40
0.0147601887
 40
0.0186842258
 40
0.0230716221
 40
0.0332396115
 40
0.0452704137
 40
0.0591703097
 40
0.0749462638
 40
0.092608821
 40
0.1121697641
 40
0.1336409277
 40
0.1823642927
 40
0.2389132951
 40
0.3034481583
 40
0.3761485849
 40
0.4572555378
 40
0.5470274018
 40
0.6457850918
 40
0.7539126669
 40
1.0
 40
1.0
 40
1.0
 40
1.0
 10
5.7433283931
 20
6.2516077572
 30
0.0
 10
5.7433281482
 20
6.2516078043
 30
0.0
 10
5.7433302286
 20
6.2516083043
 30
0.0
 10
5.7433311852
 20
6.2516090494
 30
0.0
 10
5.7433352844
 20
6.2516105481
 30
0.0
 10
5.7433398473
 20
6.2516125277
 30
0.0
 10
5.7433461866
 20
6.2516151233
 30
0.0
 10
5.7433572109
 20
6.2516197167
 30
0.0
 10
5.7433745524
 20
6.2516269155
 30
0.0
 10
5.7433994589
 20
6.251637292
 30
0.0
 10
5.743429924
 20
6.2516499982
 30
0.0
 10
5.7434659198
 20
6.2516650393
 30
0.0
 10
5.7435074567
 20
6.2516824242
 30
0.0
 10
5.7435545333
 20
6.2517021624
 30
0.0
 10
5.7436284058
 20
6.2517331984
 30
0.0
 10
5.7437346297
 20
6.251777982
 30
0.0
 10
5.7438787535
 20
6.2518390423
 30
0.0
 10
5.7440451357
 20
6.2519098975
 30
0.0
 10
5.7442338304
 20
6.2519906822
 30
0.0
 10
5.7444448944
 20
6.2520815846
 30
0.0
 10
5.7446784028
 20
6.2521828018
 30
0.0
 10
5.7450350973
 20
6.2523384672
 30
0.0
 10
5.7455379155
 20
6.2525602696
 30
0.0
 10
5.746209833
 20
6.2528613569
 30
0.0
 10
5.7469743865
 20
6.2532099162
 30
0.0
 10
5.7478331159
 20
6.2536085509
 30
0.0
 10
5.7487877379
 20
6.25406044
 30
0.0
 10
5.749840519
 20
6.2545689594
 30
0.0
 10
5.7509942202
 20
6.2551378281
 30
0.0
 10
5.7527485582
 20
6.2560210339
 30
0.0
 10
5.7541114196
 20
6.2567294301
 30
0.0
 10
5.7550546744
 20
6.2572282739
 30
0.0
  0
SPLINE
  5
2B5
100
AcDbEntity
  8
0
100
AcDbSpline
 62
7
  6
CONTINUOUS
 70
0
 71
3
 72
18
 73
14
 74
0
 42
0.0000001
 43
0.0000001
 44
0.0000000001
 40
0.0
 40
0.0
 40
0.0
 40
0.0
 40
0.1177829849
 40
0.2365321292
 40
0.2966061895
 40
0.357225482
 40
0.4184621846
 40
0.4803708455
 40
0.6062251606
 40
0.7349585989
 40
0.8003879227
 40
0.8664302181
 40
1.0
 40
1.0
 40
1.0
 40
1.0
 10
2.9611337698
 20
5.514195976
 30
0.0
 10
2.960244133
 20
5.514434359
 30
0.0
 10
2.9584978875
 20
5.5150798645
 30
0.0
 10
2.9564945458
 20
5.5162744637
 30
0.0
 10
2.955026544
 20
5.5174399395
 30
0.0
 10
2.9539927525
 20
5.5184199599
 30
0.0
 10
2.9530375852
 20
5.519495904
 30
0.0
 10
2.9518707405
 20
5.5210570632
 30
0.0
 10
2.9506403299
 20
5.5232177698
 30
0.0
 10
2.9497545092
 20
5.5255691704
 30
0.0
 10
2.9492544619
 20
5.5275431866
 30
0.0
 10
2.9488947351
 20
5.529585666
 30
0.0
 10
2.948792624
 20
5.5311502531
 30
0.0
 10
2.9487976591
 20
5.5321947093
 30
0.0
  0
SPLINE
  5
2B6
100
AcDbEntity
  8
0
100
AcDbSpline
 62
7
  6
CONTINUOUS
 70
0
 71
3
 72
23
 73
19
 74
0
 42
0.0000001
 43
0.0000001
 44
0.0000000001
 40
0.0
 40
0.0
 40
0.0
 40
0.0
 40
0.075926615
 40
0.1502873378
 40
0.2229945004
 40
0.2939762266
 40
0.3631628774
 40
0.4304899241
 40
0.4959027466
 40
0.5593583512
 40
0.620829388
 40
0.6803100522
 40
0.7378230474
 40
0.7934289454
 40
0.8472378432
 40
0.8994215364
 40
0.9502310176
 40
1.0
 40
1.0
 40
1.0
 40
1.0
 10
5.6435147681
 20
1.8251923129
 30
0.0
 10
5.6381352723
 20
1.8251923129
 30
0.0
 10
5.6274870895
 20
1.8252578954
 30
0.0
 10
5.6116901181
 20
1.8255621278
 30
0.0
 10
5.5962490405
 20
1.8260765419
 30
0.0
 10
5.5811837371
 20
1.826810119
 30
0.0
 10
5.5665134028
 20
1.827776252
 30
0.0
 10
5.5522573476
 20
1.8289914118
 30
0.0
 10
5.5384349462
 20
1.8304767706
 30
0.0
 10
5.5250655794
 20
1.832257633
 30
0.0
 10
5.5121686687
 20
1.8343632694
 30
0.0
 10
5.4997638507
 20
1.8368281094
 30
0.0
 10
5.487870908
 20
1.8396911109
 30
0.0
 10
5.4765097449
 20
1.8429959611
 30
0.0
 10
5.4657007551
 20
1.8467913635
 30
0.0
 10
5.4554642125
 20
1.8511307046
 30
0.0
 10
5.4458225098
 20
1.8560703735
 30
0.0
 10
5.4397581959
 20
1.8598328092
 30
0.0
 10
5.4368493328
 20
1.8618259387
 30
0.0
  0
SPLINE
  5
2B7
100
AcDbEntity
  8
0
100
AcDbSpline
 62
7
  6
CONTINUOUS
 70
0
 71
3
 72
13
 73
9
 74
0
 42
0.0000001
 43
0.0000001
 44
0.0000000001
 40
0.0
 40
0.0
 40
0.0
 40
0.0
 40
0.2852921692
 40
0.5426151785
 40
0.6625926343
 40
0.777986978
 40
0.8900137692
 40
1.0
 40
1.0
 40
1.0
 40
1.0
 10
6.1245303543
 20
6.1339660504
 30
0.0
 10
6.1248970107
 20
6.1340849051
 30
0.0
 10
6.1256109666
 20
6.1342649388
 30
0.0
 10
6.126509957
 20
6.1343305962
 30
0.0
 10
6.1271741664
 20
6.1342702308
 30
0.0
 10
6.1276346409
 20
6.1341735061
 30
0.0
 10
6.1280666848
 20
6.1340244422
 30
0.0
 10
6.1283359267
 20
6.1338898807
 30
0.0
 10
6.1284640624
 20
6.1338146363
 30
0.0
  0
SPLINE
  5
2B8
100
AcDbEntity
  8
0
100
AcDbSpline
 62
7
  6
CONTINUOUS
 70
0
 71
3
 72
13
 73
9
 74
0
 42
0.0000001
 43
0.0000001
 44
0.0000000001
 40
0.0
 40
0.0
 40
0.0
 40
0.0
 40
0.2795552476
 40
0.5355502298
 40
0.6563100786
 40
0.7732770962
 40
0.8874778268
 40
1.0
 40
1.0
 40
1.0
 40
1.0
 10
6.1249516401
 20
6.1336629279
 30
0.0
 10
6.1253782925
 20
6.1337643266
 30
0.0
 10
6.126211012
 20
6.1339020199
 30
0.0
 10
6.1272474267
 20
6.1338899538
 30
0.0
 10
6.1280120557
 20
6.1337582179
 30
0.0
 10
6.128543481
 20
6.1336040818
 30
0.0
 10
6.1290410241
 20
6.1333931977
 30
0.0
 10
6.1293499148
 20
6.1332147217
 30
0.0
 10
6.1294968896
 20
6.1331169714
 30
0.0
  0
SPLINE
  5
2B9
100
AcDbEntity
  8
0
100
AcDbSpline
 62
7
  6
CONTINUOUS
 70
0
 71
3
 72
24
 73
20
 74
0
 42
0.0000001
 43
0.0000001
 44
0.0000000001
 40
0.0
 40
0.0
 40
0.0
 40
0.0
 40
0.2116650915
 40
0.4032238637
 40
0.4904708631
 40
0.571559355
 40
0.6461594516
 40
0.7139888056
 40
0.7747939422
 40
0.8283735347
 40
0.8745696203
 40
0.913307654
 40
0.9446162823
 40
0.9575603528
 40
0.9687737805
 40
0.9783684158
 40
0.9865345028
 40
0.9935844194
 40
1.0
 40
1.0
 40
1.0
 40
1.0
 10
6.1324655209
 20
6.1157483905
 30
0.0
 10
6.1330024832
 20
6.1157735467
 30
0.0
 10
6.1340258211
 20
6.1158130789
 30
0.0
 10
6.1352713435
 20
6.1158361072
 30
0.0
 10
6.1361853685
 20
6.1158350537
 30
0.0
 10
6.1368022836
 20
6.1158252694
 30
0.0
 10
6.1373696602
 20
6.1158065317
 30
0.0
 10
6.137885107
 20
6.115778967
 30
0.0
 10
6.1383465031
 20
6.115742714
 30
0.0
 10
6.1387519395
 20
6.1156980099
 30
0.0
 10
6.1390998702
 20
6.1156451307
 30
0.0
 10
6.1393889234
 20
6.1155844024
 30
0.0
 10
6.139591496
 20
6.1155245163
 30
0.0
 10
6.1397218169
 20
6.1154706929
 30
0.0
 10
6.139797965
 20
6.1154310161
 30
0.0
 10
6.1398589198
 20
6.1153893877
 30
0.0
 10
6.1399047289
 20
6.1153455584
 30
0.0
 10
6.139935181
 20
6.1152991032
 30
0.0
 10
6.1399447008
 20
6.1152655271
 30
0.0
 10
6.1399464108
 20
6.1152493239
 30
0.0
  0
SPLINE
  5
2BA
100
AcDbEntity
  8
0
100
AcDbSpline
 62
7
  6
CONTINUOUS
 70
0
 71
3
 72
21
 73
17
 74
0
 42
0.0000001
 43
0.0000001
 44
0.0000000001
 40
0.0
 40
0.0
 40
0.0
 40
0.0
 40
0.2076091638
 40
0.3963454979
 40
0.5633034534
 40
0.7059467416
 40
0.7674655132
 40
0.8221421605
 40
0.8697838842
 40
0.9102397941
 40
0.9434069475
 40
0.9692573682
 40
0.9794733812
 40
0.987929194
 40
0.9947118305
 40
1.0
 40
1.0
 40
1.0
 40
1.0
 10
6.1325221586
 20
6.1149254133
 30
0.0
 10
6.1330381571
 20
6.1149615872
 30
0.0
 10
6.1340235902
 20
6.115025892
 30
0.0
 10
6.1354251212
 20
6.1151007746
 30
0.0
 10
6.1366658568
 20
6.1151489304
 30
0.0
 10
6.1375904266
 20
6.1151673898
 30
0.0
 10
6.1382353545
 20
6.115166463
 30
0.0
 10
6.1386435162
 20
6.1151588301
 30
0.0
 10
6.1389989777
 20
6.1151443281
 30
0.0
 10
6.139300447
 20
6.1151231438
 30
0.0
 10
6.1395467838
 20
6.1150954021
 30
0.0
 10
6.1397169459
 20
6.1150654803
 30
0.0
 10
6.1398240994
 20
6.1150365044
 30
0.0
 10
6.1398838608
 20
6.1150149068
 30
0.0
 10
6.1399296228
 20
6.1149918149
 30
0.0
 10
6.1399536957
 20
6.1149730783
 30
0.0
 10
6.1399624482
 20
6.1149632298
 30
0.0
  0
SPLINE
  5
2BB
100
AcDbEntity
  8
0
100
AcDbSpline
 62
7
  6
CONTINUOUS
 70
0
 71
3
 72
9
 73
5
 74
0
 42
0.0000001
 43
0.0000001
 44
0.0000000001
 40
0.0
 40
0.0
 40
0.0
 40
0.0
 40
0.2752162738
 40
1.0
 40
1.0
 40
1.0
 40
1.0
 10
6.1399624482
 20
6.1149632298
 30
0.0
 10
6.1399650261
 20
6.1149603291
 30
0.0
 10
6.139973806
 20
6.1149493247
 30
0.0
 10
6.1399795775
 20
6.1149356212
 30
0.0
 10
6.1399806557
 20
6.1149254583
 30
0.0
  0
LINE
  5
2BC
100
AcDbEntity
  8
0
100
AcDbLine
 62
7
  6
CONTINUOUS
 10
5.7161488827
 20
6.1149254582
 11
5.7168595908
 21
6.1151238756
  0
LINE
  5
2BD
100
AcDbEntity
  8
0
100
AcDbLine
 62
7
  6
CONTINUOUS
 10
5.7168595908
 20
6.1151238756
 11
5.7236072171
 21
6.1149254473
  0
SPLINE
  5
2BE
100
AcDbEntity
  8
0
100
AcDbSpline
 62
7
  6
CONTINUOUS
 70
0
 71
3
 72
23
 73
19
 74
0
 42
0.0000001
 43
0.0000001
 44
0.0000000001
 40
0.0
 40
0.0
 40
0.0
 40
0.0
 40
0.0630633782
 40
0.1259310444
 40
0.1886284073
 40
0.2511810828
 40
0.3136148651
 40
0.3759556959
 40
0.4382296331
 40
0.5004628187
 40
0.5626814458
 40
0.6249117262
 40
0.6871798568
 40
0.7495119869
 40
0.8119341852
 40
0.874472408
 40
0.9371524671
 40
1.0
 40
1.0
 40
1.0
 40
1.0
 10
3.6605922248
 20
5.6057333616
 30
0.0
 10
3.6916031081
 20
5.5990900704
 30
0.0
 10
3.753398573
 20
5.5852081337
 30
0.0
 10
3.8455234198
 20
5.5625637886
 30
0.0
 10
3.9369252658
 20
5.5381327426
 30
0.0
 10
4.0276035812
 20
5.511915094
 30
0.0
 10
4.1175584455
 20
5.4839108136
 30
0.0
 10
4.2067897753
 20
5.4541199114
 30
0.0
 10
4.2952975305
 20
5.4225423921
 30
0.0
 10
4.3830816601
 20
5.3891782669
 30
0.0
 10
4.4701421169
 20
5.3540275504
 30
0.0
 10
4.5564788549
 20
5.3170902609
 30
0.0
 10
4.6420918273
 20
5.2783664219
 30
0.0
 10
4.7269809995
 20
5.2378560543
 30
0.0
 10
4.8111463009
 20
5.1955592055
 30
0.0
 10
4.8945878084
 20
5.1514758395
 30
0.0
 10
4.9773050589
 20
5.1056062457
 30
0.0
 10
5.0318879094
 20
5.0738816975
 30
0.0
 10
5.0590531383
 20
5.0577266605
 30
0.0
  0
LINE
  5
2BF
100
AcDbEntity
  8
0
100
AcDbLine
 62
7
  6
CONTINUOUS
 10
5.7161849693
 20
6.1152491297
 11
5.7163307205
 21
6.1154272772
  0
SPLINE
  5
2C0
100
AcDbEntity
  8
0
100
AcDbSpline
 62
7
  6
CONTINUOUS
 70
0
 71
3
 72
18
 73
14
 74
0
 42
0.0000001
 43
0.0000001
 44
0.0000000001
 40
0.0
 40
0.0
 40
0.0
 40
0.0
 40
0.0214100562
 40
0.0484514181
 40
0.081338623
 40
0.1201260856
 40
0.1647879017
 40
0.2152450497
 40
0.3330286155
 40
0.4722018769
 40
0.6310966865
 40
0.8077769906
 40
1.0
 40
1.0
 40
1.0
 40
1.0
 10
5.7163307205
 20
6.1154272772
 30
0.0
 10
5.7163757841
 20
6.1154545529
 30
0.0
 10
5.7164847116
 20
6.1155045777
 30
0.0
 10
5.7166754313
 20
6.1155657875
 30
0.0
 10
5.7169120903
 20
6.1156213271
 30
0.0
 10
5.7171940804
 20
6.1156709189
 30
0.0
 10
5.717520738
 20
6.1157143282
 30
0.0
 10
5.7180420232
 20
6.1157663455
 30
0.0
 10
5.7187972965
 20
6.1158112274
 30
0.0
 10
5.7198202259
 20
6.1158365901
 30
0.0
 10
5.7209883648
 20
6.1158348568
 30
0.0
 10
5.7222866579
 20
6.1158059133
 30
0.0
 10
5.7231936072
 20
6.1157699718
 30
0.0
 10
5.7236660161
 20
6.115747832
 30
0.0
  0
SPLINE
  5
2C1
100
AcDbEntity
  8
0
100
AcDbSpline
 62
7
  6
CONTINUOUS
 70
0
 71
3
 72
13
 73
9
 74
0
 42
0.0000001
 43
0.0000001
 44
0.0000000001
 40
0.0
 40
0.0
 40
0.0
 40
0.0
 40
0.112521275
 40
0.2267219636
 40
0.3436896879
 40
0.4644502201
 40
0.7204450398
 40
1.0
 40
1.0
 40
1.0
 40
1.0
 10
5.7266326217
 20
6.1331169961
 30
0.0
 10
5.7267795974
 20
6.1332147437
 30
0.0
 10
5.7270884904
 20
6.1333932149
 30
0.0
 10
5.7275860374
 20
6.1336040932
 30
0.0
 10
5.7281174674
 20
6.1337582262
 30
0.0
 10
5.7288821014
 20
6.1338899596
 30
0.0
 10
5.7299185197
 20
6.1339020191
 30
0.0
 10
5.7307512409
 20
6.1337643258
 30
0.0
 10
5.7311778943
 20
6.1336629273
 30
0.0
  0
SPLINE
  5
2C2
100
AcDbEntity
  8
0
100
AcDbSpline
 62
7
  6
CONTINUOUS
 70
0
 71
3
 72
13
 73
9
 74
0
 42
0.0000001
 43
0.0000001
 44
0.0000000001
 40
0.0
 40
0.0
 40
0.0
 40
0.0
 40
0.1099862526
 40
0.2220130484
 40
0.337407377
 40
0.4573848216
 40
0.7147078524
 40
1.0
 40
1.0
 40
1.0
 40
1.0
 10
5.7276654748
 20
6.1338146372
 30
0.0
 10
5.7277936105
 20
6.1338898817
 30
0.0
 10
5.7280628524
 20
6.1340244432
 30
0.0
 10
5.7284948962
 20
6.1341735073
 30
0.0
 10
5.7289553707
 20
6.1342702319
 30
0.0
 10
5.72961958
 20
6.1343305974
 30
0.0
 10
5.7305185704
 20
6.1342649404
 30
0.0
 10
5.7312325262
 20
6.1340849066
 30
0.0
 10
5.7315991826
 20
6.133966052
 30
0.0
  0
SPLINE
  5
2C3
100
AcDbEntity
  8
0
100
AcDbSpline
 62
7
  6
CONTINUOUS
 70
0
 71
3
 72
61
 73
57
 74
0
 42
0.0000001
 43
0.0000001
 44
0.0000000001
 40
0.0
 40
0.0
 40
0.0
 40
0.0
 40
0.0039510169
 40
0.0059246719
 40
0.00789539
 40
0.0118280884
 40
0.0157523462
 40
0.0235826065
 40
0.0313930261
 40
0.0391883783
 40
0.0469719096
 40
0.0547457471
 40
0.0625115601
 40
0.078023499
 40
0.0935152103
 40
0.1089914722
 40
0.1244557192
 40
0.1399105729
 40
0.1553581129
 40
0.1862359714
 40
0.2171022809
 40
0.2479663768
 40
0.2788372225
 40
0.3097244125
 40
0.3406384339
 40
0.3715897832
 40
0.4025896664
 40
0.4336472558
 40
0.4647709385
 40
0.48035999
 40
0.4959647998
 40
0.5115845011
 40
0.5272176867
 40
0.5428646757
 40
0.5585235507
 40
0.5741938806
 40
0.5898760091
 40
0.6055687192
 40
0.6212709382
 40
0.6527021962
 40
0.6841679428
 40
0.7156650627
 40
0.7471891299
 40
0.7787382259
 40
0.8103101012
 40
0.8261034382
 40
0.8419007506
 40
0.8577017697
 40
0.8735064283
 40
0.8893144866
 40
0.9051252304
 40
0.9209374862
 40
0.9367497371
 40
0.9525617906
 40
0.968374335
 40
1.0
 40
1.0
 40
1.0
 40
1.0
 10
3.4059636253
 20
5.5088845552
 30
0.0
 10
3.4060664071
 20
5.5092679235
 30
0.0
 10
3.406239225
 20
5.5098378471
 30
0.0
 10
3.4064931571
 20
5.5105892418
 30
0.0
 10
3.4067575763
 20
5.5113350963
 30
0.0
 10
3.4071051982
 20
5.512259229
 30
0.0
 10
3.4076897191
 20
5.5137227858
 30
0.0
 10
3.4084621611
 20
5.5155303721
 30
0.0
 10
3.4094381582
 20
5.5176730244
 30
0.0
 10
3.4104535479
 20
5.519792058
 30
0.0
 10
3.4115027666
 20
5.5218904007
 30
0.0
 10
3.4125821656
 20
5.5239700234
 30
0.0
 10
3.4140576302
 20
5.5267184492
 30
0.0
 10
3.4159668085
 20
5.5301135801
 30
0.0
 10
3.4183522724
 20
5.5341279353
 30
0.0
 10
3.4208258713
 20
5.5380829305
 30
0.0
 10
3.4233842065
 20
5.5419791866
 30
0.0
 10
3.4260253099
 20
5.5458163439
 30
0.0
 10
3.4296549012
 20
5.5508510835
 30
0.0
 10
3.434395671
 20
5.5569910814
 30
0.0
 10
3.4404112064
 20
5.564091972
 30
0.0
 10
3.4467587393
 20
5.570897442
 30
0.0
 10
3.4534462032
 20
5.5773729646
 30
0.0
 10
3.4604829914
 20
5.5834758817
 30
0.0
 10
3.4678778342
 20
5.5891544692
 30
0.0
 10
3.4756357886
 20
5.594348417
 30
0.0
 10
3.4837537492
 20
5.5989907879
 30
0.0
 10
3.4922183158
 20
5.60301117
 30
0.0
 10
3.4995381574
 20
5.605767373
 30
0.0
 10
3.5055103927
 20
5.6076473491
 30
0.0
 10
3.5100422021
 20
5.6089070877
 30
0.0
 10
3.5146145335
 20
5.6100284274
 30
0.0
 10
3.5192202998
 20
5.6110232389
 30
0.0
 10
3.5238535581
 20
5.6119017367
 30
0.0
 10
3.5285092388
 20
5.6126749708
 30
0.0
 10
3.5331833599
 20
5.6133521808
 30
0.0
 10
3.5378727314
 20
5.6139415384
 30
0.0
 10
3.5425744822
 20
5.6144524611
 30
0.0
 10
3.5488590267
 20
5.6150356157
 30
0.0
 10
3.5567372905
 20
5.615581864
 30
0.0
 10
3.5662137495
 20
5.6159562232
 30
0.0
 10
3.5757062795
 20
5.6160604282
 30
0.0
 10
3.5852064227
 20
5.6159056868
 30
0.0
 10
3.5947064318
 20
5.6154963528
 30
0.0
 10
3.6026159706
 20
5.6149482909
 30
0.0
 10
3.6089358728
 20
5.614381309
 30
0.0
 10
3.6136714325
 20
5.6138899132
 30
0.0
 10
3.6184006403
 20
5.6133309457
 30
0.0
 10
3.6231222664
 20
5.6127029721
 30
0.0
 10
3.6278357242
 20
5.6120097654
 30
0.0
 10
3.6325404576
 20
5.6112548952
 30
0.0
 10
3.6372359635
 20
5.6104422036
 30
0.0
 10
3.6419217506
 20
5.6095745981
 30
0.0
 10
3.646598429
 20
5.6086591888
 30
0.0
 10
3.652824274
 20
5.6073895849
 30
0.0
 10
3.6574854053
 20
5.6063974081
 30
0.0
 10
3.6605919364
 20
5.6057318919
 30
0.0
  0
SPLINE
  5
2C4
100
AcDbEntity
  8
0
100
AcDbSpline
 62
7
  6
CONTINUOUS
 70
0
 71
3
 72
30
 73
26
 74
0
 42
0.0000001
 43
0.0000001
 44
0.0000000001
 40
0.0
 40
0.0
 40
0.0
 40
0.0
 40
0.0281687498
 40
0.0574713699
 40
0.0877168782
 40
0.1187608368
 40
0.1827978185
 40
0.2488875276
 40
0.3165116133
 40
0.3852126626
 40
0.4545258426
 40
0.5239389064
 40
0.5928691935
 40
0.6606468626
 40
0.7265084106
 40
0.7584613828
 40
0.7896151265
 40
0.819861263
 40
0.8490966702
 40
0.8772286829
 40
0.9041833386
 40
0.929915189
 40
0.9544189868
 40
0.9777430456
 40
1.0
 40
1.0
 40
1.0
 40
1.0
 10
5.7550546744
 20
6.2572282739
 30
0.0
 10
5.7555637148
 20
6.259365831
 30
0.0
 10
5.7565630357
 20
6.2637364225
 30
0.0
 10
5.7579740893
 20
6.2704321096
 30
0.0
 10
5.7593126761
 20
6.2773712915
 30
0.0
 10
5.7609957384
 20
6.2870019548
 30
0.0
 10
5.7628186602
 20
6.2994447091
 30
0.0
 10
5.7644385321
 20
6.3147898042
 30
0.0
 10
5.7653854716
 20
6.3305569783
 30
0.0
 10
5.765546772
 20
6.3466044504
 30
0.0
 10
5.7648389984
 20
6.3627777986
 30
0.0
 10
5.7632235232
 20
6.3789042471
 30
0.0
 10
5.7607150497
 20
6.3947947429
 30
0.0
 10
5.7573879048
 20
6.4102499628
 30
0.0
 10
5.7540109552
 20
6.4227239148
 30
0.0
 10
5.7510371053
 20
6.432335328
 30
0.0
 10
5.7487338243
 20
6.4392441516
 30
0.0
 10
5.7463667146
 20
6.445906628
 30
0.0
 10
5.7439694053
 20
6.4523070611
 30
0.0
 10
5.7415767896
 20
6.4584342723
 30
0.0
 10
5.7392244054
 20
6.4642833501
 30
0.0
 10
5.7369472521
 20
6.4698574647
 30
0.0
 10
5.7347786657
 20
6.4751700167
 30
0.0
 10
5.7327500624
 20
6.4802468389
 30
0.0
 10
5.7314826314
 20
6.4835691959
 30
0.0
 10
5.7308845521
 20
6.4851991077
 30
0.0
  0
SPLINE
  5
2C5
100
AcDbEntity
  8
0
100
AcDbSpline
 62
7
  6
CONTINUOUS
 70
0
 71
3
 72
13
 73
9
 74
0
 42
0.0000001
 43
0.0000001
 44
0.0000000001
 40
0.0
 40
0.0
 40
0.0
 40
0.0
 40
0.1175408378
 40
0.2414387586
 40
0.5000000297
 40
0.7585612824
 40
0.8824591837
 40
1.0
 40
1.0
 40
1.0
 40
1.0
 10
5.9206067876
 20
6.1145918973
 30
0.0
 10
5.9211901834
 20
6.1146326289
 30
0.0
 10
5.9223894491
 20
6.1147034507
 30
0.0
 10
5.9248752114
 20
6.1148045716
 30
0.0
 10
5.9280647675
 20
6.1148535544
 30
0.0
 10
5.9312543234
 20
6.1148045719
 30
0.0
 10
5.9337400855
 20
6.1147034512
 30
0.0
 10
5.934939351
 20
6.1146326293
 30
0.0
 10
5.9355227467
 20
6.1145918978
 30
0.0
  0
LINE
  5
2C6
100
AcDbEntity
  8
0
100
AcDbLine
 62
7
  6
CONTINUOUS
 10
2.9487975824
 20
5.5321946999
 11
2.9194710365
 21
5.5400527254
  0
SPLINE
  5
2C7
100
AcDbEntity
  8
0
100
AcDbSpline
 62
7
  6
CONTINUOUS
 70
0
 71
3
 72
15
 73
11
 74
0
 42
0.0000001
 43
0.0000001
 44
0.0000000001
 40
0.0
 40
0.0
 40
0.0
 40
0.0
 40
0.120897177
 40
0.2430655902
 40
0.3664859319
 40
0.4911133081
 40
0.6168788639
 40
0.7436917583
 40
0.8714414161
 40
1.0
 40
1.0
 40
1.0
 40
1.0
 10
2.9203659118
 20
5.6390000709
 30
0.0
 10
2.9227025424
 20
5.6351433074
 30
0.0
 10
2.9271130989
 20
5.6272112647
 30
0.0
 10
2.9328771088
 20
5.6148039968
 30
0.0
 10
2.9377953472
 20
5.6018883917
 30
0.0
 10
2.9418414603
 20
5.5885338892
 30
0.0
 10
2.9449943624
 20
5.5748111917
 30
0.0
 10
2.9472375013
 20
5.5607929455
 30
0.0
 10
2.9485591736
 20
5.5465542329
 30
0.0
 10
2.9488206663
 20
5.5369897847
 30
0.0
 10
2.9487975824
 20
5.5321946999
 30
0.0
  0
SPLINE
  5
2C8
100
AcDbEntity
  8
0
100
AcDbSpline
 62
7
  6
CONTINUOUS
 70
0
 71
3
 72
23
 73
19
 74
0
 42
0.0000001
 43
0.0000001
 44
0.0000000001
 40
0.0
 40
0.0
 40
0.0
 40
0.0
 40
0.0641093833
 40
0.128131539
 40
0.192022064
 40
0.2557431767
 40
0.3192645614
 40
0.3825642649
 40
0.4456296403
 40
0.5084583323
 40
0.5710478512
 40
0.6333618201
 40
0.69536485
 40
0.7570353198
 40
0.8183597583
 40
0.8793099031
 40
0.9398610303
 40
1.0
 40
1.0
 40
1.0
 40
1.0
 10
5.9280647682
 20
5.2058994777
 30
0.0
 10
5.9258466354
 20
5.1846244819
 30
0.0
 10
5.9211066244
 20
5.1421345788
 30
0.0
 10
5.9129670537
 20
5.0785818282
 30
0.0
 10
5.9036915092
 20
5.015314951
 30
0.0
 10
5.8931706023
 20
4.9524117984
 30
0.0
 10
5.8812948458
 20
4.8899499848
 30
0.0
 10
5.8679546544
 20
4.8280071807
 30
0.0
 10
5.853040378
 20
4.7666610461
 30
0.0
 10
5.8364431003
 20
4.7059929716
 30
0.0
 10
5.8180605147
 20
4.6461025947
 30
0.0
 10
5.7978101541
 20
4.5871073918
 30
0.0
 10
5.775613358
 20
4.5291431946
 30
0.0
 10
5.751393279
 20
4.4723515208
 30
0.0
 10
5.7250794438
 20
4.4168861501
 30
0.0
 10
5.6966673249
 20
4.3628857483
 30
0.0
 10
5.6661566056
 20
4.3104998594
 30
0.0
 10
5.6443398401
 20
4.2766332373
 30
0.0
 10
5.6330796515
 20
4.2600249455
 30
0.0
  0
LINE
  5
2C9
100
AcDbEntity
  8
0
100
AcDbLine
 62
7
  6
CONTINUOUS
 10
5.7308845521
 20
6.4851991077
 11
5.7265115053
 21
6.4914881836
  0
SPLINE
  5
2CA
100
AcDbEntity
  8
0
100
AcDbSpline
 62
7
  6
CONTINUOUS
 70
0
 71
3
 72
14
 73
10
 74
0
 42
0.0000001
 43
0.0000001
 44
0.0000000001
 40
0.0
 40
0.0
 40
0.0
 40
0.0
 40
0.4499310377
 40
0.6190352377
 40
0.7514555704
 40
0.8482250339
 40
0.9121238732
 40
0.9532412602
 40
1.0
 40
1.0
 40
1.0
 40
1.0
 10
5.7265115053
 20
6.4914881836
 30
0.0
 10
5.7265082894
 20
6.4914922949
 30
0.0
 10
5.726503783
 20
6.4914978981
 30
0.0
 10
5.7264978977
 20
6.4915043257
 30
0.0
 10
5.7264945837
 20
6.4915075656
 30
0.0
 10
5.7264918905
 20
6.4915096281
 30
0.0
 10
5.7264898203
 20
6.4915108146
 30
0.0
 10
5.7264878414
 20
6.4915105802
 30
0.0
 10
5.7264874325
 20
6.491509465
 30
0.0
 10
5.7264873175
 20
6.4915089349
 30
0.0
  0
LINE
  5
2CB
100
AcDbEntity
  8
0
100
AcDbLine
 62
7
  6
CONTINUOUS
 10
3.1383678167
 20
5.4813995087
 11
2.9487975824
 21
5.5321946999
  0
SPLINE
  5
2CC
100
AcDbEntity
  8
0
100
AcDbSpline
 62
7
  6
CONTINUOUS
 70
0
 71
3
 72
23
 73
19
 74
0
 42
0.0000001
 43
0.0000001
 44
0.0000000001
 40
0.0
 40
0.0
 40
0.0
 40
0.0
 40
0.057130865
 40
0.1153014277
 40
0.174441119
 40
0.2344866577
 40
0.2953710783
 40
0.357025345
 40
0.4193797171
 40
0.4823630192
 40
0.5459030804
 40
0.6099262858
 40
0.6743578427
 40
0.7391224979
 40
0.8041445227
 40
0.8693468138
 40
0.9346574163
 40
1.0
 40
1.0
 40
1.0
 40
1.0
 10
5.6435147681
 20
1.8251923129
 30
0.0
 10
5.6489997456
 20
1.8251923129
 30
0.0
 10
5.6600696304
 20
1.8252618427
 30
0.0
 10
5.6768147896
 20
1.8255701251
 30
0.0
 10
5.6938347532
 20
1.8260887771
 30
0.0
 10
5.7111074268
 20
1.8268268875
 30
0.0
 10
5.728610416
 20
1.8277979429
 30
0.0
 10
5.7463200463
 20
1.8290184781
 30
0.0
 10
5.7642112525
 20
1.8305097384
 30
0.0
 10
5.7822573908
 20
1.8322970265
 30
0.0
 10
5.8004298399
 20
1.8344095143
 30
0.0
 10
5.8186974494
 20
1.8368813956
 30
0.0
 10
5.8370261
 20
1.8397511292
 30
0.0
 10
5.8553781458
 20
1.8430614754
 30
0.0
 10
5.873711483
 20
1.846859704
 30
0.0
 10
5.891979391
 20
1.8511969292
 30
0.0
 10
5.9101285321
 20
1.8561272657
 30
0.0
 10
5.9221115601
 20
1.859847458
 30
0.0
 10
5.9280647681
 20
1.8618259387
 30
0.0
  0
SPLINE
  5
2CD
100
AcDbEntity
  8
0
100
AcDbSpline
 62
7
  6
CONTINUOUS
 70
0
 71
3
 72
46
 73
42
 74
0
 42
0.0000001
 43
0.0000001
 44
0.0000000001
 40
0.0
 40
0.0
 40
0.0
 40
0.0
 40
0.0284464593
 40
0.0429745601
 40
0.0576693343
 40
0.0874732705
 40
0.1177265108
 40
0.1483518644
 40
0.1793288534
 40
0.1949630053
 40
0.2107023527
 40
0.2265591768
 40
0.2425456893
 40
0.2586746102
 40
0.2749562667
 40
0.2913961275
 40
0.307994952
 40
0.3247464455
 40
0.3416400056
 40
0.3757773648
 40
0.4102758994
 40
0.444988623
 40
0.4797864984
 40
0.4971842612
 40
0.51456295
 40
0.5492207878
 40
0.5836732282
 40
0.6007965847
 40
0.6178370079
 40
0.6516266315
 40
0.6849562681
 40
0.7177380663
 40
0.7498839443
 40
0.7813071745
 40
0.8119260583
 40
0.8416663641
 40
0.8704687144
 40
0.8982909263
 40
0.9251166396
 40
0.9509661354
 40
1.0
 40
1.0
 40
1.0
 40
1.0
 10
5.6706857027
 20
6.3267697392
 30
0.0
 10
5.6719071092
 20
6.3274920701
 30
0.0
 10
5.6737501406
 20
6.3285870447
 30
0.0
 10
5.6762080289
 20
6.3300819427
 30
0.0
 10
5.6787096944
 20
6.3316349129
 30
0.0
 10
5.6818408431
 20
6.3336610414
 30
0.0
 10
5.6855400437
 20
6.336267587
 30
0.0
 10
5.6891346151
 20
6.3391139474
 30
0.0
 10
5.6919727851
 20
6.3417271862
 30
0.0
 10
5.694107242
 20
6.3439910654
 30
0.0
 10
5.6956323927
 20
6.3457883909
 30
0.0
 10
5.6970635107
 20
6.3476837542
 30
0.0
 10
5.6983871157
 20
6.3496792916
 30
0.0
 10
5.6995910869
 20
6.3517738525
 30
0.0
 10
5.7006643722
 20
6.3539635817
 30
0.0
 10
5.7015998936
 20
6.3562409656
 30
0.0
 10
5.7023931039
 20
6.3585963837
 30
0.0
 10
5.7030442318
 20
6.3610182848
 30
0.0
 10
5.703730461
 20
6.3643308013
 30
0.0
 10
5.7042554811
 20
6.3685726386
 30
0.0
 10
5.7044391014
 20
6.3737295951
 30
0.0
 10
5.7042701144
 20
6.3789182598
 30
0.0
 10
5.7039052386
 20
6.3832396684
 30
0.0
 10
5.7035124972
 20
6.3866881155
 30
0.0
 10
5.7030634331
 20
6.3901226629
 30
0.0
 10
5.7024114209
 20
6.3943879884
 30
0.0
 10
5.7016733678
 20
6.3986260646
 30
0.0
 10
5.7010461998
 20
6.4019909635
 30
0.0
 10
5.70040326
 20
6.405319215
 30
0.0
 10
5.6995706111
 20
6.4094340883
 30
0.0
 10
5.6985389611
 20
6.4143096119
 30
0.0
 10
5.6974874323
 20
6.4190969637
 30
0.0
 10
5.6964229543
 20
6.4237839784
 30
0.0
 10
5.6953473749
 20
6.4283577003
 30
0.0
 10
5.6942594849
 20
6.4328050901
 30
0.0
 10
5.6931549759
 20
6.4371135793
 30
0.0
 10
5.6920258521
 20
6.441271378
 30
0.0
 10
5.6908619051
 20
6.4452683968
 30
0.0
 10
5.6896494112
 20
6.4490971253
 30
0.0
 10
5.6879754658
 20
6.4538867714
 30
0.0
 10
5.686551406
 20
6.4573470389
 30
0.0
 10
5.6855018791
 20
6.459556415
 30
0.0
  0
SPLINE
  5
2CE
100
AcDbEntity
  8
0
100
AcDbSpline
 62
7
  6
CONTINUOUS
 70
0
 71
3
 72
40
 73
36
 74
0
 42
0.0000001
 43
0.0000001
 44
0.0000000001
 40
0.0
 40
0.0
 40
0.0
 40
0.0
 40
0.000013183
 40
0.0000526962
 40
0.0001185566
 40
0.0002107813
 40
0.0004743945
 40
0.0008436804
 40
0.0013187885
 40
0.0018998738
 40
0.0025870964
 40
0.0033806215
 40
0.0052872621
 40
0.0076212237
 40
0.0103840131
 40
0.0135772185
 40
0.0172025256
 40
0.0212620848
 40
0.0306948107
 40
0.0418996965
 40
0.0549045742
 40
0.0697409229
 40
0.0864449566
 40
0.1050586728
 40
0.1256296822
 40
0.1482093827
 40
0.1728475578
 40
0.2285155304
 40
0.2930665837
 40
0.366862265
 40
0.4501071105
 40
0.5428175642
 40
0.6447744313
 40
0.7554716883
 40
1.0
 40
1.0
 40
1.0
 40
1.0
 10
5.6567874192
 20
6.3123506383
 30
0.0
 10
5.6567875087
 20
6.3123506457
 30
0.0
 10
5.6567874287
 20
6.3123511887
 30
0.0
 10
5.6567877789
 20
6.3123517862
 30
0.0
 10
5.6567880092
 20
6.3123532
 30
0.0
 10
5.6567887525
 20
6.3123559249
 30
0.0
 10
5.6567899103
 20
6.3123607661
 30
0.0
 10
5.6567917895
 20
6.3123680598
 30
0.0
 10
5.6567942111
 20
6.3123774728
 30
0.0
 10
5.6567972305
 20
6.312388959
 30
0.0
 10
5.6568008512
 20
6.3124025337
 30
0.0
 10
5.656806891
 20
6.3124248093
 30
0.0
 10
5.6568160758
 20
6.3124578576
 30
0.0
 10
5.6568292186
 20
6.3125037304
 30
0.0
 10
5.656845207
 20
6.3125579051
 30
0.0
 10
5.6568641844
 20
6.3126203693
 30
0.0
 10
5.6568862849
 20
6.3126911169
 30
0.0
 10
5.6569220093
 20
6.3128021441
 30
0.0
 10
5.6569759779
 20
6.3129615442
 30
0.0
 10
5.6570541472
 20
6.3131770489
 30
0.0
 10
5.6571505518
 20
6.313425036
 30
0.0
 10
5.6572671038
 20
6.3137053086
 30
0.0
 10
5.6574062023
 20
6.3140174876
 30
0.0
 10
5.6575704026
 20
6.3143611205
 30
0.0
 10
5.6577622116
 20
6.3147357624
 30
0.0
 10
5.6579841258
 20
6.3151409162
 30
0.0
 10
5.6583385155
 20
6.3157458597
 30
0.0
 10
5.6588762533
 20
6.3165742627
 30
0.0
 10
5.659661102
 20
6.317638939
 30
0.0
 10
5.6606283571
 20
6.3187994025
 30
0.0
 10
5.6617926976
 20
6.3200416774
 30
0.0
 10
5.6631643297
 20
6.3213485588
 30
0.0
 10
5.6647479173
 20
6.3226996853
 30
0.0
 10
5.6672204578
 20
6.3245962305
 30
0.0
 10
5.6692536219
 20
6.3259182351
 30
0.0
 10
5.6706857027
 20
6.3267697392
 30
0.0
  0
SPLINE
  5
2CF
100
AcDbEntity
  8
0
100
AcDbSpline
 62
7
  6
CONTINUOUS
 70
0
 71
3
 72
14
 73
10
 74
0
 42
0.0000001
 43
0.0000001
 44
0.0000000001
 40
0.0
 40
0.0
 40
0.0
 40
0.0
 40
0.2739042253
 40
0.4066664502
 40
0.5354458804
 40
0.6594378646
 40
0.778400699
 40
0.8924282103
 40
1.0
 40
1.0
 40
1.0
 40
1.0
 10
5.7236640106
 20
6.1157483922
 30
0.0
 10
5.7237980369
 20
6.1175563963
 30
0.0
 10
5.7242038893
 20
6.1202327468
 30
0.0
 10
5.7251642904
 20
6.1236473019
 30
0.0
 10
5.7260590311
 20
6.1260405379
 30
0.0
 10
5.7271089822
 20
6.1282687335
 30
0.0
 10
5.72831578
 20
6.1303063554
 30
0.0
 10
5.72968927
 20
6.1320979135
 30
0.0
 10
5.7306769382
 20
6.1331868724
 30
0.0
 10
5.7311929619
 20
6.1336774688
 30
0.0
  0
SPLINE
  5
2D0
100
AcDbEntity
  8
0
100
AcDbSpline
 62
7
  6
CONTINUOUS
 70
0
 71
3
 72
17
 73
13
 74
0
 42
0.0000001
 43
0.0000001
 44
0.0000000001
 40
0.0
 40
0.0
 40
0.0
 40
0.0
 40
0.1493132143
 40
0.2949565896
 40
0.4350669829
 40
0.5679265967
 40
0.6920083819
 40
0.8060095358
 40
0.8589008598
 40
0.9089145983
 40
0.9559711401
 40
1.0
 40
1.0
 40
1.0
 40
1.0
 10
5.9206068047
 20
6.1145923459
 30
0.0
 10
5.9206482275
 20
6.1155625103
 30
0.0
 10
5.9207639758
 20
6.1174777383
 30
0.0
 10
5.9210383937
 20
6.1202944731
 30
0.0
 10
5.9214076627
 20
6.1229924859
 30
0.0
 10
5.921865797
 20
6.1255346045
 30
0.0
 10
5.9224056114
 20
6.127886811
 30
0.0
 10
5.9229286908
 20
6.1297067373
 30
0.0
 10
5.9233857968
 20
6.1310415261
 30
0.0
 10
5.9237351623
 20
6.1319523345
 30
0.0
 10
5.924098417
 20
6.1327952846
 30
0.0
 10
5.9243576788
 20
6.1333282247
 30
0.0
 10
5.9244899146
 20
6.1335822002
 30
0.0
  0
SPLINE
  5
2D1
100
AcDbEntity
  8
0
100
AcDbSpline
 62
7
  6
CONTINUOUS
 70
0
 71
3
 72
13
 73
9
 74
0
 42
0.0000001
 43
0.0000001
 44
0.0000000001
 40
0.0
 40
0.0
 40
0.0
 40
0.0
 40
0.357951829
 40
0.6461233374
 40
0.7626974849
 40
0.8605989423
 40
0.939724015
 40
1.0
 40
1.0
 40
1.0
 40
1.0
 10
5.6855018791
 20
6.459556415
 30
0.0
 10
5.6848314971
 20
6.4609672491
 30
0.0
 10
5.6836954569
 20
6.4635499582
 30
0.0
 10
5.6825244277
 20
6.4666668492
 30
0.0
 10
5.6818277368
 20
6.4687468331
 30
0.0
 10
5.6814452933
 20
6.4699697044
 30
0.0
 10
5.6811543523
 20
6.4709635657
 30
0.0
 10
5.6809937903
 20
6.4715503538
 30
0.0
 10
5.6809276641
 20
6.4718049343
 30
0.0
  0
LINE
  5
2D2
100
AcDbEntity
  8
0
100
AcDbLine
 62
7
  6
CONTINUOUS
 10
5.6809276641
 20
6.4718049343
 11
5.6807586708
 21
6.4726731448
  0
SPLINE
  5
2D3
100
AcDbEntity
  8
0
100
AcDbSpline
 62
7
  6
CONTINUOUS
 70
0
 71
3
 72
48
 73
44
 74
0
 42
0.0000001
 43
0.0000001
 44
0.0000000001
 40
0.0
 40
0.0
 40
0.0
 40
0.0
 40
0.0143359145
 40
0.0286907419
 40
0.0430661233
 40
0.0574644363
 40
0.0718882539
 40
0.0863401547
 40
0.1008225722
 40
0.1153381715
 40
0.1444768218
 40
0.1737797106
 40
0.2032679211
 40
0.2180894382
 40
0.2329648735
 40
0.2478961239
 40
0.2628850112
 40
0.2779329806
 40
0.2930413603
 40
0.3082113017
 40
0.3234439152
 40
0.3387396903
 40
0.354098608
 40
0.3850006536
 40
0.4161433092
 40
0.4790776134
 40
0.5427882482
 40
0.6071299417
 40
0.6394969881
 40
0.6719699125
 40
0.7045338412
 40
0.7371764298
 40
0.7698860466
 40
0.8026527115
 40
0.8354673949
 40
0.8518903819
 40
0.8683221222
 40
0.9012086401
 40
0.9176622661
 40
0.9341215416
 40
0.950585805
 40
0.9670543372
 40
1.0
 40
1.0
 40
1.0
 40
1.0
 10
5.5342147681
 20
5.7101923129
 30
0.0
 10
5.5374797561
 20
5.7097772975
 30
0.0
 10
5.5440044301
 20
5.7088688392
 30
0.0
 10
5.5537616564
 20
5.7072649866
 30
0.0
 10
5.5634891227
 20
5.7054107585
 30
0.0
 10
5.5731807533
 20
5.7033017441
 30
0.0
 10
5.5828317108
 20
5.7009387997
 30
0.0
 10
5.5924369391
 20
5.6983219244
 30
0.0
 10
5.6019908343
 20
5.6954490141
 30
0.0
 10
5.6146678406
 20
5.6912690471
 30
0.0
 10
5.6303606678
 20
5.685388513
 30
0.0
 10
5.6488610615
 20
5.6772867643
 30
0.0
 10
5.6639526857
 20
5.6696590942
 30
0.0
 10
5.675812023
 20
5.663023963
 30
0.0
 10
5.6846096395
 20
5.65776965
 30
0.0
 10
5.6932875006
 20
5.65224806
 30
0.0
 10
5.7018385114
 20
5.6464609796
 30
0.0
 10
5.710256232
 20
5.6404117495
 30
0.0
 10
5.7185340278
 20
5.6341036019
 30
0.0
 10
5.726664958
 20
5.6275395312
 30
0.0
 10
5.7346415558
 20
5.6207223937
 30
0.0
 10
5.7424582077
 20
5.6136574823
 30
0.0
 10
5.7526793109
 20
5.6038957578
 30
0.0
 10
5.7650289173
 20
5.5911049071
 30
0.0
 10
5.7838806052
 20
5.5694606131
 30
0.0
 10
5.8056478461
 20
5.540433879
 30
0.0
 10
5.8288773476
 20
5.5031935208
 30
0.0
 10
5.8459808847
 20
5.4705397095
 30
0.0
 10
5.85844418
 20
5.443624048
 30
0.0
 10
5.867221835
 20
5.4230529025
 30
0.0
 10
5.875439433
 20
5.4021845184
 30
0.0
 10
5.8831227228
 20
5.3810559817
 30
0.0
 10
5.8902963274
 20
5.3597001935
 30
0.0
 10
5.8969802804
 20
5.3381450342
 30
0.0
 10
5.9021601885
 20
5.3200433989
 30
0.0
 10
5.9060844173
 20
5.3054863782
 30
0.0
 10
5.9098681623
 20
5.290875185
 30
0.0
 10
5.9134406733
 20
5.2762027712
 30
0.0
 10
5.9168104478
 20
5.261476939
 30
0.0
 10
5.9192388631
 20
5.250403862
 30
0.0
 10
5.9215732025
 20
5.2393071024
 30
0.0
 10
5.9245692017
 20
5.2244822253
 30
0.0
 10
5.9266939395
 20
5.2133379278
 30
0.0
 10
5.9280647681
 20
5.2058994777
 30
0.0
  0
SPLINE
  5
2D4
100
AcDbEntity
  8
0
100
AcDbSpline
 62
7
  6
CONTINUOUS
 70
0
 71
3
 72
23
 73
19
 74
0
 42
0.0000001
 43
0.0000001
 44
0.0000000001
 40
0.0
 40
0.0
 40
0.0
 40
0.0
 40
0.0571308596
 40
0.1153014079
 40
0.1744410889
 40
0.2344866237
 40
0.2953710409
 40
0.3570253054
 40
0.4193796835
 40
0.4823629948
 40
0.5459030642
 40
0.6099262792
 40
0.6743578434
 40
0.7391225018
 40
0.8041445312
 40
0.8693468215
 40
0.9346574177
 40
1.0
 40
1.0
 40
1.0
 40
1.0
 10
6.2126147681
 20
1.8251923129
 30
0.0
 10
6.2071297912
 20
1.8251923129
 30
0.0
 10
6.1960599084
 20
1.8252618431
 30
0.0
 10
6.179314752
 20
1.8255701246
 30
0.0
 10
6.1622947911
 20
1.8260887773
 30
0.0
 10
6.1450221192
 20
1.8268268871
 30
0.0
 10
6.1275191309
 20
1.8277979417
 30
0.0
 10
6.1098095006
 20
1.8290184781
 30
0.0
 10
6.091918293
 20
1.8305097369
 30
0.0
 10
6.0738721526
 20
1.8322970258
 30
0.0
 10
6.0556997009
 20
1.8344095138
 30
0.0
 10
6.037432089
 20
1.836881395
 30
0.0
 10
6.0191034365
 20
1.8397511292
 30
0.0
 10
6.0007513892
 20
1.8430614755
 30
0.0
 10
5.9824180514
 20
1.8468597043
 30
0.0
 10
5.9641501437
 20
1.8511969297
 30
0.0
 10
5.9460010033
 20
1.8561272659
 30
0.0
 10
5.934017976
 20
1.8598474581
 30
0.0
 10
5.9280647681
 20
1.8618259387
 30
0.0
  0
SPLINE
  5
2D5
100
AcDbEntity
  8
0
100
AcDbSpline
 62
7
  6
CONTINUOUS
 70
0
 71
3
 72
23
 73
19
 74
0
 42
0.0000001
 43
0.0000001
 44
0.0000000001
 40
0.0
 40
0.0
 40
0.0
 40
0.0
 40
0.0497689838
 40
0.1005784707
 40
0.1527621644
 40
0.2065710599
 40
0.2621769571
 40
0.3196899482
 40
0.3791706073
 40
0.4406416397
 40
0.5040972388
 40
0.5695100575
 40
0.6368371033
 40
0.7060237543
 40
0.7770054806
 40
0.8497126478
 40
0.9240733808
 40
1.0
 40
1.0
 40
1.0
 40
1.0
 10
6.4192802035
 20
1.8618259387
 30
0.0
 10
6.4163713403
 20
1.8598328092
 30
0.0
 10
6.410307026
 20
1.8560703733
 30
0.0
 10
6.4006653228
 20
1.851130704
 30
0.0
 10
6.3904287798
 20
1.846791363
 30
0.0
 10
6.3796197902
 20
1.8429959608
 30
0.0
 10
6.3682586277
 20
1.8396911107
 30
0.0
 10
6.3563656856
 20
1.8368281095
 30
0.0
 10
6.3439608685
 20
1.8343632696
 30
0.0
 10
6.3310639589
 20
1.8322576333
 30
0.0
 10
6.3176945931
 20
1.8304767712
 30
0.0
 10
6.3038721924
 20
1.8289914119
 30
0.0
 10
6.2896161375
 20
1.8277762525
 30
0.0
 10
6.2749458032
 20
1.8268101192
 30
0.0
 10
6.2598804995
 20
1.8260765418
 30
0.0
 10
6.2444394209
 20
1.8255621281
 30
0.0
 10
6.2286424481
 20
1.8252578951
 30
0.0
 10
6.2179942643
 20
1.8251923129
 30
0.0
 10
6.2126147681
 20
1.8251923129
 30
0.0
  0
SPLINE
  5
2D6
100
AcDbEntity
  8
0
100
AcDbSpline
 62
7
  6
CONTINUOUS
 70
0
 71
3
 72
22
 73
18
 74
0
 42
0.0000001
 43
0.0000001
 44
0.0000000001
 40
0.0
 40
0.0
 40
0.0
 40
0.0
 40
0.1221135132
 40
0.1835232019
 40
0.245164223
 40
0.3070339034
 40
0.3691274498
 40
0.4314384656
 40
0.4939581948
 40
0.5566760077
 40
0.6195793572
 40
0.6826537622
 40
0.7458834781
 40
0.8092512622
 40
0.872738571
 40
0.936329092
 40
1.0
 40
1.0
 40
1.0
 40
1.0
 10
5.5869172631
 20
5.7416923127
 30
0.0
 10
5.5960542043
 20
5.7552427074
 30
0.0
 10
5.6092281133
 20
5.7759931257
 30
0.0
 10
5.6256037223
 20
5.8044300053
 30
0.0
 10
5.6373191276
 20
5.826234837
 30
0.0
 10
5.6484159141
 20
5.8484630043
 30
0.0
 10
5.6588676235
 20
5.8711007286
 30
0.0
 10
5.6686490418
 20
5.8941306822
 30
0.0
 10
5.6777373438
 20
5.9175326082
 30
0.0
 10
5.6861120589
 20
5.9412834213
 30
0.0
 10
5.6937555608
 20
5.9653574757
 30
0.0
 10
5.7006538175
 20
5.9897267783
 30
0.0
 10
5.7067963507
 20
6.014361499
 30
0.0
 10
5.7121763694
 20
6.0392303772
 30
0.0
 10
5.7167912131
 20
6.0643016277
 30
0.0
 10
5.7206419094
 20
6.0895422568
 30
0.0
 10
5.7227019758
 20
6.1064523007
 30
0.0
 10
5.7236071712
 20
6.114925502
 30
0.0
  0
SPLINE
  5
2D7
100
AcDbEntity
  8
0
100
AcDbSpline
 62
7
  6
CONTINUOUS
 70
0
 71
3
 72
17
 73
13
 74
0
 42
0.0000001
 43
0.0000001
 44
0.0000000001
 40
0.0
 40
0.0
 40
0.0
 40
0.0
 40
0.1248716739
 40
0.2497678128
 40
0.3122279612
 40
0.3746979723
 40
0.4996701561
 40
0.6246870691
 40
0.6872131115
 40
0.7497508302
 40
0.8748579262
 40
1.0
 40
1.0
 40
1.0
 40
1.0
 10
5.9206067767
 20
6.1145923465
 30
0.0
 10
5.912408244
 20
6.1147819415
 30
0.0
 10
5.8960090999
 20
6.1151413828
 30
0.0
 10
5.8755073047
 20
6.1155095518
 30
0.0
 10
5.8591019558
 20
6.115736655
 30
0.0
 10
5.8426909763
 20
6.1159119662
 30
0.0
 10
5.822170942
 20
6.1160278486
 30
0.0
 10
5.8016469018
 20
6.1160024753
 30
0.0
 10
5.7852236276
 20
6.1158938904
 30
0.0
 10
5.7687949123
 20
6.1157278423
 30
0.0
 10
5.7482553163
 20
6.115424341
 30
0.0
 10
5.7318237712
 20
6.115101403
 30
0.0
 10
5.7236071712
 20
6.114925502
 30
0.0
  0
SPLINE
  5
2D8
100
AcDbEntity
  8
0
100
AcDbSpline
 62
7
  6
CONTINUOUS
 70
0
 71
3
 72
17
 73
13
 74
0
 42
0.0000001
 43
0.0000001
 44
0.0000000001
 40
0.0
 40
0.0
 40
0.0
 40
0.0
 40
0.1251420669
 40
0.2502491365
 40
0.3127868485
 40
0.3753128944
 40
0.5003298333
 40
0.625302039
 40
0.6877720517
 40
0.7502321955
 40
0.8751283218
 40
1.0
 40
1.0
 40
1.0
 40
1.0
 10
6.1325223188
 20
6.114925841
 30
0.0
 10
6.1243057208
 20
6.1151017418
 30
0.0
 10
6.1078741795
 20
6.1154246053
 30
0.0
 10
6.0873345877
 20
6.1157279484
 30
0.0
 10
6.0709058766
 20
6.1158939016
 30
0.0
 10
6.0544826038
 20
6.1160024413
 30
0.0
 10
6.0339585644
 20
6.116027839
 30
0.0
 10
6.0134385305
 20
6.1159119873
 30
0.0
 10
5.9970275531
 20
6.115736643
 30
0.0
 10
5.9806222094
 20
6.1155094637
 30
0.0
 10
5.9601204213
 20
6.1151411647
 30
0.0
 10
5.9437212824
 20
6.11478166
 30
0.0
 10
5.935522751
 20
6.1145920635
 30
0.0
  0
SPLINE
  5
2D9
100
AcDbEntity
  8
0
100
AcDbSpline
 62
7
  6
CONTINUOUS
 70
0
 71
3
 72
17
 73
13
 74
0
 42
0.0000001
 43
0.0000001
 44
0.0000000001
 40
0.0
 40
0.0
 40
0.0
 40
0.0
 40
0.1234339731
 40
0.2474065422
 40
0.3095851314
 40
0.3718841227
 40
0.4968122855
 40
0.5594349843
 40
0.6221521828
 40
0.7478333336
 40
0.8738043555
 40
1.0
 40
1.0
 40
1.0
 40
1.0
 10
6.2009580959
 20
5.863192247
 30
0.0
 10
6.1964855513
 20
5.8730002731
 30
0.0
 10
6.1879123734
 20
5.8928402071
 30
0.0
 10
6.1781939595
 20
5.9180778734
 30
0.0
 10
6.1710180754
 20
5.9385558536
 30
0.0
 10
6.1642361303
 20
5.9592552967
 30
0.0
 10
6.1580790131
 20
5.9801958133
 30
0.0
 10
6.1525563202
 20
6.0013440507
 30
0.0
 10
6.14744967
 20
6.0226643429
 30
0.0
 10
6.1418672287
 20
6.0495534416
 30
0.0
 10
6.1364535703
 20
6.0821123984
 30
0.0
 10
6.1336932491
 20
6.1039673826
 30
0.0
 10
6.1325223188
 20
6.114925841
 30
0.0
  0
LINE
  5
2DA
100
AcDbEntity
  8
0
100
AcDbLine
 62
7
  6
CONTINUOUS
 10
3.3279382205
 20
5.4306042721
 11
3.1383678167
 21
5.4813995087
  0
SPLINE
  5
2DB
100
AcDbEntity
  8
0
100
AcDbSpline
 62
7
  6
CONTINUOUS
 70
0
 71
3
 72
49
 73
45
 74
0
 42
0.0000001
 43
0.0000001
 44
0.0000000001
 40
0.0
 40
0.0
 40
0.0
 40
0.0
 40
0.0312243506
 40
0.0624492197
 40
0.0936749369
 40
0.1249022908
 40
0.1405177315
 40
0.1561336312
 40
0.1717501724
 40
0.1873670363
 40
0.2186009292
 40
0.2498373138
 40
0.2810761117
 40
0.2966971065
 40
0.3123183429
 40
0.3435620021
 40
0.3591849203
 40
0.3748082355
 40
0.406056
 40
0.4373051674
 40
0.4685568628
 40
0.4841833348
 40
0.4998100356
 40
0.5154370973
 40
0.5310646446
 40
0.5466927917
 40
0.5623214727
 40
0.5779504418
 40
0.5935796121
 40
0.6092090951
 40
0.6248391528
 40
0.6561001331
 40
0.6873621454
 40
0.7186251712
 40
0.7342569923
 40
0.7498889732
 40
0.7811528106
 40
0.8124168636
 40
0.8436808921
 40
0.8749450075
 40
0.9062087836
 40
0.9374723914
 40
0.9687370187
 40
1.0
 40
1.0
 40
1.0
 40
1.0
 10
5.6330796515
 20
4.2600249455
 30
0.0
 10
5.632176482
 20
4.2705165835
 30
0.0
 10
5.6298074592
 20
4.2914558257
 30
0.0
 10
5.6246025667
 20
4.3226299534
 30
0.0
 10
5.6177965556
 20
4.3534950856
 30
0.0
 10
5.610835476
 20
4.3788989231
 30
0.0
 10
5.6045331076
 20
4.3989999351
 30
0.0
 10
5.5994518729
 20
4.4139616046
 30
0.0
 10
5.5940339004
 20
4.4288049917
 30
0.0
 10
5.5863824185
 20
4.4484349963
 30
0.0
 10
5.5760489235
 20
4.4726665557
 30
0.0
 10
5.5625194822
 20
4.5012356749
 30
0.0
 10
5.5503711731
 20
4.5246113852
 30
0.0
 10
5.5401844797
 20
4.5430581401
 30
0.0
 10
5.5297030375
 20
4.5613409443
 30
0.0
 10
5.518810314
 20
4.5793854454
 30
0.0
 10
5.5075677435
 20
4.5972114421
 30
0.0
 10
5.4961065578
 20
4.6148994659
 30
0.0
 10
5.4813969799
 20
4.6367596481
 30
0.0
 10
5.4632164101
 20
4.6626285765
 30
0.0
 10
5.4476944849
 20
4.6839211913
 30
0.0
 10
5.4350950899
 20
4.7008214663
 30
0.0
 10
5.4255558898
 20
4.7134300734
 30
0.0
 10
5.4159277861
 20
4.725971363
 30
0.0
 10
5.4062113705
 20
4.7384449785
 30
0.0
 10
5.3964078188
 20
4.7508509204
 30
0.0
 10
5.386515942
 20
4.763187185
 30
0.0
 10
5.376529285
 20
4.7754473251
 30
0.0
 10
5.3664423594
 20
4.7876254753
 30
0.0
 10
5.3562495023
 20
4.7997156393
 30
0.0
 10
5.3425101777
 20
4.8157100986
 30
0.0
 10
5.3250474114
 20
4.8354548066
 30
0.0
 10
5.3036064436
 20
4.8587109856
 30
0.0
 10
5.2853137844
 20
4.8776920751
 30
0.0
 10
5.2704127695
 20
4.8926135515
 30
0.0
 10
5.2553296797
 20
4.907351339
 30
0.0
 10
5.2361293059
 20
4.9254160183
 30
0.0
 10
5.2125319003
 20
4.9464858662
 30
0.0
 10
5.1883716314
 20
4.9669086931
 30
0.0
 10
5.1636407889
 20
4.9866371212
 30
0.0
 10
5.1383407322
 20
5.0056302987
 30
0.0
 10
5.1124779515
 20
5.0238505575
 30
0.0
 10
5.0860710524
 20
5.0412719747
 30
0.0
 10
5.0681144562
 20
5.0523360659
 30
0.0
 10
5.0590523231
 20
5.0577251738
 30
0.0
  0
SPLINE
  5
2DC
100
AcDbEntity
  8
0
100
AcDbSpline
 62
7
  6
CONTINUOUS
 70
0
 71
3
 72
32
 73
28
 74
0
 42
0.0000001
 43
0.0000001
 44
0.0000000001
 40
0.0
 40
0.0
 40
0.0
 40
0.0
 40
0.0217909456
 40
0.0450496625
 40
0.069690739
 40
0.0956285743
 40
0.1227774339
 40
0.1510514896
 40
0.1803648474
 40
0.2106315688
 40
0.2736812221
 40
0.339512605
 40
0.4074379605
 40
0.4767699059
 40
0.5468217097
 40
0.6169076041
 40
0.686343177
 40
0.7206037857
 40
0.7544460664
 40
0.7877851229
 40
0.8205362891
 40
0.8526151755
 40
0.8839377273
 40
0.9144202982
 40
0.9439797457
 40
0.9725335546
 40
1.0
 40
1.0
 40
1.0
 40
1.0
 10
5.1554967638
 20
5.4129003734
 30
0.0
 10
5.1611101106
 20
5.4113963799
 30
0.0
 10
5.1727246191
 20
5.4083233083
 30
0.0
 10
5.190714266
 20
5.4036546151
 30
0.0
 10
5.2097927586
 20
5.3987795669
 30
0.0
 10
5.2298913989
 20
5.3937067931
 30
0.0
 10
5.2509414866
 20
5.3884448953
 30
0.0
 10
5.2728743049
 20
5.3830024508
 30
0.0
 10
5.2956211242
 20
5.3773879956
 30
0.0
 10
5.3273783444
 20
5.3695773475
 30
0.0
 10
5.3685993169
 20
5.3594682112
 30
0.0
 10
5.4195687738
 20
5.3469445302
 30
0.0
 10
5.4721446341
 20
5.3339373793
 30
0.0
 10
5.525777173
 20
5.3205153929
 30
0.0
 10
5.5799167207
 20
5.3067472846
 30
0.0
 10
5.6340135978
 20
5.2927017174
 30
0.0
 10
5.6787973304
 20
5.2807711148
 30
0.0
 10
5.7141839039
 20
5.2711176846
 30
0.0
 10
5.7402516687
 20
5.2638823922
 30
0.0
 10
5.7658961677
 20
5.2566284172
 30
0.0
 10
5.7910486857
 20
5.249364278
 30
0.0
 10
5.8156405207
 20
5.2420985324
 30
0.0
 10
5.8396029842
 20
5.2348397427
 30
0.0
 10
5.8628673997
 20
5.22759649
 30
0.0
 10
5.8853651328
 20
5.2203773711
 30
0.0
 10
5.9070275131
 20
5.2131910191
 30
0.0
 10
5.921154381
 20
5.2083286598
 30
0.0
 10
5.9280647681
 20
5.2058994777
 30
0.0
  0
SPLINE
  5
2DD
100
AcDbEntity
  8
0
100
AcDbSpline
 62
7
  6
CONTINUOUS
 70
0
 71
3
 72
14
 73
10
 74
0
 42
0.0000001
 43
0.0000001
 44
0.0000000001
 40
0.0
 40
0.0
 40
0.0
 40
0.0
 40
0.2738683938
 40
0.4066070328
 40
0.535424226
 40
0.6596674486
 40
0.7788047873
 40
0.8923522568
 40
1.0
 40
1.0
 40
1.0
 40
1.0
 10
6.1324655258
 20
6.1157483918
 30
0.0
 10
6.1323318037
 20
6.1175540629
 30
0.0
 10
6.1319272115
 20
6.1202268486
 30
0.0
 10
6.1309719046
 20
6.1236383593
 30
0.0
 10
6.130078191
 20
6.1260308905
 30
0.0
 10
6.1290154084
 20
6.1282539492
 30
0.0
 10
6.1278004264
 20
6.1302812228
 30
0.0
 10
6.1264575932
 20
6.1320910745
 30
0.0
 10
6.1254645788
 20
6.133169579
 30
0.0
 10
6.1249516403
 20
6.1336629279
 30
0.0
  0
SPLINE
  5
2DE
100
AcDbEntity
  8
0
100
AcDbSpline
 62
7
  6
CONTINUOUS
 70
0
 71
3
 72
17
 73
13
 74
0
 42
0.0000001
 43
0.0000001
 44
0.0000000001
 40
0.0
 40
0.0
 40
0.0
 40
0.0
 40
0.1493131888
 40
0.2949563842
 40
0.4350666532
 40
0.5679263187
 40
0.692008331
 40
0.8060095622
 40
0.8589009808
 40
0.9089147441
 40
0.9559711433
 40
1.0
 40
1.0
 40
1.0
 40
1.0
 10
5.9355227407
 20
6.1145920633
 30
0.0
 10
5.9354812821
 20
6.1155622391
 30
0.0
 10
5.935365551
 20
6.1174774916
 30
0.0
 10
5.9350911524
 20
6.120294265
 30
0.0
 10
5.9347219057
 20
6.1229923162
 30
0.0
 10
5.9342637764
 20
6.1255344725
 30
0.0
 10
5.9337239491
 20
6.1278867117
 30
0.0
 10
5.9332008732
 20
6.1297066684
 30
0.0
 10
5.9327437576
 20
6.1310414754
 30
0.0
 10
5.9323943879
 20
6.131952296
 30
0.0
 10
5.9320311384
 20
6.1327952609
 30
0.0
 10
5.9317718747
 20
6.1333282082
 30
0.0
 10
5.9316396336
 20
6.1335821853
 30
0.0
  0
SPLINE
  5
2DF
100
AcDbEntity
  8
0
100
AcDbSpline
 62
7
  6
CONTINUOUS
 70
0
 71
3
 72
54
 73
50
 74
0
 42
0.0000001
 43
0.0000001
 44
0.0000000001
 40
0.0
 40
0.0
 40
0.0
 40
0.0
 40
0.0077912926
 40
0.0156781119
 40
0.0235699685
 40
0.031457781
 40
0.0393364429
 40
0.0472016581
 40
0.0628727842
 40
0.0784597495
 40
0.0939621553
 40
0.1016867072
 40
0.109396186
 40
0.1170938087
 40
0.1247836244
 40
0.1324685282
 40
0.1401506284
 40
0.1555115358
 40
0.1708769445
 40
0.1785651075
 40
0.1862591368
 40
0.20166726
 40
0.2171000553
 40
0.2325536265
 40
0.2480240498
 40
0.2790044792
 40
0.3100306225
 40
0.3410965876
 40
0.3721977859
 40
0.4344895984
 40
0.4968780057
 40
0.5281036482
 40
0.5593494364
 40
0.5906166963
 40
0.6219080484
 40
0.6532272553
 40
0.6845806619
 40
0.7002726784
 40
0.7159759974
 40
0.7474167801
 40
0.7789027755
 40
0.810430754
 40
0.8419913639
 40
0.8735757757
 40
0.8893740717
 40
0.9051753361
 40
0.9367813364
 40
0.9683922914
 40
1.0
 40
1.0
 40
1.0
 40
1.0
 10
5.5342147681
 20
5.7101923129
 30
0.0
 10
5.5337817353
 20
5.7094824063
 30
0.0
 10
5.5328588112
 20
5.7080848463
 30
0.0
 10
5.5313374615
 20
5.7060791403
 30
0.0
 10
5.5296710582
 20
5.7041780089
 30
0.0
 10
5.5278764001
 20
5.702398989
 30
0.0
 10
5.5259689139
 20
5.7007461044
 30
0.0
 10
5.5233025683
 20
5.6987104109
 30
0.0
 10
5.5197720653
 20
5.6964643654
 30
0.0
 10
5.5153137254
 20
5.6942078025
 30
0.0
 10
5.5114780519
 20
5.6926338161
 30
0.0
 10
5.5083701581
 20
5.6915182092
 30
0.0
 10
5.5060257386
 20
5.6907435937
 30
0.0
 10
5.503669034
 20
5.6900201649
 30
0.0
 10
5.501303539
 20
5.6893355645
 30
0.0
 10
5.498931018
 20
5.6886820456
 30
0.0
 10
5.4957602196
 20
5.6878442915
 30
0.0
 10
5.4917829333
 20
5.6868508893
 30
0.0
 10
5.487793229
 20
5.6859063888
 30
0.0
 10
5.4845965488
 20
5.6851644335
 30
0.0
 10
5.4813946362
 20
5.6844248613
 30
0.0
 10
5.4773872933
 20
5.6834995253
 30
0.0
 10
5.4725721674
 20
5.6823915383
 30
0.0
 10
5.4677482625
 20
5.681292075
 30
0.0
 10
5.4613015096
 20
5.679845751
 30
0.0
 10
5.4532206209
 20
5.6780912432
 30
0.0
 10
5.4434936179
 20
5.6760755026
 30
0.0
 10
5.4337348635
 20
5.6741516361
 30
0.0
 10
5.4206773185
 20
5.6717117994
 30
0.0
 10
5.4042879219
 20
5.6689067871
 30
0.0
 10
5.3878246949
 20
5.666477759
 30
0.0
 10
5.3746060354
 20
5.6647860016
 30
0.0
 10
5.3646660116
 20
5.6636481441
 30
0.0
 10
5.354704284
 20
5.6626465165
 30
0.0
 10
5.3447215388
 20
5.6617853368
 30
0.0
 10
5.3347180916
 20
5.6610696266
 30
0.0
 10
5.3263675594
 20
5.6605938543
 30
0.0
 10
5.3196776116
 20
5.6602834171
 30
0.0
 10
5.3129763621
 20
5.6600188214
 30
0.0
 10
5.3045874424
 20
5.6597764871
 30
0.0
 10
5.2945069921
 20
5.6596360711
 30
0.0
 10
5.2844126535
 20
5.6596581052
 30
0.0
 10
5.2743099502
 20
5.6598752644
 30
0.0
 10
5.265891631
 20
5.6602454085
 30
0.0
 10
5.259161555
 20
5.660674749
 30
0.0
 10
5.2524359202
 20
5.6611988247
 30
0.0
 10
5.2440435867
 20
5.6620492807
 30
0.0
 10
5.2340176401
 20
5.6634483374
 30
0.0
 10
5.2273795804
 20
5.6646739741
 30
0.0
 10
5.2240785874
 20
5.6653694155
 30
0.0
  0
SPLINE
  5
2E0
100
AcDbEntity
  8
0
100
AcDbSpline
 62
7
  6
CONTINUOUS
 70
0
 71
3
 72
20
 73
16
 74
0
 42
0.0000001
 43
0.0000001
 44
0.0000000001
 40
0.0
 40
0.0
 40
0.0
 40
0.0
 40
0.1115335828
 40
0.1696025352
 40
0.2290982772
 40
0.2899220225
 40
0.3519503058
 40
0.4150376817
 40
0.4790205553
 40
0.5437204911
 40
0.6089475523
 40
0.7401353898
 40
0.8057376989
 40
0.8710561291
 40
1.0
 40
1.0
 40
1.0
 40
1.0
 10
5.7550546744
 20
6.2572282739
 30
0.0
 10
5.7536176577
 20
6.2611935997
 30
0.0
 10
5.7509292776
 20
6.2670524419
 30
0.0
 10
5.746496455
 20
6.2745003468
 30
0.0
 10
5.7426541328
 20
6.2800519333
 30
0.0
 10
5.7383642827
 20
6.2854563967
 30
0.0
 10
5.7336527903
 20
6.2906818317
 30
0.0
 10
5.728548662
 20
6.2956960859
 30
0.0
 10
5.7230832385
 20
6.3004685611
 30
0.0
 10
5.7172897072
 20
6.3049702902
 30
0.0
 10
5.709161789
 20
6.3105838966
 30
0.0
 10
5.7005489656
 20
6.315530371
 30
0.0
 10
5.6915732496
 20
6.319744856
 30
0.0
 10
5.6824577188
 20
6.323424921
 30
0.0
 10
5.675420356
 20
6.3256039859
 30
0.0
 10
5.6706857027
 20
6.3267697392
 30
0.0
  0
SPLINE
  5
2E1
100
AcDbEntity
  8
0
100
AcDbSpline
 62
7
  6
CONTINUOUS
 70
0
 71
3
 72
15
 73
11
 74
0
 42
0.0000001
 43
0.0000001
 44
0.0000000001
 40
0.0
 40
0.0
 40
0.0
 40
0.0
 40
0.1208984495
 40
0.2430675348
 40
0.3664880921
 40
0.4911153493
 40
0.6168805538
 40
0.7436929479
 40
0.8714420243
 40
1.0
 40
1.0
 40
1.0
 40
1.0
 10
3.4059636247
 20
5.5088845559
 30
0.0
 10
3.4020115802
 20
5.5067128472
 30
0.0
 10
3.3942257656
 20
5.5020488293
 30
0.0
 10
3.3830301937
 20
5.4941858623
 30
0.0
 10
3.3723129829
 20
5.4854597583
 30
0.0
 10
3.3621316659
 20
5.4759174795
 30
0.0
 10
3.3525398457
 20
5.4656097162
 30
0.0
 10
3.3435881723
 20
5.4545911074
 30
0.0
 10
3.3353243158
 20
5.4429208267
 30
0.0
 10
3.3303157224
 20
5.4347684921
 30
0.0
 10
3.3279382205
 20
5.4306042721
 30
0.0
  0
SPLINE
  5
2E2
100
AcDbEntity
  8
0
100
AcDbSpline
 62
7
  6
CONTINUOUS
 70
0
 71
3
 72
23
 73
19
 74
0
 42
0.0000001
 43
0.0000001
 44
0.0000000001
 40
0.0
 40
0.0
 40
0.0
 40
0.0
 40
0.0560986684
 40
0.1133957483
 40
0.1720623894
 40
0.2321701688
 40
0.2936998626
 40
0.3565459166
 40
0.4205285623
 40
0.4854071955
 40
0.5508953381
 40
0.6166762691
 40
0.6824190105
 40
0.7477944824
 40
0.8124913547
 40
0.8762329381
 40
0.9387893774
 40
1.0
 40
1.0
 40
1.0
 40
1.0
 10
5.7308845521
 20
6.4851991077
 30
0.0
 10
5.7308068087
 20
6.4840890411
 30
0.0
 10
5.7304837454
 20
6.4818537676
 30
0.0
 10
5.7295242107
 20
6.4785677674
 30
0.0
 10
5.7281017644
 20
6.4753668671
 30
0.0
 10
5.72623998
 20
6.4723023013
 30
0.0
 10
5.7239691037
 20
6.469421673
 30
0.0
 10
5.721325463
 20
6.4667699326
 30
0.0
 10
5.7183510294
 20
6.4643883436
 30
0.0
 10
5.7150927916
 20
6.4623140213
 30
0.0
 10
5.7116020856
 20
6.4605793348
 30
0.0
 10
5.7079338269
 20
6.459211409
 30
0.0
 10
5.704145676
 20
6.4582316956
 30
0.0
 10
5.7002971299
 20
6.4576556623
 30
0.0
 10
5.6964486764
 20
6.4574924902
 30
0.0
 10
5.6926606059
 20
6.4577451537
 30
0.0
 10
5.6889931364
 20
6.4584097846
 30
0.0
 10
5.6866386654
 20
6.4591298377
 30
0.0
 10
5.6855018791
 20
6.459556415
 30
0.0
  0
ENDSEC
  0
SECTION
  2
OBJECTS
  0
DICTIONARY
  5
C
100
AcDbDictionary
280
0
281
1
  3
ACAD_GROUP
350
D
  3
ACAD_MLINESTYLE
350
17
  3
ACAD_LAYOUT
350
1A
  3
ACAD_PLOTSETTINGS
350
19
  3
ACAD_PLOTSTYLENAME
350
E
  0
DICTIONARY
  5
D
102
{ACAD_REACTORS
330
C
102
}
100
AcDbDictionary
280
0
281
1
  0
ACDBDICTIONARYWDFLT
  5
E
102
{ACAD_REACTORS
330
C
102
}
100
AcDbDictionary
281
1
  3
Normal
350
F
100
AcDbDictionaryWithDefault
340
F
  0
DICTIONARY
  5
17
102
{ACAD_REACTORS
330
C
102
}
100
AcDbDictionary
280
0
281
1
  3
Standard
350
18
  0
DICTIONARY
  5
19
102
{ACAD_REACTORS
330
C
102
}
100
AcDbDictionary
281
1
  0
DICTIONARY
  5
1A
102
{ACAD_REACTORS
330
C
102
}
100
AcDbDictionary
281
1
  3
Model
350
2E3
  3
Layout1
350
2E4
  0
ACDBPLACEHOLDER
  5
F
102
{ACAD_REACTORS
330
E
102
}
  0
MLINESTYLE
  5
18
102
{ACAD_REACTORS
330
17
102
}
100
AcDbMlineStyle
  2
STANDARD
 70
0
  3

 62
256
 51
90.0
 52
90.0
 71
2
 49
0.5
 62
256
  6
BYLAYER
 49
-0.5
 62
256
  6
BYLAYER
  0
LAYOUT
  5
2E3
102
{ACAD_REACTORS
330
1A
102
}
100
AcDbPlotSettings
  1

  2
none_device
  4
ANSI_A_(11.00_x_8.50_Inches)
  6

 40
0.0
 41
0.0
 42
0.0
 43
0.0
 44
279.4
 45
215.9
 46
0.0
 47
0.0
 48
0.0
 49
0.0
140
0.0
141
0.0
142
1.0
143
1.0
 70
1024
 72
0
 73
0
 74
0
  7

 75
0
147
1.0
148
0.0
149
0.0
100
AcDbLayout
  1
Model
 70
0
 71
0
 10
0.0
 20
0.0
 11
11.0
 21
8.5
 12
0.0
 22
0.0
 32
0.0
 14
0.0
 24
0.0
 34
0.0
 15
0.0
 25
0.0
 35
0.0
146
0.0
 13
0.0
 23
0.0
 33
0.0
 16
1.0
 26
0.0
 36
0.0
 17
0.0
 27
1.0
 37
0.0
 76
0
330
202
345
0
346
0
  0
LAYOUT
  5
2E4
102
{ACAD_REACTORS
330
1A
102
}
100
AcDbPlotSettings
  1

  2
none_device
  4
ANSI_A_(11.00_x_8.50_Inches)
  6

 40
0.0
 41
0.0
 42
0.0
 43
0.0
 44
279.4
 45
215.9
 46
0.0
 47
0.0
 48
0.0
 49
0.0
140
0.0
141
0.0
142
1.0
143
1.0
 70
0
 72
0
 73
0
 74
0
  7

 75
0
147
1.0
148
0.0
149
0.0
100
AcDbLayout
  1
Layout1
 70
0
 71
1
 10
0.0
 20
0.0
 11
11.0
 21
8.5
 12
0.0
 22
0.0
 32
0.0
 14
0.0
 24
0.0
 34
0.0
 15
0.0
 25
0.0
 35
0.0
146
0.0
 13
0.0
 23
0.0
 33
0.0
 16
1.0
 26
0.0
 36
0.0
 17
0.0
 27
1.0
 37
0.0
 76
0
330
203
345
0
346
0
  0
ENDSEC
  0
EOF
