999
DXF file: 1203-1_top.dxf
999
Pro/ENGINEER 2018400 by Parametric Technology Corporation
  0
SECTION
  2
HEADER
  9
$ACADVER
  1
AC1027
  9
$DWGCODEPAGE
  3
ANSI_1252
  9
$EXTMAX
 10
11.0
 20
8.5
 30
0.0
  9
$EXTMIN
 10
0.0
 20
0.0
 30
0.0
  9
$LIMMIN
 10
0.0
 20
0.0
  9
$LIMMAX
 10
11.0
 20
8.5
  9
$VIEWCTR
 10
5.5
 20
4.25
  9
$VIEWSIZE
 40
8.5
  9
$CLAYER
  8
0
  9
$LTSCALE
 40
0.605
  9
$CELTYPE
  6
BYLAYER
  9
$DIMSCALE
 40
1.0
  9
$DIMASZ
 40
0.1
  9
$DIMEXO
 40
0.0625
  9
$DIMDLI
 40
0.418
  9
$DIMEXE
 40
0.125
  9
$DIMCEN
 40
0.099
  9
$DIMLFAC
 40
1.0
  9
$DIMBLK
  1
_FILLED
  9
$DIMALT
 70
1
  9
$DIMALTD
 70
1
  9
$DIMALTTD
 70
2
  9
$DIMALTF
 40
25.4
  9
$DIMTXT
 40
0.08
  9
$DIMTOL
 70
1
  9
$DIMLIM
 70
0
  9
$DIMTFAC
 40
1.0
  9
$DIMTP
 40
0.01
  9
$DIMTM
 40
0.01
  9
$DIMGAP
 40
0.09
  9
$DIMDSEP
 70
46
  9
$AUNITS
 70
0
  9
$PDMODE
 70
3
  9
$PDSIZE
 40
0.3125
  9
$HANDSEED
  5
309
  9
$TILEMODE
 70
1
  9
$MEASUREMENT
 70
0
  9
$INSUNITS
 70
1
  0
ENDSEC
  0
SECTION
  2
CLASSES
  0
CLASS
  1
ACDBDICTIONARYWDFLT
  2
AcDbDictionaryWithDefault
  3
AutoCAD 2000
 90
0
 91
1
280
0
281
0
  0
CLASS
  1
ACDBPLACEHOLDER
  2
AcDbPlaceHolder
  3
AutoCAD 2000
 90
0
 91
1
280
0
281
0
  0
CLASS
  1
LAYOUT
  2
AcDbLayout
  3
AutoCAD 2000
 90
0
 91
0
280
0
281
0
  0
ENDSEC
  0
SECTION
  2
TABLES
  0
TABLE
  2
VPORT
  5
8
100
AcDbSymbolTable
 70
2
  0
VPORT
  5
1F4
100
AcDbSymbolTableRecord
100
AcDbViewportTableRecord
  2
*ACTIVE
 70
0
 10
0.0
 20
0.0
 11
1.0
 21
1.0
 12
5.5
 22
4.25
 13
0.0
 23
0.0
 14
1.0
 24
1.0
 15
0.0
 25
0.0
 16
0.0
 26
0.0
 36
1.0
 17
0.0
 27
0.0
 37
0.0
 40
8.5
 41
1.2941176471
 42
50.0
 43
0.0
 44
0.0
 50
0.0
 51
0.0
 71
0
 72
100
 73
1
 74
1
 75
0
 76
0
 77
0
 78
0
  0
ENDTAB
  0
TABLE
  2
LTYPE
  5
5
100
AcDbSymbolTable
 70
6
  0
LTYPE
  5
14
100
AcDbSymbolTableRecord
100
AcDbLinetypeTableRecord
  2
BYBLOCK
 70
0
  3

 72
65
 73
0
 40
0.0
  0
LTYPE
  5
15
100
AcDbSymbolTableRecord
100
AcDbLinetypeTableRecord
  2
BYLAYER
 70
0
  3

 72
65
 73
0
 40
0.0
  0
LTYPE
  5
16
100
AcDbSymbolTableRecord
100
AcDbLinetypeTableRecord
  2
CONTINUOUS
 70
64
  3
Solid line
 72
65
 73
0
 40
0.0
  0
LTYPE
  5
1F5
100
AcDbSymbolTableRecord
100
AcDbLinetypeTableRecord
  2
CENTER
 70
64
  3
____ _ ____ _ ____ _ ____ _ ____ _ ____ _ ____
 72
65
 73
4
 40
0.6
 49
0.375
 74
0
 49
-0.075
 74
0
 49
0.075
 74
0
 49
-0.075
 74
0
  0
LTYPE
  5
1F6
100
AcDbSymbolTableRecord
100
AcDbLinetypeTableRecord
  2
HIDDEN
 70
64
  3
- - - - - - - - - - - - - - - - - - - -
 72
65
 73
2
 40
0.2
 49
0.1
 74
0
 49
-0.1
 74
0
  0
LTYPE
  5
1F7
100
AcDbSymbolTableRecord
100
AcDbLinetypeTableRecord
  2
PHANTOM
 70
64
  3
_____ _ _ _____ _ _ _____ _ _ _____
 72
65
 73
6
 40
0.8
 49
0.45
 74
0
 49
-0.05
 74
0
 49
0.1
 74
0
 49
-0.05
 74
0
 49
0.1
 74
0
 49
-0.05
 74
0
  0
LTYPE
  5
1F8
100
AcDbSymbolTableRecord
100
AcDbLinetypeTableRecord
  2
DOT
 70
64
  3
. . . . . . . . . . . . . . . . . . . .
 72
65
 73
2
 40
0.2
 49
0.1
 74
0
 49
-0.1
 74
0
  0
LTYPE
  5
1F9
100
AcDbSymbolTableRecord
100
AcDbLinetypeTableRecord
  2
DASHED
 70
64
  3
- - - - - - - - - - - - - - - - - - - -
 72
65
 73
2
 40
0.2
 49
0.1
 74
0
 49
-0.1
 74
0
  0
ENDTAB
  0
TABLE
  2
LAYER
  5
2
100
AcDbSymbolTable
 70
36
  0
LAYER
  5
10
100
AcDbSymbolTableRecord
100
AcDbLayerTableRecord
  2
0
 70
0
 62
7
  6
CONTINUOUS
370
-3
390
F
  0
LAYER
  5
1FA
100
AcDbSymbolTableRecord
100
AcDbLayerTableRecord
  2
DEFAULT_1
 70
0
 62
7
  6
CENTER
370
-3
390
F
  0
LAYER
  5
1FB
100
AcDbSymbolTableRecord
100
AcDbLayerTableRecord
  2
DEFAULT_2
 70
0
 62
8
  6
HIDDEN
370
-3
390
F
  0
LAYER
  5
1FC
100
AcDbSymbolTableRecord
100
AcDbLayerTableRecord
  2
DEFAULT_3
 70
0
 62
7
  6
PHANTOM
370
-3
390
F
  0
LAYER
  5
1FD
100
AcDbSymbolTableRecord
100
AcDbLayerTableRecord
  2
DEFAULT_COORDINATE_SYSTEM
 70
0
 62
7
  6
CONTINUOUS
370
-3
390
F
  0
LAYER
  5
1FE
100
AcDbSymbolTableRecord
100
AcDbLayerTableRecord
  2
DEFAULT_DATUM_AXES
 70
0
 62
7
  6
CONTINUOUS
370
-3
390
F
  0
LAYER
  5
1FF
100
AcDbSymbolTableRecord
100
AcDbLayerTableRecord
  2
DEFAULT_DATUM_PLANES
 70
0
 62
7
  6
CONTINUOUS
370
-3
390
F
  0
ENDTAB
  0
TABLE
  2
STYLE
  5
3
100
AcDbSymbolTable
 70
1
  0
STYLE
  5
11
100
AcDbSymbolTableRecord
100
AcDbTextStyleTableRecord
  2
STANDARD
 70
0
 40
0.0
 41
0.8
 50
0.0
 71
0
 42
0.2
  3
txt
  4

  0
STYLE
  5
200
100
AcDbSymbolTableRecord
100
AcDbTextStyleTableRecord
  2
TEXTSTYLE_1
 70
0
 40
0.0
 41
0.8
 50
0.0
 71
0
 42
0.2
  3
gdt
  4

  0
ENDTAB
  0
TABLE
  2
VIEW
  5
6
100
AcDbSymbolTable
 70
0
  0
ENDTAB
  0
TABLE
  2
UCS
  5
7
100
AcDbSymbolTable
 70
0
  0
ENDTAB
  0
TABLE
  2
APPID
  5
9
100
AcDbSymbolTable
 70
1
  0
APPID
  5
201
100
AcDbSymbolTableRecord
100
AcDbRegAppTableRecord
  2
ACAD
 70
0
  0
ENDTAB
  0
TABLE
  2
BLOCK_RECORD
  5
1
100
AcDbSymbolTable
 70
0
  0
BLOCK_RECORD
  5
202
100
AcDbSymbolTableRecord
100
AcDbBlockTableRecord
  2
*Model_Space
  0
BLOCK_RECORD
  5
203
100
AcDbSymbolTableRecord
100
AcDbBlockTableRecord
  2
*Paper_Space
  0
BLOCK_RECORD
  5
204
100
AcDbSymbolTableRecord
100
AcDbBlockTableRecord
  2
_FILLED
  0
ENDTAB
  0
TABLE
  2
DIMSTYLE
  5
A
100
AcDbSymbolTable
 70
1
100
AcDbDimStyleTable
 71
0
  0
DIMSTYLE
105
205
100
AcDbSymbolTableRecord
100
AcDbDimStyleTableRecord
  2
STANDARD
 70
0
  3

  4

 40
1.0
 41
0.1
 42
0.0625
 43
0.38
 44
0.125
 45
0.0
 46
0.0
 47
0.01
 48
0.01
140
0.08
141
0.09
142
0.0
143
25.4
144
1.0
145
0.0
146
1.0
147
0.09
 71
1.0
 72
0.0
 73
1
 74
1
 75
0
 76
0
 77
0
 78
4
 79
1
170
1
171
1
172
0
173
0
174
0
175
0
176
0
177
0
178
0
270
2
179
2
271
2
272
2
273
2
274
2
275
0
280
0
281
0
282
0
283
1
284
4
285
0
286
0
287
3
288
0
340
11
278
46
341
204
342
204
343
204
344
204
  0
ENDTAB
  0
ENDSEC
  0
SECTION
  2
BLOCKS
  0
BLOCK
  5
20
100
AcDbEntity
  8
0
100
AcDbBlockBegin
  2
*Model_Space
 70
0
 10
0.0
 20
0.0
 30
0.0
  3
*Model_Space
  1

  0
ENDBLK
  5
21
100
AcDbEntity
  8
0
100
AcDbBlockEnd
  0
BLOCK
  5
1C
100
AcDbEntity
  8
0
100
AcDbBlockBegin
  2
*Paper_Space
 70
0
 10
0.0
 20
0.0
 30
0.0
  3
*Paper_Space
  1

  0
ENDBLK
  5
1D
100
AcDbEntity
  8
0
100
AcDbBlockEnd
  0
BLOCK
  5
206
100
AcDbEntity
  8
0
100
AcDbBlockBegin
  2
_FILLED
 70
64
 10
0.0
 20
0.0
  3
_FILLED
  1

  0
SOLID
  5
207
100
AcDbEntity
  8
0
  6
BYBLOCK
 62
0
100
AcDbTrace
 10
0.0
 20
0.0
 11
-1.0
 21
0.2
 12
-1.0
 22
-0.2
 13
-1.0
 23
-0.2
  0
ENDBLK
  5
208
100
AcDbEntity
  8
0
  6
BYBLOCK
 62
0
100
AcDbBlockEnd
  0
ENDSEC
  0
SECTION
  2
ENTITIES
  0
MTEXT
  5
209
100
AcDbEntity
  8
0
100
AcDbMText
 62
2
  6
CONTINUOUS
  7
STANDARD
 71
3
 72
1
 10
5.0157608696
 20
1.9240431511
 30
0.0
 11
1.0
 21
0.0
 31
0.0
 73
2
 44
0.9
  1
SCALE  .500
 40
0.08
 41
0.704
  0
LINE
  5
20A
100
AcDbEntity
  8
0
100
AcDbLine
 62
7
  6
CONTINUOUS
 10
0.0
 20
0.0
 11
0.0
 21
8.5
  0
LINE
  5
20B
100
AcDbEntity
  8
0
100
AcDbLine
 62
7
  6
CONTINUOUS
 10
0.0
 20
0.0
 11
11.0
 21
0.0
  0
LINE
  5
20C
100
AcDbEntity
  8
0
100
AcDbLine
 62
7
  6
CONTINUOUS
 10
0.0
 20
8.5
 11
11.0
 21
8.5
  0
LINE
  5
20D
100
AcDbEntity
  8
0
100
AcDbLine
 62
7
  6
CONTINUOUS
 10
11.0
 20
0.0
 11
11.0
 21
8.5
  0
LINE
  5
20E
100
AcDbEntity
  8
0
100
AcDbLine
 62
7
  6
CONTINUOUS
 10
4.4655453791
 20
5.9308627495
 11
4.2381559756
 21
5.5370127495
  0
LINE
  5
20F
100
AcDbEntity
  8
0
100
AcDbLine
 62
7
  6
CONTINUOUS
 10
4.9765381464
 20
6.0282281849
 11
4.9203239955
 21
5.9308628596
  0
LWPOLYLINE
  5
210
100
AcDbEntity
  8
0
100
AcDbPolyline
 62
7
  6
CONTINUOUS
 90
3
 70
0
 10
4.823427554
 20
5.777431522
 10
4.8214664146
 20
5.7740971439
 10
4.8196095205
 20
5.7709396889
  0
LINE
  5
211
100
AcDbEntity
  8
0
100
AcDbLine
 62
7
  6
CONTINUOUS
 10
4.8458733051
 20
5.8156003279
 11
4.8066723928
 21
5.7489286342
  0
LINE
  5
212
100
AcDbEntity
  8
0
100
AcDbLine
 62
7
  6
CONTINUOUS
 10
4.8583817711
 20
5.8099060773
 11
4.8195905
 21
5.7414703002
  0
LINE
  5
213
100
AcDbEntity
  8
0
100
AcDbLine
 62
7
  6
CONTINUOUS
 10
4.8381900509
 20
5.7742775385
 11
4.8361465743
 21
5.7706720753
  0
LWPOLYLINE
  5
214
100
AcDbEntity
  8
0
100
AcDbPolyline
 62
7
  6
CONTINUOUS
 90
10
 70
0
 10
4.3796289384
 20
4.7493972824
 10
4.3815220288
 20
4.717650467
 10
4.3833449941
 20
4.6853534041
 10
4.3850405412
 20
4.653473738
 10
4.3866109866
 20
4.622008436
 10
4.3880583861
 20
4.5909603451
 10
4.3893846136
 20
4.5603385339
 10
4.3905919038
 20
4.530147193
 10
4.3916828476
 20
4.5003851639
 10
4.3924946844
 20
4.476232356
  0
LINE
  5
215
100
AcDbEntity
  8
0
100
AcDbLine
 62
7
  6
CONTINUOUS
 10
4.3796136051
 20
4.7496830092
 11
4.3796289384
 21
4.7493972824
  0
LINE
  5
216
100
AcDbEntity
  8
0
100
AcDbLine
 62
7
  6
CONTINUOUS
 10
4.3716245664
 20
5.0309509648
 11
4.3721929101
 21
5.0151744683
  0
LINE
  5
217
100
AcDbEntity
  8
0
100
AcDbLine
 62
7
  6
CONTINUOUS
 10
4.3721929101
 20
5.0151744683
 11
4.3727073647
 21
4.9989778602
  0
LWPOLYLINE
  5
218
100
AcDbEntity
  8
0
100
AcDbPolyline
 62
7
  6
CONTINUOUS
 90
9
 70
0
 10
4.3764488902
 20
4.8288177878
 10
4.3767165779
 20
4.819149522
 10
4.3770122671
 20
4.8093687566
 10
4.3773399743
 20
4.799503464
 10
4.3777044506
 20
4.7895724185
 10
4.3781143002
 20
4.7795179052
 10
4.3785773699
 20
4.7693442208
 10
4.3790998476
 20
4.7591144345
 10
4.3796572952
 20
4.7493990026
  0
LINE
  5
219
100
AcDbEntity
  8
0
100
AcDbLine
 62
7
  6
CONTINUOUS
 10
4.3727073647
 20
4.9989778602
 11
4.3731716567
 21
4.9824173016
  0
LINE
  5
21A
100
AcDbEntity
  8
0
100
AcDbLine
 62
7
  6
CONTINUOUS
 10
4.3731716567
 20
4.9824173016
 11
4.373592296
 21
4.9655137674
  0
LINE
  5
21B
100
AcDbEntity
  8
0
100
AcDbLine
 62
7
  6
CONTINUOUS
 10
4.3759772026
 20
4.8479659714
 11
4.3764488902
 21
4.8288177878
  0
LINE
  5
21C
100
AcDbEntity
  8
0
100
AcDbLine
 62
7
  6
CONTINUOUS
 10
4.373592296
 20
4.9655137674
 11
4.3739773237
 21
4.9482842115
  0
LINE
  5
21D
100
AcDbEntity
  8
0
100
AcDbLine
 62
7
  6
CONTINUOUS
 10
4.3755690959
 20
4.8668118129
 11
4.3759772026
 21
4.8479659714
  0
LINE
  5
21E
100
AcDbEntity
  8
0
100
AcDbLine
 62
7
  6
CONTINUOUS
 10
4.3739773237
 20
4.9482842115
 11
4.3745100965
 21
4.9218237003
  0
LINE
  5
21F
100
AcDbEntity
  8
0
100
AcDbLine
 62
7
  6
CONTINUOUS
 10
4.3745100965
 20
4.9218237003
 11
4.3755690959
 21
4.8668118129
  0
LINE
  5
220
100
AcDbEntity
  8
0
100
AcDbLine
 62
7
  6
CONTINUOUS
 10
4.8970955911
 20
5.1958652454
 11
5.0904575836
 21
5.5307780353
  0
LINE
  5
221
100
AcDbEntity
  8
0
100
AcDbLine
 62
7
  6
CONTINUOUS
 10
4.5242001374
 20
4.0811440291
 11
4.5241847826
 21
4.0805356881
  0
LINE
  5
222
100
AcDbEntity
  8
0
100
AcDbLine
 62
7
  6
CONTINUOUS
 10
4.5779452466
 20
5.1457619121
 11
4.5242001374
 21
4.0811440291
  0
LINE
  5
223
100
AcDbEntity
  8
0
100
AcDbLine
 62
7
  6
CONTINUOUS
 10
4.9203241861
 20
5.1431627495
 11
4.9202979866
 21
5.1431162956
  0
LINE
  5
224
100
AcDbEntity
  8
0
100
AcDbLine
 62
7
  6
CONTINUOUS
 10
4.9203241861
 20
5.1431627495
 11
5.1477135896
 21
5.5370127495
  0
LWPOLYLINE
  5
225
100
AcDbEntity
  8
0
100
AcDbPolyline
 62
7
  6
CONTINUOUS
 90
24
 70
0
 10
4.3614239922
 20
5.1761375894
 10
4.3618538534
 20
5.1722896144
 10
4.3624194742
 20
5.1670676976
 10
4.3629759783
 20
5.1617409431
 10
4.3635224221
 20
5.1563128801
 10
4.3640584982
 20
5.150781238
 10
4.3645844245
 20
5.1451379833
 10
4.3650995912
 20
5.1393835671
 10
4.3656033703
 20
5.1335191759
 10
4.3660958311
 20
5.1275380242
 10
4.3665763724
 20
5.1214412896
 10
4.3670444793
 20
5.1152297744
 10
4.3675002546
 20
5.1088962726
 10
4.3679431622
 20
5.102442374
 10
4.3683727875
 20
5.0958688757
 10
4.3687893226
 20
5.0891675795
 10
4.3691923851
 20
5.082339449
 10
4.3695816106
 20
5.0753864296
 10
4.3699571536
 20
5.0683020376
 10
4.3703188764
 20
5.0610855877
 10
4.3706664771
 20
5.0537413185
 10
4.3709999066
 20
5.0462703703
 10
4.3713192833
 20
5.038671888
 10
4.3716245664
 20
5.0309509648
  0
LINE
  5
226
100
AcDbEntity
  8
0
100
AcDbLine
 62
7
  6
CONTINUOUS
 10
4.6929347826
 20
5.7390952122
 11
4.6929347826
 21
5.7487368861
  0
LINE
  5
227
100
AcDbEntity
  8
0
100
AcDbLine
 62
7
  6
CONTINUOUS
 10
4.3214040828
 20
5.3928227982
 11
4.3224039922
 21
5.3893170093
  0
LINE
  5
228
100
AcDbEntity
  8
0
100
AcDbLine
 62
7
  6
CONTINUOUS
 10
4.3224039922
 20
5.3893170093
 11
4.3237743789
 21
5.3843854199
  0
LINE
  5
229
100
AcDbEntity
  8
0
100
AcDbLine
 62
7
  6
CONTINUOUS
 10
4.3237743789
 20
5.3843854199
 11
4.3251837441
 21
5.3791632655
  0
LWPOLYLINE
  5
22A
100
AcDbEntity
  8
0
100
AcDbPolyline
 62
7
  6
CONTINUOUS
 90
3
 70
0
 10
4.3251837441
 20
5.3791632655
 10
4.326634298
 20
5.3736241074
 10
4.3270986983
 20
5.3718145059
  0
LINE
  5
22B
100
AcDbEntity
  8
0
100
AcDbLine
 62
7
  6
CONTINUOUS
 10
5.058770978
 20
5.3718149406
 11
5.0599417448
 21
5.3763430935
  0
LINE
  5
22C
100
AcDbEntity
  8
0
100
AcDbLine
 62
7
  6
CONTINUOUS
 10
5.0599417448
 20
5.3763430935
 11
5.0613569984
 21
5.3816694965
  0
LINE
  5
22D
100
AcDbEntity
  8
0
100
AcDbLine
 62
7
  6
CONTINUOUS
 10
5.0613569984
 20
5.3816694965
 11
5.0627387818
 21
5.3867191961
  0
LWPOLYLINE
  5
22E
100
AcDbEntity
  8
0
100
AcDbPolyline
 62
7
  6
CONTINUOUS
 90
3
 70
0
 10
5.0627387818
 20
5.3867191961
 10
5.0640860584
 20
5.3915036587
 10
5.0644654321
 20
5.392822711
  0
LWPOLYLINE
  5
22F
100
AcDbEntity
  8
0
100
AcDbPolyline
 62
7
  6
CONTINUOUS
 90
40
 70
0
 10
4.7665150831
 20
5.3129460417
 10
4.7664607461
 20
5.3135262895
 10
4.7663568406
 20
5.3148715097
 10
4.7662838048
 20
5.3162100897
 10
4.7662409617
 20
5.3175406887
 10
4.7662275809
 20
5.3188622857
 10
4.7662429115
 20
5.3201742038
 10
4.7662861863
 20
5.3214754159
 10
4.7663566053
 20
5.3227649176
 10
4.7664533739
 20
5.3240421675
 10
4.7665756643
 20
5.3253062936
 10
4.766722621
 20
5.3265564279
 10
4.7668934194
 20
5.3277921154
 10
4.7670871863
 20
5.329012603
 10
4.767303028
 20
5.3302171626
 10
4.7675401029
 20
5.3314054371
 10
4.7677975066
 20
5.3325767827
 10
4.7680743199
 20
5.3337305889
 10
4.7683696952
 20
5.3348665905
 10
4.7686827194
 20
5.3359842837
 10
4.7690124458
 20
5.3370831122
 10
4.7693579827
 20
5.3381627559
 10
4.7697184167
 20
5.33922285
 10
4.7700927616
 20
5.340262864
 10
4.7704799955
 20
5.3412822414
 10
4.7708792281
 20
5.34228082
 10
4.7712893866
 20
5.3432580117
 10
4.7717090988
 20
5.34421264
 10
4.772137399
 20
5.3451445714
 10
4.7725731612
 20
5.3460533475
 10
4.7730146398
 20
5.3469373488
 10
4.7734607858
 20
5.3477965022
 10
4.7739104062
 20
5.348630471
 10
4.774361378
 20
5.3494373214
 10
4.7748127172
 20
5.3502173063
 10
4.7752630367
 20
5.3509699754
 10
4.7757094301
 20
5.3516925076
 10
4.7761504612
 20
5.3523846857
 10
4.7765850754
 20
5.3530468817
 10
4.7765980311
 20
5.3530660681
  0
LINE
  5
230
100
AcDbEntity
  8
0
100
AcDbLine
 62
7
  6
CONTINUOUS
 10
4.8079243186
 20
5.1457619121
 11
4.8616694279
 21
4.0811440291
  0
LINE
  5
231
100
AcDbEntity
  8
0
100
AcDbLine
 62
7
  6
CONTINUOUS
 10
4.8616847826
 20
4.0805356881
 11
4.8616694279
 21
4.0811440291
  0
LINE
  5
232
100
AcDbEntity
  8
0
100
AcDbLine
 62
7
  6
CONTINUOUS
 10
5.0234500908
 20
5.1670676961
 11
5.0244455731
 21
5.1761375894
  0
LINE
  5
233
100
AcDbEntity
  8
0
100
AcDbLine
 62
7
  6
CONTINUOUS
 10
4.2381559756
 20
5.5370127495
 11
4.4655453791
 21
5.1431627495
  0
LINE
  5
234
100
AcDbEntity
  8
0
100
AcDbLine
 62
7
  6
CONTINUOUS
 10
4.2954119805
 20
5.5307780382
 11
4.4887739899
 21
5.1958652265
  0
LINE
  5
235
100
AcDbEntity
  8
0
100
AcDbLine
 62
7
  6
CONTINUOUS
 10
4.4655453791
 20
5.1431627495
 11
4.4655715938
 21
5.1431162978
  0
LINE
  5
236
100
AcDbEntity
  8
0
100
AcDbLine
 62
7
  6
CONTINUOUS
 10
5.0103004693
 20
4.8668118118
 11
5.0115329626
 21
4.9307270537
  0
LINE
  5
237
100
AcDbEntity
  8
0
100
AcDbLine
 62
7
  6
CONTINUOUS
 10
5.0115329626
 20
4.9307270537
 11
5.0118922415
 21
4.9482842102
  0
LINE
  5
238
100
AcDbEntity
  8
0
100
AcDbLine
 62
7
  6
CONTINUOUS
 10
5.0098923626
 20
4.8479659703
 11
5.0103004693
 21
4.8668118118
  0
LINE
  5
239
100
AcDbEntity
  8
0
100
AcDbLine
 62
7
  6
CONTINUOUS
 10
5.0118922415
 20
4.9482842102
 11
5.0122772692
 21
4.9655137661
  0
LINE
  5
23A
100
AcDbEntity
  8
0
100
AcDbLine
 62
7
  6
CONTINUOUS
 10
5.0122772692
 20
4.9655137661
 11
5.0126979085
 21
4.9824173002
  0
LINE
  5
23B
100
AcDbEntity
  8
0
100
AcDbLine
 62
7
  6
CONTINUOUS
 10
5.0126979085
 20
4.9824173002
 11
5.0131622005
 21
4.9989778587
  0
LINE
  5
23C
100
AcDbEntity
  8
0
100
AcDbLine
 62
7
  6
CONTINUOUS
 10
5.0131622005
 20
4.9989778587
 11
5.0136766551
 21
5.0151744669
  0
LWPOLYLINE
  5
23D
100
AcDbEntity
  8
0
100
AcDbPolyline
 62
7
  6
CONTINUOUS
 90
9
 70
0
 10
4.9933748808
 20
4.476232356
 10
4.9941867176
 20
4.5003851634
 10
4.9952776614
 20
4.5301471925
 10
4.9964849516
 20
4.5603385335
 10
4.9978111791
 20
4.5909603448
 10
4.9992585786
 20
4.6220084358
 10
5.000829024
 20
4.6534737378
 10
5.0025245712
 20
4.6853534039
 10
5.0043475365
 20
4.717650467
  0
LWPOLYLINE
  5
23E
100
AcDbEntity
  8
0
100
AcDbPolyline
 62
7
  6
CONTINUOUS
 90
23
 70
0
 10
5.0136766551
 20
5.0151744669
 10
5.0142449988
 20
5.0309509634
 10
5.0145502818
 20
5.0386718866
 10
5.0148696586
 20
5.0462703689
 10
5.0152030881
 20
5.0537413171
 10
5.0155506888
 20
5.0610855863
 10
5.0159124115
 20
5.0683020362
 10
5.0162879546
 20
5.0753864282
 10
5.01667718
 20
5.0823394475
 10
5.0170802426
 20
5.0891675781
 10
5.0174967777
 20
5.0958688743
 10
5.0179264029
 20
5.1024423725
 10
5.0183693105
 20
5.1088962711
 10
5.0188250858
 20
5.1152297729
 10
5.0192931927
 20
5.1214412881
 10
5.019773734
 20
5.1275380227
 10
5.0202661948
 20
5.1335191744
 10
5.0207699739
 20
5.1393835656
 10
5.0212851406
 20
5.1451379819
 10
5.0218110668
 20
5.1507812365
 10
5.022347143
 20
5.1563128786
 10
5.0228935868
 20
5.1617409417
 10
5.0234500908
 20
5.1670676961
  0
LINE
  5
23F
100
AcDbEntity
  8
0
100
AcDbLine
 62
7
  6
CONTINUOUS
 10
5.0062559608
 20
4.7496830215
 11
5.0062406268
 21
4.7493972824
  0
LWPOLYLINE
  5
240
100
AcDbEntity
  8
0
100
AcDbPolyline
 62
7
  6
CONTINUOUS
 90
10
 70
0
 10
5.0062122845
 20
4.7493992396
 10
5.0067697176
 20
4.7591144336
 10
5.0072921953
 20
4.7693442199
 10
5.007755265
 20
4.7795179042
 10
5.0081651146
 20
4.7895724175
 10
5.0085295909
 20
4.7995034629
 10
5.0088572981
 20
4.8093687555
 10
5.0091529873
 20
4.8191495209
 10
5.0094206749
 20
4.8288177867
 10
5.0098923626
 20
4.8479659703
  0
LINE
  5
241
100
AcDbEntity
  8
0
100
AcDbLine
 62
7
  6
CONTINUOUS
 10
5.0062406268
 20
4.7493972824
 11
5.0043475365
 21
4.717650467
  0
LWPOLYLINE
  5
242
100
AcDbEntity
  8
0
100
AcDbPolyline
 62
7
  6
CONTINUOUS
 90
39
 70
0
 10
4.6097515372
 20
5.3528537243
 10
4.6098687703
 20
5.3526773583
 10
4.6103011096
 20
5.3520075134
 10
4.610739113
 20
5.3513077816
 10
4.6111813659
 20
5.3505783625
 10
4.6116249562
 20
5.3498220703
 10
4.6120685073
 20
5.3490393539
 10
4.6125110576
 20
5.3482299479
 10
4.6129504948
 20
5.3473957638
 10
4.6133856553
 20
5.3465370996
 10
4.6138154914
 20
5.3456540494
 10
4.6142382271
 20
5.3447483017
 10
4.6146527494
 20
5.3438203208
 10
4.61505812
 20
5.3428702179
 10
4.6154529656
 20
5.341899199
 10
4.6158362314
 20
5.3409078503
 10
4.6162070549
 20
5.3398963151
 10
4.6165644308
 20
5.3388651521
 10
4.6169073969
 20
5.3378148773
 10
4.6172350639
 20
5.3367458417
 10
4.6175465601
 20
5.3356583661
 10
4.6178409646
 20
5.3345529853
 10
4.6181173879
 20
5.3334301878
 10
4.6183750023
 20
5.3322902462
 10
4.6186129148
 20
5.3311337476
 10
4.6188302456
 20
5.3299613129
 10
4.6190261753
 20
5.328773303
 10
4.6191998351
 20
5.3275704241
 10
4.6193503779
 20
5.3263533937
 10
4.6194770044
 20
5.3251226465
 10
4.6195788829
 20
5.323879014
 10
4.6196552081
 20
5.322623334
 10
4.6197052089
 20
5.3213561251
 10
4.6197281061
 20
5.3200783485
 10
4.6197231514
 20
5.3187909893
 10
4.6196896146
 20
5.3174946971
 10
4.6196267825
 20
5.3161904491
 10
4.6195339913
 20
5.3148795283
 10
4.619486788
 20
5.3143365469
  0
LINE
  5
243
100
AcDbEntity
  8
0
100
AcDbLine
 62
7
  6
CONTINUOUS
 10
4.5399962601
 20
5.8156003279
 11
4.5791971724
 21
5.7489286342
  0
LINE
  5
244
100
AcDbEntity
  8
0
100
AcDbLine
 62
7
  6
CONTINUOUS
 10
4.4093314188
 20
6.0282281849
 11
4.4655451886
 21
5.9308626395
  0
LWPOLYLINE
  5
245
100
AcDbEntity
  8
0
100
AcDbPolyline
 62
7
  6
CONTINUOUS
 90
3
 70
0
 10
4.5497219659
 20
5.7706740786
 10
4.5516617092
 20
5.7672508639
 10
4.5534981305
 20
5.7640103688
  0
LINE
  5
246
100
AcDbEntity
  8
0
100
AcDbLine
 62
7
  6
CONTINUOUS
 10
4.5274877941
 20
5.8099060773
 11
4.5662790672
 21
5.7414702943
  0
LINE
  5
247
100
AcDbEntity
  8
0
100
AcDbLine
 62
7
  6
CONTINUOUS
 10
4.4655453791
 20
5.1431627495
 11
4.5603126755
 21
5.1431627495
  0
LINE
  5
248
100
AcDbEntity
  8
0
100
AcDbLine
 62
7
  6
CONTINUOUS
 10
4.8255593617
 20
5.1431627495
 11
4.9203241861
 21
5.1431627495
  0
LINE
  5
249
100
AcDbEntity
  8
0
100
AcDbLine
 62
7
  6
CONTINUOUS
 10
4.4995727585
 20
5.1896305548
 11
4.5599212817
 21
5.1896305542
  0
LINE
  5
24A
100
AcDbEntity
  8
0
100
AcDbLine
 62
7
  6
CONTINUOUS
 10
4.8259494248
 20
5.1896305515
 11
4.8862967833
 21
5.1896305509
  0
LINE
  5
24B
100
AcDbEntity
  8
0
100
AcDbLine
 62
7
  6
CONTINUOUS
 10
4.7315130652
 20
5.3386468308
 11
4.7315116542
 21
5.3386465564
  0
LINE
  5
24C
100
AcDbEntity
  8
0
100
AcDbLine
 62
7
  6
CONTINUOUS
 10
4.655537679
 20
5.33842076
 11
4.6555362844
 21
5.3384210225
  0
LINE
  5
24D
100
AcDbEntity
  8
0
100
AcDbLine
 62
7
  6
CONTINUOUS
 10
5.1477135896
 20
5.5370127495
 11
4.9203241861
 21
5.9308627495
  0
LINE
  5
24E
100
AcDbEntity
  8
0
100
AcDbLine
 62
7
  6
CONTINUOUS
 10
4.1257280549
 20
5.5370127495
 11
4.2381559756
 21
5.5370124931
  0
LINE
  5
24F
100
AcDbEntity
  8
0
100
AcDbLine
 62
7
  6
CONTINUOUS
 10
5.2601415103
 20
5.5370127495
 11
5.1477068668
 21
5.5370127495
  0
LINE
  5
250
100
AcDbEntity
  8
0
100
AcDbLine
 62
7
  6
CONTINUOUS
 10
4.8458733051
 20
5.8156003278
 11
4.5399962601
 21
5.8156003278
  0
LINE
  5
251
100
AcDbEntity
  8
0
100
AcDbLine
 62
7
  6
CONTINUOUS
 10
4.9203241861
 20
5.9308627495
 11
4.4655453791
 21
5.9308627495
  0
ARC
  5
252
100
AcDbEntity
  8
0
100
AcDbCircle
 62
7
  6
CONTINUOUS
 10
-240.7469763528
 20
2.9787366964
 40
245.2627302197
100
AcDbArc
 50
0.0924219054
 51
0.4331844294
  0
ARC
  5
253
100
AcDbEntity
  8
0
100
AcDbCircle
 62
7
  6
CONTINUOUS
 10
-38.3304358514
 20
-19.3118704828
 40
49.4719704367
100
AcDbArc
 50
29.8776316147
 51
30.1411054105
  0
ARC
  5
254
100
AcDbEntity
  8
0
100
AcDbCircle
 62
7
  6
CONTINUOUS
 10
-35.3797728584
 20
3.1944405332
 40
39.7929167093
100
AcDbArc
 50
1.8459046567
 51
2.2611573336
  0
ARC
  5
255
100
AcDbEntity
  8
0
100
AcDbCircle
 62
7
  6
CONTINUOUS
 10
-35.3677935088
 20
3.1948450634
 40
39.7809305455
100
AcDbArc
 50
0.1823799386
 51
1.8458780878
  0
ARC
  5
256
100
AcDbEntity
  8
0
100
AcDbCircle
 62
7
  6
CONTINUOUS
 10
0.1302089781
 20
9.3692369457
 40
5.6572870896
100
AcDbArc
 50
317.4454958147
 51
321.0119264865
  0
ARC
  5
257
100
AcDbEntity
  8
0
100
AcDbCircle
 62
7
  6
CONTINUOUS
 10
4.6292700419
 20
10.9477241231
 40
5.6138189123
100
AcDbArc
 50
271.422025187
 51
271.7797991975
  0
ARC
  5
258
100
AcDbEntity
  8
0
100
AcDbCircle
 62
7
  6
CONTINUOUS
 10
4.6929347826
 20
-0.4554879709
 40
3.833964167
100
AcDbArc
 50
87.3464418077
 51
92.6535581923
  0
ARC
  5
259
100
AcDbEntity
  8
0
100
AcDbCircle
 62
7
  6
CONTINUOUS
 10
4.6897724974
 20
1.0973073387
 40
3.7401010385
100
AcDbArc
 50
91.9537109204
 51
92.7743134919
  0
ARC
  5
25A
100
AcDbEntity
  8
0
100
AcDbCircle
 62
7
  6
CONTINUOUS
 10
3.4038870854
 20
5.9938548951
 40
1.3492554072
100
AcDbArc
 50
330.8489195039
 51
331.9897250828
  0
ARC
  5
25B
100
AcDbEntity
  8
0
100
AcDbCircle
 62
7
  6
CONTINUOUS
 10
3.4039221405
 20
5.0801896069
 40
1.3492155359
100
AcDbArc
 50
28.010261283
 51
29.1511004326
  0
ARC
  5
25C
100
AcDbEntity
  8
0
100
AcDbCircle
 62
7
  6
CONTINUOUS
 10
3.7779576281
 20
5.8979213472
 40
0.9733240417
100
AcDbArc
 50
325.06476184
 51
326.6344806499
  0
ARC
  5
25D
100
AcDbEntity
  8
0
100
AcDbCircle
 62
7
  6
CONTINUOUS
 10
3.7779612347
 20
5.1761067404
 40
0.9733196027
100
AcDbArc
 50
33.3655090006
 51
34.9352348222
  0
ARC
  5
25E
100
AcDbEntity
  8
0
100
AcDbCircle
 62
7
  6
CONTINUOUS
 10
4.6929347826
 20
5.5370127495
 40
0.575
100
AcDbArc
 50
304.1312458023
 51
235.8687541974
  0
ARC
  5
25F
100
AcDbEntity
  8
0
100
AcDbCircle
 62
7
  6
CONTINUOUS
 10
4.6929347826
 20
5.5370127495
 40
0.5691
100
AcDbArc
 50
304.579583208
 51
235.4204167923
  0
ARC
  5
260
100
AcDbEntity
  8
0
100
AcDbCircle
 62
7
  6
CONTINUOUS
 10
4.6929323645
 20
4.7139277406
 40
0.5050742143
100
AcDbArc
 50
89.999725686
 51
90.3753798353
  0
ARC
  5
261
100
AcDbEntity
  8
0
100
AcDbCircle
 62
7
  6
CONTINUOUS
 10
4.6929347826
 20
5.5370127495
 40
0.2975
100
AcDbArc
 50
69.4633034625
 51
110.5366965375
  0
ARC
  5
262
100
AcDbEntity
  8
0
100
AcDbCircle
 62
7
  6
CONTINUOUS
 10
4.6926569468
 20
5.6007727924
 40
0.2653376494
100
AcDbArc
 50
269.5448259443
 51
270.059994575
  0
ARC
  5
263
100
AcDbEntity
  8
0
100
AcDbCircle
 62
7
  6
CONTINUOUS
 10
4.6929347826
 20
5.5370127495
 40
0.2020824627
100
AcDbArc
 50
281.0052471041
 51
259.3352212466
  0
CIRCLE
  5
264
100
AcDbEntity
  8
0
100
AcDbCircle
 62
7
  6
CONTINUOUS
 10
4.6929347826
 20
5.5370127495
 40
0.187450737
  0
ARC
  5
265
100
AcDbEntity
  8
0
100
AcDbCircle
 62
7
  6
CONTINUOUS
 10
4.6929347826
 20
4.1180948628
 40
0.146
100
AcDbArc
 50
217.6696248818
 51
322.3303751182
  0
ARC
  5
266
100
AcDbEntity
  8
0
100
AcDbCircle
 62
7
  6
CONTINUOUS
 10
4.4965038467
 20
5.5370127422
 40
0.0323131477
100
AcDbArc
 50
173.6482262085
 51
186.3517392611
  0
ARC
  5
267
100
AcDbEntity
  8
0
100
AcDbCircle
 62
7
  6
CONTINUOUS
 10
4.5613075578
 20
5.7322964934
 40
0.0215518513
100
AcDbArc
 50
13.7307425072
 51
16.5757048563
  0
ARC
  5
268
100
AcDbEntity
  8
0
100
AcDbCircle
 62
7
  6
CONTINUOUS
 10
4.5614067024
 20
5.3416994151
 40
0.0214485324
100
AcDbArc
 50
343.4244975203
 51
346.2831554674
  0
ARC
  5
269
100
AcDbEntity
  8
0
100
AcDbCircle
 62
7
  6
CONTINUOUS
 10
4.4656271243
 20
5.5370127464
 40
0.0150977299
100
AcDbArc
 50
150.3968319495
 51
209.6031474945
  0
ARC
  5
26A
100
AcDbEntity
  8
0
100
AcDbCircle
 62
7
  6
CONTINUOUS
 10
4.5793011063
 20
5.733832256
 40
0.0150969318
100
AcDbArc
 50
90.3944576675
 51
149.6062186367
  0
ARC
  5
26B
100
AcDbEntity
  8
0
100
AcDbCircle
 62
7
  6
CONTINUOUS
 10
4.5793013043
 20
5.3401928933
 40
0.0150965921
100
AcDbArc
 50
210.3922648711
 51
269.6047819762
  0
ARC
  5
26C
100
AcDbEntity
  8
0
100
AcDbCircle
 62
7
  6
CONTINUOUS
 10
4.5713371481
 20
5.7303048617
 40
0.005548507
100
AcDbArc
 50
34.8863929574
 51
40.115278628
  0
ARC
  5
26D
100
AcDbEntity
  8
0
100
AcDbCircle
 62
7
  6
CONTINUOUS
 10
-38.3237982026
 20
30.3820681232
 40
49.4643081382
100
AcDbArc
 50
329.8588682987
 51
330.1223829378
  0
ARC
  5
26E
100
AcDbEntity
  8
0
100
AcDbCircle
 62
7
  6
CONTINUOUS
 10
4.6857912407
 20
51.9525564579
 40
46.203820124
100
AcDbArc
 50
270.0088584624
 51
270.1498678204
  0
ARC
  5
26F
100
AcDbEntity
  8
0
100
AcDbCircle
 62
7
  6
CONTINUOUS
 10
250.133674047
 20
2.9787329076
 40
245.2635583543
100
AcDbArc
 50
179.5668219512
 51
179.9075775215
  0
ARC
  5
270
100
AcDbEntity
  8
0
100
AcDbCircle
 62
7
  6
CONTINUOUS
 10
47.70780975
 20
-19.306954361
 40
49.4621549142
100
AcDbArc
 50
149.8588777736
 51
150.1224038937
  0
ARC
  5
271
100
AcDbEntity
  8
0
100
AcDbCircle
 62
7
  6
CONTINUOUS
 10
44.7636222722
 20
3.1945129682
 40
39.7908952729
100
AcDbArc
 50
177.7388321184
 51
178.1541058909
  0
ARC
  5
272
100
AcDbEntity
  8
0
100
AcDbCircle
 62
7
  6
CONTINUOUS
 10
44.7536630792
 20
3.1948450631
 40
39.7809305508
100
AcDbArc
 50
178.1541219119
 51
179.817620061
  0
ARC
  5
273
100
AcDbEntity
  8
0
100
AcDbCircle
 62
7
  6
CONTINUOUS
 10
9.2556616894
 20
9.3692378757
 40
5.6572885316
100
AcDbArc
 50
218.9880738057
 51
222.5545036875
  0
ARC
  5
274
100
AcDbEntity
  8
0
100
AcDbCircle
 62
7
  6
CONTINUOUS
 10
4.7561908196
 20
10.9336622858
 40
5.5997511748
100
AcDbArc
 50
268.2199118818
 51
268.5813470778
  0
ARC
  5
275
100
AcDbEntity
  8
0
100
AcDbCircle
 62
7
  6
CONTINUOUS
 10
4.6967432335
 20
1.112959354
 40
3.7244360944
100
AcDbArc
 50
87.223960755
 51
88.0480148327
  0
ARC
  5
276
100
AcDbEntity
  8
0
100
AcDbCircle
 62
7
  6
CONTINUOUS
 10
5.9819839173
 20
5.0801698373
 40
1.3492570363
100
AcDbArc
 50
150.848920764
 51
151.9897250041
  0
ARC
  5
277
100
AcDbEntity
  8
0
100
AcDbCircle
 62
7
  6
CONTINUOUS
 10
5.9819532586
 20
5.993839004
 40
1.3492221477
100
AcDbArc
 50
208.0102616074
 51
209.15109512
  0
ARC
  5
278
100
AcDbEntity
  8
0
100
AcDbCircle
 62
7
  6
CONTINUOUS
 10
5.6079115062
 20
5.1761044292
 40
0.9733235293
100
AcDbArc
 50
145.0647606716
 51
146.6344803378
  0
ARC
  5
279
100
AcDbEntity
  8
0
100
AcDbCircle
 62
7
  6
CONTINUOUS
 10
5.6079098457
 20
5.8979197341
 40
0.9733214046
100
AcDbArc
 50
213.3655079025
 51
214.9352307333
  0
ARC
  5
27A
100
AcDbEntity
  8
0
100
AcDbCircle
 62
7
  6
CONTINUOUS
 10
4.6970817707
 20
5.6085085406
 40
0.3188288475
100
AcDbArc
 50
268.8893674734
 51
269.2555584201
  0
ARC
  5
27B
100
AcDbEntity
  8
0
100
AcDbCircle
 62
7
  6
CONTINUOUS
 10
4.8893657406
 20
5.537012744
 40
0.0323131201
100
AcDbArc
 50
353.6482488266
 51
6.351772093
  0
ARC
  5
27C
100
AcDbEntity
  8
0
100
AcDbCircle
 62
7
  6
CONTINUOUS
 10
4.8245590782
 20
5.3417282028
 40
0.0215488168
100
AcDbArc
 50
193.7305169866
 51
196.5758925894
  0
ARC
  5
27D
100
AcDbEntity
  8
0
100
AcDbCircle
 62
7
  6
CONTINUOUS
 10
4.8244620239
 20
5.7323263192
 40
0.0214476624
100
AcDbArc
 50
163.424465976
 51
166.2832329441
  0
ARC
  5
27E
100
AcDbEntity
  8
0
100
AcDbCircle
 62
7
  6
CONTINUOUS
 10
4.9202423252
 20
5.5370127453
 40
0.0150977351
100
AcDbArc
 50
330.3970759696
 51
29.6029523131
  0
ARC
  5
27F
100
AcDbEntity
  8
0
100
AcDbCircle
 62
7
  6
CONTINUOUS
 10
4.8065684581
 20
5.340193242
 40
0.0150969306
100
AcDbArc
 50
270.394460649
 51
329.6062236839
  0
ARC
  5
280
100
AcDbEntity
  8
0
100
AcDbCircle
 62
7
  6
CONTINUOUS
 10
4.8065682632
 20
5.7338326015
 40
0.0150965964
100
AcDbArc
 50
30.3922829506
 51
89.6047907835
  0
ARC
  5
281
100
AcDbEntity
  8
0
100
AcDbCircle
 62
7
  6
CONTINUOUS
 10
4.8145319975
 20
5.3437203063
 40
0.0055479746
100
AcDbArc
 50
214.8860523431
 51
220.1154636386
  0
ARC
  5
282
100
AcDbEntity
  8
0
100
AcDbCircle
 62
7
  6
CONTINUOUS
 10
47.7090346373
 20
30.381701387
 40
49.4635764626
100
AcDbArc
 50
209.8776140452
 51
210.1411325855
  0
ARC
  5
283
100
AcDbEntity
  8
0
100
AcDbCircle
 62
7
  6
CONTINUOUS
 10
4.7000788092
 20
51.9529025885
 40
46.2041662546
100
AcDbArc
 50
269.8501327012
 51
269.9911410029
  0
SPLINE
  5
284
100
AcDbEntity
  8
0
100
AcDbSpline
 62
7
  6
CONTINUOUS
 70
0
 71
3
 72
15
 73
11
 74
0
 42
0.0000001
 43
0.0000001
 44
0.0000000001
 40
0.0
 40
0.0
 40
0.0
 40
0.0
 40
0.1244352679
 40
0.2490963499
 40
0.3739638171
 40
0.4990023959
 40
0.6241680039
 40
0.7494147121
 40
0.8747016659
 40
1.0
 40
1.0
 40
1.0
 40
1.0
 10
4.8380597826
 20
2.5293138838
 30
0.0
 10
4.832571835
 20
2.5262533786
 30
0.0
 10
4.8213809268
 20
2.5204868326
 30
0.0
 10
4.8040598937
 20
2.5129332304
 30
0.0
 10
4.7862644018
 20
2.5064858484
 30
0.0
 10
4.768074064
 20
2.5011650649
 30
0.0
 10
4.7495673457
 20
2.4969907145
 30
0.0
 10
4.7308226459
 20
2.4939829394
 30
0.0
 10
4.7119195861
 20
2.4921619611
 30
0.0
 10
4.6992620154
 20
2.4917527683
 30
0.0
 10
4.6929347826
 20
2.4917527683
 30
0.0
  0
SPLINE
  5
285
100
AcDbEntity
  8
0
100
AcDbSpline
 62
7
  6
CONTINUOUS
 70
0
 71
3
 72
15
 73
11
 74
0
 42
0.0000001
 43
0.0000001
 44
0.0000000001
 40
0.0
 40
0.0
 40
0.0
 40
0.0
 40
0.1252983341
 40
0.2505852879
 40
0.3758319961
 40
0.5009976041
 40
0.6260361829
 40
0.7509036501
 40
0.8755647321
 40
1.0
 40
1.0
 40
1.0
 40
1.0
 10
4.6929347826
 20
2.4917527684
 30
0.0
 10
4.6866075498
 20
2.4917527684
 30
0.0
 10
4.6739499791
 20
2.4921619611
 30
0.0
 10
4.6550469193
 20
2.4939829395
 30
0.0
 10
4.6363022195
 20
2.4969907146
 30
0.0
 10
4.6177955012
 20
2.501165065
 30
0.0
 10
4.5996051634
 20
2.5064858485
 30
0.0
 10
4.5818096715
 20
2.5129332304
 30
0.0
 10
4.5644886385
 20
2.5204868327
 30
0.0
 10
4.5532977302
 20
2.5262533787
 30
0.0
 10
4.5478097826
 20
2.5293138839
 30
0.0
  0
SPLINE
  5
286
100
AcDbEntity
  8
0
100
AcDbSpline
 62
7
  6
CONTINUOUS
 70
0
 71
3
 72
23
 73
19
 74
0
 42
0.0000001
 43
0.0000001
 44
0.0000000001
 40
0.0
 40
0.0
 40
0.0
 40
0.0
 40
0.0618611671
 40
0.1237441302
 40
0.1856708768
 40
0.24765537
 40
0.3097070207
 40
0.3718341524
 40
0.4340474496
 40
0.4963633816
 40
0.558806096
 40
0.6213952351
 40
0.684138124
 40
0.7470333024
 40
0.8100741145
 40
0.8732522528
 40
0.9365612612
 40
1.0
 40
1.0
 40
1.0
 40
1.0
 10
4.9831847826
 20
2.7721127437
 30
0.0
 10
4.9831847828
 20
2.7659973772
 30
0.0
 10
4.9827604686
 20
2.7537604026
 30
0.0
 10
4.9808725867
 20
2.7354895756
 30
0.0
 10
4.9777550294
 20
2.7173749593
 30
0.0
 10
4.9734293678
 20
2.6994935284
 30
0.0
 10
4.9679170393
 20
2.681920799
 30
0.0
 10
4.9612393388
 20
2.6647327061
 30
0.0
 10
4.9534174721
 20
2.6480051792
 30
0.0
 10
4.9444724749
 20
2.6318142274
 30
0.0
 10
4.9344267903
 20
2.6162380665
 30
0.0
 10
4.9233390863
 20
2.6013336852
 30
0.0
 10
4.9112669253
 20
2.5871564661
 30
0.0
 10
4.8982678163
 20
2.5737620171
 30
0.0
 10
4.8843992124
 20
2.5612060329
 30
0.0
 10
4.8697181654
 20
2.5495441436
 30
0.0
 10
4.8542828317
 20
2.5388327429
 30
0.0
 10
4.8435369609
 20
2.5323683826
 30
0.0
 10
4.8380597826
 20
2.5293138834
 30
0.0
  0
SPLINE
  5
287
100
AcDbEntity
  8
0
100
AcDbSpline
 62
7
  6
CONTINUOUS
 70
0
 71
3
 72
43
 73
39
 74
0
 42
0.0000001
 43
0.0000001
 44
0.0000000001
 40
0.0
 40
0.0
 40
0.0
 40
0.0
 40
0.011410261
 40
0.0253327548
 40
0.0413417813
 40
0.0591692698
 40
0.0786515005
 40
0.0996991558
 40
0.1222657902
 40
0.1341165631
 40
0.1463509039
 40
0.1589819623
 40
0.1720258003
 40
0.1854996619
 40
0.199420155
 40
0.2137915998
 40
0.2286109216
 40
0.2438720465
 40
0.2595656592
 40
0.2921801145
 40
0.3090560008
 40
0.3262690345
 40
0.3615457571
 40
0.3977163837
 40
0.4345461547
 40
0.4718548879
 40
0.5473966811
 40
0.585441098
 40
0.6235710727
 40
0.6998699196
 40
0.7379455841
 40
0.7759208118
 40
0.813759476
 40
0.8514234451
 40
0.8888775672
 40
0.926100733
 40
0.9631139864
 40
1.0
 40
1.0
 40
1.0
 40
1.0
 10
4.9831847826
 20
2.7721127495
 30
0.0
 10
4.9831847826
 20
2.7742027559
 30
0.0
 10
4.9831791485
 20
2.778842935
 30
0.0
 10
4.9831456452
 20
2.7864154103
 30
0.0
 10
4.9830746375
 20
2.7951631154
 30
0.0
 10
4.9829562478
 20
2.8049287682
 30
0.0
 10
4.9827808914
 20
2.8156166301
 30
0.0
 10
4.9825361268
 20
2.8271714126
 30
0.0
 10
4.9822681816
 20
2.8373274159
 30
0.0
 10
4.9820064092
 20
2.845868572
 30
0.0
 10
4.9817797194
 20
2.8525900261
 30
0.0
 10
4.9815269211
 20
2.8595292283
 30
0.0
 10
4.9812488949
 20
2.8666946816
 30
0.0
 10
4.9809490323
 20
2.8740956359
 30
0.0
 10
4.9806319007
 20
2.8817392614
 30
0.0
 10
4.980300465
 20
2.8896289505
 30
0.0
 10
4.9799572968
 20
2.8977639253
 30
0.0
 10
4.9796059911
 20
2.9061409527
 30
0.0
 10
4.9791256316
 20
2.9177749472
 30
0.0
 10
4.978650806
 20
2.9297052004
 30
0.0
 10
4.9781950028
 20
2.941914694
 30
0.0
 10
4.9777436085
 20
2.9546123164
 30
0.0
 10
4.9772094135
 20
2.9708433975
 30
0.0
 10
4.9766191553
 20
2.9906676548
 30
0.0
 10
4.9760747528
 20
3.0108655607
 30
0.0
 10
4.9754050795
 20
3.0382741971
 30
0.0
 10
4.974826741
 20
3.0659075345
 30
0.0
 10
4.9743328418
 20
3.0936928652
 30
0.0
 10
4.9738926381
 20
3.1216177862
 30
0.0
 10
4.9735348223
 20
3.1495496778
 30
0.0
 10
4.9732586497
 20
3.1774540778
 30
0.0
 10
4.9730923514
 20
3.198314468
 30
0.0
 10
4.9729669873
 20
3.2190997332
 30
0.0
 10
4.9728849866
 20
3.2397897648
 30
0.0
 10
4.9728452102
 20
3.2603671787
 30
0.0
 10
4.9728446662
 20
3.2808254378
 30
0.0
 10
4.9728778089
 20
3.3011796057
 30
0.0
 10
4.9729151565
 20
3.3147156123
 30
0.0
 10
4.9729347826
 20
3.3214719591
 30
0.0
  0
SPLINE
  5
288
100
AcDbEntity
  8
0
100
AcDbSpline
 62
7
  6
CONTINUOUS
 70
0
 71
3
 72
23
 73
19
 74
0
 42
0.0000001
 43
0.0000001
 44
0.0000000001
 40
0.0
 40
0.0
 40
0.0
 40
0.0
 40
0.0634387388
 40
0.1267477472
 40
0.1899258855
 40
0.2529666976
 40
0.315861876
 40
0.3786047649
 40
0.441193904
 40
0.5036366184
 40
0.5659525504
 40
0.6281658476
 40
0.6902929793
 40
0.75234463
 40
0.8143291232
 40
0.8762558698
 40
0.9381388329
 40
1.0
 40
1.0
 40
1.0
 40
1.0
 10
4.5478097826
 20
2.5293138834
 30
0.0
 10
4.5423326043
 20
2.5323683827
 30
0.0
 10
4.5315867335
 20
2.5388327429
 30
0.0
 10
4.5161513998
 20
2.5495441436
 30
0.0
 10
4.5014703528
 20
2.5612060329
 30
0.0
 10
4.4876017489
 20
2.5737620172
 30
0.0
 10
4.47460264
 20
2.5871564661
 30
0.0
 10
4.4625304789
 20
2.6013336852
 30
0.0
 10
4.4514427749
 20
2.6162380665
 30
0.0
 10
4.4413970903
 20
2.6318142274
 30
0.0
 10
4.4324520932
 20
2.6480051792
 30
0.0
 10
4.4246302264
 20
2.6647327061
 30
0.0
 10
4.4179525259
 20
2.681920799
 30
0.0
 10
4.4124401974
 20
2.6994935284
 30
0.0
 10
4.4081145359
 20
2.7173749594
 30
0.0
 10
4.4049969785
 20
2.7354895756
 30
0.0
 10
4.4031090966
 20
2.7537604027
 30
0.0
 10
4.4026847825
 20
2.7659973772
 30
0.0
 10
4.4026847826
 20
2.7721127437
 30
0.0
  0
SPLINE
  5
289
100
AcDbEntity
  8
0
100
AcDbSpline
 62
7
  6
CONTINUOUS
 70
0
 71
3
 72
34
 73
30
 74
0
 42
0.0000001
 43
0.0000001
 44
0.0000000001
 40
0.0
 40
0.0
 40
0.0
 40
0.0
 40
0.0053425028
 40
0.0113194965
 40
0.0250134831
 40
0.0407726119
 40
0.05834596
 40
0.0983799966
 40
0.1207646444
 40
0.144773922
 40
0.1704735077
 40
0.1979458319
 40
0.2272387136
 40
0.2583325312
 40
0.2911038512
 40
0.3253421862
 40
0.3607442134
 40
0.3970009946
 40
0.4712465027
 40
0.5468981544
 40
0.6232355042
 40
0.661496704
 40
0.6997424777
 40
0.7379098178
 40
0.7759365497
 40
0.8137720228
 40
0.8513889218
 40
0.9259810151
 40
1.0
 40
1.0
 40
1.0
 40
1.0
 10
4.4026847826
 20
2.7721127495
 30
0.0
 10
4.4026847826
 20
2.7730913207
 30
0.0
 10
4.4026906136
 20
2.7751646827
 30
0.0
 10
4.4027233266
 20
2.7797462254
 30
0.0
 10
4.4028067959
 20
2.7862353767
 30
0.0
 10
4.4029683879
 20
2.7948476067
 30
0.0
 10
4.4032927013
 20
2.8082820913
 30
0.0
 10
4.4037552878
 20
2.8229268822
 30
0.0
 10
4.4043178968
 20
2.8387476398
 30
0.0
 10
4.4048106864
 20
2.8519436163
 30
0.0
 10
4.40535239
 20
2.8660702939
 30
0.0
 10
4.4059303465
 20
2.8811640773
 30
0.0
 10
4.4065301038
 20
2.8972457929
 30
0.0
 10
4.4071351279
 20
2.9142985679
 30
0.0
 10
4.4077321724
 20
2.9322580005
 30
0.0
 10
4.4083104958
 20
2.9510075607
 30
0.0
 10
4.4088655664
 20
2.9703965128
 30
0.0
 10
4.4095799981
 20
2.9971118569
 30
0.0
 10
4.410402802
 20
3.0311992922
 30
0.0
 10
4.4112678828
 20
3.0726290683
 30
0.0
 10
4.4118774207
 20
3.1074714159
 30
0.0
 10
4.4122858033
 20
3.1354645193
 30
0.0
 10
4.4125459315
 20
3.1564674997
 30
0.0
 10
4.4127531444
 20
3.1774281248
 30
0.0
 10
4.4129027772
 20
3.1983140845
 30
0.0
 10
4.4129997218
 20
3.2190995262
 30
0.0
 10
4.4130666271
 20
3.2465826863
 30
0.0
 10
4.4130536505
 20
3.2806936017
 30
0.0
 10
4.4129779539
 20
3.3079141786
 30
0.0
 10
4.4129347826
 20
3.3214719591
 30
0.0
  0
SPLINE
  5
28A
100
AcDbEntity
  8
0
100
AcDbSpline
 62
7
  6
CONTINUOUS
 70
0
 71
3
 72
32
 73
28
 74
0
 42
0.0000001
 43
0.0000001
 44
0.0000000001
 40
0.0
 40
0.0
 40
0.0
 40
0.0
 40
0.0308743813
 40
0.0615398986
 40
0.0919722723
 40
0.1220010134
 40
0.1515589109
 40
0.1806205771
 40
0.2091829695
 40
0.2373006694
 40
0.2650434933
 40
0.2925227684
 40
0.3198459229
 40
0.3471362995
 40
0.374513953
 40
0.4020875204
 40
0.4299607027
 40
0.4582270091
 40
0.4869640311
 40
0.516238914
 40
0.5766250471
 40
0.6397311653
 40
0.7057670387
 40
0.7748332561
 40
0.8469417253
 40
0.9220351772
 40
1.0
 40
1.0
 40
1.0
 40
1.0
 10
4.5221847826
 20
4.0574085572
 30
0.0
 10
4.5221847826
 20
4.0563162669
 30
0.0
 10
4.5222908994
 20
4.0541375308
 30
0.0
 10
4.5227658504
 20
4.0509137188
 30
0.0
 10
4.5235357499
 20
4.0477781454
 30
0.0
 10
4.5245790794
 20
4.044764556
 30
0.0
 10
4.5258633401
 20
4.0418990976
 30
0.0
 10
4.5273563432
 20
4.03919633
 30
0.0
 10
4.5290271323
 20
4.0366610751
 30
0.0
 10
4.5308487788
 20
4.0342911154
 30
0.0
 10
4.5327985758
 20
4.0320767323
 30
0.0
 10
4.5348610288
 20
4.0300068583
 30
0.0
 10
4.5370234413
 20
4.0280659623
 30
0.0
 10
4.5392798979
 20
4.0262412995
 30
0.0
 10
4.5416259772
 20
4.0245187633
 30
0.0
 10
4.5440599409
 20
4.0228857643
 30
0.0
 10
4.5465828132
 20
4.0213331733
 30
0.0
 10
4.5491948173
 20
4.0198507092
 30
0.0
 10
4.5518976732
 20
4.0184312578
 30
0.0
 10
4.5556638544
 20
4.0165966253
 30
0.0
 10
4.5606198839
 20
4.0144339686
 30
0.0
 10
4.5668881527
 20
4.0120471863
 30
0.0
 10
4.5735407038
 20
4.0098243404
 30
0.0
 10
4.5805750417
 20
4.0077555934
 30
0.0
 10
4.5879828507
 20
4.0058360574
 30
0.0
 10
4.5957503862
 20
4.0040642107
 30
0.0
 10
4.6010606678
 20
4.0030010226
 30
0.0
 10
4.603771609
 20
4.0024921888
 30
0.0
  0
SPLINE
  5
28B
100
AcDbEntity
  8
0
100
AcDbSpline
 62
7
  6
CONTINUOUS
 70
0
 71
3
 72
32
 73
28
 74
0
 42
0.0000001
 43
0.0000001
 44
0.0000000001
 40
0.0
 40
0.0
 40
0.0
 40
0.0
 40
0.0779641542
 40
0.1530570345
 40
0.2251645588
 40
0.2942292511
 40
0.3602646173
 40
0.4233712989
 40
0.4837557251
 40
0.5130322132
 40
0.5417677178
 40
0.5700335823
 40
0.5979084074
 40
0.6254818922
 40
0.6528581559
 40
0.6801504861
 40
0.7074731152
 40
0.7349525505
 40
0.7626971026
 40
0.7908138504
 40
0.8193767005
 40
0.8484387504
 40
0.8779972927
 40
0.9080257699
 40
0.9384574111
 40
0.9691274478
 40
1.0
 40
1.0
 40
1.0
 40
1.0
 10
4.7821069522
 20
4.0024938772
 30
0.0
 10
4.7848176223
 20
4.0030027372
 30
0.0
 10
4.7901273753
 20
4.0040659613
 30
0.0
 10
4.7978941138
 20
4.0058378634
 30
0.0
 10
4.8053011205
 20
4.0077574362
 30
0.0
 10
4.8123346904
 20
4.0098261692
 30
0.0
 10
4.8189865785
 20
4.0120489456
 30
0.0
 10
4.8252540703
 20
4.0144359514
 30
0.0
 10
4.8302097586
 20
4.0165982919
 30
0.0
 10
4.8339752836
 20
4.0184333049
 30
0.0
 10
4.836678111
 20
4.0198522118
 30
0.0
 10
4.8392896923
 20
4.0213348991
 30
0.0
 10
4.8418120882
 20
4.0228878221
 30
0.0
 10
4.8442462448
 20
4.0245201016
 30
0.0
 10
4.8465916268
 20
4.0262432051
 30
0.0
 10
4.8488479673
 20
4.0280675888
 30
0.0
 10
4.8510103003
 20
4.0300083041
 30
0.0
 10
4.8530722431
 20
4.0320783887
 30
0.0
 10
4.8550220882
 20
4.0342924348
 30
0.0
 10
4.8568432657
 20
4.0366624883
 30
0.0
 10
4.8585140138
 20
4.0391974455
 30
0.0
 10
4.8600066956
 20
4.0419001523
 30
0.0
 10
4.8612908337
 20
4.0447653937
 30
0.0
 10
4.8623339655
 20
4.0477787464
 30
0.0
 10
4.8631038719
 20
4.0509141606
 30
0.0
 10
4.8635786233
 20
4.0541377893
 30
0.0
 10
4.8636847826
 20
4.0563164259
 30
0.0
 10
4.8636847826
 20
4.0574085572
 30
0.0
  0
SPLINE
  5
28C
100
AcDbEntity
  8
0
100
AcDbSpline
 62
7
  6
CONTINUOUS
 70
0
 71
3
 72
17
 73
13
 74
0
 42
0.0000001
 43
0.0000001
 44
0.0000000001
 40
0.0
 40
0.0
 40
0.0
 40
0.0
 40
0.1176022728
 40
0.2362864564
 40
0.3569526266
 40
0.4802995386
 40
0.6066421029
 40
0.7358348103
 40
0.8013788463
 40
0.8673030199
 40
0.933469136
 40
1.0
 40
1.0
 40
1.0
 40
1.0
 10
4.5374332206
 20
4.0870644465
 30
0.0
 10
4.5363971298
 20
4.0861978178
 30
0.0
 10
4.5343762345
 20
4.0843819429
 30
0.0
 10
4.531551376
 20
4.0814039958
 30
0.0
 10
4.5289657039
 20
4.0781295301
 30
0.0
 10
4.5266767647
 20
4.074534372
 30
0.0
 10
4.5247610446
 20
4.0706161985
 30
0.0
 10
4.5235528145
 20
4.0671204389
 30
0.0
 10
4.5228536646
 20
4.0642074888
 30
0.0
 10
4.5224697505
 20
4.06196841
 30
0.0
 10
4.5222367537
 20
4.05969736
 30
0.0
 10
4.5221847826
 20
4.0581727148
 30
0.0
 10
4.5221847826
 20
4.0574085572
 30
0.0
  0
SPLINE
  5
28D
100
AcDbEntity
  8
0
100
AcDbSpline
 62
7
  6
CONTINUOUS
 70
0
 71
3
 72
51
 73
47
 74
0
 42
0.0000001
 43
0.0000001
 44
0.0000000001
 40
0.0
 40
0.0
 40
0.0
 40
0.0
 40
0.008226387
 40
0.017008234
 40
0.0263585882
 40
0.0362848151
 40
0.0467899998
 40
0.0578732248
 40
0.0695305745
 40
0.0817551902
 40
0.0945379942
 40
0.1078676544
 40
0.1217311026
 40
0.1361134872
 40
0.1663672321
 40
0.1984841123
 40
0.232299317
 40
0.2676324879
 40
0.3042901436
 40
0.342067833
 40
0.380752127
 40
0.4201224977
 40
0.4599531262
 40
0.5000146847
 40
0.5400761028
 40
0.5799063111
 40
0.6192759849
 40
0.6579593108
 40
0.6957357684
 40
0.7323919382
 40
0.7677233813
 40
0.8015366309
 40
0.8336513458
 40
0.8639027361
 40
0.8782838796
 40
0.8921460494
 40
0.9054743968
 40
0.9182558588
 40
0.9304791072
 40
0.9421350704
 40
0.9532168954
 40
0.9637206743
 40
0.9736454975
 40
0.9829944607
 40
0.9917749408
 40
1.0
 40
1.0
 40
1.0
 40
1.0
 10
4.8484307808
 20
4.0870688849
 30
0.0
 10
4.8477556245
 20
4.087633518
 30
0.0
 10
4.8463192348
 20
4.0887530326
 30
0.0
 10
4.8439966164
 20
4.0903548127
 30
0.0
 10
4.8414401599
 20
4.0919307234
 30
0.0
 10
4.8386538523
 20
4.0934784379
 30
0.0
 10
4.8356418072
 20
4.0949956076
 30
0.0
 10
4.8324086165
 20
4.0964799923
 30
0.0
 10
4.8289591804
 20
4.09792926
 30
0.0
 10
4.8252987885
 20
4.0993412281
 30
0.0
 10
4.8214330493
 20
4.100713664
 30
0.0
 10
4.8173679215
 20
4.1020444677
 30
0.0
 10
4.8131096646
 20
4.1033315607
 30
0.0
 10
4.8070810903
 20
4.1050151675
 30
0.0
 10
4.7991072087
 20
4.1069862478
 30
0.0
 10
4.7890359931
 20
4.1091097165
 30
0.0
 10
4.7783690458
 20
4.1110160246
 30
0.0
 10
4.7671724177
 20
4.11269317
 30
0.0
 10
4.7555153472
 20
4.1141305543
 30
0.0
 10
4.743470062
 20
4.1153191163
 30
0.0
 10
4.7311112319
 20
4.1162513659
 30
0.0
 10
4.7185155114
 20
4.1169214334
 30
0.0
 10
4.705761047
 20
4.1173251017
 30
0.0
 10
4.6929269848
 20
4.1174598312
 30
0.0
 10
4.680092971
 20
4.1173247744
 30
0.0
 10
4.6673386514
 20
4.1169207808
 30
0.0
 10
4.6547431714
 20
4.1162503922
 30
0.0
 10
4.6423846758
 20
4.1153178275
 30
0.0
 10
4.630339817
 20
4.1141289586
 30
0.0
 10
4.6186832622
 20
4.1126912775
 30
0.0
 10
4.6074872357
 20
4.1110138471
 30
0.0
 10
4.5968209722
 20
4.1091072679
 30
0.0
 10
4.5867505182
 20
4.1069835434
 30
0.0
 10
4.5787773222
 20
4.1050122559
 30
0.0
 10
4.5727493336
 20
4.1033284904
 30
0.0
 10
4.5684915378
 20
4.1020412888
 30
0.0
 10
4.5644268865
 20
4.1007103815
 30
0.0
 10
4.5605616388
 20
4.0993378471
 30
0.0
 10
4.5569017524
 20
4.0979257856
 30
0.0
 10
4.5534528351
 20
4.0964764301
 30
0.0
 10
4.5502201756
 20
4.0949919629
 30
0.0
 10
4.5472086731
 20
4.0934747164
 30
0.0
 10
4.5444229187
 20
4.0919269305
 30
0.0
 10
4.5418670251
 20
4.0903509542
 30
0.0
 10
4.5395449786
 20
4.0887491139
 30
0.0
 10
4.5381089848
 20
4.0876295591
 30
0.0
 10
4.5374340292
 20
4.0870649075
 30
0.0
  0
SPLINE
  5
28E
100
AcDbEntity
  8
0
100
AcDbSpline
 62
7
  6
CONTINUOUS
 70
0
 71
3
 72
18
 73
14
 74
0
 42
0.0000001
 43
0.0000001
 44
0.0000000001
 40
0.0
 40
0.0
 40
0.0
 40
0.0
 40
0.0665397771
 40
0.1326952521
 40
0.1986116752
 40
0.2641564681
 40
0.393349691
 40
0.5196846122
 40
0.6430293485
 40
0.7636964005
 40
0.8232363865
 40
0.882395909
 40
1.0
 40
1.0
 40
1.0
 40
1.0
 10
4.8636847826
 20
4.0574085572
 30
0.0
 10
4.8636847826
 20
4.058173036
 30
0.0
 10
4.8636328109
 20
4.0596980993
 30
0.0
 10
4.8633996661
 20
4.0619696845
 30
0.0
 10
4.8630155067
 20
4.064209175
 30
0.0
 10
4.8623160436
 20
4.0671228544
 30
0.0
 10
4.8611072395
 20
4.0706194673
 30
0.0
 10
4.8591904551
 20
4.0745384123
 30
0.0
 10
4.8569007236
 20
4.0781342891
 30
0.0
 10
4.8547352011
 20
4.0808752599
 30
0.0
 10
4.852887197
 20
4.0829128717
 30
0.0
 10
4.8509786226
 20
4.0848445759
 30
0.0
 10
4.849465995
 20
4.0862034247
 30
0.0
 10
4.8484295577
 20
4.0870702745
 30
0.0
  0
SPLINE
  5
28F
100
AcDbEntity
  8
0
100
AcDbSpline
 62
7
  6
CONTINUOUS
 70
0
 71
3
 72
11
 73
7
 74
0
 42
0.0000001
 43
0.0000001
 44
0.0000000001
 40
0.0
 40
0.0
 40
0.0
 40
0.0
 40
0.2652878035
 40
0.5177328902
 40
0.7612010739
 40
1.0
 40
1.0
 40
1.0
 40
1.0
 10
4.526228442
 20
4.0735385458
 30
0.0
 10
4.5258981143
 20
4.0741005795
 30
0.0
 10
4.5253118888
 20
4.0752335791
 30
0.0
 10
4.5246629153
 20
4.0769934977
 30
0.0
 10
4.5242721414
 20
4.0787620038
 30
0.0
 10
4.5241847826
 20
4.0799488631
 30
0.0
 10
4.5241847826
 20
4.0805356881
 30
0.0
  0
SPLINE
  5
290
100
AcDbEntity
  8
0
100
AcDbSpline
 62
7
  6
CONTINUOUS
 70
0
 71
3
 72
23
 73
19
 74
0
 42
0.0000001
 43
0.0000001
 44
0.0000000001
 40
0.0
 40
0.0
 40
0.0
 40
0.0
 40
0.0657179727
 40
0.1313258684
 40
0.1967838879
 40
0.2620491211
 40
0.3270744078
 40
0.3918051906
 40
0.4561773374
 40
0.5201146229
 40
0.6462818948
 40
0.7693887852
 40
0.8293807449
 40
0.8880087974
 40
0.9167419273
 40
0.9450453414
 40
0.9728367913
 40
1.0
 40
1.0
 40
1.0
 40
1.0
 10
4.7665151046
 20
5.3129460676
 30
0.0
 10
4.7668072257
 20
5.3099839011
 30
0.0
 10
4.767520899
 20
5.3040765048
 30
0.0
 10
4.7689780714
 20
5.295280817
 30
0.0
 10
4.7708157042
 20
5.2865774604
 30
0.0
 10
4.7730274562
 20
5.2779888779
 30
0.0
 10
4.7756048261
 20
5.2695372623
 30
0.0
 10
4.7785376527
 20
5.2612452779
 30
0.0
 10
4.7818139738
 20
5.2531358756
 30
0.0
 10
4.7865984272
 20
5.2426465259
 30
0.0
 10
4.7933292896
 20
5.2301367331
 30
0.0
 10
4.8010339935
 20
5.2184154223
 30
0.0
 10
4.8076431347
 20
5.2096832551
 30
0.0
 10
4.8119019687
 20
5.2045415519
 30
0.0
 10
4.8153753979
 20
5.2006194017
 30
0.0
 10
4.8179854708
 20
5.1977995427
 30
0.0
 10
4.8206068493
 20
5.1950883283
 30
0.0
 10
4.8223754189
 20
5.1933365786
 30
0.0
 10
4.8232590367
 20
5.1924805197
 30
0.0
  0
SPLINE
  5
291
100
AcDbEntity
  8
0
100
AcDbSpline
 62
7
  6
CONTINUOUS
 70
0
 71
3
 72
18
 73
14
 74
0
 42
0.0000001
 43
0.0000001
 44
0.0000000001
 40
0.0
 40
0.0
 40
0.0
 40
0.0
 40
0.1119375257
 40
0.230570047
 40
0.3537074757
 40
0.4165093124
 40
0.4799376674
 40
0.6082376665
 40
0.7379717704
 40
0.8032373514
 40
0.8686921945
 40
0.9342928847
 40
1.0
 40
1.0
 40
1.0
 40
1.0
 10
4.5626105285
 20
5.1924805197
 30
0.0
 10
4.5662889181
 20
5.1960441847
 30
0.0
 10
4.5735354179
 20
5.2037331372
 30
0.0
 10
4.5835697564
 20
5.2164551401
 30
0.0
 10
4.5912096981
 20
5.2281335493
 30
0.0
 10
4.5968126799
 20
5.2380761058
 30
0.0
 10
4.6020752791
 20
5.2484687236
 30
0.0
 10
4.6078362386
 20
5.2620239539
 30
0.0
 10
4.6123985608
 20
5.2761167168
 30
0.0
 10
4.6153091784
 20
5.2876758748
 30
0.0
 10
4.6171146302
 20
5.2964781474
 30
0.0
 10
4.6185310361
 20
5.3053714379
 30
0.0
 10
4.6192123073
 20
5.3113428482
 30
0.0
 10
4.6194867969
 20
5.3143366303
 30
0.0
  0
SPLINE
  5
292
100
AcDbEntity
  8
0
100
AcDbSpline
 62
7
  6
CONTINUOUS
 70
0
 71
3
 72
33
 73
29
 74
0
 42
0.0000001
 43
0.0000001
 44
0.0000000001
 40
0.0
 40
0.0
 40
0.0
 40
0.0
 40
0.0295339755
 40
0.0588075736
 40
0.0878905205
 40
0.1168548221
 40
0.1747327992
 40
0.2331228445
 40
0.2627329226
 40
0.2927142726
 40
0.3539951301
 40
0.4172445127
 40
0.4496145726
 40
0.4824171641
 40
0.5155906849
 40
0.5490564608
 40
0.5827232495
 40
0.6164943413
 40
0.6502667772
 40
0.6839400543
 40
0.7505530855
 40
0.815713891
 40
0.8476208183
 40
0.8790435685
 40
0.9099642924
 40
0.9403521382
 40
0.9702833993
 40
1.0
 40
1.0
 40
1.0
 40
1.0
 10
4.8086918562
 20
5.130583598
 30
0.0
 10
4.8093570497
 20
5.1309286707
 30
0.0
 10
4.8106724719
 20
5.13163351
 30
0.0
 10
4.8126077784
 20
5.1327421596
 30
0.0
 10
4.8144959865
 20
5.1339020787
 30
0.0
 10
4.8169499592
 20
5.1355245405
 30
0.0
 10
4.8199145933
 20
5.1377193978
 30
0.0
 10
4.822700219
 20
5.1401648907
 30
0.0
 10
4.8248040943
 20
5.1422961082
 30
0.0
 10
4.8268441951
 20
5.1445876536
 30
0.0
 10
4.8292047891
 20
5.1477293481
 30
0.0
 10
4.831188234
 20
5.1511955161
 30
0.0
 10
4.8325102783
 20
5.1541762703
 30
0.0
 10
4.8333572286
 20
5.156525919
 30
0.0
 10
4.8340359628
 20
5.1589585145
 30
0.0
 10
4.8345323197
 20
5.161457278
 30
0.0
 10
4.8348364067
 20
5.1640020146
 30
0.0
 10
4.8349407932
 20
5.1665705381
 30
0.0
 10
4.8348435685
 20
5.1691396313
 30
0.0
 10
4.8344496901
 20
5.1725211707
 30
0.0
 10
4.8334820559
 20
5.1766240038
 30
0.0
 10
4.8319366955
 20
5.1804949796
 30
0.0
 10
4.8304194585
 20
5.1833828748
 30
0.0
 10
4.829169649
 20
5.1854237663
 30
0.0
 10
4.8278173698
 20
5.1873509424
 30
0.0
 10
4.8263788697
 20
5.1891664164
 30
0.0
 10
4.8248627418
 20
5.1908767114
 30
0.0
 10
4.823800577
 20
5.1919558695
 30
0.0
 10
4.8232590367
 20
5.1924805197
 30
0.0
  0
SPLINE
  5
293
100
AcDbEntity
  8
0
100
AcDbSpline
 62
7
  6
CONTINUOUS
 70
0
 71
3
 72
35
 73
31
 74
0
 42
0.0000001
 43
0.0000001
 44
0.0000000001
 40
0.0
 40
0.0
 40
0.0
 40
0.0
 40
0.0297094339
 40
0.0596381385
 40
0.0900283267
 40
0.1209474222
 40
0.1523658834
 40
0.1842687289
 40
0.2494245761
 40
0.2826085834
 40
0.3160797721
 40
0.3497501636
 40
0.3835201525
 40
0.4172885903
 40
0.4509533604
 40
0.4844165417
 40
0.5175886091
 40
0.5503887504
 40
0.5827574758
 40
0.6460032069
 40
0.6768908529
 40
0.7073069559
 40
0.7372857423
 40
0.7668946023
 40
0.8252803457
 40
0.8831551389
 40
0.9121175157
 40
0.9411982032
 40
0.9704690074
 40
1.0
 40
1.0
 40
1.0
 40
1.0
 10
4.5626105285
 20
5.1924805197
 30
0.0
 10
4.5620690821
 20
5.1919559604
 30
0.0
 10
4.5610070285
 20
5.1908768938
 30
0.0
 10
4.5594909417
 20
5.1891666089
 30
0.0
 10
4.5580522901
 20
5.1873511109
 30
0.0
 10
4.5566999482
 20
5.1854239067
 30
0.0
 10
4.5554502155
 20
5.1833830179
 30
0.0
 10
4.5539330696
 20
5.1804955
 30
0.0
 10
4.5527029327
 20
5.1774134845
 30
0.0
 10
4.5518125987
 20
5.1741869002
 30
0.0
 10
4.5513227447
 20
5.1716860396
 30
0.0
 10
4.55102593
 20
5.1691400978
 30
0.0
 10
4.5509288348
 20
5.1665711251
 30
0.0
 10
4.5510330943
 20
5.1640025817
 30
0.0
 10
4.551337127
 20
5.161457851
 30
0.0
 10
4.5518335375
 20
5.1589590791
 30
0.0
 10
4.5525120989
 20
5.1565264363
 30
0.0
 10
4.5533591641
 20
5.1541767554
 30
0.0
 10
4.5546809591
 20
5.1511960297
 30
0.0
 10
4.5562809076
 20
5.1484004941
 30
0.0
 10
4.5581022046
 20
5.1458160189
 30
0.0
 10
4.5595459563
 20
5.1440030025
 30
0.0
 10
4.5610652075
 20
5.1422963357
 30
0.0
 10
4.563169078
 20
5.1401652047
 30
0.0
 10
4.565954675
 20
5.137719591
 30
0.0
 10
4.5689193153
 20
5.1355247327
 30
0.0
 10
4.5713732904
 20
5.1339022497
 30
0.0
 10
4.5732614829
 20
5.1327423566
 30
0.0
 10
4.5751967243
 20
5.1316336999
 30
0.0
 10
4.5765120983
 20
5.1309288659
 30
0.0
 10
4.5771772672
 20
5.1305837997
 30
0.0
  0
SPLINE
  5
294
100
AcDbEntity
  8
0
100
AcDbSpline
 62
7
  6
CONTINUOUS
 70
0
 71
3
 72
15
 73
11
 74
0
 42
0.0000001
 43
0.0000001
 44
0.0000000001
 40
0.0
 40
0.0
 40
0.0
 40
0.0
 40
0.1221232191
 40
0.2454650614
 40
0.3698390244
 40
0.495048133
 40
0.6208862808
 40
0.7471393812
 40
0.8735863581
 40
1.0
 40
1.0
 40
1.0
 40
1.0
 10
4.3270986983
 20
5.3718145059
 30
0.0
 10
4.3291012467
 20
5.3639727945
 30
0.0
 10
4.3329423423
 20
5.3481636148
 30
0.0
 10
4.3382181
 20
5.3242264611
 30
0.0
 10
4.3430598917
 20
5.2999892921
 30
0.0
 10
4.3474880887
 20
5.2755052707
 30
0.0
 10
4.351523105
 20
5.2508273687
 30
0.0
 10
4.3551853338
 20
5.2260086204
 30
0.0
 10
4.358495161
 20
5.2011021244
 30
0.0
 10
4.3604818617
 20
5.1844621519
 30
0.0
 10
4.3614239922
 20
5.1761375894
 30
0.0
  0
SPLINE
  5
295
100
AcDbEntity
  8
0
100
AcDbSpline
 62
7
  6
CONTINUOUS
 70
0
 71
3
 72
15
 73
11
 74
0
 42
0.0000001
 43
0.0000001
 44
0.0000000001
 40
0.0
 40
0.0
 40
0.0
 40
0.0
 40
0.1264136503
 40
0.2528606352
 40
0.3791137422
 40
0.5049518939
 40
0.6301610031
 40
0.7545349623
 40
0.8778767957
 40
1.0
 40
1.0
 40
1.0
 40
1.0
 10
5.0244455731
 20
5.1761375894
 30
0.0
 10
5.0253877057
 20
5.1844621712
 30
0.0
 10
5.0273744112
 20
5.2011021824
 30
0.0
 10
5.0306842473
 20
5.2260087359
 30
0.0
 10
5.0343464867
 20
5.2508275411
 30
0.0
 10
5.0383815154
 20
5.275505499
 30
0.0
 10
5.042809727
 20
5.2999895749
 30
0.0
 10
5.0476515353
 20
5.3242267967
 30
0.0
 10
5.0529273119
 20
5.3481640009
 30
0.0
 10
5.0567684219
 20
5.3639732134
 30
0.0
 10
5.058770978
 20
5.3718149406
 30
0.0
  0
SPLINE
  5
296
100
AcDbEntity
  8
0
100
AcDbSpline
 62
7
  6
CONTINUOUS
 70
0
 71
3
 72
10
 73
6
 74
0
 42
0.0000001
 43
0.0000001
 44
0.0000000001
 40
0.0
 40
0.0
 40
0.0
 40
0.0
 40
0.2531422972
 40
0.5043289443
 40
1.0
 40
1.0
 40
1.0
 40
1.0
 10
5.0883087115
 20
5.5432631387
 30
0.0
 10
5.0887305132
 20
5.5428037999
 30
0.0
 10
5.0895338416
 20
5.5418531407
 30
0.0
 10
5.0909477801
 20
5.5398341671
 30
0.0
 10
5.0917751066
 20
5.5381672375
 30
0.0
 10
5.0921729168
 20
5.5370127495
 30
0.0
  0
SPLINE
  5
297
100
AcDbEntity
  8
0
100
AcDbSpline
 62
7
  6
CONTINUOUS
 70
0
 71
3
 72
13
 73
9
 74
0
 42
0.0000001
 43
0.0000001
 44
0.0000000001
 40
0.0
 40
0.0
 40
0.0
 40
0.0
 40
0.2546491392
 40
0.5071467465
 40
0.632196799
 40
0.7560835424
 40
0.8787052539
 40
1.0
 40
1.0
 40
1.0
 40
1.0
 10
4.8458733051
 20
5.8156003278
 30
0.0
 10
4.8470773018
 20
5.8156003268
 30
0.0
 10
4.8494822498
 20
5.815350191
 30
0.0
 10
4.8523472963
 20
5.8144166483
 30
0.0
 10
4.8544542859
 20
5.8133205341
 30
0.0
 10
4.8559151548
 20
5.8123376214
 30
0.0
 10
4.8572387373
 20
5.8112038525
 30
0.0
 10
4.8580209076
 20
5.8103517817
 30
0.0
 10
4.8583817792
 20
5.8099060674
 30
0.0
  0
SPLINE
  5
298
100
AcDbEntity
  8
0
100
AcDbSpline
 62
7
  6
CONTINUOUS
 70
0
 71
3
 72
13
 73
9
 74
0
 42
0.0000001
 43
0.0000001
 44
0.0000000001
 40
0.0
 40
0.0
 40
0.0
 40
0.0
 40
0.1212947492
 40
0.2439164633
 40
0.3678032033
 40
0.4928532577
 40
0.7453508833
 40
1.0
 40
1.0
 40
1.0
 40
1.0
 10
4.5274877856
 20
5.809906067
 30
0.0
 10
4.5278486571
 20
5.8103517816
 30
0.0
 10
4.5286308274
 20
5.8112038529
 30
0.0
 10
4.5299544096
 20
5.8123376229
 30
0.0
 10
4.5314152781
 20
5.8133205371
 30
0.0
 10
4.5335222674
 20
5.8144166527
 30
0.0
 10
4.5363873128
 20
5.8153502063
 30
0.0
 10
4.5387922632
 20
5.8156003257
 30
0.0
 10
4.5399962601
 20
5.8156003278
 30
0.0
  0
SPLINE
  5
299
100
AcDbEntity
  8
0
100
AcDbSpline
 62
7
  6
CONTINUOUS
 70
0
 71
3
 72
10
 73
6
 74
0
 42
0.0000001
 43
0.0000001
 44
0.0000000001
 40
0.0
 40
0.0
 40
0.0
 40
0.0
 40
0.4956715277
 40
0.7468584968
 40
1.0
 40
1.0
 40
1.0
 40
1.0
 10
4.2936966085
 20
5.5370127495
 30
0.0
 10
4.2940944415
 20
5.5381672339
 30
0.0
 10
4.2949217967
 20
5.5398341612
 30
0.0
 10
4.296335802
 20
5.5418530877
 30
0.0
 10
4.2971390519
 20
5.5428038158
 30
0.0
 10
4.2975608605
 20
5.5432631477
 30
0.0
  0
SPLINE
  5
29A
100
AcDbEntity
  8
0
100
AcDbSpline
 62
7
  6
CONTINUOUS
 70
0
 71
3
 72
11
 73
7
 74
0
 42
0.0000001
 43
0.0000001
 44
0.0000000001
 40
0.0
 40
0.0
 40
0.0
 40
0.0
 40
0.2500119782
 40
0.5000209768
 40
0.750013535
 40
1.0
 40
1.0
 40
1.0
 40
1.0
 10
4.2954119805
 20
5.5307780382
 30
0.0
 10
4.2951395979
 20
5.531249813
 30
0.0
 10
4.2946502899
 20
5.5322268313
 30
0.0
 10
4.2941068267
 20
5.5337727768
 30
0.0
 10
4.2937720187
 20
5.5353771576
 30
0.0
 10
4.2936966093
 20
5.5364680449
 30
0.0
 10
4.2936966085
 20
5.5370127495
 30
0.0
  0
SPLINE
  5
29B
100
AcDbEntity
  8
0
100
AcDbSpline
 62
7
  6
CONTINUOUS
 70
0
 71
3
 72
15
 73
11
 74
0
 42
0.0000001
 43
0.0000001
 44
0.0000000001
 40
0.0
 40
0.0
 40
0.0
 40
0.0
 40
0.1250066991
 40
0.2500101162
 40
0.3750058302
 40
0.4999998793
 40
0.6249938865
 40
0.7499896549
 40
0.874993228
 40
1.0
 40
1.0
 40
1.0
 40
1.0
 10
4.4995727585
 20
5.1896305548
 30
0.0
 10
4.4990280031
 20
5.1896305573
 30
0.0
 10
4.4979372379
 20
5.1896954416
 30
0.0
 10
4.4963267659
 20
5.1899976989
 30
0.0
 10
4.494769743
 20
5.1905100769
 30
0.0
 10
4.4932969097
 20
5.1912298053
 30
0.0
 10
4.4919371902
 20
5.1921454528
 30
0.0
 10
4.4907149458
 20
5.1932376857
 30
0.0
 10
4.4896479479
 20
5.1944812687
 30
0.0
 10
4.4890463699
 20
5.1953934554
 30
0.0
 10
4.4887739899
 20
5.1958652265
 30
0.0
  0
SPLINE
  5
29C
100
AcDbEntity
  8
0
100
AcDbSpline
 62
7
  6
CONTINUOUS
 70
0
 71
3
 72
15
 73
11
 74
0
 42
0.0000001
 43
0.0000001
 44
0.0000000001
 40
0.0
 40
0.0
 40
0.0
 40
0.0
 40
0.125006711
 40
0.2500101059
 40
0.375005833
 40
0.4999998797
 40
0.6249938839
 40
0.7499896665
 40
0.8749932154
 40
1.0
 40
1.0
 40
1.0
 40
1.0
 10
4.8970955911
 20
5.1958652454
 30
0.0
 10
4.896823211
 20
5.1953934695
 30
0.0
 10
4.8962216936
 20
5.1944812332
 30
0.0
 10
4.8951546725
 20
5.1932376487
 30
0.0
 10
4.8939324263
 20
5.1921454008
 30
0.0
 10
4.8925726951
 20
5.1912297454
 30
0.0
 10
4.8910998487
 20
5.1905100109
 30
0.0
 10
4.8895428107
 20
5.1899976379
 30
0.0
 10
4.8879323232
 20
5.1896953623
 30
0.0
 10
4.8868415437
 20
5.189630551
 30
0.0
 10
4.8862967833
 20
5.1896305509
 30
0.0
  0
SPLINE
  5
29D
100
AcDbEntity
  8
0
100
AcDbSpline
 62
7
  6
CONTINUOUS
 70
0
 71
3
 72
11
 73
7
 74
0
 42
0.0000001
 43
0.0000001
 44
0.0000000001
 40
0.0
 40
0.0
 40
0.0
 40
0.0
 40
0.2499864647
 40
0.4999790129
 40
0.7499880198
 40
1.0
 40
1.0
 40
1.0
 40
1.0
 10
5.0921729168
 20
5.5370127495
 30
0.0
 10
5.0921729168
 20
5.5364680456
 30
0.0
 10
5.0920975109
 20
5.5353771598
 30
0.0
 10
5.0917627125
 20
5.5337727797
 30
0.0
 10
5.091219265
 20
5.5322268308
 30
0.0
 10
5.0907299609
 20
5.5312498123
 30
0.0
 10
5.0904575836
 20
5.5307780353
 30
0.0
  0
SPLINE
  5
29E
100
AcDbEntity
  8
0
100
AcDbSpline
 62
7
  6
CONTINUOUS
 70
0
 71
3
 72
11
 73
7
 74
0
 42
0.0000001
 43
0.0000001
 44
0.0000000001
 40
0.0
 40
0.0
 40
0.0
 40
0.0
 40
0.2387935292
 40
0.4822586273
 40
0.734704979
 40
1.0
 40
1.0
 40
1.0
 40
1.0
 10
4.8616847826
 20
4.0805356881
 30
0.0
 10
4.8616847826
 20
4.0799487064
 30
0.0
 10
4.8615973763
 20
4.0787615234
 30
0.0
 10
4.8612063914
 20
4.0769925421
 30
0.0
 10
4.8605570693
 20
4.0752321565
 30
0.0
 10
4.8599705379
 20
4.0740988745
 30
0.0
 10
4.8596400392
 20
4.0735367017
 30
0.0
  0
SPLINE
  5
29F
100
AcDbEntity
  8
0
100
AcDbSpline
 62
7
  6
CONTINUOUS
 70
0
 71
3
 72
13
 73
9
 74
0
 42
0.0000001
 43
0.0000001
 44
0.0000000001
 40
0.0
 40
0.0
 40
0.0
 40
0.0
 40
0.2740472876
 40
0.5280234061
 40
0.6493146124
 40
0.7678137967
 40
0.8844004539
 40
1.0
 40
1.0
 40
1.0
 40
1.0
 10
4.5773688505
 20
4.0288731703
 30
0.0
 10
4.5769812143
 20
4.0293752612
 30
0.0
 10
4.5762905377
 20
4.0303885221
 30
0.0
 10
4.575631699
 20
4.031746878
 30
0.0
 10
4.5752680367
 20
4.0328317354
 30
0.0
 10
4.5750759007
 20
4.0336351249
 30
0.0
 10
4.5749604988
 20
4.0344397173
 30
0.0
 10
4.5749347826
 20
4.0349774874
 30
0.0
 10
4.5749347826
 20
4.0352450568
 30
0.0
  0
SPLINE
  5
2A0
100
AcDbEntity
  8
0
100
AcDbSpline
 62
7
  6
CONTINUOUS
 70
0
 71
3
 72
13
 73
9
 74
0
 42
0.0000001
 43
0.0000001
 44
0.0000000001
 40
0.0
 40
0.0
 40
0.0
 40
0.0
 40
0.1227425906
 40
0.2464383879
 40
0.3709238414
 40
0.4960413993
 40
0.7475720688
 40
1.0
 40
1.0
 40
1.0
 40
1.0
 10
4.7315106841
 20
5.3386463558
 30
0.0
 10
4.7299538766
 20
5.3383436407
 30
0.0
 10
4.7268165117
 20
5.3377946777
 30
0.0
 10
4.7220705633
 20
5.3371219604
 30
0.0
 10
4.7172772904
 20
5.3365784143
 30
0.0
 10
4.7108267443
 20
5.3360080915
 30
0.0
 10
4.7027085176
 20
5.3355582127
 30
0.0
 10
4.6961964192
 20
5.3354386543
 30
0.0
 10
4.6929347825
 20
5.3354352989
 30
0.0
  0
SPLINE
  5
2A1
100
AcDbEntity
  8
0
100
AcDbSpline
 62
7
  6
CONTINUOUS
 70
0
 71
3
 72
23
 73
19
 74
0
 42
0.0000001
 43
0.0000001
 44
0.0000000001
 40
0.0
 40
0.0
 40
0.0
 40
0.0
 40
0.0871179783
 40
0.171116986
 40
0.2519171604
 40
0.3294435615
 40
0.403630588
 40
0.4744328923
 40
0.541819028
 40
0.6057754156
 40
0.6663053628
 40
0.7234368537
 40
0.7772197976
 40
0.8277292547
 40
0.8750754399
 40
0.9194195933
 40
0.9609721529
 40
1.0
 40
1.0
 40
1.0
 40
1.0
 10
4.877125217
 20
4.8330017286
 30
0.0
 10
4.8812226554
 20
4.8318401556
 30
0.0
 10
4.8892493477
 20
4.8294817705
 30
0.0
 10
4.9009914139
 20
4.8257649281
 30
0.0
 10
4.9122036911
 20
4.8219374696
 30
0.0
 10
4.9228697818
 20
4.8180047458
 30
0.0
 10
4.9329740827
 20
4.813971739
 30
0.0
 10
4.9425023458
 20
4.8098440253
 30
0.0
 10
4.9514414896
 20
4.8056266979
 30
0.0
 10
4.9597798157
 20
4.8013258453
 30
0.0
 10
4.9675065512
 20
4.7969470498
 30
0.0
 10
4.9746121193
 20
4.7924963819
 30
0.0
 10
4.9810875196
 20
4.7879795691
 30
0.0
 10
4.9869240502
 20
4.7834019722
 30
0.0
 10
4.9921132473
 20
4.7787682348
 30
0.0
 10
4.9966493851
 20
4.7740842804
 30
0.0
 10
5.000526593
 20
4.7693563363
 30
0.0
 10
5.0027322321
 20
4.7660828771
 30
0.0
 10
5.0037103711
 20
4.7644447451
 30
0.0
  0
SPLINE
  5
2A2
100
AcDbEntity
  8
0
100
AcDbSpline
 62
7
  6
CONTINUOUS
 70
0
 71
3
 72
15
 73
11
 74
0
 42
0.0000001
 43
0.0000001
 44
0.0000000001
 40
0.0
 40
0.0
 40
0.0
 40
0.0
 40
0.1231198012
 40
0.2472482735
 40
0.3720413151
 40
0.497265192
 40
0.6227630989
 40
0.7484299415
 40
0.8741929584
 40
1.0
 40
1.0
 40
1.0
 40
1.0
 10
4.3698656833
 20
5.0699827023
 30
0.0
 10
4.3613107366
 20
5.0757476472
 30
0.0
 10
4.3444589335
 20
5.0878203193
 30
0.0
 10
4.3201812032
 20
5.1073996064
 30
0.0
 10
4.2969257068
 20
5.1284480006
 30
0.0
 10
4.2748234177
 20
5.150865322
 30
0.0
 10
4.2539796323
 20
5.1745549342
 30
0.0
 10
4.2344824625
 20
5.1994223568
 30
0.0
 10
4.2164081159
 20
5.2253726353
 30
0.0
 10
4.2053503507
 20
5.2433337586
 30
0.0
 10
4.2000797253
 20
5.2524627495
 30
0.0
  0
LINE
  5
2A3
100
AcDbEntity
  8
0
100
AcDbLine
 62
7
  6
CONTINUOUS
 10
4.4655731357
 20
5.1431165394
 11
4.4657456959
 21
5.1427084088
  0
SPLINE
  5
2A4
100
AcDbEntity
  8
0
100
AcDbSpline
 62
7
  6
CONTINUOUS
 70
0
 71
3
 72
65
 73
61
 74
0
 42
0.0000001
 43
0.0000001
 44
0.0000000001
 40
0.0
 40
0.0
 40
0.0
 40
0.0
 40
0.0011296984
 40
0.0022753869
 40
0.0034428789
 40
0.0046346719
 40
0.0070954638
 40
0.0096637156
 40
0.0123395863
 40
0.0151193391
 40
0.0209715488
 40
0.0271754991
 40
0.0336820289
 40
0.0404468102
 40
0.0474313099
 40
0.0546006559
 40
0.061921994
 40
0.0693661449
 40
0.0769081839
 40
0.0845273211
 40
0.0922068146
 40
0.0999318942
 40
0.1076899902
 40
0.1232764733
 40
0.1389283732
 40
0.1546202899
 40
0.1624735313
 40
0.170327772
 40
0.1860365902
 40
0.2017474725
 40
0.2331937095
 40
0.2646944058
 40
0.2962536704
 40
0.327870792
 40
0.3595446743
 40
0.3912743595
 40
0.4230600804
 40
0.4549017288
 40
0.4867983161
 40
0.5187478477
 40
0.5507472399
 40
0.5827926089
 40
0.6148791525
 40
0.6309363243
 40
0.6470017616
 40
0.6791534205
 40
0.7113275427
 40
0.7435178114
 40
0.7596169965
 40
0.7757179828
 40
0.8079210922
 40
0.8240205903
 40
0.8401165818
 40
0.8562068098
 40
0.8722881485
 40
0.8883572768
 40
0.9044105692
 40
0.9364461514
 40
0.9683385654
 40
1.0
 40
1.0
 40
1.0
 40
1.0
 10
4.4657456959
 20
5.1427084088
 30
0.0
 10
4.4657813144
 20
5.1425958878
 30
0.0
 10
4.4658401919
 20
5.1423651684
 30
0.0
 10
4.4659053629
 20
5.1420113141
 30
0.0
 10
4.4659560758
 20
5.1416485789
 30
0.0
 10
4.4660114751
 20
5.1411480235
 30
0.0
 10
4.4660648716
 20
5.1405002234
 30
0.0
 10
4.466120525
 20
5.1396971996
 30
0.0
 10
4.4661772
 20
5.1388608285
 30
0.0
 10
4.4662622423
 20
5.1376825182
 30
0.0
 10
4.466392972
 20
5.1361379738
 30
0.0
 10
4.466597499
 20
5.1342093236
 30
0.0
 10
4.4668541919
 20
5.1321907852
 30
0.0
 10
4.4671625598
 20
5.1300970412
 30
0.0
 10
4.4675206678
 20
5.127941017
 30
0.0
 10
4.4679254464
 20
5.1257341437
 30
0.0
 10
4.4683720641
 20
5.1234863978
 30
0.0
 10
4.4688551121
 20
5.1212064017
 30
0.0
 10
4.4693689817
 20
5.1189012845
 30
0.0
 10
4.4699080834
 20
5.1165767031
 30
0.0
 10
4.4704675739
 20
5.1142372878
 30
0.0
 10
4.4710417162
 20
5.111886487
 30
0.0
 10
4.4718203324
 20
5.1087352869
 30
0.0
 10
4.4728059048
 20
5.1047821814
 30
0.0
 10
4.4739924812
 20
5.1000249445
 30
0.0
 10
4.4749749584
 20
5.0960494698
 30
0.0
 10
4.4757489726
 20
5.0928616703
 30
0.0
 10
4.4765114495
 20
5.0896692756
 30
0.0
 10
4.4774413984
 20
5.0856729054
 30
0.0
 10
4.4788827473
 20
5.0792651194
 30
0.0
 10
4.4806109978
 20
5.0712310518
 30
0.0
 10
4.4826030732
 20
5.0615605814
 30
0.0
 10
4.4845222136
 20
5.0518571721
 30
0.0
 10
4.486375606
 20
5.0421225939
 30
0.0
 10
4.488168621
 20
5.0323586201
 30
0.0
 10
4.489905434
 20
5.0225666146
 30
0.0
 10
4.4915922162
 20
5.012748094
 30
0.0
 10
4.4932340203
 20
5.0029042816
 30
0.0
 10
4.4948344285
 20
4.9930363212
 30
0.0
 10
4.4963953046
 20
4.9831453469
 30
0.0
 10
4.4979150973
 20
4.9732322475
 30
0.0
 10
4.4993904537
 20
4.9632979595
 30
0.0
 10
4.5005757007
 20
4.9550045119
 30
0.0
 10
4.5014929224
 20
4.9483593269
 30
0.0
 10
4.5023874431
 20
4.9417041862
 30
0.0
 10
4.503453687
 20
4.9333732254
 30
0.0
 10
4.5046243086
 20
4.9233577709
 30
0.0
 10
4.5054895796
 20
4.9149957682
 30
0.0
 10
4.5061059348
 20
4.9082968837
 30
0.0
 10
4.5066678952
 20
4.9015918741
 30
0.0
 10
4.5071455772
 20
4.8948799956
 30
0.0
 10
4.5075413861
 20
4.888163628
 30
0.0
 10
4.5077974898
 20
4.8831254823
 30
0.0
 10
4.5080141072
 20
4.8780873938
 30
0.0
 10
4.5081935843
 20
4.8730506587
 30
0.0
 10
4.5083381781
 20
4.8680166659
 30
0.0
 10
4.5084867133
 20
4.8613154389
 30
0.0
 10
4.5086022919
 20
4.8529601649
 30
0.0
 10
4.5086787819
 20
4.8429738569
 30
0.0
 10
4.5087191711
 20
4.8363342651
 30
0.0
 10
4.5087441593
 20
4.8330265688
 30
0.0
  0
LINE
  5
2A5
100
AcDbEntity
  8
0
100
AcDbLine
 62
7
  6
CONTINUOUS
 10
4.9202964288
 20
5.1431165396
 11
4.9201228061
 21
5.1427050361
  0
SPLINE
  5
2A6
100
AcDbEntity
  8
0
100
AcDbSpline
 62
7
  6
CONTINUOUS
 70
0
 71
3
 72
65
 73
61
 74
0
 42
0.0000001
 43
0.0000001
 44
0.0000000001
 40
0.0
 40
0.0
 40
0.0
 40
0.0
 40
0.0011297921
 40
0.002275669
 40
0.0034433847
 40
0.0046354171
 40
0.007096712
 40
0.0096654863
 40
0.0123418601
 40
0.0151220894
 40
0.0209751623
 40
0.0271798431
 40
0.0336869905
 40
0.0404522913
 40
0.047437212
 40
0.0546069004
 40
0.0619284965
 40
0.0693728391
 40
0.0769150068
 40
0.0845342301
 40
0.0922137737
 40
0.0999389152
 40
0.1076969823
 40
0.1232834091
 40
0.1389352436
 40
0.1546270239
 40
0.1624802453
 40
0.1703344904
 40
0.1860430961
 40
0.2017538729
 40
0.2331999056
 40
0.2647003847
 40
0.2962594187
 40
0.3278763086
 40
0.3595499542
 40
0.3912794092
 40
0.4230648926
 40
0.4549063036
 40
0.486802655
 40
0.5187519411
 40
0.550751088
 40
0.5827962021
 40
0.6148824911
 40
0.6309395302
 40
0.6470048483
 40
0.6791562813
 40
0.7113301323
 40
0.7435201444
 40
0.7596191937
 40
0.7757200228
 40
0.8079228307
 40
0.824022181
 40
0.840118019
 40
0.8562081034
 40
0.8722893082
 40
0.8883583061
 40
0.9044114705
 40
0.9364467947
 40
0.9683388582
 40
1.0
 40
1.0
 40
1.0
 40
1.0
 10
4.9201228061
 20
5.1427050361
 30
0.0
 10
4.9200873148
 20
5.1425924661
 30
0.0
 10
4.9200286269
 20
5.1423616749
 30
0.0
 10
4.9199636365
 20
5.1420077386
 30
0.0
 10
4.9199130405
 20
5.1416449233
 30
0.0
 10
4.9198577455
 20
5.1411442609
 30
0.0
 10
4.9198044104
 20
5.1404963313
 30
0.0
 10
4.9197487688
 20
5.1396931556
 30
0.0
 10
4.9196920748
 20
5.1388566381
 30
0.0
 10
4.9196069824
 20
5.1376781516
 30
0.0
 10
4.9194761615
 20
5.1361334154
 30
0.0
 10
4.9192715169
 20
5.1342045674
 30
0.0
 10
4.9190147054
 20
5.1321858706
 30
0.0
 10
4.9187062189
 20
5.1300920037
 30
0.0
 10
4.9183480041
 20
5.1279358865
 30
0.0
 10
4.9179431257
 20
5.1257289489
 30
0.0
 10
4.9174964267
 20
5.1234811612
 30
0.0
 10
4.9170133135
 20
5.1212011442
 30
0.0
 10
4.9164993936
 20
5.1188960221
 30
0.0
 10
4.915960245
 20
5.1165714509
 30
0.0
 10
4.9154007531
 20
5.1142320426
 30
0.0
 10
4.9148265371
 20
5.111881279
 30
0.0
 10
4.9140479804
 20
5.1087301046
 30
0.0
 10
4.9130624017
 20
5.1047770643
 30
0.0
 10
4.911875833
 20
5.1000199102
 30
0.0
 10
4.9108934559
 20
5.0960444824
 30
0.0
 10
4.9101194327
 20
5.0928567397
 30
0.0
 10
4.9093568894
 20
5.0896644233
 30
0.0
 10
4.9084271493
 20
5.0856680856
 30
0.0
 10
4.9069857876
 20
5.0792604352
 30
0.0
 10
4.905257621
 20
5.0712265002
 30
0.0
 10
4.9032655994
 20
5.0615562026
 30
0.0
 10
4.9013465367
 20
5.051852964
 30
0.0
 10
4.8994932064
 20
5.0421185625
 30
0.0
 10
4.8977002596
 20
5.0323547644
 30
0.0
 10
4.8959634913
 20
5.0225629399
 30
0.0
 10
4.894276766
 20
5.0127445986
 30
0.0
 10
4.8926350116
 20
5.0029009675
 30
0.0
 10
4.8910346276
 20
4.9930331938
 30
0.0
 10
4.889473818
 20
4.9831424004
 30
0.0
 10
4.8879540479
 20
4.973229491
 30
0.0
 10
4.8864787515
 20
4.9632953887
 30
0.0
 10
4.8852935029
 20
4.9550021046
 30
0.0
 10
4.8843763757
 20
4.9483570365
 30
0.0
 10
4.8834818709
 20
4.9417020207
 30
0.0
 10
4.8824155544
 20
4.93337123
 30
0.0
 10
4.8812449314
 20
4.9233559686
 30
0.0
 10
4.8803798949
 20
4.9149941065
 30
0.0
 10
4.8797636488
 20
4.9082953464
 30
0.0
 10
4.879201649
 20
4.9015904789
 30
0.0
 10
4.8787239779
 20
4.894878739
 30
0.0
 10
4.8783281989
 20
4.8881625089
 30
0.0
 10
4.8780721116
 20
4.883124466
 30
0.0
 10
4.877855533
 20
4.8780864778
 30
0.0
 10
4.8776760939
 20
4.8730498411
 30
0.0
 10
4.8775315181
 20
4.8680159458
 30
0.0
 10
4.8773829554
 20
4.8613148492
 30
0.0
 10
4.8772673421
 20
4.8529597471
 30
0.0
 10
4.877190806
 20
4.8429736465
 30
0.0
 10
4.8771503935
 20
4.8363341972
 30
0.0
 10
4.8771254059
 20
4.8330265688
 30
0.0
  0
SPLINE
  5
2A7
100
AcDbEntity
  8
0
100
AcDbSpline
 62
7
  6
CONTINUOUS
 70
0
 71
3
 72
21
 73
17
 74
0
 42
0.0000001
 43
0.0000001
 44
0.0000000001
 40
0.0
 40
0.0
 40
0.0
 40
0.0
 40
0.072590183
 40
0.1448024287
 40
0.2872911317
 40
0.4258373446
 40
0.4931107469
 40
0.5587682352
 40
0.6225959857
 40
0.6843788744
 40
0.74390076
 40
0.8009447778
 40
0.8552936666
 40
0.9067301576
 40
0.9550374715
 40
1.0
 40
1.0
 40
1.0
 40
1.0
 10
4.3614239922
 20
5.1761375894
 30
0.0
 10
4.3625460497
 20
5.166223211
 30
0.0
 10
4.3646398691
 20
5.1464294629
 30
0.0
 10
4.3682725253
 20
5.1071072617
 30
0.0
 10
4.3718740182
 20
5.058682187
 30
0.0
 10
4.3745051997
 20
5.0108765847
 30
0.0
 10
4.3761350228
 20
4.9735968902
 30
0.0
 10
4.377144031
 20
4.9465706693
 30
0.0
 10
4.3779862663
 20
4.9202938718
 30
0.0
 10
4.3786963284
 20
4.894856879
 30
0.0
 10
4.3793087778
 20
4.870350101
 30
0.0
 10
4.3798581348
 20
4.8468639315
 30
0.0
 10
4.3803788643
 20
4.8244887545
 30
0.0
 10
4.3809053314
 20
4.8033149138
 30
0.0
 10
4.3814718242
 20
4.7834327431
 30
0.0
 10
4.3819153769
 20
4.7706201263
 30
0.0
 10
4.3821591941
 20
4.7644447451
 30
0.0
  0
SPLINE
  5
2A8
100
AcDbEntity
  8
0
100
AcDbSpline
 62
7
  6
CONTINUOUS
 70
0
 71
3
 72
11
 73
7
 74
0
 42
0.0000001
 43
0.0000001
 44
0.0000000001
 40
0.0
 40
0.0
 40
0.0
 40
0.0
 40
0.257676166
 40
0.5084360399
 40
0.7549504573
 40
1.0
 40
1.0
 40
1.0
 40
1.0
 10
4.3821591956
 20
4.7644447086
 30
0.0
 10
4.381682195
 20
4.763240192
 30
0.0
 10
4.3808557049
 20
4.7608157506
 30
0.0
 10
4.3800121321
 20
4.757107731
 30
0.0
 10
4.3795846953
 20
4.7533927163
 30
0.0
 10
4.37957686
 20
4.7509152688
 30
0.0
 10
4.3796411342
 20
4.7496849029
 30
0.0
  0
SPLINE
  5
2A9
100
AcDbEntity
  8
0
100
AcDbSpline
 62
7
  6
CONTINUOUS
 70
0
 71
3
 72
23
 73
19
 74
0
 42
0.0000001
 43
0.0000001
 44
0.0000000001
 40
0.0
 40
0.0
 40
0.0
 40
0.0
 40
0.0434935703
 40
0.089301306
 40
0.1375200592
 40
0.188227309
 40
0.2414844671
 40
0.2973389808
 40
0.3558192581
 40
0.4169387633
 40
0.4807025834
 40
0.5471089528
 40
0.6161503439
 40
0.6878098051
 40
0.7620588755
 40
0.8388647114
 40
0.9181913084
 40
1.0
 40
1.0
 40
1.0
 40
1.0
 10
4.9729347824
 20
3.3214718985
 30
0.0
 10
4.9717900699
 20
3.3227133792
 30
0.0
 10
4.9693562114
 20
3.3251863086
 30
0.0
 10
4.9653978162
 20
3.3287731907
 30
0.0
 10
4.9610431372
 20
3.3323285397
 30
0.0
 10
4.9562957021
 20
3.3358494385
 30
0.0
 10
4.951158798
 20
3.3393332009
 30
0.0
 10
4.945636009
 20
3.342776705
 30
0.0
 10
4.9397318979
 20
3.34617737
 30
0.0
 10
4.933451628
 20
3.3495326553
 30
0.0
 10
4.9268004822
 20
3.3528397943
 30
0.0
 10
4.9197837902
 20
3.3560960459
 30
0.0
 10
4.9124070272
 20
3.359298497
 30
0.0
 10
4.9046762814
 20
3.3624444096
 30
0.0
 10
4.8965983672
 20
3.3655315288
 30
0.0
 10
4.8881803114
 20
3.3685573477
 30
0.0
 10
4.879429228
 20
3.3715193731
 30
0.0
 10
4.8734686029
 20
3.3734209183
 30
0.0
 10
4.8704347819
 20
3.3743615702
 30
0.0
  0
SPLINE
  5
2AA
100
AcDbEntity
  8
0
100
AcDbSpline
 62
7
  6
CONTINUOUS
 70
0
 71
3
 72
9
 73
5
 74
0
 42
0.0000001
 43
0.0000001
 44
0.0000000001
 40
0.0
 40
0.0
 40
0.0
 40
0.0
 40
0.4927910484
 40
1.0
 40
1.0
 40
1.0
 40
1.0
 10
4.6523072474
 20
5.3390763958
 30
0.0
 10
4.6527549339
 20
5.3389163586
 30
0.0
 10
4.6536390107
 20
5.3385194444
 30
0.0
 10
4.6544533718
 20
5.3379952439
 30
0.0
 10
4.6548458855
 20
5.3377030313
 30
0.0
  0
SPLINE
  5
2AB
100
AcDbEntity
  8
0
100
AcDbSpline
 62
7
  6
CONTINUOUS
 70
0
 71
3
 72
23
 73
19
 74
0
 42
0.0000001
 43
0.0000001
 44
0.0000000001
 40
0.0
 40
0.0
 40
0.0
 40
0.0
 40
0.0428598597
 40
0.0885689741
 40
0.1375736811
 40
0.1900991752
 40
0.2461813916
 40
0.3057000768
 40
0.3684085333
 40
0.4339587535
 40
0.5019225452
 40
0.5718095766
 40
0.6430833302
 40
0.7151754118
 40
0.7874995943
 40
0.8594636186
 40
0.9304853574
 40
1.0
 40
1.0
 40
1.0
 40
1.0
 10
4.6548458855
 20
5.3377030313
 30
0.0
 10
4.6553666487
 20
5.3373153414
 30
0.0
 10
4.6563716207
 20
5.3364153988
 30
0.0
 10
4.6576931514
 20
5.3347952568
 30
0.0
 10
4.6588592995
 20
5.3328869589
 30
0.0
 10
4.6598579762
 20
5.330713169
 30
0.0
 10
4.6606793104
 20
5.3282983496
 30
0.0
 10
4.6613146035
 20
5.3256697624
 30
0.0
 10
4.661756997
 20
5.3228571248
 30
0.0
 10
4.662001595
 20
5.3198924057
 30
0.0
 10
4.6620456593
 20
5.3168094406
 30
0.0
 10
4.6618886971
 20
5.3136435268
 30
0.0
 10
4.661532503
 20
5.310430993
 30
0.0
 10
4.6609811643
 20
5.3072087444
 30
0.0
 10
4.660241013
 20
5.3040138542
 30
0.0
 10
4.6593205531
 20
5.3008829988
 30
0.0
 10
4.6582304317
 20
5.2978523656
 30
0.0
 10
4.6573876161
 20
5.2958956785
 30
0.0
 10
4.6569395702
 20
5.2949427684
 30
0.0
  0
SPLINE
  5
2AC
100
AcDbEntity
  8
0
100
AcDbSpline
 62
7
  6
CONTINUOUS
 70
0
 71
3
 72
21
 73
17
 74
0
 42
0.0000001
 43
0.0000001
 44
0.0000000001
 40
0.0
 40
0.0
 40
0.0
 40
0.0
 40
0.0449625285
 40
0.0932698424
 40
0.1447063334
 40
0.1990552222
 40
0.25609924
 40
0.3156211256
 40
0.3774040143
 40
0.4412317648
 40
0.5068892531
 40
0.5741626554
 40
0.7127088683
 40
0.8551975713
 40
0.927409817
 40
1.0
 40
1.0
 40
1.0
 40
1.0
 10
5.0037103711
 20
4.7644447451
 30
0.0
 10
5.0039541883
 20
4.7706201263
 30
0.0
 10
5.004397741
 20
4.7834327431
 30
0.0
 10
5.0049642338
 20
4.8033149138
 30
0.0
 10
5.005490701
 20
4.8244887545
 30
0.0
 10
5.0060114304
 20
4.8468639315
 30
0.0
 10
5.0065607875
 20
4.870350101
 30
0.0
 10
5.0071732368
 20
4.894856879
 30
0.0
 10
5.0078832989
 20
4.9202938718
 30
0.0
 10
5.0087255342
 20
4.9465706693
 30
0.0
 10
5.0097345424
 20
4.9735968902
 30
0.0
 10
5.0113643655
 20
5.0108765847
 30
0.0
 10
5.0139955471
 20
5.058682187
 30
0.0
 10
5.0175970399
 20
5.1071072617
 30
0.0
 10
5.0212296961
 20
5.1464294629
 30
0.0
 10
5.0233235156
 20
5.166223211
 30
0.0
 10
5.0244455731
 20
5.1761375894
 30
0.0
  0
SPLINE
  5
2AD
100
AcDbEntity
  8
0
100
AcDbSpline
 62
7
  6
CONTINUOUS
 70
0
 71
3
 72
45
 73
41
 74
0
 42
0.0000001
 43
0.0000001
 44
0.0000000001
 40
0.0
 40
0.0
 40
0.0
 40
0.0
 40
0.0334454743
 40
0.0683928323
 40
0.1055197886
 40
0.1449060315
 40
0.186390679
 40
0.2294482608
 40
0.2734741906
 40
0.3179117391
 40
0.3622614991
 40
0.4062041665
 40
0.4494652159
 40
0.4917699332
 40
0.5328485472
 40
0.5724515204
 40
0.6103342567
 40
0.6462520277
 40
0.6799529381
 40
0.7111567915
 40
0.7396897031
 40
0.7658313588
 40
0.7899825223
 40
0.8125751192
 40
0.8340505545
 40
0.8548573737
 40
0.8754308331
 40
0.8961458546
 40
0.9171572252
 40
0.9377989152
 40
0.9477104072
 40
0.95721188
 40
0.9662035512
 40
0.9745856791
 40
0.9822581562
 40
0.9891192584
 40
0.9922136814
 40
0.9950670555
 40
0.9976667028
 40
1.0
 40
1.0
 40
1.0
 40
1.0
 10
4.8704347826
 20
3.374361631
 30
0.0
 10
4.8704197219
 20
3.3649311006
 30
0.0
 10
4.8703902775
 20
3.3456465553
 30
0.0
 10
4.8703150577
 20
3.3158934709
 30
0.0
 10
4.8701756079
 20
3.284465482
 30
0.0
 10
4.8699487456
 20
3.2511946402
 30
0.0
 10
4.8696128522
 20
3.2162523819
 30
0.0
 10
4.8691533197
 20
3.1800031675
 30
0.0
 10
4.868555197
 20
3.1429232191
 30
0.0
 10
4.8677945587
 20
3.1054817646
 30
0.0
 10
4.8668451991
 20
3.0680680893
 30
0.0
 10
4.8657301454
 20
3.0309909001
 30
0.0
 10
4.8644717415
 20
2.9944952859
 30
0.0
 10
4.863091932
 20
2.9588122322
 30
0.0
 10
4.8616122941
 20
2.9241655621
 30
0.0
 10
4.8600585655
 20
2.8907703037
 30
0.0
 10
4.8584563267
 20
2.8588342879
 30
0.0
 10
4.8568312078
 20
2.8285658981
 30
0.0
 10
4.8552094651
 20
2.8001834419
 30
0.0
 10
4.8536144504
 20
2.7738853052
 30
0.0
 10
4.8520581823
 20
2.749720373
 30
0.0
 10
4.8505508229
 20
2.727545196
 30
0.0
 10
4.8490934662
 20
2.7070455771
 30
0.0
 10
4.8476849366
 20
2.6878615989
 30
0.0
 10
4.8463234833
 20
2.6696197228
 30
0.0
 10
4.8450078195
 20
2.6519453426
 30
0.0
 10
4.8437380067
 20
2.6344825666
 30
0.0
 10
4.8425182143
 20
2.6169583817
 30
0.0
 10
4.8413706332
 20
2.5994100309
 30
0.0
 10
4.8404841669
 20
2.5848974837
 30
0.0
 10
4.8398395181
 20
2.5736217659
 30
0.0
 10
4.839405951
 20
2.565624307
 30
0.0
 10
4.8390217646
 20
2.558056077
 30
0.0
 10
4.8386929543
 20
2.5510014693
 30
0.0
 10
4.8384255224
 20
2.544545486
 30
0.0
 10
4.8382529566
 20
2.5395778944
 30
0.0
 10
4.8381535651
 20
2.5359675519
 30
0.0
 10
4.8381009309
 20
2.533558007
 30
0.0
 10
4.8380682698
 20
2.5313627409
 30
0.0
 10
4.8380597826
 20
2.5299718067
 30
0.0
 10
4.8380597826
 20
2.5293138924
 30
0.0
  0
SPLINE
  5
2AE
100
AcDbEntity
  8
0
100
AcDbSpline
 62
7
  6
CONTINUOUS
 70
0
 71
3
 72
23
 73
19
 74
0
 42
0.0000001
 43
0.0000001
 44
0.0000000001
 40
0.0
 40
0.0
 40
0.0
 40
0.0
 40
0.0818086916
 40
0.1611352886
 40
0.2379411245
 40
0.3121901949
 40
0.3838496561
 40
0.4528910472
 40
0.5192974166
 40
0.5830612367
 40
0.6441807419
 40
0.7026610192
 40
0.7585155329
 40
0.811772691
 40
0.8624799408
 40
0.910698694
 40
0.9565064297
 40
1.0
 40
1.0
 40
1.0
 40
1.0
 10
4.5154347834
 20
3.3743615702
 30
0.0
 10
4.5124009623
 20
3.3734209183
 30
0.0
 10
4.5064403372
 20
3.3715193731
 30
0.0
 10
4.4976892538
 20
3.3685573477
 30
0.0
 10
4.489271198
 20
3.3655315288
 30
0.0
 10
4.4811932838
 20
3.3624444096
 30
0.0
 10
4.473462538
 20
3.359298497
 30
0.0
 10
4.466085775
 20
3.3560960459
 30
0.0
 10
4.459069083
 20
3.3528397943
 30
0.0
 10
4.4524179372
 20
3.3495326553
 30
0.0
 10
4.4461376673
 20
3.34617737
 30
0.0
 10
4.4402335562
 20
3.342776705
 30
0.0
 10
4.4347107673
 20
3.3393332009
 30
0.0
 10
4.4295738631
 20
3.3358494385
 30
0.0
 10
4.424826428
 20
3.3323285397
 30
0.0
 10
4.420471749
 20
3.3287731907
 30
0.0
 10
4.4165133538
 20
3.3251863086
 30
0.0
 10
4.4140794953
 20
3.3227133792
 30
0.0
 10
4.4129347828
 20
3.3214718985
 30
0.0
  0
LINE
  5
2AF
100
AcDbEntity
  8
0
100
AcDbLine
 62
7
  6
CONTINUOUS
 10
4.9214803482
 20
5.5334378957
 11
4.8949941626
 21
5.5345625553
  0
SPLINE
  5
2B0
100
AcDbEntity
  8
0
100
AcDbSpline
 62
7
  6
CONTINUOUS
 70
0
 71
3
 72
12
 73
8
 74
0
 42
0.0000001
 43
0.0000001
 44
0.0000000001
 40
0.0
 40
0.0
 40
0.0
 40
0.0
 40
0.2499986166
 40
0.4999987956
 40
0.7499983503
 40
0.87499877
 40
1.0
 40
1.0
 40
1.0
 40
1.0
 10
4.9214803482
 20
5.5334378957
 30
0.0
 10
4.9176811692
 20
5.5264248985
 30
0.0
 10
4.9100661701
 20
5.5124078431
 30
0.0
 10
4.8985651322
 20
5.4914250814
 30
0.0
 10
4.8888918638
 20
5.4739884277
 30
0.0
 10
4.8810853984
 20
5.4600770097
 30
0.0
 10
4.8771578548
 20
5.4531349528
 30
0.0
 10
4.8751879957
 20
5.449667372
 30
0.0
  0
SPLINE
  5
2B1
100
AcDbEntity
  8
0
100
AcDbSpline
 62
7
  6
CONTINUOUS
 70
0
 71
3
 72
11
 73
7
 74
0
 42
0.0000001
 43
0.0000001
 44
0.0000000001
 40
0.0
 40
0.0
 40
0.0
 40
0.0
 40
0.2500011459
 40
0.5000003086
 40
0.7500005735
 40
1.0
 40
1.0
 40
1.0
 40
1.0
 10
4.8602674477
 20
5.4236736304
 30
0.0
 10
4.8561974267
 20
5.4166568247
 30
0.0
 10
4.8480054201
 20
5.4026533354
 30
0.0
 10
4.8355550589
 20
5.3817440225
 30
0.0
 10
4.82297469
 20
5.3609128348
 30
0.0
 10
4.8145244703
 20
5.3470638304
 30
0.0
 10
4.8102891976
 20
5.3401455796
 30
0.0
  0
LINE
  5
2B2
100
AcDbEntity
  8
0
100
AcDbLine
 62
7
  6
CONTINUOUS
 10
4.921480378
 20
5.5405876054
 11
4.8949941614
 21
5.539462944
  0
LINE
  5
2B3
100
AcDbEntity
  8
0
100
AcDbLine
 62
7
  6
CONTINUOUS
 10
4.8103050718
 20
5.7338996214
 11
4.8099810454
 21
5.7334783364
  0
SPLINE
  5
2B4
100
AcDbEntity
  8
0
100
AcDbSpline
 62
7
  6
CONTINUOUS
 70
0
 71
3
 72
11
 73
7
 74
0
 42
0.0000001
 43
0.0000001
 44
0.0000000001
 40
0.0
 40
0.0
 40
0.0
 40
0.0
 40
0.2499993436
 40
0.5000001008
 40
0.7499995933
 40
1.0
 40
1.0
 40
1.0
 40
1.0
 10
4.8103050718
 20
5.7338996214
 30
0.0
 10
4.814542257
 20
5.726978348
 30
0.0
 10
4.8229924357
 20
5.7131209052
 30
0.0
 10
4.8355677828
 20
5.6922741153
 30
0.0
 10
4.8480163561
 20
5.6713512594
 30
0.0
 10
4.8562113683
 20
5.6573412606
 30
0.0
 10
4.8602828666
 20
5.6503212019
 30
0.0
  0
SPLINE
  5
2B5
100
AcDbEntity
  8
0
100
AcDbSpline
 62
7
  6
CONTINUOUS
 70
0
 71
3
 72
11
 73
7
 74
0
 42
0.0000001
 43
0.0000001
 44
0.0000000001
 40
0.0
 40
0.0
 40
0.0
 40
0.0
 40
0.2500012365
 40
0.5000008375
 40
0.7500011265
 40
1.0
 40
1.0
 40
1.0
 40
1.0
 10
4.8751530813
 20
5.6244163649
 30
0.0
 10
4.8790961001
 20
5.6174766193
 30
0.0
 10
4.8869330152
 20
5.6035692152
 30
0.0
 10
4.8985495694
 20
5.5826306082
 30
0.0
 10
4.9100584199
 20
5.561632759
 30
0.0
 10
4.9176785016
 20
5.5476055821
 30
0.0
 10
4.921480378
 20
5.5405876054
 30
0.0
  0
SPLINE
  5
2B6
100
AcDbEntity
  8
0
100
AcDbSpline
 62
7
  6
CONTINUOUS
 70
0
 71
3
 72
13
 73
9
 74
0
 42
0.0000001
 43
0.0000001
 44
0.0000000001
 40
0.0
 40
0.0
 40
0.0
 40
0.0
 40
0.2499997979
 40
0.3750002031
 40
0.5000002935
 40
0.6250004374
 40
0.750000464
 40
1.0
 40
1.0
 40
1.0
 40
1.0
 10
4.6929347826
 20
5.7393879814
 30
0.0
 10
4.7021608864
 20
5.7393879904
 30
0.0
 10
4.7160001811
 20
5.7393145555
 30
0.0
 10
4.7344509885
 20
5.7390819907
 30
0.0
 10
4.7482881978
 20
5.7388450334
 30
0.0
 10
4.7621243176
 20
5.7385526776
 30
0.0
 10
4.7805709468
 20
5.7380975858
 30
0.0
 10
4.7944043219
 20
5.7376954884
 30
0.0
 10
4.8036260608
 20
5.7374120394
 30
0.0
  0
SPLINE
  5
2B7
100
AcDbEntity
  8
0
100
AcDbSpline
 62
7
  6
CONTINUOUS
 70
0
 71
3
 72
13
 73
9
 74
0
 42
0.0000001
 43
0.0000001
 44
0.0000000001
 40
0.0
 40
0.0
 40
0.0
 40
0.0
 40
0.2499995361
 40
0.3749995626
 40
0.4999997066
 40
0.624999797
 40
0.7500002022
 40
1.0
 40
1.0
 40
1.0
 40
1.0
 10
4.5822435098
 20
5.7374120295
 30
0.0
 10
4.5914652483
 20
5.7376954785
 30
0.0
 10
4.6052986226
 20
5.7380975811
 30
0.0
 10
4.6237452508
 20
5.7385526789
 30
0.0
 10
4.63758137
 20
5.7388450362
 30
0.0
 10
4.6514185786
 20
5.7390819931
 30
0.0
 10
4.6698693852
 20
5.7393145561
 30
0.0
 10
4.6837086793
 20
5.7393879897
 30
0.0
 10
4.6929347826
 20
5.7393879814
 30
0.0
  0
LINE
  5
2B8
100
AcDbEntity
  8
0
100
AcDbLine
 62
7
  6
CONTINUOUS
 10
4.4908754042
 20
5.5394629442
 11
4.4643891922
 21
5.5405876041
  0
SPLINE
  5
2B9
100
AcDbEntity
  8
0
100
AcDbSpline
 62
7
  6
CONTINUOUS
 70
0
 71
3
 72
12
 73
8
 74
0
 42
0.0000001
 43
0.0000001
 44
0.0000000001
 40
0.0
 40
0.0
 40
0.0
 40
0.0
 40
0.2499986157
 40
0.4999987928
 40
0.7499983476
 40
0.8749987689
 40
1.0
 40
1.0
 40
1.0
 40
1.0
 10
4.4643891922
 20
5.5405876041
 30
0.0
 10
4.468188385
 20
5.5476006266
 30
0.0
 10
4.475803414
 20
5.5616177313
 30
0.0
 10
4.4873045012
 20
5.5826005646
 30
0.0
 10
4.4969778123
 20
5.600037277
 30
0.0
 10
4.5047843128
 20
5.6139487415
 30
0.0
 10
4.5087118714
 20
5.6208908232
 30
0.0
 10
4.5106817377
 20
5.6243584165
 30
0.0
  0
SPLINE
  5
2BA
100
AcDbEntity
  8
0
100
AcDbSpline
 62
7
  6
CONTINUOUS
 70
0
 71
3
 72
11
 73
7
 74
0
 42
0.0000001
 43
0.0000001
 44
0.0000000001
 40
0.0
 40
0.0
 40
0.0
 40
0.0
 40
0.2500011394
 40
0.5000003013
 40
0.7500005709
 40
1.0
 40
1.0
 40
1.0
 40
1.0
 10
4.5256015421
 20
5.6503508809
 30
0.0
 10
4.5296716076
 20
5.6573677705
 30
0.0
 10
4.5378637105
 20
5.6713714235
 30
0.0
 10
4.550314225
 20
5.692280977
 30
0.0
 10
4.5628947304
 20
5.7131124157
 30
0.0
 10
4.5713450445
 20
5.7269615856
 30
0.0
 10
4.5755803666
 20
5.7338799178
 30
0.0
  0
LINE
  5
2BB
100
AcDbEntity
  8
0
100
AcDbLine
 62
7
  6
CONTINUOUS
 10
4.490875403
 20
5.534562555
 11
4.464389222
 21
5.5334378977
  0
LINE
  5
2BC
100
AcDbEntity
  8
0
100
AcDbLine
 62
7
  6
CONTINUOUS
 10
4.5755644936
 20
5.3401258772
 11
4.5758885204
 21
5.3405471629
  0
SPLINE
  5
2BD
100
AcDbEntity
  8
0
100
AcDbSpline
 62
7
  6
CONTINUOUS
 70
0
 71
3
 72
11
 73
7
 74
0
 42
0.0000001
 43
0.0000001
 44
0.0000000001
 40
0.0
 40
0.0
 40
0.0
 40
0.0
 40
0.2499993422
 40
0.5000000975
 40
0.7499995894
 40
1.0
 40
1.0
 40
1.0
 40
1.0
 10
4.5755644936
 20
5.3401258772
 30
0.0
 10
4.5713273466
 20
5.3470470882
 30
0.0
 10
4.5628772413
 20
5.3609044043
 30
0.0
 10
4.5503020018
 20
5.3817510029
 30
0.0
 10
4.5378535406
 20
5.4026736704
 30
0.0
 10
4.52965861
 20
5.4166835477
 30
0.0
 10
4.5255871512
 20
5.423703545
 30
0.0
  0
SPLINE
  5
2BE
100
AcDbEntity
  8
0
100
AcDbSpline
 62
7
  6
CONTINUOUS
 70
0
 71
3
 72
11
 73
7
 74
0
 42
0.0000001
 43
0.0000001
 44
0.0000000001
 40
0.0
 40
0.0
 40
0.0
 40
0.0
 40
0.250001253
 40
0.5000008536
 40
0.7500011321
 40
1.0
 40
1.0
 40
1.0
 40
1.0
 10
4.5107168827
 20
5.449608483
 30
0.0
 10
4.5067738304
 20
5.4565482821
 30
0.0
 10
4.4989368327
 20
5.4704557837
 30
0.0
 10
4.4873201854
 20
5.4913945537
 30
0.0
 10
4.4758112633
 20
5.5123925768
 30
0.0
 10
4.4681911294
 20
5.5264198669
 30
0.0
 10
4.464389222
 20
5.5334378977
 30
0.0
  0
SPLINE
  5
2BF
100
AcDbEntity
  8
0
100
AcDbSpline
 62
7
  6
CONTINUOUS
 70
0
 71
3
 72
29
 73
25
 74
0
 42
0.0000001
 43
0.0000001
 44
0.0000000001
 40
0.0
 40
0.0
 40
0.0
 40
0.0
 40
0.0156228596
 40
0.0323698471
 40
0.0502829677
 40
0.0693892373
 40
0.0897040538
 40
0.1112325559
 40
0.1339720407
 40
0.1579124305
 40
0.1830381059
 40
0.2093278438
 40
0.2367563137
 40
0.2652937175
 40
0.3255567867
 40
0.3898177398
 40
0.457730265
 40
0.5289118059
 40
0.6029493689
 40
0.6794046125
 40
0.757818422
 40
0.8377154124
 40
0.9186077523
 40
1.0
 40
1.0
 40
1.0
 40
1.0
 10
4.8232590326
 20
5.1924805194
 30
0.0
 10
4.8227541632
 20
5.1929696502
 30
0.0
 10
4.821666354
 20
5.1939405575
 30
0.0
 10
4.8198780233
 20
5.1953287687
 30
0.0
 10
4.8178806822
 20
5.1966960769
 30
0.0
 10
4.8156776523
 20
5.1980403643
 30
0.0
 10
4.81327235
 20
5.1993595359
 30
0.0
 10
4.8106686519
 20
5.2006515437
 30
0.0
 10
4.807870726
 20
5.2019142492
 30
0.0
 10
4.8048831216
 20
5.2031456475
 30
0.0
 10
4.8017106884
 20
5.2043436607
 30
0.0
 10
4.798358623
 20
5.2055063601
 30
0.0
 10
4.7948324047
 20
5.2066317929
 30
0.0
 10
4.7898146678
 20
5.2081070719
 30
0.0
 10
4.7831459092
 20
5.2098352381
 30
0.0
 10
4.7746881097
 20
5.2116972929
 30
0.0
 10
4.7656909625
 20
5.2133708952
 30
0.0
 10
4.7562137362
 20
5.2148448202
 30
0.0
 10
4.746318777
 20
5.2161091394
 30
0.0
 10
4.7360713284
 20
5.2171553574
 30
0.0
 10
4.7255390007
 20
5.2179764544
 30
0.0
 10
4.714791313
 20
5.2185669035
 30
0.0
 10
4.7038993012
 20
5.2189228047
 30
0.0
 10
4.6965970361
 20
5.2190018993
 30
0.0
 10
4.6929347826
 20
5.2190019549
 30
0.0
  0
SPLINE
  5
2C0
100
AcDbEntity
  8
0
100
AcDbSpline
 62
7
  6
CONTINUOUS
 70
0
 71
3
 72
52
 73
48
 74
0
 42
0.0000001
 43
0.0000001
 44
0.0000000001
 40
0.0
 40
0.0
 40
0.0
 40
0.0
 40
0.0121648992
 40
0.023750623
 40
0.0347645872
 40
0.0452180643
 40
0.0551267226
 40
0.0645109793
 40
0.0733975054
 40
0.0818195417
 40
0.0898181786
 40
0.0974432985
 40
0.104753764
 40
0.111817851
 40
0.1187120561
 40
0.1255193052
 40
0.1323260672
 40
0.1392188305
 40
0.1462805794
 40
0.1535878931
 40
0.1612091487
 40
0.1692033136
 40
0.1776203681
 40
0.1865014995
 40
0.1958800266
 40
0.2057826933
 40
0.2162299791
 40
0.2272376001
 40
0.2388168791
 40
0.2509752661
 40
0.2637174097
 40
0.2770448388
 40
0.3054484386
 40
0.3361601339
 40
0.369124197
 40
0.4042634517
 40
0.4414828618
 40
0.4806721488
 40
0.5217080166
 40
0.5644558963
 40
0.6087713111
 40
0.6545009207
 40
0.7014839887
 40
0.7495532686
 40
0.7985360453
 40
0.8985248021
 40
1.0
 40
1.0
 40
1.0
 40
1.0
 10
4.808684666
 20
5.1307829597
 30
0.0
 10
4.8092420663
 20
5.1310993296
 30
0.0
 10
4.8103199222
 20
5.1317356348
 30
0.0
 10
4.8118607046
 20
5.1327268845
 30
0.0
 10
4.8132844556
 20
5.1337306866
 30
0.0
 10
4.8145897834
 20
5.1347461009
 30
0.0
 10
4.815775473
 20
5.1357721805
 30
0.0
 10
4.8168403288
 20
5.1368080916
 30
0.0
 10
4.817783342
 20
5.1378529067
 30
0.0
 10
4.8186035119
 20
5.1389058029
 30
0.0
 10
4.8192998758
 20
5.139965954
 30
0.0
 10
4.8198715898
 20
5.1410324583
 30
0.0
 10
4.8203176677
 20
5.1421044341
 30
0.0
 10
4.8206373106
 20
5.1431807725
 30
0.0
 10
4.8208297563
 20
5.1442602169
 30
0.0
 10
4.8208944116
 20
5.1453412885
 30
0.0
 10
4.8208311873
 20
5.1464223692
 30
0.0
 10
4.8206401694
 20
5.1475018405
 30
0.0
 10
4.8203219455
 20
5.1485782208
 30
0.0
 10
4.8198772786
 20
5.149650252
 30
0.0
 10
4.8193069649
 20
5.1507168226
 30
0.0
 10
4.8186119911
 20
5.1517770497
 30
0.0
 10
4.8177932017
 20
5.1528300321
 30
0.0
 10
4.8168515575
 20
5.1538749417
 30
0.0
 10
4.8157880598
 20
5.1549109577
 30
0.0
 10
4.8146037163
 20
5.1559371519
 30
0.0
 10
4.8132997196
 20
5.156952691
 30
0.0
 10
4.8118772906
 20
5.1579566262
 30
0.0
 10
4.8103377936
 20
5.1589480304
 30
0.0
 10
4.8086827239
 20
5.1599260049
 30
0.0
 10
4.8069136482
 20
5.1608895819
 30
0.0
 10
4.8043504032
 20
5.162181474
 30
0.0
 10
4.8008670574
 20
5.1637466218
 30
0.0
 10
4.7963479165
 20
5.1655152748
 30
0.0
 10
4.7914221737
 20
5.1672052968
 30
0.0
 10
4.7861090177
 20
5.1688099951
 30
0.0
 10
4.7804290601
 20
5.1703229913
 30
0.0
 10
4.7744045132
 20
5.1717382582
 30
0.0
 10
4.768058984
 20
5.173050147
 30
0.0
 10
4.761417386
 20
5.1742534191
 30
0.0
 10
4.7545058349
 20
5.1753432671
 30
0.0
 10
4.7473515365
 20
5.1763153548
 30
0.0
 10
4.7399826786
 20
5.1771657998
 30
0.0
 10
4.732428276
 20
5.1778912425
 30
0.0
 10
4.7220774323
 20
5.17869331
 30
0.0
 10
4.7088963672
 20
5.1793601737
 30
0.0
 10
4.6982811474
 20
5.1795373956
 30
0.0
 10
4.692934782
 20
5.1795373956
 30
0.0
  0
SPLINE
  5
2C1
100
AcDbEntity
  8
0
100
AcDbSpline
 62
7
  6
CONTINUOUS
 70
0
 71
3
 72
23
 73
19
 74
0
 42
0.0000001
 43
0.0000001
 44
0.0000000001
 40
0.0
 40
0.0
 40
0.0
 40
0.0
 40
0.0390278471
 40
0.0805804067
 40
0.12492456
 40
0.1722707451
 40
0.222780202
 40
0.2765631458
 40
0.3336946366
 40
0.3942245837
 40
0.4581809712
 40
0.5255671069
 40
0.5963694114
 40
0.6705564382
 40
0.7480828394
 40
0.8288830139
 40
0.9128820216
 40
1.0
 40
1.0
 40
1.0
 40
1.0
 10
4.3821591941
 20
4.7644447451
 30
0.0
 10
4.3831373331
 20
4.7660828771
 30
0.0
 10
4.3853429722
 20
4.7693563363
 30
0.0
 10
4.3892201801
 20
4.7740842804
 30
0.0
 10
4.3937563179
 20
4.7787682347
 30
0.0
 10
4.398945515
 20
4.7834019721
 30
0.0
 10
4.4047820456
 20
4.7879795691
 30
0.0
 10
4.4112574458
 20
4.7924963818
 30
0.0
 10
4.4183630139
 20
4.7969470498
 30
0.0
 10
4.4260897495
 20
4.8013258452
 30
0.0
 10
4.4344280755
 20
4.8056266978
 30
0.0
 10
4.4433672194
 20
4.8098440252
 30
0.0
 10
4.4528954825
 20
4.8139717389
 30
0.0
 10
4.4629997834
 20
4.8180047458
 30
0.0
 10
4.4736658741
 20
4.8219374696
 30
0.0
 10
4.4848781513
 20
4.8257649281
 30
0.0
 10
4.4966202176
 20
4.8294817705
 30
0.0
 10
4.5046469098
 20
4.8318401556
 30
0.0
 10
4.5087443483
 20
4.8330017286
 30
0.0
  0
SPLINE
  5
2C2
100
AcDbEntity
  8
0
100
AcDbSpline
 62
7
  6
CONTINUOUS
 70
0
 71
3
 72
46
 73
42
 74
0
 42
0.0000001
 43
0.0000001
 44
0.0000000001
 40
0.0
 40
0.0
 40
0.0
 40
0.0
 40
0.0743381119
 40
0.111672531
 40
0.1491751699
 40
0.1868649219
 40
0.2247352511
 40
0.2437320275
 40
0.2627650005
 40
0.3009149177
 40
0.3391245331
 40
0.3773292451
 40
0.4154658514
 40
0.4534693235
 40
0.4912674774
 40
0.5287763759
 40
0.5658918401
 40
0.6024788967
 40
0.63835948
 40
0.6733166952
 40
0.7070960767
 40
0.7234739257
 40
0.7394821551
 40
0.7551031278
 40
0.7703212748
 40
0.799502946
 40
0.8269742173
 40
0.8527552308
 40
0.8650369432
 40
0.8769277221
 40
0.8884370268
 40
0.8995708357
 40
0.920720096
 40
0.9403400438
 40
0.9583228772
 40
0.9666471021
 40
0.9744877578
 40
0.9818029048
 40
0.9885416864
 40
0.9946363257
 40
1.0
 40
1.0
 40
1.0
 40
1.0
 10
4.5154347826
 20
3.374361631
 30
0.0
 10
4.5154674518
 20
3.3534003902
 30
0.0
 10
4.5155140034
 20
3.3219118806
 30
0.0
 10
4.5156615093
 20
3.2798488976
 30
0.0
 10
4.5158369183
 20
3.2481199428
 30
0.0
 10
4.516097796
 20
3.2162404467
 30
0.0
 10
4.5163986057
 20
3.1895797006
 30
0.0
 10
4.5166993974
 20
3.1681801042
 30
0.0
 10
4.5170452411
 20
3.1467023427
 30
0.0
 10
4.5175648446
 20
3.1198092497
 30
0.0
 10
4.5183334701
 20
3.0875143886
 30
0.0
 10
4.519231158
 20
3.0552266314
 30
0.0
 10
4.5202461183
 20
3.023000511
 30
0.0
 10
4.5213722547
 20
2.9908927944
 30
0.0
 10
4.5226063678
 20
2.9589661728
 30
0.0
 10
4.5239472279
 20
2.9272944666
 30
0.0
 10
4.525394483
 20
2.8959692932
 30
0.0
 10
4.5269456627
 20
2.8651087949
 30
0.0
 10
4.5285980797
 20
2.834862996
 30
0.0
 10
4.530344614
 20
2.805415511
 30
0.0
 10
4.5318848663
 20
2.7814649989
 30
0.0
 10
4.5331434541
 20
2.7628506821
 30
0.0
 10
4.5340845998
 20
2.7493467849
 30
0.0
 10
4.5350261598
 20
2.7361707383
 30
0.0
 10
4.536254425
 20
2.7192911813
 30
0.0
 10
4.537753232
 20
2.699081041
 30
0.0
 10
4.5394819436
 20
2.6759013491
 30
0.0
 10
4.5408301792
 20
2.657471829
 30
0.0
 10
4.5418271246
 20
2.6434216587
 30
0.0
 10
4.5425234717
 20
2.6333845136
 30
0.0
 10
4.543182202
 20
2.6236692242
 30
0.0
 10
4.5439958614
 20
2.611347833
 30
0.0
 10
4.5449159077
 20
2.5967415255
 30
0.0
 10
4.5458690979
 20
2.5802024481
 30
0.0
 10
4.5465295519
 20
2.567269046
 30
0.0
 10
4.546964164
 20
2.5576501379
 30
0.0
 10
4.5472358432
 20
2.5510349821
 30
0.0
 10
4.547459933
 20
2.5448653651
 30
0.0
 10
4.5476341902
 20
2.539186665
 30
0.0
 10
4.5477547516
 20
2.5340569658
 30
0.0
 10
4.5477999572
 20
2.5308262664
 30
0.0
 10
4.5478097826
 20
2.5293138924
 30
0.0
  0
SPLINE
  5
2C3
100
AcDbEntity
  8
0
100
AcDbSpline
 62
7
  6
CONTINUOUS
 70
0
 71
3
 72
17
 73
13
 74
0
 42
0.0000001
 43
0.0000001
 44
0.0000000001
 40
0.0
 40
0.0
 40
0.0
 40
0.0
 40
0.1264341994
 40
0.1896402292
 40
0.2528215402
 40
0.3790460422
 40
0.5050009185
 40
0.6304896853
 40
0.7551954669
 40
0.8171167229
 40
0.8786342527
 40
1.0
 40
1.0
 40
1.0
 40
1.0
 10
5.1857898399
 20
5.2524627495
 30
0.0
 10
5.1920621602
 20
5.263326727
 30
0.0
 10
5.2009258045
 20
5.279945275
 30
0.0
 10
5.2116006516
 20
5.3026489308
 30
0.0
 10
5.221497768
 20
5.3256805586
 30
0.0
 10
5.2323933321
 20
5.3550393033
 30
0.0
 10
5.2430404331
 20
5.3909958803
 30
0.0
 10
5.2512009214
 20
5.4274425951
 30
0.0
 10
5.2559092953
 20
5.4580763455
 30
0.0
 10
5.2584037137
 20
5.4825745602
 30
0.0
 10
5.2600429545
 20
5.5068116767
 30
0.0
 10
5.2603496326
 20
5.5249727929
 30
0.0
 10
5.2601415103
 20
5.5370127495
 30
0.0
  0
SPLINE
  5
2C4
100
AcDbEntity
  8
0
100
AcDbSpline
 62
7
  6
CONTINUOUS
 70
0
 71
3
 72
65
 73
61
 74
0
 42
0.0000001
 43
0.0000001
 44
0.0000000001
 40
0.0
 40
0.0
 40
0.0
 40
0.0
 40
0.0030325035
 40
0.0061010163
 40
0.0092272394
 40
0.0124317481
 40
0.0191456172
 40
0.0263782754
 40
0.0342293686
 40
0.042771783
 40
0.0520565131
 40
0.0621169423
 40
0.0729727762
 40
0.0846330354
 40
0.0970979835
 40
0.1103609727
 40
0.1244096459
 40
0.1392266113
 40
0.154790397
 40
0.1710759298
 40
0.1880548138
 40
0.2056959035
 40
0.2239654849
 40
0.2428274986
 40
0.2622439099
 40
0.2821747569
 40
0.3234104869
 40
0.3661861755
 40
0.4101330033
 40
0.4548682508
 40
0.5
 40
0.5451317492
 40
0.5898669967
 40
0.6338138245
 40
0.6765895131
 40
0.7178252431
 40
0.7377560901
 40
0.7571725014
 40
0.7760345151
 40
0.7943040965
 40
0.8119451862
 40
0.8289240702
 40
0.845209603
 40
0.8607733887
 40
0.8755903541
 40
0.8896390273
 40
0.9029020165
 40
0.9153669646
 40
0.9270272238
 40
0.9378830577
 40
0.9479434869
 40
0.957228217
 40
0.9657706314
 40
0.9736217246
 40
0.9808543828
 40
0.9875682519
 40
0.9907727606
 40
0.9938989837
 40
0.9969674965
 40
1.0
 40
1.0
 40
1.0
 40
1.0
 10
4.861669418
 20
4.0811440291
 30
0.0
 10
4.8616508886
 20
4.0815108826
 30
0.0
 10
4.8615798518
 20
4.0822476637
 30
0.0
 10
4.8613731978
 20
4.0833474677
 30
0.0
 10
4.8610662151
 20
4.0844452941
 30
0.0
 10
4.8605152545
 20
4.0859278456
 30
0.0
 10
4.859559961
 20
4.0877821434
 30
0.0
 10
4.8580371465
 20
4.0899472517
 30
0.0
 10
4.8561260085
 20
4.0920847944
 30
0.0
 10
4.8538319123
 20
4.0941913234
 30
0.0
 10
4.8511601038
 20
4.0962635865
 30
0.0
 10
4.8481164996
 20
4.0982977002
 30
0.0
 10
4.8447078001
 20
4.1002895134
 30
0.0
 10
4.8409415995
 20
4.1022346379
 30
0.0
 10
4.836826449
 20
4.1041287049
 30
0.0
 10
4.8323717806
 20
4.1059673285
 30
0.0
 10
4.8275878902
 20
4.1077461705
 30
0.0
 10
4.8224859274
 20
4.1094610617
 30
0.0
 10
4.8170778217
 20
4.1111079224
 30
0.0
 10
4.8113762575
 20
4.112682817
 30
0.0
 10
4.8053946497
 20
4.1141820245
 30
0.0
 10
4.7991470875
 20
4.1156019557
 30
0.0
 10
4.7926483036
 20
4.1169392178
 30
0.0
 10
4.7859136453
 20
4.1181906422
 30
0.0
 10
4.7789590046
 20
4.1193532504
 30
0.0
 10
4.7693051963
 20
4.120797561
 30
0.0
 10
4.7568090704
 20
4.122353213
 30
0.0
 10
4.7413760974
 20
4.1238081
 30
0.0
 10
4.7254854744
 20
4.1248574186
 30
0.0
 10
4.7092873804
 20
4.125491098
 30
0.0
 10
4.6929347826
 20
4.1257030083
 30
0.0
 10
4.6765821848
 20
4.125491098
 30
0.0
 10
4.6603840909
 20
4.1248574186
 30
0.0
 10
4.6444934678
 20
4.1238081
 30
0.0
 10
4.6290604948
 20
4.122353213
 30
0.0
 10
4.6165643689
 20
4.120797561
 30
0.0
 10
4.6069105607
 20
4.1193532504
 30
0.0
 10
4.5999559199
 20
4.1181906422
 30
0.0
 10
4.5932212616
 20
4.1169392178
 30
0.0
 10
4.5867224777
 20
4.1156019557
 30
0.0
 10
4.5804749156
 20
4.1141820245
 30
0.0
 10
4.5744933077
 20
4.112682817
 30
0.0
 10
4.5687917435
 20
4.1111079224
 30
0.0
 10
4.5633836378
 20
4.1094610617
 30
0.0
 10
4.558281675
 20
4.1077461705
 30
0.0
 10
4.5534977846
 20
4.1059673285
 30
0.0
 10
4.5490431162
 20
4.1041287049
 30
0.0
 10
4.5449279657
 20
4.1022346379
 30
0.0
 10
4.5411617651
 20
4.1002895134
 30
0.0
 10
4.5377530656
 20
4.0982977002
 30
0.0
 10
4.5347094614
 20
4.0962635865
 30
0.0
 10
4.532037653
 20
4.0941913234
 30
0.0
 10
4.5297435567
 20
4.0920847944
 30
0.0
 10
4.5278324187
 20
4.0899472517
 30
0.0
 10
4.5263096042
 20
4.0877821434
 30
0.0
 10
4.5253543107
 20
4.0859278456
 30
0.0
 10
4.5248033502
 20
4.0844452941
 30
0.0
 10
4.5244963674
 20
4.0833474677
 30
0.0
 10
4.5242897134
 20
4.0822476637
 30
0.0
 10
4.5242186766
 20
4.0815108826
 30
0.0
 10
4.5242001472
 20
4.0811440291
 30
0.0
  0
SPLINE
  5
2C5
100
AcDbEntity
  8
0
100
AcDbSpline
 62
7
  6
CONTINUOUS
 70
0
 71
3
 72
57
 73
53
 74
0
 42
0.0000001
 43
0.0000001
 44
0.0000000001
 40
0.0
 40
0.0
 40
0.0
 40
0.0
 40
0.0060950647
 40
0.0124206857
 40
0.0191347451
 40
0.0263675998
 40
0.0342189011
 40
0.0427616185
 40
0.0520466038
 40
0.0621073097
 40
0.072963522
 40
0.0846240623
 40
0.0970894149
 40
0.1103528041
 40
0.1244018604
 40
0.1392192859
 40
0.1547835122
 40
0.1710695367
 40
0.188048901
 40
0.2056905195
 40
0.2428214654
 40
0.28216841
 40
0.3234053632
 40
0.3661822981
 40
0.4101303982
 40
0.4548669408
 40
0.5
 40
0.5451330592
 40
0.5898696018
 40
0.6338177019
 40
0.6765946368
 40
0.71783159
 40
0.7571785346
 40
0.7943094805
 40
0.811951099
 40
0.8289304633
 40
0.8452164878
 40
0.8607807141
 40
0.8755981396
 40
0.8896471959
 40
0.9029105851
 40
0.9153759377
 40
0.927036478
 40
0.9378926903
 40
0.9479533962
 40
0.9572383815
 40
0.9657810989
 40
0.9736324002
 40
0.9808652549
 40
0.9875793143
 40
0.9939049353
 40
1.0
 40
1.0
 40
1.0
 40
1.0
 10
4.8079243101
 20
5.145761912
 30
0.0
 10
4.8078989268
 20
5.1462643827
 30
0.0
 10
4.8077521519
 20
5.1472856903
 30
0.0
 10
4.8072561046
 20
5.148792561
 30
0.0
 10
4.8064867891
 20
5.1502855466
 30
0.0
 10
4.8054489434
 20
5.1517611906
 30
0.0
 10
4.8041465809
 20
5.1532178549
 30
0.0
 10
4.8025831701
 20
5.1546534121
 30
0.0
 10
4.8007623881
 20
5.1560656212
 30
0.0
 10
4.7986882309
 20
5.1574518432
 30
0.0
 10
4.7963652542
 20
5.1588092031
 30
0.0
 10
4.7937986673
 20
5.1601347927
 30
0.0
 10
4.7909942621
 20
5.1614255489
 30
0.0
 10
4.7879584871
 20
5.1626785371
 30
0.0
 10
4.7846983566
 20
5.1638907924
 30
0.0
 10
4.7812214619
 20
5.1650594476
 30
0.0
 10
4.7775359385
 20
5.1661817616
 30
0.0
 10
4.7736504293
 20
5.1672550114
 30
0.0
 10
4.7695740706
 20
5.1682767165
 30
0.0
 10
4.7637982491
 20
5.1695893326
 30
0.0
 10
4.7561702661
 20
5.1710741408
 30
0.0
 10
4.7465702951
 20
5.1725870001
 30
0.0
 10
4.7364639505
 20
5.17384522
 30
0.0
 10
4.725946616
 20
5.1748366791
 30
0.0
 10
4.7151174696
 20
5.1755517787
 30
0.0
 10
4.7040787697
 20
5.175983619
 30
0.0
 10
4.6929347826
 20
5.1761280308
 30
0.0
 10
4.6817907955
 20
5.175983619
 30
0.0
 10
4.6707520956
 20
5.1755517787
 30
0.0
 10
4.6599229492
 20
5.1748366791
 30
0.0
 10
4.6494056147
 20
5.17384522
 30
0.0
 10
4.6392992701
 20
5.1725870001
 30
0.0
 10
4.6296992991
 20
5.1710741408
 30
0.0
 10
4.6220713161
 20
5.1695893326
 30
0.0
 10
4.6162954947
 20
5.1682767165
 30
0.0
 10
4.612219136
 20
5.1672550114
 30
0.0
 10
4.6083336267
 20
5.1661817616
 30
0.0
 10
4.6046481034
 20
5.1650594476
 30
0.0
 10
4.6011712086
 20
5.1638907924
 30
0.0
 10
4.5979110781
 20
5.1626785371
 30
0.0
 10
4.5948753031
 20
5.1614255489
 30
0.0
 10
4.5920708979
 20
5.1601347927
 30
0.0
 10
4.589504311
 20
5.1588092031
 30
0.0
 10
4.5871813343
 20
5.1574518432
 30
0.0
 10
4.5851071772
 20
5.1560656212
 30
0.0
 10
4.5832863951
 20
5.1546534121
 30
0.0
 10
4.5817229844
 20
5.1532178549
 30
0.0
 10
4.5804206218
 20
5.1517611906
 30
0.0
 10
4.5793827761
 20
5.1502855466
 30
0.0
 10
4.5786134607
 20
5.148792561
 30
0.0
 10
4.5781174133
 20
5.1472856903
 30
0.0
 10
4.5779706384
 20
5.1462643827
 30
0.0
 10
4.5779452552
 20
5.145761912
 30
0.0
  0
SPLINE
  5
2C6
100
AcDbEntity
  8
0
100
AcDbSpline
 62
7
  6
CONTINUOUS
 70
0
 71
3
 72
15
 73
11
 74
0
 42
0.0000001
 43
0.0000001
 44
0.0000000001
 40
0.0
 40
0.0
 40
0.0
 40
0.0
 40
0.1258069795
 40
0.2515699332
 40
0.3772367551
 40
0.5027346677
 40
0.6279585984
 40
0.7527516868
 40
0.8768801867
 40
1.0
 40
1.0
 40
1.0
 40
1.0
 10
5.1857898399
 20
5.2524627495
 30
0.0
 10
5.180519219
 20
5.2433337664
 30
0.0
 10
5.169461464
 20
5.2253726582
 30
0.0
 10
5.1513871323
 20
5.1994223982
 30
0.0
 10
5.1318899768
 20
5.1745549873
 30
0.0
 10
5.1110461996
 20
5.1508653789
 30
0.0
 10
5.088943916
 20
5.1284480556
 30
0.0
 10
5.0656884227
 20
5.1073996589
 30
0.0
 10
5.0414106989
 20
5.0878203701
 30
0.0
 10
5.0245589006
 20
5.0757476986
 30
0.0
 10
5.0160039575
 20
5.0699827533
 30
0.0
  0
SPLINE
  5
2C7
100
AcDbEntity
  8
0
100
AcDbSpline
 62
7
  6
CONTINUOUS
 70
0
 71
3
 72
17
 73
13
 74
0
 42
0.0000001
 43
0.0000001
 44
0.0000000001
 40
0.0
 40
0.0
 40
0.0
 40
0.0
 40
0.126434178
 40
0.1896401973
 40
0.2528215048
 40
0.379046002
 40
0.5050008943
 40
0.6304896789
 40
0.7551954707
 40
0.8171167309
 40
0.8786342599
 40
1.0
 40
1.0
 40
1.0
 40
1.0
 10
5.1857898399
 20
5.8215627495
 30
0.0
 10
5.1920621592
 20
5.8106987739
 30
0.0
 10
5.200925802
 20
5.7940802287
 30
0.0
 10
5.211600648
 20
5.7713765763
 30
0.0
 10
5.221497764
 20
5.7483449504
 30
0.0
 10
5.2323933292
 20
5.7189862052
 30
0.0
 10
5.2430404313
 20
5.6830296256
 30
0.0
 10
5.2512009209
 20
5.6465829066
 30
0.0
 10
5.2559092955
 20
5.6159491531
 30
0.0
 10
5.2584037137
 20
5.5914509369
 30
0.0
 10
5.2600429547
 20
5.5672138208
 30
0.0
 10
5.2603496326
 20
5.5490527054
 30
0.0
 10
5.2601415103
 20
5.5370127495
 30
0.0
  0
SPLINE
  5
2C8
100
AcDbEntity
  8
0
100
AcDbSpline
 62
7
  6
CONTINUOUS
 70
0
 71
3
 72
17
 73
13
 74
0
 42
0.0000001
 43
0.0000001
 44
0.0000000001
 40
0.0
 40
0.0
 40
0.0
 40
0.0
 40
0.1213657466
 40
0.1828832767
 40
0.2448045339
 40
0.3695103203
 40
0.4949990952
 40
0.6209539793
 40
0.7471784775
 40
0.810359786
 40
0.8735658101
 40
1.0
 40
1.0
 40
1.0
 40
1.0
 10
4.9765381464
 20
6.0282281849
 30
0.0
 10
4.9870691158
 20
6.0223884458
 30
0.0
 10
5.0026437647
 20
6.0130422967
 30
0.0
 10
5.022814103
 20
5.9995041142
 30
0.0
 10
5.0427829707
 20
5.9850947769
 30
0.0
 10
5.0669583908
 20
5.9657003293
 30
0.0
 10
5.0944419289
 20
5.9404097801
 30
0.0
 10
5.1202576882
 20
5.9132108307
 30
0.0
 10
5.1402353246
 20
5.8890956226
 30
0.0
 10
5.1552327403
 20
5.8690086554
 30
0.0
 10
5.1695572583
 20
5.84841214
 30
0.0
 10
5.17951752
 20
5.8324267262
 30
0.0
 10
5.1857898399
 20
5.8215627495
 30
0.0
  0
SPLINE
  5
2C9
100
AcDbEntity
  8
0
100
AcDbSpline
 62
7
  6
CONTINUOUS
 70
0
 71
3
 72
17
 73
13
 74
0
 42
0.0000001
 43
0.0000001
 44
0.0000000001
 40
0.0
 40
0.0
 40
0.0
 40
0.0
 40
0.1264341798
 40
0.1896401994
 40
0.2528215068
 40
0.3790460031
 40
0.5050008934
 40
0.6304896759
 40
0.7551954667
 40
0.8171167254
 40
0.8786342553
 40
1.0
 40
1.0
 40
1.0
 40
1.0
 10
4.6929347826
 20
6.1061127495
 30
0.0
 10
4.7054794213
 20
6.1061127495
 30
0.0
 10
4.7243033252
 20
6.1054796168
 30
0.0
 10
4.7493026882
 20
6.1033724783
 30
0.0
 10
4.7741972192
 20
6.1004278193
 30
0.0
 10
4.8050704206
 20
6.0951842829
 30
0.0
 10
4.8415332826
 20
6.0864266542
 30
0.0
 10
4.8771773115
 20
6.0752704862
 30
0.0
 10
4.9060611072
 20
6.0640311816
 30
0.0
 10
4.9285243937
 20
6.0539423033
 30
0.0
 10
4.9503339728
 20
6.0432433693
 30
0.0
 10
4.9662152995
 20
6.0344284023
 30
0.0
 10
4.9765381464
 20
6.0282281849
 30
0.0
  0
SPLINE
  5
2CA
100
AcDbEntity
  8
0
100
AcDbSpline
 62
7
  6
CONTINUOUS
 70
0
 71
3
 72
17
 73
13
 74
0
 42
0.0000001
 43
0.0000001
 44
0.0000000001
 40
0.0
 40
0.0
 40
0.0
 40
0.0
 40
0.1213658069
 40
0.1828833597
 40
0.2448046193
 40
0.3695103606
 40
0.4949990356
 40
0.6209537857
 40
0.7471782381
 40
0.8103595457
 40
0.873565627
 40
1.0
 40
1.0
 40
1.0
 40
1.0
 10
4.4093314188
 20
6.0282281849
 30
0.0
 10
4.419654271
 20
6.0344284054
 30
0.0
 10
4.4355356058
 20
6.0432433754
 30
0.0
 10
4.4573451923
 20
6.0539423136
 30
0.0
 10
4.4798084771
 20
6.0640311895
 30
0.0
 10
4.5086922586
 20
6.0752704876
 30
0.0
 10
4.5443362592
 20
6.0864266471
 30
0.0
 10
4.5807990925
 20
6.0951842711
 30
0.0
 10
4.6116722751
 20
6.1004278086
 30
0.0
 10
4.6365668076
 20
6.1033724713
 30
0.0
 10
4.6615661955
 20
6.1054796155
 30
0.0
 10
4.6803901247
 20
6.1061127495
 30
0.0
 10
4.6929347826
 20
6.1061127495
 30
0.0
  0
SPLINE
  5
2CB
100
AcDbEntity
  8
0
100
AcDbSpline
 62
7
  6
CONTINUOUS
 70
0
 71
3
 72
17
 73
13
 74
0
 42
0.0000001
 43
0.0000001
 44
0.0000000001
 40
0.0
 40
0.0
 40
0.0
 40
0.0
 40
0.1264341867
 40
0.1896402097
 40
0.2528215182
 40
0.3790460164
 40
0.5050009018
 40
0.6304896784
 40
0.7551954659
 40
0.8171167235
 40
0.8786342536
 40
1.0
 40
1.0
 40
1.0
 40
1.0
 10
4.2000797253
 20
5.8215627495
 30
0.0
 10
4.206352045
 20
5.8324267259
 30
0.0
 10
4.2163123066
 20
5.8484121394
 30
0.0
 10
4.2306368242
 20
5.8690086544
 30
0.0
 10
4.2456342398
 20
5.8890956216
 30
0.0
 10
4.2656118762
 20
5.9132108298
 30
0.0
 10
4.2914276357
 20
5.9404097795
 30
0.0
 10
4.3189111741
 20
5.965700329
 30
0.0
 10
4.3430865944
 20
5.9850947768
 30
0.0
 10
4.3630554622
 20
5.9995041142
 30
0.0
 10
4.3832258005
 20
6.0130422967
 30
0.0
 10
4.3988004494
 20
6.0223884458
 30
0.0
 10
4.4093314188
 20
6.0282281849
 30
0.0
  0
SPLINE
  5
2CC
100
AcDbEntity
  8
0
100
AcDbSpline
 62
7
  6
CONTINUOUS
 70
0
 71
3
 72
17
 73
13
 74
0
 42
0.0000001
 43
0.0000001
 44
0.0000000001
 40
0.0
 40
0.0
 40
0.0
 40
0.0
 40
0.1213657442
 40
0.1828832741
 40
0.2448045331
 40
0.369510325
 40
0.4949991096
 40
0.6209540016
 40
0.7471784971
 40
0.8103598039
 40
0.8735658223
 40
1.0
 40
1.0
 40
1.0
 40
1.0
 10
4.1257280549
 20
5.5370127495
 30
0.0
 10
4.1255199326
 20
5.5490527058
 30
0.0
 10
4.1258266106
 20
5.5672138217
 30
0.0
 10
4.1274658516
 20
5.5914509382
 30
0.0
 10
4.1299602699
 20
5.6159491543
 30
0.0
 10
4.1346686445
 20
5.6465829077
 30
0.0
 10
4.1428291342
 20
5.6830296267
 30
0.0
 10
4.1534762363
 20
5.7189862061
 30
0.0
 10
4.1643718014
 20
5.748344951
 30
0.0
 10
4.1742689174
 20
5.7713765766
 30
0.0
 10
4.1849437633
 20
5.7940802288
 30
0.0
 10
4.1938074061
 20
5.8106987739
 30
0.0
 10
4.2000797253
 20
5.8215627495
 30
0.0
  0
SPLINE
  5
2CD
100
AcDbEntity
  8
0
100
AcDbSpline
 62
7
  6
CONTINUOUS
 70
0
 71
3
 72
52
 73
48
 74
0
 42
0.0000001
 43
0.0000001
 44
0.0000000001
 40
0.0
 40
0.0
 40
0.0
 40
0.0
 40
0.1014751982
 40
0.2014639551
 40
0.2504467319
 40
0.2985160118
 40
0.3454990798
 40
0.3912286893
 40
0.4355441041
 40
0.4782919838
 40
0.5193278515
 40
0.5585171384
 40
0.5957365484
 40
0.630875803
 40
0.6638398661
 40
0.6945515612
 40
0.7229551609
 40
0.7362825901
 40
0.7490247337
 40
0.7611831206
 40
0.7727623996
 40
0.7837700205
 40
0.7942173063
 40
0.804119973
 40
0.8134985
 40
0.8223796314
 40
0.8307966859
 40
0.8387908508
 40
0.8464121064
 40
0.8537194201
 40
0.8607811689
 40
0.8676739323
 40
0.8744806943
 40
0.8812879434
 40
0.8881821486
 40
0.8952462356
 40
0.9025567011
 40
0.910181821
 40
0.918180458
 40
0.9266024944
 40
0.9354890205
 40
0.9448732772
 40
0.9547819356
 40
0.9652354127
 40
0.976249377
 40
0.9878351008
 40
1.0
 40
1.0
 40
1.0
 40
1.0
 10
4.692934782
 20
5.1795373956
 30
0.0
 10
4.6875884165
 20
5.1795373956
 30
0.0
 10
4.6769731969
 20
5.1793601737
 30
0.0
 10
4.6637921318
 20
5.1786933099
 30
0.0
 10
4.6534412882
 20
5.1778912424
 30
0.0
 10
4.6458868857
 20
5.1771657997
 30
0.0
 10
4.6385180278
 20
5.1763153547
 30
0.0
 10
4.6313637295
 20
5.1753432669
 30
0.0
 10
4.6244521784
 20
5.1742534189
 30
0.0
 10
4.6178105805
 20
5.1730501469
 30
0.0
 10
4.6114650514
 20
5.1717382581
 30
0.0
 10
4.6054405045
 20
5.1703229911
 30
0.0
 10
4.599760547
 20
5.1688099949
 30
0.0
 10
4.5944473911
 20
5.1672052966
 30
0.0
 10
4.5895216483
 20
5.1655152747
 30
0.0
 10
4.5850025075
 20
5.1637466217
 30
0.0
 10
4.5815191618
 20
5.1621814739
 30
0.0
 10
4.5789559168
 20
5.1608895818
 30
0.0
 10
4.5771868411
 20
5.1599260048
 30
0.0
 10
4.5755317714
 20
5.1589480303
 30
0.0
 10
4.5739922744
 20
5.1579566261
 30
0.0
 10
4.5725698455
 20
5.1569526909
 30
0.0
 10
4.5712658488
 20
5.1559371517
 30
0.0
 10
4.5700815053
 20
5.1549109576
 30
0.0
 10
4.5690180076
 20
5.1538749416
 30
0.0
 10
4.5680763634
 20
5.1528300319
 30
0.0
 10
4.567257574
 20
5.1517770496
 30
0.0
 10
4.5665626002
 20
5.1507168225
 30
0.0
 10
4.5659922866
 20
5.1496502519
 30
0.0
 10
4.5655476197
 20
5.1485782207
 30
0.0
 10
4.5652293958
 20
5.1475018404
 30
0.0
 10
4.5650383779
 20
5.1464223691
 30
0.0
 10
4.5649751536
 20
5.1453412884
 30
0.0
 10
4.5650398089
 20
5.1442602168
 30
0.0
 10
4.5652322547
 20
5.1431807724
 30
0.0
 10
4.5655518975
 20
5.1421044341
 30
0.0
 10
4.5659979755
 20
5.1410324582
 30
0.0
 10
4.5665696894
 20
5.139965954
 30
0.0
 10
4.5672660533
 20
5.1389058029
 30
0.0
 10
4.5680862233
 20
5.1378529066
 30
0.0
 10
4.5690292364
 20
5.1368080916
 30
0.0
 10
4.5700940923
 20
5.1357721805
 30
0.0
 10
4.5712797818
 20
5.1347461009
 30
0.0
 10
4.5725851097
 20
5.1337306866
 30
0.0
 10
4.5740088607
 20
5.1327268845
 30
0.0
 10
4.575549643
 20
5.1317356348
 30
0.0
 10
4.5766274989
 20
5.1310993296
 30
0.0
 10
4.5771848992
 20
5.1307829597
 30
0.0
  0
SPLINE
  5
2CE
100
AcDbEntity
  8
0
100
AcDbSpline
 62
7
  6
CONTINUOUS
 70
0
 71
3
 72
29
 73
25
 74
0
 42
0.0000001
 43
0.0000001
 44
0.0000000001
 40
0.0
 40
0.0
 40
0.0
 40
0.0
 40
0.0817746746
 40
0.1629174509
 40
0.2429499829
 40
0.3214026822
 40
0.3978184673
 40
0.4717567496
 40
0.542797519
 40
0.6105457287
 40
0.6746361199
 40
0.734738785
 40
0.763204581
 40
0.790569626
 40
0.816805714
 40
0.8418891549
 40
0.8658000515
 40
0.8885241492
 40
0.9100523388
 40
0.9303828847
 40
0.9495213721
 40
0.967483536
 40
0.9842959945
 40
1.0
 40
1.0
 40
1.0
 40
1.0
 10
4.6896233368
 20
5.2189911152
 30
0.0
 10
4.6860342113
 20
5.2189676375
 30
0.0
 10
4.6788839532
 20
5.2188447267
 30
0.0
 10
4.668227725
 20
5.2184323787
 30
0.0
 10
4.6577285725
 20
5.2177949762
 30
0.0
 10
4.6474533106
 20
5.2169366543
 30
0.0
 10
4.6374672261
 20
5.215862949
 30
0.0
 10
4.6278337485
 20
5.2145808011
 30
0.0
 10
4.6186140245
 20
5.213098499
 30
0.0
 10
4.6098664377
 20
5.211425652
 30
0.0
 10
4.6016464612
 20
5.209573056
 30
0.0
 10
4.5951667318
 20
5.207859914
 30
0.0
 10
4.5902915263
 20
5.2064008813
 30
0.0
 10
4.5868649738
 20
5.2052891839
 30
0.0
 10
4.5836071129
 20
5.2041419402
 30
0.0
 10
4.5805230664
 20
5.2029610239
 30
0.0
 10
4.5776177021
 20
5.2017482422
 30
0.0
 10
4.5748955542
 20
5.2005055891
 30
0.0
 10
4.5723608926
 20
5.1992349354
 30
0.0
 10
4.5700176141
 20
5.1979383355
 30
0.0
 10
4.5678693701
 20
5.1966176938
 30
0.0
 10
4.5659193556
 20
5.1952750285
 30
0.0
 10
4.5641707149
 20
5.1939123101
 30
0.0
 10
4.5631055759
 20
5.1929601255
 30
0.0
 10
4.5626105286
 20
5.1924805197
 30
0.0
  0
SPLINE
  5
2CF
100
AcDbEntity
  8
0
100
AcDbSpline
 62
7
  6
CONTINUOUS
 70
0
 71
3
 72
11
 73
7
 74
0
 42
0.0000001
 43
0.0000001
 44
0.0000000001
 40
0.0
 40
0.0
 40
0.0
 40
0.0
 40
0.2576761651
 40
0.5084360419
 40
0.7549504612
 40
1.0
 40
1.0
 40
1.0
 40
1.0
 10
5.0037103696
 20
4.7644447086
 30
0.0
 10
5.0041873699
 20
4.7632401929
 30
0.0
 10
5.0050138593
 20
4.7608157536
 30
0.0
 10
5.005857432
 20
4.7571077371
 30
0.0
 10
5.0062848693
 20
4.7533927256
 30
0.0
 10
5.0062927054
 20
4.7509152801
 30
0.0
 10
5.0062284316
 20
4.7496849152
 30
0.0
  0
SPLINE
  5
2D0
100
AcDbEntity
  8
0
100
AcDbSpline
 62
7
  6
CONTINUOUS
 70
0
 71
3
 72
17
 73
13
 74
0
 42
0.0000001
 43
0.0000001
 44
0.0000000001
 40
0.0
 40
0.0
 40
0.0
 40
0.0
 40
0.1264341903
 40
0.1896402151
 40
0.2528215241
 40
0.3790460228
 40
0.5050009063
 40
0.6304896807
 40
0.7551954667
 40
0.8171167238
 40
0.8786342537
 40
1.0
 40
1.0
 40
1.0
 40
1.0
 10
4.2000797253
 20
5.2524627495
 30
0.0
 10
4.1938074054
 20
5.2633267262
 30
0.0
 10
4.1849437618
 20
5.2799452729
 30
0.0
 10
4.1742689152
 20
5.3026489272
 30
0.0
 10
4.1643717991
 20
5.325680554
 30
0.0
 10
4.1534762345
 20
5.3550392987
 30
0.0
 10
4.1428291331
 20
5.3909958768
 30
0.0
 10
4.1346686441
 20
5.4274425934
 30
0.0
 10
4.1299602699
 20
5.4580763451
 30
0.0
 10
4.1274658516
 20
5.4825745604
 30
0.0
 10
4.1258266107
 20
5.5068116769
 30
0.0
 10
4.1255199326
 20
5.524972793
 30
0.0
 10
4.1257280549
 20
5.5370127495
 30
0.0
  0
SPLINE
  5
2D1
100
AcDbEntity
  8
0
100
AcDbSpline
 62
7
  6
CONTINUOUS
 70
0
 71
3
 72
11
 73
7
 74
0
 42
0.0000001
 43
0.0000001
 44
0.0000000001
 40
0.0
 40
0.0
 40
0.0
 40
0.0
 40
0.2525479401
 40
0.5040566905
 40
0.7535932777
 40
1.0
 40
1.0
 40
1.0
 40
1.0
 10
4.6905490508
 20
5.3354435159
 30
0.0
 10
4.6875877427
 20
5.3354670968
 30
0.0
 10
4.6816775841
 20
5.3356095474
 30
0.0
 10
4.6728542175
 20
5.3361313507
 30
0.0
 10
4.6641307579
 20
5.3370072349
 30
0.0
 10
4.658377777
 20
5.337885999
 30
0.0
 10
4.6555382823
 20
5.33842064
 30
0.0
  0
SPLINE
  5
2D2
100
AcDbEntity
  8
0
100
AcDbSpline
 62
7
  6
CONTINUOUS
 70
0
 71
3
 72
13
 73
9
 74
0
 42
0.0000001
 43
0.0000001
 44
0.0000000001
 40
0.0
 40
0.0
 40
0.0
 40
0.0
 40
0.1155995461
 40
0.2321862033
 40
0.3506853876
 40
0.4719765939
 40
0.7259527124
 40
1.0
 40
1.0
 40
1.0
 40
1.0
 10
4.8109347826
 20
4.0352450568
 30
0.0
 10
4.8109347826
 20
4.0349774874
 30
0.0
 10
4.8109090665
 20
4.0344397173
 30
0.0
 10
4.8107936645
 20
4.0336351249
 30
0.0
 10
4.8106015285
 20
4.0328317354
 30
0.0
 10
4.8102378662
 20
4.031746878
 30
0.0
 10
4.8095790275
 20
4.0303885221
 30
0.0
 10
4.808888351
 20
4.0293752612
 30
0.0
 10
4.8085007147
 20
4.0288731703
 30
0.0
  0
SPLINE
  5
2D3
100
AcDbEntity
  8
0
100
AcDbSpline
 62
7
  6
CONTINUOUS
 70
0
 71
3
 72
31
 73
27
 74
0
 42
0.0000001
 43
0.0000001
 44
0.0000000001
 40
0.0
 40
0.0
 40
0.0
 40
0.0
 40
0.1041929361
 40
0.2042728105
 40
0.2996995183
 40
0.3900231652
 40
0.4748620223
 40
0.5539064518
 40
0.6269351882
 40
0.6938034982
 40
0.7544338937
 40
0.8088018105
 40
0.8336389926
 40
0.8569102681
 40
0.8786145737
 40
0.8987402602
 40
0.9172762722
 40
0.9342062293
 40
0.9494924599
 40
0.9630994193
 40
0.9749862876
 40
0.9850935251
 40
0.9894747324
 40
0.9934109183
 40
0.9969111431
 40
1.0
 40
1.0
 40
1.0
 40
1.0
 10
4.6569395702
 20
5.2949427684
 30
0.0
 10
4.6555673391
 20
5.2955257159
 30
0.0
 10
4.652864126
 20
5.296638294
 30
0.0
 10
4.6488728553
 20
5.2982071997
 30
0.0
 10
4.6450535501
 20
5.2996704879
 30
0.0
 10
4.6414370265
 20
5.3010534358
 30
0.0
 10
4.6380484609
 20
5.3023761407
 30
0.0
 10
4.6349088815
 20
5.3036554629
 30
0.0
 10
4.6320349958
 20
5.3049036781
 30
0.0
 10
4.6294395838
 20
5.306128779
 30
0.0
 10
4.6271325715
 20
5.3073347367
 30
0.0
 10
4.6254073989
 20
5.3083508145
 30
0.0
 10
4.6241809421
 20
5.3091550093
 30
0.0
 10
4.6233647687
 20
5.3097314162
 30
0.0
 10
4.6226248436
 20
5.3102977717
 30
0.0
 10
4.6219612967
 20
5.3108512357
 30
0.0
 10
4.6213745856
 20
5.3113888825
 30
0.0
 10
4.6208654304
 20
5.3119072564
 30
0.0
 10
4.6204341115
 20
5.3124016827
 30
0.0
 10
4.6200813213
 20
5.3128672248
 30
0.0
 10
4.6198081304
 20
5.3132979257
 30
0.0
 10
4.619639519
 20
5.3136368355
 30
0.0
 10
4.6195493469
 20
5.3138848621
 30
0.0
 10
4.6195058646
 20
5.3140485751
 30
0.0
 10
4.6194834075
 20
5.3141978385
 30
0.0
 10
4.6194827208
 20
5.3142926371
 30
0.0
 10
4.6194867565
 20
5.3143366517
 30
0.0
  0
SPLINE
  5
2D4
100
AcDbEntity
  8
0
100
AcDbSpline
 62
7
  6
CONTINUOUS
 70
0
 71
3
 72
15
 73
11
 74
0
 42
0.0000001
 43
0.0000001
 44
0.0000000001
 40
0.0
 40
0.0
 40
0.0
 40
0.0
 40
0.1350570275
 40
0.2688641375
 40
0.4005619937
 40
0.5293153653
 40
0.6542851606
 40
0.7747138929
 40
0.8900338504
 40
1.0
 40
1.0
 40
1.0
 40
1.0
 10
4.6909019174
 20
5.2897395908
 30
0.0
 10
4.6893470523
 20
5.289769244
 30
0.0
 10
4.6862522497
 20
5.2898627284
 30
0.0
 10
4.6816460562
 20
5.2901099271
 30
0.0
 10
4.6771203101
 20
5.290474869
 30
0.0
 10
4.6727096409
 20
5.2909755703
 30
0.0
 10
4.6684508285
 20
5.2916361704
 30
0.0
 10
4.664382441
 20
5.2924849819
 30
0.0
 10
4.660543793
 20
5.2935513703
 30
0.0
 10
4.6581049212
 20
5.2944474886
 30
0.0
 10
4.6569395702
 20
5.2949427684
 30
0.0
  0
SPLINE
  5
2D5
100
AcDbEntity
  8
0
100
AcDbSpline
 62
7
  6
CONTINUOUS
 70
0
 71
3
 72
15
 73
11
 74
0
 42
0.0000001
 43
0.0000001
 44
0.0000000001
 40
0.0
 40
0.0
 40
0.0
 40
0.0
 40
0.1091811758
 40
0.2241846089
 40
0.3446665766
 40
0.4699240622
 40
0.599064873
 40
0.7311185489
 40
0.8650976909
 40
1.0
 40
1.0
 40
1.0
 40
1.0
 10
4.7299324746
 20
5.2944498605
 30
0.0
 10
4.7286655896
 20
5.2939420908
 30
0.0
 10
4.7260094396
 20
5.2930335089
 30
0.0
 10
4.7218284683
 20
5.2919782469
 30
0.0
 10
4.717390861
 20
5.2911613689
 30
0.0
 10
4.712742994
 20
5.2905501763
 30
0.0
 10
4.7079306162
 20
5.2901148655
 30
0.0
 10
4.7029979241
 20
5.2898326386
 30
0.0
 10
4.6979873534
 20
5.2896896451
 30
0.0
 10
4.6946256077
 20
5.2896849314
 30
0.0
 10
4.6929393579
 20
5.2897066522
 30
0.0
  0
LINE
  5
2D6
100
AcDbEntity
  8
0
100
AcDbLine
 62
7
  6
CONTINUOUS
 10
4.4995727829
 20
5.1896305548
 11
4.5791971724
 21
5.3250968648
  0
SPLINE
  5
2D7
100
AcDbEntity
  8
0
100
AcDbSpline
 62
7
  6
CONTINUOUS
 70
0
 71
3
 72
9
 73
5
 74
0
 42
0.0000001
 43
0.0000001
 44
0.0000000001
 40
0.0
 40
0.0
 40
0.0
 40
0.0
 40
0.2353300446
 40
1.0
 40
1.0
 40
1.0
 40
1.0
 10
4.5791971724
 20
5.3250968648
 30
0.0
 10
4.5791988908
 20
5.3250998026
 30
0.0
 10
4.5792068483
 20
5.3251118911
 30
0.0
 10
4.5792160644
 20
5.3251231397
 30
0.0
 10
4.5792237348
 20
5.3251311061
 30
0.0
  0
LINE
  5
2D8
100
AcDbEntity
  8
0
100
AcDbLine
 62
7
  6
CONTINUOUS
 10
4.6194672488
 20
5.3252173996
 11
4.5792237348
 21
5.3251311061
  0
LINE
  5
2D9
100
AcDbEntity
  8
0
100
AcDbLine
 62
7
  6
CONTINUOUS
 10
4.8066458304
 20
5.3251311062
 11
4.7665670418
 21
5.3252170997
  0
SPLINE
  5
2DA
100
AcDbEntity
  8
0
100
AcDbSpline
 62
7
  6
CONTINUOUS
 70
0
 71
3
 72
9
 73
5
 74
0
 42
0.0000001
 43
0.0000001
 44
0.0000000001
 40
0.0
 40
0.0
 40
0.0
 40
0.0
 40
0.2343974918
 40
1.0
 40
1.0
 40
1.0
 40
1.0
 10
4.8066723928
 20
5.3250968648
 30
0.0
 10
4.8066706794
 20
5.3250997905
 30
0.0
 10
4.8066628662
 20
5.3251119747
 30
0.0
 10
4.8066535199
 20
5.325123137
 30
0.0
 10
4.8066458304
 20
5.3251311062
 30
0.0
  0
LINE
  5
2DB
100
AcDbEntity
  8
0
100
AcDbLine
 62
7
  6
CONTINUOUS
 10
4.8862967844
 20
5.1896305509
 11
4.8066723928
 21
5.3250968648
  0
LINE
  5
2DC
100
AcDbEntity
  8
0
100
AcDbLine
 62
7
  6
CONTINUOUS
 10
5.0904575954
 20
5.5307780558
 11
4.93336911
 21
5.5295547581
  0
LINE
  5
2DD
100
AcDbEntity
  8
0
100
AcDbLine
 62
7
  6
CONTINUOUS
 10
4.8970955906
 20
5.1958652445
 11
4.8195905148
 21
5.3325551526
  0
LINE
  5
2DE
100
AcDbEntity
  8
0
100
AcDbLine
 62
7
  6
CONTINUOUS
 10
5.0883087191
 20
5.5432631371
 11
4.9333691497
 21
5.5444707324
  0
SPLINE
  5
2DF
100
AcDbEntity
  8
0
100
AcDbSpline
 62
7
  6
CONTINUOUS
 70
0
 71
3
 72
9
 73
5
 74
0
 42
0.0000001
 43
0.0000001
 44
0.0000000001
 40
0.0
 40
0.0
 40
0.0
 40
0.0
 40
0.2353183448
 40
1.0
 40
1.0
 40
1.0
 40
1.0
 10
4.8066723928
 20
5.7489286342
 30
0.0
 10
4.8066706745
 20
5.7489256966
 30
0.0
 10
4.8066627188
 20
5.7489136069
 30
0.0
 10
4.806653501
 20
5.7489023593
 30
0.0
 10
4.8066458303
 20
5.7488943929
 30
0.0
  0
SPLINE
  5
2E0
100
AcDbEntity
  8
0
100
AcDbSpline
 62
7
  6
CONTINUOUS
 70
0
 71
3
 72
9
 73
5
 74
0
 42
0.0000001
 43
0.0000001
 44
0.0000000001
 40
0.0
 40
0.0
 40
0.0
 40
0.0
 40
0.2343940302
 40
1.0
 40
1.0
 40
1.0
 40
1.0
 10
4.5791971724
 20
5.7489286342
 30
0.0
 10
4.5791988858
 20
5.7489257086
 30
0.0
 10
4.5792066984
 20
5.748913524
 30
0.0
 10
4.5792160452
 20
5.748902362
 30
0.0
 10
4.5792237348
 20
5.7488943929
 30
0.0
  0
LINE
  5
2E1
100
AcDbEntity
  8
0
100
AcDbLine
 62
7
  6
CONTINUOUS
 10
4.452500453
 20
5.5295547607
 11
4.2954119703
 21
5.5307780558
  0
LINE
  5
2E2
100
AcDbEntity
  8
0
100
AcDbLine
 62
7
  6
CONTINUOUS
 10
4.4887739771
 20
5.1958652486
 11
4.5662790695
 21
5.3325552065
  0
LINE
  5
2E3
100
AcDbEntity
  8
0
100
AcDbLine
 62
7
  6
CONTINUOUS
 10
4.4525004145
 20
5.5444707314
 11
4.2975608522
 21
5.5432631369
  0
SPLINE
  5
2E4
100
AcDbEntity
  8
0
100
AcDbSpline
 62
7
  6
CONTINUOUS
 70
0
 71
3
 72
63
 73
59
 74
0
 42
0.0000001
 43
0.0000001
 44
0.0000000001
 40
0.0
 40
0.0
 40
0.0
 40
0.0
 40
0.003038185
 40
0.0061005735
 40
0.0092098678
 40
0.012387708
 40
0.0190236932
 40
0.0261554275
 40
0.033892417
 40
0.0423153733
 40
0.0514809923
 40
0.0614271773
 40
0.0721767599
 40
0.0837408959
 40
0.0961216115
 40
0.1093131924
 40
0.1233040248
 40
0.1380771241
 40
0.1536111524
 40
0.1698810188
 40
0.1868580755
 40
0.2045109261
 40
0.2228053096
 40
0.2417046706
 40
0.2811599911
 40
0.3225465926
 40
0.3655073443
 40
0.4096655348
 40
0.4546300068
 40
0.5
 40
0.5453699932
 40
0.5903344652
 40
0.6344926557
 40
0.6774534074
 40
0.7188400089
 40
0.7582953294
 40
0.7771946904
 40
0.7954890739
 40
0.8131419245
 40
0.8301189812
 40
0.8463888476
 40
0.8619228759
 40
0.8766959752
 40
0.8906868076
 40
0.9038783885
 40
0.9162591041
 40
0.9278232401
 40
0.9385728227
 40
0.9485190077
 40
0.9576846267
 40
0.966107583
 40
0.9738445725
 40
0.9809763068
 40
0.987612292
 40
0.9907901322
 40
0.9938994265
 40
0.996961815
 40
1.0
 40
1.0
 40
1.0
 40
1.0
 10
4.8109347826
 20
4.0352450568
 30
0.0
 10
4.8109347826
 20
4.0355032505
 30
0.0
 10
4.8109108496
 20
4.0360220067
 30
0.0
 10
4.8108034328
 20
4.0367982996
 30
0.0
 10
4.8106245724
 20
4.0375735417
 30
0.0
 10
4.8102863347
 20
4.0386196187
 30
0.0
 10
4.8096736969
 20
4.0399299186
 30
0.0
 10
4.8086675319
 20
4.0414616689
 30
0.0
 10
4.8073842646
 20
4.0429742595
 30
0.0
 10
4.8058276718
 20
4.0444651903
 30
0.0
 10
4.804001571
 20
4.0459323336
 30
0.0
 10
4.8019100325
 20
4.0473729147
 30
0.0
 10
4.7995577432
 20
4.0487840183
 30
0.0
 10
4.7969500263
 20
4.050162558
 30
0.0
 10
4.7940928572
 20
4.0515053363
 30
0.0
 10
4.7909929033
 20
4.0528092624
 30
0.0
 10
4.7876574323
 20
4.0540711801
 30
0.0
 10
4.7840943435
 20
4.0552880894
 30
0.0
 10
4.7803121071
 20
4.0564570555
 30
0.0
 10
4.776319743
 20
4.0575752207
 30
0.0
 10
4.7721268049
 20
4.0586399217
 30
0.0
 10
4.7677433368
 20
4.0596485264
 30
0.0
 10
4.7631798481
 20
4.0605986422
 30
0.0
 10
4.7567776806
 20
4.0618015878
 30
0.0
 10
4.7484049451
 20
4.0631346987
 30
0.0
 10
4.7379643722
 20
4.0644473051
 30
0.0
 10
4.7270911323
 20
4.0654818206
 30
0.0
 10
4.7158897136
 20
4.0662281156
 30
0.0
 10
4.704467673
 20
4.0666788437
 30
0.0
 10
4.6929347826
 20
4.0668295812
 30
0.0
 10
4.6814018922
 20
4.0666788437
 30
0.0
 10
4.6699798516
 20
4.0662281156
 30
0.0
 10
4.6587784329
 20
4.0654818206
 30
0.0
 10
4.647905193
 20
4.0644473051
 30
0.0
 10
4.6374646201
 20
4.0631346987
 30
0.0
 10
4.6290918846
 20
4.0618015878
 30
0.0
 10
4.6226897171
 20
4.0605986422
 30
0.0
 10
4.6181262284
 20
4.0596485264
 30
0.0
 10
4.6137427603
 20
4.0586399217
 30
0.0
 10
4.6095498222
 20
4.0575752207
 30
0.0
 10
4.6055574581
 20
4.0564570555
 30
0.0
 10
4.6017752217
 20
4.0552880894
 30
0.0
 10
4.5982121329
 20
4.0540711801
 30
0.0
 10
4.5948766619
 20
4.0528092624
 30
0.0
 10
4.591776708
 20
4.0515053363
 30
0.0
 10
4.5889195389
 20
4.050162558
 30
0.0
 10
4.586311822
 20
4.0487840183
 30
0.0
 10
4.5839595327
 20
4.0473729147
 30
0.0
 10
4.5818679943
 20
4.0459323336
 30
0.0
 10
4.5800418934
 20
4.0444651903
 30
0.0
 10
4.5784853006
 20
4.0429742595
 30
0.0
 10
4.5772020334
 20
4.0414616689
 30
0.0
 10
4.5761958683
 20
4.0399299186
 30
0.0
 10
4.5755832305
 20
4.0386196187
 30
0.0
 10
4.5752449928
 20
4.0375735417
 30
0.0
 10
4.5750661324
 20
4.0367982996
 30
0.0
 10
4.5749587156
 20
4.0360220067
 30
0.0
 10
4.5749347826
 20
4.0355032505
 30
0.0
 10
4.5749347826
 20
4.0352450568
 30
0.0
  0
LINE
  5
2E5
100
AcDbEntity
  8
0
100
AcDbLine
 62
7
  6
CONTINUOUS
 10
4.5792237348
 20
5.7488943929
 11
4.5819638497
 21
5.7384448653
  0
LINE
  5
2E6
100
AcDbEntity
  8
0
100
AcDbLine
 62
7
  6
CONTINUOUS
 10
4.8066458303
 20
5.7488943929
 11
4.8039057146
 21
5.7384448645
  0
LINE
  5
2E7
100
AcDbEntity
  8
0
100
AcDbLine
 62
7
  6
CONTINUOUS
 10
4.9333691558
 20
5.5444707221
 11
4.9214803739
 21
5.5405876149
  0
LINE
  5
2E8
100
AcDbEntity
  8
0
100
AcDbLine
 62
7
  6
CONTINUOUS
 10
4.819506738
 20
5.7414135071
 11
4.8103050724
 21
5.7338996217
  0
LINE
  5
2E9
100
AcDbEntity
  8
0
100
AcDbLine
 62
7
  6
CONTINUOUS
 10
4.8195904841
 20
5.7414703278
 11
4.819506738
 21
5.7414135071
  0
LINE
  5
2EA
100
AcDbEntity
  8
0
100
AcDbLine
 62
7
  6
CONTINUOUS
 10
4.9333691263
 20
5.529554786
 11
4.9214803488
 21
5.5334378959
  0
LINE
  5
2EB
100
AcDbEntity
  8
0
100
AcDbLine
 62
7
  6
CONTINUOUS
 10
4.8195905134
 20
5.3325551502
 11
4.8195067379
 21
5.332611992
  0
LINE
  5
2EC
100
AcDbEntity
  8
0
100
AcDbLine
 62
7
  6
CONTINUOUS
 10
4.8195067379
 20
5.332611992
 11
4.8102863966
 21
5.3401409432
  0
LINE
  5
2ED
100
AcDbEntity
  8
0
100
AcDbLine
 62
7
  6
CONTINUOUS
 10
4.8066458304
 20
5.3251311062
 11
4.8039057146
 21
5.3355806288
  0
LINE
  5
2EE
100
AcDbEntity
  8
0
100
AcDbLine
 62
7
  6
CONTINUOUS
 10
4.5792237348
 20
5.3251311061
 11
4.581963849
 21
5.335580633
  0
LINE
  5
2EF
100
AcDbEntity
  8
0
100
AcDbLine
 62
7
  6
CONTINUOUS
 10
4.464389222
 20
5.5334378981
 11
4.4525004384
 21
5.5295547858
  0
LINE
  5
2F0
100
AcDbEntity
  8
0
100
AcDbLine
 62
7
  6
CONTINUOUS
 10
4.5663628271
 20
5.3326119918
 11
4.575564493
 21
5.3401258769
  0
LINE
  5
2F1
100
AcDbEntity
  8
0
100
AcDbLine
 62
7
  6
CONTINUOUS
 10
4.5662790872
 20
5.3325551756
 11
4.5663628271
 21
5.3326119918
  0
LINE
  5
2F2
100
AcDbEntity
  8
0
100
AcDbLine
 62
7
  6
CONTINUOUS
 10
4.4643891972
 20
5.5405876142
 11
4.4525004091
 21
5.5444707222
  0
LINE
  5
2F3
100
AcDbEntity
  8
0
100
AcDbLine
 62
7
  6
CONTINUOUS
 10
4.5662790848
 20
5.741470325
 11
4.5663628272
 21
5.7414135072
  0
LINE
  5
2F4
100
AcDbEntity
  8
0
100
AcDbLine
 62
7
  6
CONTINUOUS
 10
4.5663628272
 20
5.7414135072
 11
4.5755831678
 21
5.7338845544
  0
SPLINE
  5
2F5
100
AcDbEntity
  8
0
100
AcDbSpline
 62
7
  6
CONTINUOUS
 70
0
 71
3
 72
28
 73
24
 74
0
 42
0.0000001
 43
0.0000001
 44
0.0000000001
 40
0.0
 40
0.0
 40
0.0
 40
0.0
 40
0.0164948744
 40
0.0331622732
 40
0.0501640046
 40
0.0676526604
 40
0.1046033937
 40
0.1243306203
 40
0.1450087439
 40
0.1667147621
 40
0.1895117463
 40
0.2134511775
 40
0.2385744192
 40
0.2924809128
 40
0.3514121455
 40
0.415439267
 40
0.4845596174
 40
0.558712944
 40
0.6377925444
 40
0.7216528632
 40
0.8101156208
 40
0.9029747733
 40
1.0
 40
1.0
 40
1.0
 40
1.0
 10
4.8406847826
 20
4.0352450568
 30
0.0
 10
4.8406847826
 20
4.0348727332
 30
0.0
 10
4.8406449492
 20
4.0341235978
 30
0.0
 10
4.8404662964
 20
4.0330035369
 30
0.0
 10
4.840168891
 20
4.0318856958
 30
0.0
 10
4.83960463
 20
4.0303728481
 30
0.0
 10
4.8388036015
 20
4.0288920275
 30
0.0
 10
4.8378039663
 20
4.0274593676
 30
0.0
 10
4.8369222972
 20
4.0263677647
 30
0.0
 10
4.8359260394
 20
4.0252839514
 30
0.0
 10
4.8348159477
 20
4.0242083984
 30
0.0
 10
4.8335929365
 20
4.0231419034
 30
0.0
 10
4.8317698289
 20
4.0216990809
 30
0.0
 10
4.8292026215
 20
4.019930014
 30
0.0
 10
4.8257596961
 20
4.0179038863
 30
0.0
 10
4.8218954572
 20
4.0159328651
 30
0.0
 10
4.8176218439
 20
4.0140229935
 30
0.0
 10
4.8129518762
 20
4.0121801799
 30
0.0
 10
4.8079000763
 20
4.0104102793
 30
0.0
 10
4.802482267
 20
4.0087189395
 30
0.0
 10
4.7967155156
 20
4.0071115805
 30
0.0
 10
4.7906181019
 20
4.005593379
 30
0.0
 10
4.7864335913
 20
4.0046635189
 30
0.0
 10
4.7842903857
 20
4.004212922
 30
0.0
  0
SPLINE
  5
2F6
100
AcDbEntity
  8
0
100
AcDbSpline
 62
7
  6
CONTINUOUS
 70
0
 71
3
 72
28
 73
24
 74
0
 42
0.0000001
 43
0.0000001
 44
0.0000000001
 40
0.0
 40
0.0
 40
0.0
 40
0.0
 40
0.0970244355
 40
0.1898825446
 40
0.278344094
 40
0.3622031259
 40
0.4412814448
 40
0.5154335743
 40
0.5845528913
 40
0.6485792201
 40
0.7075099739
 40
0.7614163704
 40
0.7865397271
 40
0.8104793912
 40
0.8332767328
 40
0.8549832364
 40
0.875661976
 40
0.8953899489
 40
0.932342549
 40
0.9498323005
 40
0.966835213
 40
0.983503853
 40
1.0
 40
1.0
 40
1.0
 40
1.0
 10
4.6015652516
 20
4.0042158506
 30
0.0
 10
4.5994225362
 20
4.0046664557
 30
0.0
 10
4.5952389919
 20
4.0055963209
 30
0.0
 10
4.5891430037
 20
4.0071144985
 30
0.0
 10
4.5833776254
 20
4.0087218009
 30
0.0
 10
4.5779611273
 20
4.0104130528
 30
0.0
 10
4.572910568
 20
4.0121828358
 30
0.0
 10
4.5682417623
 20
4.0140255044
 30
0.0
 10
4.5639692248
 20
4.0159352054
 30
0.0
 10
4.5601059685
 20
4.0179060328
 30
0.0
 10
4.5566639263
 20
4.0199319457
 30
0.0
 10
4.5540973877
 20
4.0217008104
 30
0.0
 10
4.552274759
 20
4.0231434599
 30
0.0
 10
4.5510520673
 20
4.0242098267
 30
0.0
 10
4.5499422665
 20
4.0252852479
 30
0.0
 10
4.5489462706
 20
4.0263689265
 30
0.0
 10
4.5480648338
 20
4.0274603915
 30
0.0
 10
4.5470654586
 20
4.0288928741
 30
0.0
 10
4.5462646445
 20
4.0303735024
 30
0.0
 10
4.5457005362
 20
4.0318861444
 30
0.0
 10
4.5454032103
 20
4.0330038369
 30
0.0
 10
4.5452246053
 20
4.0341237481
 30
0.0
 10
4.5451847826
 20
4.0348727827
 30
0.0
 10
4.5451847826
 20
4.0352450568
 30
0.0
  0
SPLINE
  5
2F7
100
AcDbEntity
  8
0
100
AcDbSpline
 62
7
  6
CONTINUOUS
 70
0
 71
3
 72
63
 73
59
 74
0
 42
0.0000001
 43
0.0000001
 44
0.0000000001
 40
0.0
 40
0.0
 40
0.0
 40
0.0
 40
0.0030382721
 40
0.0061006787
 40
0.0092099294
 40
0.0123876973
 40
0.0190236335
 40
0.0261554221
 40
0.0338924223
 40
0.0423153286
 40
0.0514809977
 40
0.0614271469
 40
0.0721767295
 40
0.0837409066
 40
0.0961215554
 40
0.1093131918
 40
0.1233040054
 40
0.138077082
 40
0.153611156
 40
0.1698809799
 40
0.1868580603
 40
0.204510911
 40
0.2228052836
 40
0.2417046575
 40
0.2811599788
 40
0.3225465854
 40
0.3655073296
 40
0.4096655219
 40
0.4546300002
 40
0.5
 40
0.5453699998
 40
0.5903344781
 40
0.6344926704
 40
0.6774534146
 40
0.7188400212
 40
0.7582953425
 40
0.7771947164
 40
0.795489089
 40
0.8131419397
 40
0.8301190201
 40
0.846388844
 40
0.861922918
 40
0.8766959946
 40
0.8906868082
 40
0.9038784446
 40
0.9162590934
 40
0.9278232705
 40
0.9385728531
 40
0.9485190023
 40
0.9576846714
 40
0.9661075777
 40
0.9738445779
 40
0.9809763665
 40
0.9876123027
 40
0.9907900706
 40
0.9938993213
 40
0.9969617279
 40
1.0
 40
1.0
 40
1.0
 40
1.0
 10
4.8406847826
 20
4.0352450568
 30
0.0
 10
4.8406847826
 20
4.0355683553
 30
0.0
 10
4.8406548192
 20
4.0362179108
 30
0.0
 10
4.8405203268
 20
4.0371899293
 30
0.0
 10
4.8402963683
 20
4.0381606132
 30
0.0
 10
4.8398728395
 20
4.0394704021
 30
0.0
 10
4.8391057602
 20
4.0411110506
 30
0.0
 10
4.8378459279
 20
4.043028992
 30
0.0
 10
4.8362391102
 20
4.0449229233
 30
0.0
 10
4.8342900909
 20
4.0467897677
 30
0.0
 10
4.8320035775
 20
4.0486267774
 30
0.0
 10
4.8293847376
 20
4.0504305773
 30
0.0
 10
4.8264393894
 20
4.0521974454
 30
0.0
 10
4.8231742114
 20
4.05392352
 30
0.0
 10
4.8195967083
 20
4.0556048701
 30
0.0
 10
4.8157151898
 20
4.0572375134
 30
0.0
 10
4.8115387873
 20
4.0588175947
 30
0.0
 10
4.8070773795
 20
4.0603413187
 30
0.0
 10
4.8023415667
 20
4.0618049828
 30
0.0
 10
4.7973426558
 20
4.0632050782
 30
0.0
 10
4.7920925988
 20
4.064538199
 30
0.0
 10
4.7866039757
 20
4.0658010941
 30
0.0
 10
4.780889947
 20
4.0669907563
 30
0.0
 10
4.7728736719
 20
4.0684969799
 30
0.0
 10
4.7623900123
 20
4.0701661978
 30
0.0
 10
4.7493171758
 20
4.0718097344
 30
0.0
 10
4.7357025896
 20
4.0731050738
 30
0.0
 10
4.7216770842
 20
4.0740395279
 30
0.0
 10
4.7073753321
 20
4.0746038874
 30
0.0
 10
4.6929347826
 20
4.0747926233
 30
0.0
 10
4.6784942331
 20
4.0746038874
 30
0.0
 10
4.664192481
 20
4.0740395279
 30
0.0
 10
4.6501669756
 20
4.0731050738
 30
0.0
 10
4.6365523894
 20
4.0718097344
 30
0.0
 10
4.623479553
 20
4.0701661978
 30
0.0
 10
4.6129958933
 20
4.0684969799
 30
0.0
 10
4.6049796182
 20
4.0669907563
 30
0.0
 10
4.5992655895
 20
4.0658010941
 30
0.0
 10
4.5937769664
 20
4.064538199
 30
0.0
 10
4.5885269095
 20
4.0632050782
 30
0.0
 10
4.5835279985
 20
4.0618049828
 30
0.0
 10
4.5787921857
 20
4.0603413187
 30
0.0
 10
4.5743307779
 20
4.0588175947
 30
0.0
 10
4.5701543754
 20
4.0572375134
 30
0.0
 10
4.5662728569
 20
4.0556048701
 30
0.0
 10
4.5626953538
 20
4.05392352
 30
0.0
 10
4.5594301758
 20
4.0521974454
 30
0.0
 10
4.5564848276
 20
4.0504305773
 30
0.0
 10
4.5538659877
 20
4.0486267774
 30
0.0
 10
4.5515794743
 20
4.0467897677
 30
0.0
 10
4.549630455
 20
4.0449229233
 30
0.0
 10
4.5480236373
 20
4.043028992
 30
0.0
 10
4.546763805
 20
4.0411110506
 30
0.0
 10
4.5459967257
 20
4.0394704021
 30
0.0
 10
4.545573197
 20
4.0381606132
 30
0.0
 10
4.5453492384
 20
4.0371899293
 30
0.0
 10
4.545214746
 20
4.0362179108
 30
0.0
 10
4.5451847826
 20
4.0355683553
 30
0.0
 10
4.5451847826
 20
4.0352450568
 30
0.0
  0
SPLINE
  5
2F8
100
AcDbEntity
  8
0
100
AcDbSpline
 62
7
  6
CONTINUOUS
 70
0
 71
3
 72
9
 73
5
 74
0
 42
0.0000001
 43
0.0000001
 44
0.0000000001
 40
0.0
 40
0.0
 40
0.0
 40
0.0
 40
0.4923250383
 40
1.0
 40
1.0
 40
1.0
 40
1.0
 10
4.7347891201
 20
5.3393271494
 30
0.0
 10
4.7343459864
 20
5.339163184
 30
0.0
 10
4.733470704
 20
5.3387594894
 30
0.0
 10
4.7326647047
 20
5.3382319773
 30
0.0
 10
4.7322756908
 20
5.3379386198
 30
0.0
  0
SPLINE
  5
2F9
100
AcDbEntity
  8
0
100
AcDbSpline
 62
7
  6
CONTINUOUS
 70
0
 71
3
 72
23
 73
19
 74
0
 42
0.0000001
 43
0.0000001
 44
0.0000000001
 40
0.0
 40
0.0
 40
0.0
 40
0.0
 40
0.0427390437
 40
0.0884023396
 40
0.1374179194
 40
0.1899933353
 40
0.2461490328
 40
0.3057518272
 40
0.3685445318
 40
0.4341707906
 40
0.5021958755
 40
0.5721244302
 40
0.6434161653
 40
0.7154999491
 40
0.7877876592
 40
0.8596858277
 40
0.9306116347
 40
1.0
 40
1.0
 40
1.0
 40
1.0
 10
4.7322756908
 20
5.3379386198
 30
0.0
 10
4.7317507429
 20
5.3375427538
 30
0.0
 10
4.7307374266
 20
5.3366246946
 30
0.0
 10
4.7294040312
 20
5.3349755539
 30
0.0
 10
4.7282247625
 20
5.3330343882
 30
0.0
 10
4.7272118022
 20
5.3308240455
 30
0.0
 10
4.726375157
 20
5.3283692315
 30
0.0
 10
4.7257236848
 20
5.32569751
 30
0.0
 10
4.7252644153
 20
5.3228389382
 30
0.0
 10
4.7250024269
 20
5.319825853
 30
0.0
 10
4.7249406519
 20
5.3166924789
 30
0.0
 10
4.7250797883
 20
5.313474519
 30
0.0
 10
4.7254182572
 20
5.3102087207
 30
0.0
 10
4.7259521957
 20
5.3069324188
 30
0.0
 10
4.7266755026
 20
5.303683123
 30
0.0
 10
4.7275799075
 20
5.3004979511
 30
0.0
 10
4.7286550004
 20
5.2974135337
 30
0.0
 10
4.7294887084
 20
5.2954206876
 30
0.0
 10
4.7299324746
 20
5.2944498605
 30
0.0
  0
SPLINE
  5
2FA
100
AcDbEntity
  8
0
100
AcDbSpline
 62
7
  6
CONTINUOUS
 70
0
 71
3
 72
31
 73
27
 74
0
 42
0.0000001
 43
0.0000001
 44
0.0000000001
 40
0.0
 40
0.0
 40
0.0
 40
0.0
 40
0.0031428117
 40
0.0066880121
 40
0.0106594438
 40
0.015066679
 40
0.0252004002
 40
0.0370821185
 40
0.0506558788
 40
0.0658852354
 40
0.0827380066
 40
0.1011797409
 40
0.1211972167
 40
0.142782649
 40
0.1659274419
 40
0.1906333647
 40
0.2447364889
 40
0.3051189648
 40
0.3717789607
 40
0.4446604789
 40
0.5236393649
 40
0.6085130834
 40
0.6989893507
 40
0.794702102
 40
0.895215174
 40
1.0
 40
1.0
 40
1.0
 40
1.0
 10
4.7665151141
 20
5.3129461518
 30
0.0
 10
4.7665194082
 20
5.3129025924
 30
0.0
 10
4.7665196113
 20
5.3128089578
 30
0.0
 10
4.7664991625
 20
5.3126615879
 30
0.0
 10
4.7664584093
 20
5.3125003103
 30
0.0
 10
4.7663731524
 20
5.31225671
 30
0.0
 10
4.7662125143
 20
5.3119243866
 30
0.0
 10
4.7659508186
 20
5.3115027138
 30
0.0
 10
4.7656119497
 20
5.3110478503
 30
0.0
 10
4.7651968484
 20
5.3105656066
 30
0.0
 10
4.7647060776
 20
5.3100608128
 30
0.0
 10
4.764139808
 20
5.3095380559
 30
0.0
 10
4.7634986378
 20
5.3090007483
 30
0.0
 10
4.7627829204
 20
5.3084517759
 30
0.0
 10
4.7619926836
 20
5.3078939566
 30
0.0
 10
4.7608039313
 20
5.3071169152
 30
0.0
 10
4.7591293764
 20
5.3061377517
 30
0.0
 10
4.7568867275
 20
5.3049802951
 30
0.0
 10
4.7543597813
 20
5.3038093681
 30
0.0
 10
4.7515573193
 20
5.3026215951
 30
0.0
 10
4.748490837
 20
5.3014097097
 30
0.0
 10
4.7451756096
 20
5.300162207
 30
0.0
 10
4.7416310093
 20
5.2988631392
 30
0.0
 10
4.7378803438
 20
5.2974933834
 30
0.0
 10
4.7339522121
 20
5.296028779
 30
0.0
 10
4.7312871526
 20
5.2949926086
 30
0.0
 10
4.7299324746
 20
5.2944498605
 30
0.0
  0
SPLINE
  5
2FB
100
AcDbEntity
  8
0
100
AcDbSpline
 62
7
  6
CONTINUOUS
 70
0
 71
3
 72
15
 73
11
 74
0
 42
0.0000001
 43
0.0000001
 44
0.0000000001
 40
0.0
 40
0.0
 40
0.0
 40
0.0
 40
0.1246417166
 40
0.249443397
 40
0.3743858018
 40
0.4994403222
 40
0.6245709277
 40
0.7497365585
 40
0.8748938523
 40
1.0
 40
1.0
 40
1.0
 40
1.0
 10
4.5792237349
 20
5.7488925484
 30
0.0
 10
4.5785780145
 20
5.748885778
 30
0.0
 10
4.5772850727
 20
5.7487881407
 30
0.0
 10
4.5753809303
 20
5.748392553
 30
0.0
 10
4.573541214
 20
5.7477544167
 30
0.0
 10
4.5717972856
 20
5.7468844992
 30
0.0
 10
4.5701783614
 20
5.7457974871
 30
0.0
 10
4.5687116207
 20
5.7445115849
 30
0.0
 10
4.5674219115
 20
5.7430487903
 30
0.0
 10
4.5666938191
 20
5.7419708257
 30
0.0
 10
4.566366297
 20
5.7414115017
 30
0.0
  0
SPLINE
  5
2FC
100
AcDbEntity
  8
0
100
AcDbSpline
 62
7
  6
CONTINUOUS
 70
0
 71
3
 72
11
 73
7
 74
0
 42
0.0000001
 43
0.0000001
 44
0.0000000001
 40
0.0
 40
0.0
 40
0.0
 40
0.0
 40
0.2453533384
 40
0.4960013711
 40
0.7486643628
 40
1.0
 40
1.0
 40
1.0
 40
1.0
 10
4.5819638489
 20
5.738444891
 30
0.0
 10
4.5813930237
 20
5.7381473123
 30
0.0
 10
4.5802606576
 20
5.737503453
 30
0.0
 10
4.5786216515
 20
5.7364183332
 30
0.0
 10
4.5770451013
 20
5.7352182542
 30
0.0
 10
4.5760468823
 20
5.7343492331
 30
0.0
 10
4.575564494
 20
5.7338996218
 30
0.0
  0
SPLINE
  5
2FD
100
AcDbEntity
  8
0
100
AcDbSpline
 62
7
  6
CONTINUOUS
 70
0
 71
3
 72
11
 73
7
 74
0
 42
0.0000001
 43
0.0000001
 44
0.0000000001
 40
0.0
 40
0.0
 40
0.0
 40
0.0
 40
0.2476350113
 40
0.4988814247
 40
0.7506909215
 40
1.0
 40
1.0
 40
1.0
 40
1.0
 10
4.5822435012
 20
5.7374120437
 30
0.0
 10
4.5816816292
 20
5.7371538268
 30
0.0
 10
4.5805662127
 20
5.7365969335
 30
0.0
 10
4.5789424557
 20
5.7356580935
 30
0.0
 10
4.5773745916
 20
5.7346210344
 30
0.0
 10
4.5763739056
 20
5.7338681632
 30
0.0
 10
4.5758885213
 20
5.7334783356
 30
0.0
  0
SPLINE
  5
2FE
100
AcDbEntity
  8
0
100
AcDbSpline
 62
7
  6
CONTINUOUS
 70
0
 71
3
 72
11
 73
7
 74
0
 42
0.0000001
 43
0.0000001
 44
0.0000000001
 40
0.0
 40
0.0
 40
0.0
 40
0.0
 40
0.2493090793
 40
0.5011185756
 40
0.752364988
 40
1.0
 40
1.0
 40
1.0
 40
1.0
 10
4.5758885216
 20
5.3405471636
 30
0.0
 10
4.5763739057
 20
5.340157336
 30
0.0
 10
4.5773745917
 20
5.3394044647
 30
0.0
 10
4.5789424559
 20
5.3383674059
 30
0.0
 10
4.5805662125
 20
5.3374285657
 30
0.0
 10
4.5816816291
 20
5.3368716724
 30
0.0
 10
4.582243501
 20
5.3366134556
 30
0.0
  0
SPLINE
  5
2FF
100
AcDbEntity
  8
0
100
AcDbSpline
 62
7
  6
CONTINUOUS
 70
0
 71
3
 72
11
 73
7
 74
0
 42
0.0000001
 43
0.0000001
 44
0.0000000001
 40
0.0
 40
0.0
 40
0.0
 40
0.0
 40
0.2513357934
 40
0.5039989107
 40
0.754646984
 40
1.0
 40
1.0
 40
1.0
 40
1.0
 10
4.5755644935
 20
5.340125877
 30
0.0
 10
4.5760468815
 20
5.339676266
 30
0.0
 10
4.5770451009
 20
5.338807247
 30
0.0
 10
4.5786216482
 20
5.3376071666
 30
0.0
 10
4.5802606613
 20
5.3365220624
 30
0.0
 10
4.5813930255
 20
5.3358782054
 30
0.0
 10
4.5819638488
 20
5.3355806264
 30
0.0
  0
SPLINE
  5
300
100
AcDbEntity
  8
0
100
AcDbSpline
 62
7
  6
CONTINUOUS
 70
0
 71
3
 72
15
 73
11
 74
0
 42
0.0000001
 43
0.0000001
 44
0.0000000001
 40
0.0
 40
0.0
 40
0.0
 40
0.0
 40
0.1251062702
 40
0.2502636422
 40
0.3754293002
 40
0.5005598843
 40
0.6256143507
 40
0.7505566889
 40
0.875358316
 40
1.0
 40
1.0
 40
1.0
 40
1.0
 10
4.5663628355
 20
5.3326119967
 30
0.0
 10
4.5666904982
 20
5.3320526153
 30
0.0
 10
4.567418891
 20
5.3309745604
 30
0.0
 10
4.5687090787
 20
5.3295117046
 30
0.0
 10
4.5701763023
 20
5.3282258054
 30
0.0
 10
4.5717956943
 20
5.3271388451
 30
0.0
 10
4.5735400633
 20
5.3262690087
 30
0.0
 10
4.5753801887
 20
5.3256309626
 30
0.0
 10
4.5772847122
 20
5.325235457
 30
0.0
 10
4.5785778948
 20
5.3251378608
 30
0.0
 10
4.5792237348
 20
5.3251311068
 30
0.0
  0
SPLINE
  5
301
100
AcDbEntity
  8
0
100
AcDbSpline
 62
7
  6
CONTINUOUS
 70
0
 71
3
 72
11
 73
7
 74
0
 42
0.0000001
 43
0.0000001
 44
0.0000000001
 40
0.0
 40
0.0
 40
0.0
 40
0.0
 40
0.2476350084
 40
0.4988814208
 40
0.7506909185
 40
1.0
 40
1.0
 40
1.0
 40
1.0
 10
4.8036260624
 20
5.3366134561
 30
0.0
 10
4.8041879343
 20
5.336871673
 30
0.0
 10
4.8053033508
 20
5.3374285663
 30
0.0
 10
4.8069271077
 20
5.3383674062
 30
0.0
 10
4.8084949718
 20
5.3394044652
 30
0.0
 10
4.8094956579
 20
5.3401573364
 30
0.0
 10
4.8099810421
 20
5.340547164
 30
0.0
  0
SPLINE
  5
302
100
AcDbEntity
  8
0
100
AcDbSpline
 62
7
  6
CONTINUOUS
 70
0
 71
3
 72
11
 73
7
 74
0
 42
0.0000001
 43
0.0000001
 44
0.0000000001
 40
0.0
 40
0.0
 40
0.0
 40
0.0
 40
0.245353326
 40
0.4960013556
 40
0.7486643519
 40
1.0
 40
1.0
 40
1.0
 40
1.0
 10
4.8039057154
 20
5.3355806031
 30
0.0
 10
4.8044765407
 20
5.3358781821
 30
0.0
 10
4.8056089068
 20
5.3365220419
 30
0.0
 10
4.8072479129
 20
5.3376071625
 30
0.0
 10
4.808824463
 20
5.3388072424
 30
0.0
 10
4.809822682
 20
5.339676264
 30
0.0
 10
4.8103050702
 20
5.3401258756
 30
0.0
  0
SPLINE
  5
303
100
AcDbEntity
  8
0
100
AcDbSpline
 62
7
  6
CONTINUOUS
 70
0
 71
3
 72
15
 73
11
 74
0
 42
0.0000001
 43
0.0000001
 44
0.0000000001
 40
0.0
 40
0.0
 40
0.0
 40
0.0
 40
0.1246417163
 40
0.2494433966
 40
0.3743858013
 40
0.4994403216
 40
0.6245709272
 40
0.7497365581
 40
0.8748938521
 40
1.0
 40
1.0
 40
1.0
 40
1.0
 10
4.8066458304
 20
5.3251329507
 30
0.0
 10
4.8072915508
 20
5.3251397211
 30
0.0
 10
4.8085844925
 20
5.3252373584
 30
0.0
 10
4.8104886349
 20
5.3256329461
 30
0.0
 10
4.8123283512
 20
5.3262710825
 30
0.0
 10
4.8140722796
 20
5.3271409999
 30
0.0
 10
4.8156912038
 20
5.328228012
 30
0.0
 10
4.8171579444
 20
5.3295139142
 30
0.0
 10
4.8184476536
 20
5.3309767088
 30
0.0
 10
4.8191757461
 20
5.3320546735
 30
0.0
 10
4.8195032682
 20
5.3326139975
 30
0.0
  0
SPLINE
  5
304
100
AcDbEntity
  8
0
100
AcDbSpline
 62
7
  6
CONTINUOUS
 70
0
 71
3
 72
15
 73
11
 74
0
 42
0.0000001
 43
0.0000001
 44
0.0000000001
 40
0.0
 40
0.0
 40
0.0
 40
0.0
 40
0.1251062705
 40
0.2502636429
 40
0.3754293011
 40
0.5005598853
 40
0.6256143516
 40
0.7505566896
 40
0.8753583164
 40
1.0
 40
1.0
 40
1.0
 40
1.0
 10
4.8195067296
 20
5.7414135023
 30
0.0
 10
4.8191790668
 20
5.7419728837
 30
0.0
 10
4.8184506741
 20
5.7430509385
 30
0.0
 10
4.8171604863
 20
5.7445137944
 30
0.0
 10
4.8156932628
 20
5.7457996936
 30
0.0
 10
4.8140738708
 20
5.7468866539
 30
0.0
 10
4.8123295018
 20
5.7477564903
 30
0.0
 10
4.8104893763
 20
5.7483945364
 30
0.0
 10
4.8085848529
 20
5.7487900419
 30
0.0
 10
4.8072916702
 20
5.7488876381
 30
0.0
 10
4.8066458303
 20
5.7488943922
 30
0.0
  0
SPLINE
  5
305
100
AcDbEntity
  8
0
100
AcDbSpline
 62
7
  6
CONTINUOUS
 70
0
 71
3
 72
11
 73
7
 74
0
 42
0.0000001
 43
0.0000001
 44
0.0000000001
 40
0.0
 40
0.0
 40
0.0
 40
0.0
 40
0.2513357887
 40
0.503998905
 40
0.75464698
 40
1.0
 40
1.0
 40
1.0
 40
1.0
 10
4.8103050719
 20
5.7338996215
 30
0.0
 10
4.8098226838
 20
5.7343492324
 30
0.0
 10
4.8088244641
 20
5.7352182513
 30
0.0
 10
4.8072479163
 20
5.7364183314
 30
0.0
 10
4.8056089027
 20
5.7375034354
 30
0.0
 10
4.8044765382
 20
5.7381472921
 30
0.0
 10
4.8039057148
 20
5.738444871
 30
0.0
  0
SPLINE
  5
306
100
AcDbEntity
  8
0
100
AcDbSpline
 62
7
  6
CONTINUOUS
 70
0
 71
3
 72
11
 73
7
 74
0
 42
0.0000001
 43
0.0000001
 44
0.0000000001
 40
0.0
 40
0.0
 40
0.0
 40
0.0
 40
0.2493090783
 40
0.5011185746
 40
0.7523649875
 40
1.0
 40
1.0
 40
1.0
 40
1.0
 10
4.8099810442
 20
5.7334783357
 30
0.0
 10
4.80949566
 20
5.7338681633
 30
0.0
 10
4.8084949739
 20
5.7346210346
 30
0.0
 10
4.8069271096
 20
5.7356580935
 30
0.0
 10
4.8053033528
 20
5.7365969337
 30
0.0
 10
4.8041879361
 20
5.737153827
 30
0.0
 10
4.8036260641
 20
5.7374120438
 30
0.0
  0
ENDSEC
  0
SECTION
  2
OBJECTS
  0
DICTIONARY
  5
C
100
AcDbDictionary
280
0
281
1
  3
ACAD_GROUP
350
D
  3
ACAD_MLINESTYLE
350
17
  3
ACAD_LAYOUT
350
1A
  3
ACAD_PLOTSETTINGS
350
19
  3
ACAD_PLOTSTYLENAME
350
E
  0
DICTIONARY
  5
D
102
{ACAD_REACTORS
330
C
102
}
100
AcDbDictionary
280
0
281
1
  0
ACDBDICTIONARYWDFLT
  5
E
102
{ACAD_REACTORS
330
C
102
}
100
AcDbDictionary
281
1
  3
Normal
350
F
100
AcDbDictionaryWithDefault
340
F
  0
DICTIONARY
  5
17
102
{ACAD_REACTORS
330
C
102
}
100
AcDbDictionary
280
0
281
1
  3
Standard
350
18
  0
DICTIONARY
  5
19
102
{ACAD_REACTORS
330
C
102
}
100
AcDbDictionary
281
1
  0
DICTIONARY
  5
1A
102
{ACAD_REACTORS
330
C
102
}
100
AcDbDictionary
281
1
  3
Model
350
307
  3
Layout1
350
308
  0
ACDBPLACEHOLDER
  5
F
102
{ACAD_REACTORS
330
E
102
}
  0
MLINESTYLE
  5
18
102
{ACAD_REACTORS
330
17
102
}
100
AcDbMlineStyle
  2
STANDARD
 70
0
  3

 62
256
 51
90.0
 52
90.0
 71
2
 49
0.5
 62
256
  6
BYLAYER
 49
-0.5
 62
256
  6
BYLAYER
  0
LAYOUT
  5
307
102
{ACAD_REACTORS
330
1A
102
}
100
AcDbPlotSettings
  1

  2
none_device
  4
ANSI_A_(11.00_x_8.50_Inches)
  6

 40
0.0
 41
0.0
 42
0.0
 43
0.0
 44
279.4
 45
215.9
 46
0.0
 47
0.0
 48
0.0
 49
0.0
140
0.0
141
0.0
142
1.0
143
1.0
 70
1024
 72
0
 73
0
 74
0
  7

 75
0
147
1.0
148
0.0
149
0.0
100
AcDbLayout
  1
Model
 70
0
 71
0
 10
0.0
 20
0.0
 11
11.0
 21
8.5
 12
0.0
 22
0.0
 32
0.0
 14
0.0
 24
0.0
 34
0.0
 15
0.0
 25
0.0
 35
0.0
146
0.0
 13
0.0
 23
0.0
 33
0.0
 16
1.0
 26
0.0
 36
0.0
 17
0.0
 27
1.0
 37
0.0
 76
0
330
202
345
0
346
0
  0
LAYOUT
  5
308
102
{ACAD_REACTORS
330
1A
102
}
100
AcDbPlotSettings
  1

  2
none_device
  4
ANSI_A_(11.00_x_8.50_Inches)
  6

 40
0.0
 41
0.0
 42
0.0
 43
0.0
 44
279.4
 45
215.9
 46
0.0
 47
0.0
 48
0.0
 49
0.0
140
0.0
141
0.0
142
1.0
143
1.0
 70
0
 72
0
 73
0
 74
0
  7

 75
0
147
1.0
148
0.0
149
0.0
100
AcDbLayout
  1
Layout1
 70
0
 71
1
 10
0.0
 20
0.0
 11
11.0
 21
8.5
 12
0.0
 22
0.0
 32
0.0
 14
0.0
 24
0.0
 34
0.0
 15
0.0
 25
0.0
 35
0.0
146
0.0
 13
0.0
 23
0.0
 33
0.0
 16
1.0
 26
0.0
 36
0.0
 17
0.0
 27
1.0
 37
0.0
 76
0
330
203
345
0
346
0
  0
ENDSEC
  0
EOF
