999
DXF file: E:\BT Custom\CADOUTPUT\_FRONT.dxf
999
Pro/ENGINEER 2018400 by Parametric Technology Corporation
  0
SECTION
  2
HEADER
  9
$ACADVER
  1
AC1018
  9
$DWGCODEPAGE
  3
ANSI_1252
  9
$EXTMAX
 10
22.0
 20
17.0
 30
0.0
  9
$EXTMIN
 10
0.0
 20
0.0
 30
0.0
  9
$LIMMIN
 10
0.0
 20
0.0
  9
$LIMMAX
 10
22.0
 20
17.0
  9
$VIEWCTR
 10
11.0
 20
8.5
  9
$VIEWSIZE
 40
17.0
  9
$CLAYER
  8
0
  9
$LTSCALE
 40
1.21
  9
$CELTYPE
  6
BYLAYER
  9
$DIMSCALE
 40
1.0
  9
$DIMASZ
 40
0.1
  9
$DIMEXO
 40
0.0625
  9
$DIMDLI
 40
0.836
  9
$DIMEXE
 40
0.125
  9
$DIMCEN
 40
0.198
  9
$DIMLFAC
 40
1.0
  9
$DIMBLK
  1
_FILLED
  9
$DIMALT
 70
1
  9
$DIMALTD
 70
2
  9
$DIMALTTD
 70
2
  9
$DIMALTF
 40
25.4
  9
$DIMTXT
 40
0.08
  9
$DIMTOL
 70
1
  9
$DIMLIM
 70
0
  9
$DIMTFAC
 40
1.0
  9
$DIMTP
 40
0.001
  9
$DIMTM
 40
0.001
  9
$DIMGAP
 40
0.09
  9
$DIMDSEP
 70
46
  9
$AUNITS
 70
0
  9
$PDMODE
 70
3
  9
$PDSIZE
 40
0.06
  9
$HANDSEED
  5
2D5
  9
$TILEMODE
 70
1
  9
$MEASUREMENT
 70
0
  9
$INSUNITS
 70
1
  0
ENDSEC
  0
SECTION
  2
CLASSES
  0
CLASS
  1
ACDBDICTIONARYWDFLT
  2
AcDbDictionaryWithDefault
  3
AutoCAD 2000
 90
0
 91
1
280
0
281
0
  0
CLASS
  1
ACDBPLACEHOLDER
  2
AcDbPlaceHolder
  3
AutoCAD 2000
 90
0
 91
1
280
0
281
0
  0
CLASS
  1
LAYOUT
  2
AcDbLayout
  3
AutoCAD 2000
 90
0
 91
0
280
0
281
0
  0
ENDSEC
  0
SECTION
  2
TABLES
  0
TABLE
  2
VPORT
  5
8
100
AcDbSymbolTable
 70
2
  0
VPORT
  5
1F4
100
AcDbSymbolTableRecord
100
AcDbViewportTableRecord
  2
*ACTIVE
 70
0
 10
0.0
 20
0.0
 11
1.0
 21
1.0
 12
11.0
 22
8.5
 13
0.0
 23
0.0
 14
1.0
 24
1.0
 15
0.0
 25
0.0
 16
0.0
 26
0.0
 36
1.0
 17
0.0
 27
0.0
 37
0.0
 40
17.0
 41
1.2941176471
 42
50.0
 43
0.0
 44
0.0
 50
0.0
 51
0.0
 71
0
 72
100
 73
1
 74
1
 75
0
 76
0
 77
0
 78
0
  0
ENDTAB
  0
TABLE
  2
LTYPE
  5
5
100
AcDbSymbolTable
 70
6
  0
LTYPE
  5
14
100
AcDbSymbolTableRecord
100
AcDbLinetypeTableRecord
  2
BYBLOCK
 70
0
  3

 72
65
 73
0
 40
0.0
  0
LTYPE
  5
15
100
AcDbSymbolTableRecord
100
AcDbLinetypeTableRecord
  2
BYLAYER
 70
0
  3

 72
65
 73
0
 40
0.0
  0
LTYPE
  5
16
100
AcDbSymbolTableRecord
100
AcDbLinetypeTableRecord
  2
CONTINUOUS
 70
64
  3
Solid line
 72
65
 73
0
 40
0.0
  0
LTYPE
  5
1F5
100
AcDbSymbolTableRecord
100
AcDbLinetypeTableRecord
  2
CENTER
 70
64
  3
____ _ ____ _ ____ _ ____ _ ____ _ ____ _ ____
 72
65
 73
4
 40
0.6
 49
0.375
 74
0
 49
-0.075
 74
0
 49
0.075
 74
0
 49
-0.075
 74
0
  0
LTYPE
  5
1F6
100
AcDbSymbolTableRecord
100
AcDbLinetypeTableRecord
  2
HIDDEN
 70
64
  3
- - - - - - - - - - - - - - - - - - - -
 72
65
 73
2
 40
0.2
 49
0.1
 74
0
 49
-0.1
 74
0
  0
LTYPE
  5
1F7
100
AcDbSymbolTableRecord
100
AcDbLinetypeTableRecord
  2
PHANTOM
 70
64
  3
_____ _ _ _____ _ _ _____ _ _ _____
 72
65
 73
6
 40
0.8
 49
0.45
 74
0
 49
-0.05
 74
0
 49
0.1
 74
0
 49
-0.05
 74
0
 49
0.1
 74
0
 49
-0.05
 74
0
  0
LTYPE
  5
1F8
100
AcDbSymbolTableRecord
100
AcDbLinetypeTableRecord
  2
DOT
 70
64
  3
. . . . . . . . . . . . . . . . . . . .
 72
65
 73
2
 40
0.2
 49
0.1
 74
0
 49
-0.1
 74
0
  0
LTYPE
  5
1F9
100
AcDbSymbolTableRecord
100
AcDbLinetypeTableRecord
  2
DASHED
 70
64
  3
- - - - - - - - - - - - - - - - - - - -
 72
65
 73
2
 40
0.2
 49
0.1
 74
0
 49
-0.1
 74
0
  0
ENDTAB
  0
TABLE
  2
LAYER
  5
2
100
AcDbSymbolTable
 70
36
  0
LAYER
  5
10
100
AcDbSymbolTableRecord
100
AcDbLayerTableRecord
  2
0
 70
0
 62
7
  6
CONTINUOUS
370
-3
390
F
  0
LAYER
  5
1FA
100
AcDbSymbolTableRecord
100
AcDbLayerTableRecord
  2
DEFAULT_1
 70
0
 62
7
  6
CENTER
370
-3
390
F
  0
LAYER
  5
1FB
100
AcDbSymbolTableRecord
100
AcDbLayerTableRecord
  2
DEFAULT_2
 70
0
 62
8
  6
HIDDEN
370
-3
390
F
  0
LAYER
  5
1FC
100
AcDbSymbolTableRecord
100
AcDbLayerTableRecord
  2
DEFAULT_3
 70
0
 62
7
  6
PHANTOM
370
-3
390
F
  0
LAYER
  5
1FD
100
AcDbSymbolTableRecord
100
AcDbLayerTableRecord
  2
ALL_FEATURES
 70
0
 62
7
  6
CONTINUOUS
370
-3
390
F
  0
LAYER
  5
1FE
100
AcDbSymbolTableRecord
100
AcDbLayerTableRecord
  2
AXES_FEATURES
 70
0
 62
7
  6
CONTINUOUS
370
-3
390
F
  0
LAYER
  5
1FF
100
AcDbSymbolTableRecord
100
AcDbLayerTableRecord
  2
DIMENSIONS
 70
0
 62
7
  6
CONTINUOUS
370
-3
390
F
  0
ENDTAB
  0
TABLE
  2
STYLE
  5
3
100
AcDbSymbolTable
 70
1
  0
STYLE
  5
11
100
AcDbSymbolTableRecord
100
AcDbTextStyleTableRecord
  2
STANDARD
 70
0
 40
0.0
 41
0.8
 50
0.0
 71
0
 42
0.2
  3
txt
  4

  0
STYLE
  5
200
100
AcDbSymbolTableRecord
100
AcDbTextStyleTableRecord
  2
TEXTSTYLE_1
 70
0
 40
0.0
 41
0.8
 50
0.0
 71
0
 42
0.2
  3
gdt
  4

  0
ENDTAB
  0
TABLE
  2
VIEW
  5
6
100
AcDbSymbolTable
 70
0
  0
ENDTAB
  0
TABLE
  2
UCS
  5
7
100
AcDbSymbolTable
 70
0
  0
ENDTAB
  0
TABLE
  2
APPID
  5
9
100
AcDbSymbolTable
 70
1
  0
APPID
  5
201
100
AcDbSymbolTableRecord
100
AcDbRegAppTableRecord
  2
ACAD
 70
0
  0
ENDTAB
  0
TABLE
  2
BLOCK_RECORD
  5
1
100
AcDbSymbolTable
 70
0
  0
BLOCK_RECORD
  5
202
100
AcDbSymbolTableRecord
100
AcDbBlockTableRecord
  2
*Model_Space
  0
BLOCK_RECORD
  5
203
100
AcDbSymbolTableRecord
100
AcDbBlockTableRecord
  2
*Paper_Space
  0
BLOCK_RECORD
  5
204
100
AcDbSymbolTableRecord
100
AcDbBlockTableRecord
  2
_FILLED
  0
ENDTAB
  0
TABLE
  2
DIMSTYLE
  5
A
100
AcDbSymbolTable
 70
1
100
AcDbDimStyleTable
 71
0
  0
DIMSTYLE
105
205
100
AcDbSymbolTableRecord
100
AcDbDimStyleTableRecord
  2
STANDARD
 70
0
  3

  4

 40
1.0
 41
0.1
 42
0.0625
 43
0.38
 44
0.125
 45
0.0
 46
0.0
 47
0.001
 48
0.001
140
0.08
141
0.09
142
0.0
143
25.4
144
1.0
145
0.0
146
1.0
147
0.09
 71
1.0
 72
0.0
 73
1
 74
1
 75
0
 76
0
 77
0
 78
4
 79
1
170
1
171
2
172
0
173
0
174
0
175
0
176
0
177
0
178
0
270
2
179
3
271
3
272
3
273
2
274
2
275
0
280
0
281
0
282
0
283
1
284
4
285
0
286
0
287
3
288
0
340
11
278
46
341
204
342
204
343
204
344
204
  0
ENDTAB
  0
ENDSEC
  0
SECTION
  2
BLOCKS
  0
BLOCK
  5
20
100
AcDbEntity
  8
0
100
AcDbBlockBegin
  2
*Model_Space
 70
0
 10
0.0
 20
0.0
 30
0.0
  3
*Model_Space
  1

  0
ENDBLK
  5
21
100
AcDbEntity
  8
0
100
AcDbBlockEnd
  0
BLOCK
  5
1C
100
AcDbEntity
  8
0
100
AcDbBlockBegin
  2
*Paper_Space
 70
0
 10
0.0
 20
0.0
 30
0.0
  3
*Paper_Space
  1

  0
ENDBLK
  5
1D
100
AcDbEntity
  8
0
100
AcDbBlockEnd
  0
BLOCK
  5
206
100
AcDbEntity
  8
0
100
AcDbBlockBegin
  2
_FILLED
 70
64
 10
0.0
 20
0.0
  3
_FILLED
  1

  0
SOLID
  5
207
100
AcDbEntity
  8
0
  6
BYBLOCK
 62
0
100
AcDbTrace
 10
0.0
 20
0.0
 11
-1.0
 21
0.2
 12
-1.0
 22
-0.2
 13
-1.0
 23
-0.2
  0
ENDBLK
  5
208
100
AcDbEntity
  8
0
  6
BYBLOCK
 62
0
100
AcDbBlockEnd
  0
ENDSEC
  0
SECTION
  2
ENTITIES
  0
LINE
  5
209
100
AcDbEntity
  8
0
100
AcDbLine
 62
9
  6
CONTINUOUS
 10
3.6944931396
 20
8.6770912012
 11
3.6944931396
 21
9.0452478031
  0
LINE
  5
20A
100
AcDbEntity
  8
0
100
AcDbLine
 62
7
  6
CONTINUOUS
 10
3.7446923427
 20
9.1941695021
 11
3.7446923427
 21
8.5281695021
  0
LINE
  5
20B
100
AcDbEntity
  8
0
100
AcDbLine
 62
9
  6
CONTINUOUS
 10
3.8076923427
 20
9.2571695021
 11
3.8076923427
 21
8.4651695021
  0
LINE
  5
20C
100
AcDbEntity
  8
0
100
AcDbLine
 62
7
  6
CONTINUOUS
 10
3.8386246114
 20
8.4651695021
 11
3.8386246114
 21
9.2571695021
  0
LINE
  5
20D
100
AcDbEntity
  8
0
100
AcDbLine
 62
7
  6
CONTINUOUS
 10
3.8521923427
 20
8.4886695021
 11
3.8521923427
 21
9.2336695021
  0
LINE
  5
20E
100
AcDbEntity
  8
0
100
AcDbLine
 62
7
  6
CONTINUOUS
 10
3.8649537582
 20
8.4665660821
 11
3.8649537582
 21
9.2557729222
  0
LINE
  5
20F
100
AcDbEntity
  8
0
100
AcDbLine
 62
7
  6
CONTINUOUS
 10
3.8649537582
 20
8.4665660821
 11
3.8521923427
 21
8.4886695021
  0
LINE
  5
210
100
AcDbEntity
  8
0
100
AcDbLine
 62
7
  6
CONTINUOUS
 10
3.8649537582
 20
9.2557729222
 11
3.8521923427
 21
9.2336695021
  0
LINE
  5
211
100
AcDbEntity
  8
0
100
AcDbLine
 62
7
  6
CONTINUOUS
 10
3.8521923427
 20
8.4886695021
 11
3.8386246114
 21
8.4651695021
  0
LINE
  5
212
100
AcDbEntity
  8
0
100
AcDbLine
 62
7
  6
CONTINUOUS
 10
3.8521923427
 20
9.2336695021
 11
3.8386246114
 21
9.2571695021
  0
LINE
  5
213
100
AcDbEntity
  8
0
100
AcDbLine
 62
7
  6
CONTINUOUS
 10
5.7501923427
 20
6.5911695021
 11
5.7501923427
 21
6.7427905437
  0
LINE
  5
214
100
AcDbEntity
  8
0
100
AcDbLine
 62
7
  6
CONTINUOUS
 10
6.2736923427
 20
8.5956695021
 11
6.2736923427
 21
9.1266695021
  0
LINE
  5
215
100
AcDbEntity
  8
0
100
AcDbLine
 62
7
  6
CONTINUOUS
 10
6.3676923427
 20
8.5956695021
 11
6.3676923427
 21
9.1266695021
  0
LINE
  5
216
100
AcDbEntity
  8
0
100
AcDbLine
 62
9
  6
CONTINUOUS
 10
6.4306923427
 20
9.0436695021
 11
6.4306923427
 21
8.6786695021
  0
LINE
  5
217
100
AcDbEntity
  8
0
100
AcDbLine
 62
7
  6
CONTINUOUS
 10
6.4476923427
 20
8.5481695021
 11
6.4476923427
 21
8.6686695021
  0
LINE
  5
218
100
AcDbEntity
  8
0
100
AcDbLine
 62
7
  6
CONTINUOUS
 10
6.4476923427
 20
9.0536695021
 11
6.4476923427
 21
9.1731695021
  0
LINE
  5
219
100
AcDbEntity
  8
0
100
AcDbLine
 62
7
  6
CONTINUOUS
 10
6.5076923427
 20
8.2381695021
 11
6.5076923427
 21
8.1181695021
  0
LINE
  5
21A
100
AcDbEntity
  8
0
100
AcDbLine
 62
7
  6
CONTINUOUS
 10
6.6251923427
 20
8.2381695021
 11
6.6251923427
 21
8.5481695021
  0
LINE
  5
21B
100
AcDbEntity
  8
0
100
AcDbLine
 62
7
  6
CONTINUOUS
 10
6.3621823625
 20
7.7253613519
 11
6.4376923427
 21
8.1181695021
  0
LINE
  5
21C
100
AcDbEntity
  8
0
100
AcDbLine
 62
7
  6
CONTINUOUS
 10
6.9376923427
 20
6.8979167449
 11
6.9376923427
 21
6.9129376289
  0
LINE
  5
21D
100
AcDbEntity
  8
0
100
AcDbLine
 62
7
  6
CONTINUOUS
 10
6.9376923427
 20
7.7253613519
 11
6.9376923427
 21
8.1181695021
  0
LINE
  5
21E
100
AcDbEntity
  8
0
100
AcDbLine
 62
7
  6
CONTINUOUS
 10
7.2501923427
 20
8.2381695021
 11
7.2501923427
 21
8.5481695021
  0
LINE
  5
21F
100
AcDbEntity
  8
0
100
AcDbLine
 62
7
  6
CONTINUOUS
 10
8.1252040764
 20
6.7427791028
 11
7.9506923427
 21
6.9129376289
  0
LINE
  5
220
100
AcDbEntity
  8
0
100
AcDbLine
 62
7
  6
CONTINUOUS
 10
7.513202323
 20
7.7253613519
 11
7.4376923427
 21
8.1181695021
  0
LINE
  5
221
100
AcDbEntity
  8
0
100
AcDbLine
 62
7
  6
CONTINUOUS
 10
7.3676923427
 20
8.2381695021
 11
7.3676923427
 21
8.1181695021
  0
LINE
  5
222
100
AcDbEntity
  8
0
100
AcDbLine
 62
7
  6
CONTINUOUS
 10
7.4276923427
 20
8.5481695021
 11
7.4276923427
 21
9.1731695021
  0
LINE
  5
223
100
AcDbEntity
  8
0
100
AcDbLine
 62
7
  6
CONTINUOUS
 10
8.1251923427
 20
6.5911695021
 11
8.1251923427
 21
6.7427905437
  0
LINE
  5
224
100
AcDbEntity
  8
0
100
AcDbLine
 62
7
  6
CONTINUOUS
 10
5.7501936456
 20
6.5911695021
 11
8.125177859
 21
6.5911695021
  0
LINE
  5
225
100
AcDbEntity
  8
0
100
AcDbLine
 62
7
  6
CONTINUOUS
 10
9.9888417765
 20
6.5911695021
 11
12.0138417765
 21
6.5911695021
  0
LINE
  5
226
100
AcDbEntity
  8
0
100
AcDbLine
 62
7
  6
CONTINUOUS
 10
13.7501936456
 20
6.5911695021
 11
16.125177859
 21
6.5911695021
  0
LINE
  5
227
100
AcDbEntity
  8
0
100
AcDbLine
 62
9
  6
CONTINUOUS
 10
12.0138417765
 20
6.8401369698
 11
11.6344325794
 21
6.8401369698
  0
LINE
  5
228
100
AcDbEntity
  8
0
100
AcDbLine
 62
9
  6
CONTINUOUS
 10
10.240952106
 20
6.8401369698
 11
9.9888417765
 21
6.8401369698
  0
LINE
  5
229
100
AcDbEntity
  8
0
100
AcDbLine
 62
7
  6
CONTINUOUS
 10
11.9763417765
 20
6.9111695021
 11
11.5924278532
 21
6.9111695021
  0
LINE
  5
22A
100
AcDbEntity
  8
0
100
AcDbLine
 62
7
  6
CONTINUOUS
 10
10.2829568323
 20
6.9111695021
 11
10.0263417765
 21
6.9111695021
  0
LINE
  5
22B
100
AcDbEntity
  8
0
100
AcDbLine
 62
9
  6
CONTINUOUS
 10
15.9506923427
 20
6.9129376289
 11
13.9246923427
 21
6.9129376289
  0
LINE
  5
22C
100
AcDbEntity
  8
0
100
AcDbLine
 62
9
  6
CONTINUOUS
 10
7.9506923427
 20
6.9129376289
 11
5.9246923427
 21
6.9129376289
  0
LINE
  5
22D
100
AcDbEntity
  8
0
100
AcDbLine
 62
7
  6
CONTINUOUS
 10
11.4326923427
 20
7.0911695021
 11
10.4426923427
 21
7.0911695021
  0
LINE
  5
22E
100
AcDbEntity
  8
0
100
AcDbLine
 62
9
  6
CONTINUOUS
 10
11.4001923427
 20
7.1711695021
 11
10.4751923427
 21
7.1711695021
  0
LINE
  5
22F
100
AcDbEntity
  8
0
100
AcDbLine
 62
7
  6
CONTINUOUS
 10
5.7501806091
 20
6.7427791028
 11
5.9246923427
 21
6.9129376289
  0
LINE
  5
230
100
AcDbEntity
  8
0
100
AcDbLine
 62
7
  6
CONTINUOUS
 10
10.3576923427
 20
7.3111695021
 11
10.5015473979
 21
7.3111695021
  0
LINE
  5
231
100
AcDbEntity
  8
0
100
AcDbLine
 62
7
  6
CONTINUOUS
 10
11.3738372876
 20
7.3111695021
 11
11.5176923427
 21
7.3111695021
  0
LINE
  5
232
100
AcDbEntity
  8
0
100
AcDbLine
 62
9
  6
CONTINUOUS
 10
10.5104088365
 20
7.3352720662
 11
11.3649804298
 21
7.3352720662
  0
LINE
  5
233
100
AcDbEntity
  8
0
100
AcDbLine
 62
7
  6
CONTINUOUS
 10
11.3558607276
 20
7.3411695021
 11
10.5195284409
 21
7.3411695021
  0
LINE
  5
234
100
AcDbEntity
  8
0
100
AcDbLine
 62
7
  6
CONTINUOUS
 10
11.5176923427
 20
7.5211695021
 11
10.3576923427
 21
7.5211695021
  0
LINE
  5
235
100
AcDbEntity
  8
0
100
AcDbLine
 62
7
  6
CONTINUOUS
 10
10.9452875011
 20
7.7011983458
 11
10.9300971844
 21
7.7011983458
  0
LINE
  5
236
100
AcDbEntity
  8
0
100
AcDbLine
 62
9
  6
CONTINUOUS
 10
6.3621823625
 20
7.7253613519
 11
7.513202323
 21
7.7253613519
  0
LINE
  5
237
100
AcDbEntity
  8
0
100
AcDbLine
 62
9
  6
CONTINUOUS
 10
14.3621823625
 20
7.7253613519
 11
15.513202323
 21
7.7253613519
  0
LINE
  5
238
100
AcDbEntity
  8
0
100
AcDbLine
 62
9
  6
CONTINUOUS
 10
10.2931495789
 20
7.7519146422
 11
11.7095339741
 21
7.7519146422
  0
LINE
  5
239
100
AcDbEntity
  8
0
100
AcDbLine
 62
7
  6
CONTINUOUS
 10
9.9359641723
 20
11.0591695021
 11
9.9359641723
 21
11.6691695021
  0
LINE
  5
23A
100
AcDbEntity
  8
0
100
AcDbLine
 62
9
  6
CONTINUOUS
 10
10.3444711731
 20
7.894510275
 11
11.6582123799
 21
7.894510275
  0
LINE
  5
23B
100
AcDbEntity
  8
0
100
AcDbLine
 62
7
  6
CONTINUOUS
 10
15.4376923427
 20
8.1181695021
 11
14.4376923427
 21
8.1181695021
  0
LINE
  5
23C
100
AcDbEntity
  8
0
100
AcDbLine
 62
7
  6
CONTINUOUS
 10
7.4376923427
 20
8.1181695021
 11
6.4376923427
 21
8.1181695021
  0
LINE
  5
23D
100
AcDbEntity
  8
0
100
AcDbLine
 62
7
  6
CONTINUOUS
 10
15.3676915304
 20
8.2381695021
 11
14.507693155
 21
8.2381695021
  0
LINE
  5
23E
100
AcDbEntity
  8
0
100
AcDbLine
 62
7
  6
CONTINUOUS
 10
7.3676915304
 20
8.2381695021
 11
6.507693155
 21
8.2381695021
  0
LINE
  5
23F
100
AcDbEntity
  8
0
100
AcDbLine
 62
7
  6
CONTINUOUS
 10
10.3628136391
 20
11.0432445522
 11
10.361972733
 21
11.0591695021
  0
LINE
  5
240
100
AcDbEntity
  8
0
100
AcDbLine
 62
7
  6
CONTINUOUS
 10
9.9888417765
 20
6.8401369698
 11
9.9888417765
 21
6.5911695021
  0
LINE
  5
241
100
AcDbEntity
  8
0
100
AcDbLine
 62
7
  6
CONTINUOUS
 10
10.1340393631
 20
11.0591695021
 11
10.1340393631
 21
11.6691695021
  0
LINE
  5
242
100
AcDbEntity
  8
0
100
AcDbLine
 62
7
  6
CONTINUOUS
 10
10.2413417765
 20
10.693430271
 11
10.2413417765
 21
10.1340026499
  0
LINE
  5
243
100
AcDbEntity
  8
0
100
AcDbLine
 62
7
  6
CONTINUOUS
 10
10.3576923427
 20
7.5211695021
 11
10.3576923427
 21
7.3111695021
  0
LINE
  5
244
100
AcDbEntity
  8
0
100
AcDbLine
 62
7
  6
CONTINUOUS
 10
10.361972733
 20
11.0591695021
 11
10.361972733
 21
11.6691695021
  0
LINE
  5
245
100
AcDbEntity
  8
0
100
AcDbLine
 62
7
  6
CONTINUOUS
 10
10.4751923427
 20
7.0911695021
 11
10.4751923427
 21
7.1711695021
  0
LINE
  5
246
100
AcDbEntity
  8
0
100
AcDbLine
 62
7
  6
CONTINUOUS
 10
10.4257528437
 20
10.0591695021
 11
10.3444711731
 21
7.894510275
  0
LINE
  5
247
100
AcDbEntity
  8
0
100
AcDbLine
 62
7
  6
CONTINUOUS
 10
3.8386246114
 20
8.4651695021
 11
3.8076923427
 21
8.4651695021
  0
LINE
  5
248
100
AcDbEntity
  8
0
100
AcDbLine
 62
7
  6
CONTINUOUS
 10
18.0367600741
 20
8.4651695021
 11
18.0676923427
 21
8.4651695021
  0
LINE
  5
249
100
AcDbEntity
  8
0
100
AcDbLine
 62
7
  6
CONTINUOUS
 10
6.4476923427
 20
8.5481695021
 11
7.4276923427
 21
8.5481695021
  0
LINE
  5
24A
100
AcDbEntity
  8
0
100
AcDbLine
 62
7
  6
CONTINUOUS
 10
14.4476923427
 20
8.5481695021
 11
15.4276923427
 21
8.5481695021
  0
LINE
  5
24B
100
AcDbEntity
  8
0
100
AcDbLine
 62
7
  6
CONTINUOUS
 10
6.4514864723
 20
8.6786695021
 11
6.4306923427
 21
8.6786695021
  0
LINE
  5
24C
100
AcDbEntity
  8
0
100
AcDbLine
 62
7
  6
CONTINUOUS
 10
15.4239018236
 20
8.6786695021
 11
15.4446923427
 21
8.6786695021
  0
LINE
  5
24D
100
AcDbEntity
  8
0
100
AcDbLine
 62
7
  6
CONTINUOUS
 10
10.840168545
 20
11.0591695021
 11
10.840168545
 21
11.6691695021
  0
LINE
  5
24E
100
AcDbEntity
  8
0
100
AcDbLine
 62
7
  6
CONTINUOUS
 10
11.9913417765
 20
10.969602573
 11
11.7898105552
 21
10.7633107717
  0
LINE
  5
24F
100
AcDbEntity
  8
0
100
AcDbLine
 62
7
  6
CONTINUOUS
 10
6.2736923427
 20
8.5956695021
 11
3.8649537582
 21
8.4665660821
  0
LINE
  5
250
100
AcDbEntity
  8
0
100
AcDbLine
 62
7
  6
CONTINUOUS
 10
15.6016923427
 20
9.1266695021
 11
18.0104309272
 21
9.2557729222
  0
LINE
  5
251
100
AcDbEntity
  8
0
100
AcDbLine
 62
7
  6
CONTINUOUS
 10
6.4514829063
 20
9.0436695021
 11
6.4306923427
 21
9.0436695021
  0
LINE
  5
252
100
AcDbEntity
  8
0
100
AcDbLine
 62
7
  6
CONTINUOUS
 10
15.4238982455
 20
9.0436695021
 11
15.4446923427
 21
9.0436695021
  0
LINE
  5
253
100
AcDbEntity
  8
0
100
AcDbLine
 62
7
  6
CONTINUOUS
 10
15.4276923427
 20
9.1731695021
 11
14.4476923427
 21
9.1731695021
  0
LINE
  5
254
100
AcDbEntity
  8
0
100
AcDbLine
 62
7
  6
CONTINUOUS
 10
7.4276923427
 20
9.1731695021
 11
6.4476923427
 21
9.1731695021
  0
LINE
  5
255
100
AcDbEntity
  8
0
100
AcDbLine
 62
7
  6
CONTINUOUS
 10
3.8386246114
 20
9.2571695021
 11
3.8076923427
 21
9.2571695021
  0
LINE
  5
256
100
AcDbEntity
  8
0
100
AcDbLine
 62
7
  6
CONTINUOUS
 10
18.0367600741
 20
9.2571695021
 11
18.0676923427
 21
9.2571695021
  0
LINE
  5
257
100
AcDbEntity
  8
0
100
AcDbLine
 62
7
  6
CONTINUOUS
 10
15.6016923427
 20
8.5956695021
 11
18.0104309272
 21
8.4665660821
  0
LINE
  5
258
100
AcDbEntity
  8
0
100
AcDbLine
 62
7
  6
CONTINUOUS
 10
6.2736923427
 20
9.1266695021
 11
3.8649537582
 21
9.2557729222
  0
LINE
  5
259
100
AcDbEntity
  8
0
100
AcDbLine
 62
7
  6
CONTINUOUS
 10
11.1625150079
 20
11.0591695021
 11
11.1625150079
 21
11.6691695021
  0
LINE
  5
25A
100
AcDbEntity
  8
0
100
AcDbLine
 62
7
  6
CONTINUOUS
 10
11.4001923427
 20
7.0911695021
 11
11.4001923427
 21
7.1711695021
  0
LINE
  5
25B
100
AcDbEntity
  8
0
100
AcDbLine
 62
7
  6
CONTINUOUS
 10
11.5176923427
 20
7.5211695021
 11
11.5176923427
 21
7.3111695021
  0
LINE
  5
25C
100
AcDbEntity
  8
0
100
AcDbLine
 62
7
  6
CONTINUOUS
 10
10.0113417765
 20
10.969602573
 11
10.2128729977
 21
10.7633107717
  0
LINE
  5
25D
100
AcDbEntity
  8
0
100
AcDbLine
 62
7
  6
CONTINUOUS
 10
11.5769307093
 20
10.0591695021
 11
11.6582123799
 21
7.894510275
  0
LINE
  5
25E
100
AcDbEntity
  8
0
100
AcDbLine
 62
7
  6
CONTINUOUS
 10
11.64071082
 20
11.0591695021
 11
11.64071082
 21
11.6691695021
  0
LINE
  5
25F
100
AcDbEntity
  8
0
100
AcDbLine
 62
7
  6
CONTINUOUS
 10
11.7613417765
 20
10.693430271
 11
11.7613417765
 21
10.1340026499
  0
LINE
  5
260
100
AcDbEntity
  8
0
100
AcDbLine
 62
7
  6
CONTINUOUS
 10
11.8686441898
 20
11.0591695021
 11
11.8686441898
 21
11.6691695021
  0
LINE
  5
261
100
AcDbEntity
  8
0
100
AcDbLine
 62
7
  6
CONTINUOUS
 10
12.0138417765
 20
6.8401369698
 11
12.0138417765
 21
6.5911695021
  0
LINE
  5
262
100
AcDbEntity
  8
0
100
AcDbLine
 62
7
  6
CONTINUOUS
 10
11.64071082
 20
11.0591695021
 11
11.6398699139
 21
11.0432443183
  0
LINE
  5
263
100
AcDbEntity
  8
0
100
AcDbLine
 62
7
  6
CONTINUOUS
 10
10.2613417765
 20
10.0591695021
 11
11.7413417765
 21
10.0591695021
  0
LINE
  5
264
100
AcDbEntity
  8
0
100
AcDbLine
 62
9
  6
CONTINUOUS
 10
10.2413417765
 20
10.1340026499
 11
11.7613417765
 21
10.1340026499
  0
LINE
  5
265
100
AcDbEntity
  8
0
100
AcDbLine
 62
7
  6
CONTINUOUS
 10
12.0667193806
 20
11.0591695021
 11
12.0667193806
 21
11.6691695021
  0
LINE
  5
266
100
AcDbEntity
  8
0
100
AcDbLine
 62
9
  6
CONTINUOUS
 10
11.7613417765
 20
10.693430271
 11
10.2413562614
 21
10.693430271
  0
LINE
  5
267
100
AcDbEntity
  8
0
100
AcDbLine
 62
9
  6
CONTINUOUS
 10
10.2128729977
 20
10.7633107717
 11
11.7898105552
 21
10.7633107717
  0
LINE
  5
268
100
AcDbEntity
  8
0
100
AcDbLine
 62
7
  6
CONTINUOUS
 10
9.9359641723
 20
11.0591695021
 11
10.1340393631
 21
11.0591695021
  0
LINE
  5
269
100
AcDbEntity
  8
0
100
AcDbLine
 62
7
  6
CONTINUOUS
 10
10.361972733
 20
11.0591695021
 11
10.840168545
 21
11.0591695021
  0
LINE
  5
26A
100
AcDbEntity
  8
0
100
AcDbLine
 62
7
  6
CONTINUOUS
 10
11.1625150079
 20
11.0591695021
 11
11.64071082
 21
11.0591695021
  0
LINE
  5
26B
100
AcDbEntity
  8
0
100
AcDbLine
 62
7
  6
CONTINUOUS
 10
11.8686441898
 20
11.0591695021
 11
12.0667193806
 21
11.0591695021
  0
LINE
  5
26C
100
AcDbEntity
  8
0
100
AcDbLine
 62
7
  6
CONTINUOUS
 10
16.1252040764
 20
6.7427791028
 11
15.9506923427
 21
6.9129376289
  0
LINE
  5
26D
100
AcDbEntity
  8
0
100
AcDbLine
 62
9
  6
CONTINUOUS
 10
12.0667193806
 20
11.6691695021
 11
11.8686441898
 21
11.6691695021
  0
LINE
  5
26E
100
AcDbEntity
  8
0
100
AcDbLine
 62
9
  6
CONTINUOUS
 10
11.64071082
 20
11.6691695021
 11
11.1625150079
 21
11.6691695021
  0
LINE
  5
26F
100
AcDbEntity
  8
0
100
AcDbLine
 62
9
  6
CONTINUOUS
 10
10.840168545
 20
11.6691695021
 11
10.361972733
 21
11.6691695021
  0
LINE
  5
270
100
AcDbEntity
  8
0
100
AcDbLine
 62
9
  6
CONTINUOUS
 10
10.1340393631
 20
11.6691695021
 11
9.9359641723
 21
11.6691695021
  0
LINE
  5
271
100
AcDbEntity
  8
0
100
AcDbLine
 62
7
  6
CONTINUOUS
 10
11.9288417765
 20
11.8191695021
 11
10.0738417765
 21
11.8191695021
  0
LINE
  5
272
100
AcDbEntity
  8
0
100
AcDbLine
 62
9
  6
CONTINUOUS
 10
10.0922053434
 20
11.8791695021
 11
11.9104782095
 21
11.8791695021
  0
LINE
  5
273
100
AcDbEntity
  8
0
100
AcDbLine
 62
7
  6
CONTINUOUS
 10
13.7501923427
 20
6.5911695021
 11
13.7501923427
 21
6.7427905437
  0
LINE
  5
274
100
AcDbEntity
  8
0
100
AcDbLine
 62
7
  6
CONTINUOUS
 10
14.4476923427
 20
8.5481695021
 11
14.4476923427
 21
9.1731695021
  0
LINE
  5
275
100
AcDbEntity
  8
0
100
AcDbLine
 62
7
  6
CONTINUOUS
 10
14.5076923427
 20
8.2381695021
 11
14.5076923427
 21
8.1181695021
  0
LINE
  5
276
100
AcDbEntity
  8
0
100
AcDbLine
 62
7
  6
CONTINUOUS
 10
14.6251923427
 20
8.2381695021
 11
14.6251923427
 21
8.5481695021
  0
LINE
  5
277
100
AcDbEntity
  8
0
100
AcDbLine
 62
7
  6
CONTINUOUS
 10
14.3621823625
 20
7.7253613519
 11
14.4376923427
 21
8.1181695021
  0
LINE
  5
278
100
AcDbEntity
  8
0
100
AcDbLine
 62
7
  6
CONTINUOUS
 10
14.9376923427
 20
6.8979167449
 11
14.9376923427
 21
6.9129376289
  0
LINE
  5
279
100
AcDbEntity
  8
0
100
AcDbLine
 62
7
  6
CONTINUOUS
 10
14.9376923427
 20
7.7253613519
 11
14.9376923427
 21
8.1181695021
  0
LINE
  5
27A
100
AcDbEntity
  8
0
100
AcDbLine
 62
7
  6
CONTINUOUS
 10
13.7501806091
 20
6.7427791028
 11
13.9246923427
 21
6.9129376289
  0
LINE
  5
27B
100
AcDbEntity
  8
0
100
AcDbLine
 62
7
  6
CONTINUOUS
 10
15.513202323
 20
7.7253613519
 11
15.4376923427
 21
8.1181695021
  0
LINE
  5
27C
100
AcDbEntity
  8
0
100
AcDbLine
 62
7
  6
CONTINUOUS
 10
15.2501923427
 20
8.2381695021
 11
15.2501923427
 21
8.5481695021
  0
LINE
  5
27D
100
AcDbEntity
  8
0
100
AcDbLine
 62
7
  6
CONTINUOUS
 10
15.3676923427
 20
8.2381695021
 11
15.3676923427
 21
8.1181695021
  0
LINE
  5
27E
100
AcDbEntity
  8
0
100
AcDbLine
 62
7
  6
CONTINUOUS
 10
15.4276923427
 20
8.5481695021
 11
15.4276923427
 21
8.6686695021
  0
LINE
  5
27F
100
AcDbEntity
  8
0
100
AcDbLine
 62
7
  6
CONTINUOUS
 10
15.4276923427
 20
9.0536695021
 11
15.4276923427
 21
9.1731695021
  0
LINE
  5
280
100
AcDbEntity
  8
0
100
AcDbLine
 62
9
  6
CONTINUOUS
 10
15.4446923427
 20
8.6786695021
 11
15.4446923427
 21
9.0436695021
  0
LINE
  5
281
100
AcDbEntity
  8
0
100
AcDbLine
 62
7
  6
CONTINUOUS
 10
15.5076923427
 20
9.1266695021
 11
15.5076923427
 21
8.5956695021
  0
LINE
  5
282
100
AcDbEntity
  8
0
100
AcDbLine
 62
7
  6
CONTINUOUS
 10
15.6016923427
 20
9.1266695021
 11
15.6016923427
 21
8.5956695021
  0
LINE
  5
283
100
AcDbEntity
  8
0
100
AcDbLine
 62
7
  6
CONTINUOUS
 10
16.1251923427
 20
6.5911695021
 11
16.1251923427
 21
6.7427905437
  0
LINE
  5
284
100
AcDbEntity
  8
0
100
AcDbLine
 62
7
  6
CONTINUOUS
 10
18.0231923427
 20
8.4886695021
 11
18.0367600741
 21
8.4651695021
  0
LINE
  5
285
100
AcDbEntity
  8
0
100
AcDbLine
 62
7
  6
CONTINUOUS
 10
18.0231923427
 20
9.2336695021
 11
18.0367600741
 21
9.2571695021
  0
LINE
  5
286
100
AcDbEntity
  8
0
100
AcDbLine
 62
7
  6
CONTINUOUS
 10
18.0104309272
 20
9.2557729222
 11
18.0231923427
 21
9.2336695021
  0
LINE
  5
287
100
AcDbEntity
  8
0
100
AcDbLine
 62
7
  6
CONTINUOUS
 10
18.0104309272
 20
8.4665660821
 11
18.0231923427
 21
8.4886695021
  0
LINE
  5
288
100
AcDbEntity
  8
0
100
AcDbLine
 62
7
  6
CONTINUOUS
 10
18.0104309272
 20
8.4665660821
 11
18.0104309272
 21
9.2557729222
  0
LINE
  5
289
100
AcDbEntity
  8
0
100
AcDbLine
 62
7
  6
CONTINUOUS
 10
18.0231923427
 20
8.4886695021
 11
18.0231923427
 21
9.2336695021
  0
LINE
  5
28A
100
AcDbEntity
  8
0
100
AcDbLine
 62
7
  6
CONTINUOUS
 10
18.0367600741
 20
9.2571695021
 11
18.0367600741
 21
8.4651695021
  0
LINE
  5
28B
100
AcDbEntity
  8
0
100
AcDbLine
 62
9
  6
CONTINUOUS
 10
18.0676923427
 20
8.4651695021
 11
18.0676923427
 21
9.2571695021
  0
LINE
  5
28C
100
AcDbEntity
  8
0
100
AcDbLine
 62
7
  6
CONTINUOUS
 10
18.1306923427
 20
8.5281695021
 11
18.1306923427
 21
9.1941695021
  0
LINE
  5
28D
100
AcDbEntity
  8
0
100
AcDbLine
 62
9
  6
CONTINUOUS
 10
18.1808915459
 20
8.6770912012
 11
18.1808915459
 21
9.0452478031
  0
ARC
  5
28E
100
AcDbEntity
  8
0
100
AcDbCircle
 62
7
  6
CONTINUOUS
 10
9.0264957217
 20
8.0162635507
 40
1.541
100
AcDbArc
 50
190.8813003471
 51
225.7236108955
  0
ARC
  5
28F
100
AcDbEntity
  8
0
100
AcDbCircle
 62
7
  6
CONTINUOUS
 10
4.8488889638
 20
8.0162635507
 40
1.541
100
AcDbArc
 50
314.2763891045
 51
349.1186996529
  0
ARC
  5
290
100
AcDbEntity
  8
0
100
AcDbCircle
 62
7
  6
CONTINUOUS
 10
6.9376923427
 20
7.755460082
 40
1.5
100
AcDbArc
 50
70.9334198993
 51
109.0665801007
  0
ARC
  5
291
100
AcDbEntity
  8
0
100
AcDbCircle
 62
7
  6
CONTINUOUS
 10
10.6773217685
 20
6.9616374993
 40
1.3
100
AcDbArc
 50
357.7751307226
 51
37.4382101819
  0
ARC
  5
292
100
AcDbEntity
  8
0
100
AcDbCircle
 62
7
  6
CONTINUOUS
 10
10.9300971844
 20
6.7011983458
 40
1.0
100
AcDbArc
 50
90.0
 51
124.9180935012
  0
ARC
  5
293
100
AcDbEntity
  8
0
100
AcDbCircle
 62
7
  6
CONTINUOUS
 10
9.6871164602
 20
6.6552945249
 40
0.938
100
AcDbArc
 50
32.7915972718
 51
44.3650233311
  0
ARC
  5
294
100
AcDbEntity
  8
0
100
AcDbCircle
 62
7
  6
CONTINUOUS
 10
10.8464719365
 20
6.4082744624
 40
0.9
100
AcDbArc
 50
11.7251268757
 51
49.3560828237
  0
ARC
  5
295
100
AcDbEntity
  8
0
100
AcDbCircle
 62
7
  6
CONTINUOUS
 10
10.8751923427
 20
7.1711695021
 40
0.4
100
AcDbArc
 50
155.7790568907
 51
180.0
  0
ARC
  5
296
100
AcDbEntity
  8
0
100
AcDbCircle
 62
7
  6
CONTINUOUS
 10
10.0946472317
 20
7.9038910159
 40
0.25
100
AcDbArc
 50
322.5617898181
 51
357.849587733
  0
ARC
  5
297
100
AcDbEntity
  8
0
100
AcDbCircle
 62
7
  6
CONTINUOUS
 10
10.0748667185
 20
6.8401369698
 40
0.0860249421
100
AcDbArc
 50
124.338423378
 51
180.0
  0
ARC
  5
298
100
AcDbEntity
  8
0
100
AcDbCircle
 62
7
  6
CONTINUOUS
 10
3.8076923427
 20
8.5281695021
 40
0.063
100
AcDbArc
 50
180.0
 51
270.0
  0
ARC
  5
299
100
AcDbEntity
  8
0
100
AcDbCircle
 62
7
  6
CONTINUOUS
 10
3.6816923427
 20
8.6154053876
 40
0.063
100
AcDbArc
 50
0.0
 51
78.2765970114
  0
ARC
  5
29A
100
AcDbEntity
  8
0
100
AcDbCircle
 62
7
  6
CONTINUOUS
 10
6.4306923427
 20
8.6156695021
 40
0.063
100
AcDbArc
 50
90.0
 51
180.0
  0
ARC
  5
29B
100
AcDbEntity
  8
0
100
AcDbCircle
 62
7
  6
CONTINUOUS
 10
6.3206923427
 20
8.5956695021
 40
0.047
100
AcDbArc
 50
180.0
 51
360.0
  0
ARC
  5
29C
100
AcDbEntity
  8
0
100
AcDbCircle
 62
7
  6
CONTINUOUS
 10
10.5195239579
 20
7.3311695021
 40
0.01
100
AcDbArc
 50
90.0
 51
155.7790568908
  0
ARC
  5
29D
100
AcDbEntity
  8
0
100
AcDbCircle
 62
7
  6
CONTINUOUS
 10
7.8400088698
 20
9.2187569778
 40
2.7892914673
100
AcDbArc
 50
38.8808295361
 51
41.2856606005
  0
ARC
  5
29E
100
AcDbEntity
  8
0
100
AcDbCircle
 62
7
  6
CONTINUOUS
 10
3.7326923427
 20
8.8611695021
 40
0.188
100
AcDbArc
 50
101.7234029883
 51
258.2765970117
  0
ARC
  5
29F
100
AcDbEntity
  8
0
100
AcDbCircle
 62
7
  6
CONTINUOUS
 10
10.0738417765
 20
11.6691695021
 40
0.15
100
AcDbArc
 50
90.0
 51
114.6243183522
  0
ARC
  5
2A0
100
AcDbEntity
  8
0
100
AcDbCircle
 62
7
  6
CONTINUOUS
 10
10.3913417765
 20
10.1340026499
 40
0.15
100
AcDbArc
 50
180.0
 51
209.9264348668
  0
ARC
  5
2A1
100
AcDbEntity
  8
0
100
AcDbCircle
 62
7
  6
CONTINUOUS
 10
10.1413417765
 20
10.693430271
 40
0.1
100
AcDbArc
 50
0.0
 51
44.3312080467
  0
ARC
  5
2A2
100
AcDbEntity
  8
0
100
AcDbCircle
 62
7
  6
CONTINUOUS
 10
3.8076923427
 20
9.1941695021
 40
0.063
100
AcDbArc
 50
90.0
 51
180.0
  0
ARC
  5
2A3
100
AcDbEntity
  8
0
100
AcDbCircle
 62
7
  6
CONTINUOUS
 10
3.6816923427
 20
9.1069336167
 40
0.063
100
AcDbArc
 50
281.7234029886
 51
360.0
  0
ARC
  5
2A4
100
AcDbEntity
  8
0
100
AcDbCircle
 62
7
  6
CONTINUOUS
 10
6.4306923427
 20
9.1066695021
 40
0.063
100
AcDbArc
 50
180.0
 51
270.0
  0
ARC
  5
2A5
100
AcDbEntity
  8
0
100
AcDbCircle
 62
7
  6
CONTINUOUS
 10
6.3206923427
 20
9.1266695021
 40
0.047
100
AcDbArc
 50
0.0
 51
180.0
  0
ARC
  5
2A6
100
AcDbEntity
  8
0
100
AcDbCircle
 62
7
  6
CONTINUOUS
 10
10.0964951286
 20
11.8493228543
 40
0.0301533521
100
AcDbArc
 50
98.1789688981
 51
270.0
  0
ARC
  5
2A7
100
AcDbEntity
  8
0
100
AcDbCircle
 62
7
  6
CONTINUOUS
 10
11.0013417765
 20
5.553753703
 40
6.3904157991
100
AcDbArc
 50
81.821031102
 51
98.178968898
  0
ARC
  5
2A8
100
AcDbEntity
  8
0
100
AcDbCircle
 62
7
  6
CONTINUOUS
 10
17.0264957217
 20
8.0162635507
 40
1.541
100
AcDbArc
 50
190.8813003471
 51
225.7236108955
  0
ARC
  5
2A9
100
AcDbEntity
  8
0
100
AcDbCircle
 62
7
  6
CONTINUOUS
 10
12.8488889638
 20
8.0162635507
 40
1.541
100
AcDbArc
 50
314.2763891045
 51
349.1186996529
  0
ARC
  5
2AA
100
AcDbEntity
  8
0
100
AcDbCircle
 62
7
  6
CONTINUOUS
 10
14.9376923427
 20
7.755460082
 40
1.5
100
AcDbArc
 50
70.9334198993
 51
109.0665801007
  0
ARC
  5
2AB
100
AcDbEntity
  8
0
100
AcDbCircle
 62
7
  6
CONTINUOUS
 10
11.3253617845
 20
6.9616374993
 40
1.3
100
AcDbArc
 50
142.5617898182
 51
182.2248692774
  0
ARC
  5
2AC
100
AcDbEntity
  8
0
100
AcDbCircle
 62
7
  6
CONTINUOUS
 10
10.9452875011
 20
6.7011983458
 40
1.0
100
AcDbArc
 50
55.0819064988
 51
90.0
  0
ARC
  5
2AD
100
AcDbEntity
  8
0
100
AcDbCircle
 62
7
  6
CONTINUOUS
 10
12.1882682253
 20
6.6552945249
 40
0.938
100
AcDbArc
 50
135.6349766689
 51
147.2084027282
  0
ARC
  5
2AE
100
AcDbEntity
  8
0
100
AcDbCircle
 62
7
  6
CONTINUOUS
 10
11.028912749
 20
6.4082744624
 40
0.9
100
AcDbArc
 50
130.6439171763
 51
168.2748731243
  0
ARC
  5
2AF
100
AcDbEntity
  8
0
100
AcDbCircle
 62
7
  6
CONTINUOUS
 10
11.0001923427
 20
7.1711695021
 40
0.4
100
AcDbArc
 50
0.0
 51
24.2209431093
  0
ARC
  5
2B0
100
AcDbEntity
  8
0
100
AcDbCircle
 62
7
  6
CONTINUOUS
 10
11.9080363213
 20
7.9038910159
 40
0.25
100
AcDbArc
 50
182.150412267
 51
217.4382101819
  0
ARC
  5
2B1
100
AcDbEntity
  8
0
100
AcDbCircle
 62
7
  6
CONTINUOUS
 10
11.9278168344
 20
6.8401369698
 40
0.0860249421
100
AcDbArc
 50
0.0
 51
55.661576622
  0
ARC
  5
2B2
100
AcDbEntity
  8
0
100
AcDbCircle
 62
7
  6
CONTINUOUS
 10
18.0676923427
 20
8.5281695021
 40
0.063
100
AcDbArc
 50
270.0
 51
360.0
  0
ARC
  5
2B3
100
AcDbEntity
  8
0
100
AcDbCircle
 62
7
  6
CONTINUOUS
 10
18.1936923427
 20
8.6154053876
 40
0.063
100
AcDbArc
 50
101.7234029886
 51
180.0
  0
ARC
  5
2B4
100
AcDbEntity
  8
0
100
AcDbCircle
 62
7
  6
CONTINUOUS
 10
15.4446923427
 20
8.6156695021
 40
0.063
100
AcDbArc
 50
0.0
 51
90.0
  0
ARC
  5
2B5
100
AcDbEntity
  8
0
100
AcDbCircle
 62
7
  6
CONTINUOUS
 10
15.5546923427
 20
8.5956695021
 40
0.047
100
AcDbArc
 50
180.0
 51
360.0
  0
ARC
  5
2B6
100
AcDbEntity
  8
0
100
AcDbCircle
 62
7
  6
CONTINUOUS
 10
11.3558607276
 20
7.3311695021
 40
0.01
100
AcDbArc
 50
24.2209431092
 51
90.0
  0
ARC
  5
2B7
100
AcDbEntity
  8
0
100
AcDbCircle
 62
7
  6
CONTINUOUS
 10
14.1626760281
 20
9.2187558459
 40
2.7892932248
100
AcDbArc
 50
138.7143401574
 51
141.1191697064
  0
ARC
  5
2B8
100
AcDbEntity
  8
0
100
AcDbCircle
 62
7
  6
CONTINUOUS
 10
18.1426923427
 20
8.8611695021
 40
0.188
100
AcDbArc
 50
281.7234029883
 51
78.2765970117
  0
ARC
  5
2B9
100
AcDbEntity
  8
0
100
AcDbCircle
 62
7
  6
CONTINUOUS
 10
11.9288417765
 20
11.6691695021
 40
0.15
100
AcDbArc
 50
65.3756816477
 51
90.0
  0
ARC
  5
2BA
100
AcDbEntity
  8
0
100
AcDbCircle
 62
7
  6
CONTINUOUS
 10
11.6113417765
 20
10.1340026499
 40
0.15
100
AcDbArc
 50
330.0735651332
 51
360.0
  0
ARC
  5
2BB
100
AcDbEntity
  8
0
100
AcDbCircle
 62
7
  6
CONTINUOUS
 10
11.8613417765
 20
10.693430271
 40
0.1
100
AcDbArc
 50
135.6687919533
 51
180.0
  0
ARC
  5
2BC
100
AcDbEntity
  8
0
100
AcDbCircle
 62
7
  6
CONTINUOUS
 10
18.0676923427
 20
9.1941695021
 40
0.063
100
AcDbArc
 50
0.0
 51
90.0
  0
ARC
  5
2BD
100
AcDbEntity
  8
0
100
AcDbCircle
 62
7
  6
CONTINUOUS
 10
18.1936923427
 20
9.1069336167
 40
0.063
100
AcDbArc
 50
180.0
 51
258.2765970114
  0
ARC
  5
2BE
100
AcDbEntity
  8
0
100
AcDbCircle
 62
7
  6
CONTINUOUS
 10
15.4446923427
 20
9.1066695021
 40
0.063
100
AcDbArc
 50
270.0
 51
360.0
  0
ARC
  5
2BF
100
AcDbEntity
  8
0
100
AcDbCircle
 62
7
  6
CONTINUOUS
 10
15.5546923427
 20
9.1266695021
 40
0.047
100
AcDbArc
 50
0.0
 51
180.0
  0
ARC
  5
2C0
100
AcDbEntity
  8
0
100
AcDbCircle
 62
7
  6
CONTINUOUS
 10
11.9061884243
 20
11.8493228543
 40
0.0301533521
100
AcDbArc
 50
270.0
 51
81.8210311019
  0
SPLINE
  5
2C1
100
AcDbEntity
  8
0
100
AcDbSpline
 62
7
  6
CONTINUOUS
 70
0
 71
3
 72
11
 73
7
 74
0
 42
0.0000001
 43
0.0000001
 44
0.0000000001
 40
0.0
 40
0.0
 40
0.0
 40
0.0
 40
0.2326552009
 40
0.4802852693
 40
0.7379572147
 40
1.0
 40
1.0
 40
1.0
 40
1.0
 10
11.6398699761
 20
11.7356952174
 30
0.0
 10
11.6398691524
 20
11.7305355566
 30
0.0
 10
11.6400087405
 20
11.7198843798
 30
0.0
 10
11.6403577545
 20
11.7035223834
 30
0.0
 10
11.6406313005
 20
11.6865067898
 30
0.0
 10
11.64071082
 20
11.6749808999
 30
0.0
 10
11.64071082
 20
11.6691695021
 30
0.0
  0
SPLINE
  5
2C2
100
AcDbEntity
  8
0
100
AcDbSpline
 62
7
  6
CONTINUOUS
 70
0
 71
3
 72
11
 73
7
 74
0
 42
0.0000001
 43
0.0000001
 44
0.0000000001
 40
0.0
 40
0.0
 40
0.0
 40
0.0
 40
0.2620228447
 40
0.5196947266
 40
0.7673404137
 40
1.0
 40
1.0
 40
1.0
 40
1.0
 10
10.361972733
 20
11.6691695021
 30
0.0
 10
10.361972733
 20
11.6749804724
 30
0.0
 10
10.3620524846
 20
11.6865059455
 30
0.0
 10
10.362325721
 20
11.7035214906
 30
0.0
 10
10.3626750092
 20
11.7198839615
 30
0.0
 10
10.3628149627
 20
11.7305356121
 30
0.0
 10
10.3628137435
 20
11.7356953832
 30
0.0
  0
SPLINE
  5
2C3
100
AcDbEntity
  8
0
100
AcDbSpline
 62
7
  6
CONTINUOUS
 70
0
 71
3
 72
17
 73
13
 74
0
 42
0.0000001
 43
0.0000001
 44
0.0000000001
 40
0.0
 40
0.0
 40
0.0
 40
0.0
 40
0.0984988611
 40
0.1964980358
 40
0.2930521554
 40
0.3872990462
 40
0.478279154
 40
0.5647863061
 40
0.6455554184
 40
0.7194246607
 40
0.9304080293
 40
1.0
 40
1.0
 40
1.0
 40
1.0
 10
9.9359641723
 20
11.6691695021
 30
0.0
 10
9.9359641723
 20
11.6745212394
 30
0.0
 10
9.9364843392
 20
11.6852042092
 30
0.0
 10
9.9387646654
 20
11.7009858994
 30
0.0
 10
9.9424960626
 20
11.7162518185
 30
0.0
 10
9.9475089619
 20
11.7307413759
 30
0.0
 10
9.9536212312
 20
11.7442035598
 30
0.0
 10
9.9605394683
 20
11.7564315295
 30
0.0
 10
9.9679744356
 20
11.7672421205
 30
0.0
 10
9.9805253867
 20
11.7826489094
 30
0.0
 10
9.9950550458
 20
11.7956658579
 30
0.0
 10
10.0080378155
 20
11.803693249
 30
0.0
 10
10.0113417765
 20
11.8055284036
 30
0.0
  0
SPLINE
  5
2C4
100
AcDbEntity
  8
0
100
AcDbSpline
 62
7
  6
CONTINUOUS
 70
0
 71
3
 72
24
 73
20
 74
0
 42
0.0000001
 43
0.0000001
 44
0.0000000001
 40
0.0
 40
0.0
 40
0.0
 40
0.0
 40
0.0043115627
 40
0.0172904436
 40
0.0390125278
 40
0.0695603004
 40
0.1090654687
 40
0.1576177168
 40
0.2149891618
 40
0.2809775776
 40
0.3548272278
 40
0.4355472726
 40
0.4781680717
 40
0.5220591195
 40
0.6129770555
 40
0.707175099
 40
0.8036832971
 40
0.9016084237
 40
1.0
 40
1.0
 40
1.0
 40
1.0
 10
11.9913417765
 20
11.8055284036
 30
0.0
 10
11.9915479478
 20
11.8054168817
 30
0.0
 10
11.9923715425
 20
11.8049638799
 30
0.0
 10
11.9942056356
 20
11.8038985045
 30
0.0
 10
11.9972405124
 20
11.8020618998
 30
0.0
 10
12.0014215735
 20
11.7993370543
 30
0.0
 10
12.0066553611
 20
11.7955669572
 30
0.0
 10
12.012825974
 20
11.7906177152
 30
0.0
 10
12.0197345499
 20
11.7843131164
 30
0.0
 10
12.0271277783
 20
11.7765360324
 30
0.0
 10
12.0347176707
 20
11.7672382224
 30
0.0
 10
12.040794385
 20
11.7583898011
 30
0.0
 10
12.0454500411
 20
11.7505783657
 30
0.0
 10
12.0500252786
 20
11.7420839784
 30
0.0
 10
12.0551792142
 20
11.7307305331
 30
0.0
 10
12.0601891922
 20
11.7162408023
 30
0.0
 10
12.0639210827
 20
11.7009754977
 30
0.0
 10
12.0661984711
 20
11.6851971519
 30
0.0
 10
12.0667193806
 20
11.6745183209
 30
0.0
 10
12.0667193806
 20
11.6691695021
 30
0.0
  0
SPLINE
  5
2C5
100
AcDbEntity
  8
0
100
AcDbSpline
 62
7
  6
CONTINUOUS
 70
0
 71
3
 72
39
 73
35
 74
0
 42
0.0000001
 43
0.0000001
 44
0.0000000001
 40
0.0
 40
0.0
 40
0.0
 40
0.0
 40
0.0394033967
 40
0.0788893831
 40
0.118376439
 40
0.157835243
 40
0.1972805797
 40
0.2367350156
 40
0.2761692206
 40
0.2958621161
 40
0.3155193199
 40
0.3546709572
 40
0.3934916141
 40
0.4317742202
 40
0.4693660205
 40
0.5416318692
 40
0.5759988973
 40
0.6089481248
 40
0.6403328091
 40
0.6700389961
 40
0.6979491345
 40
0.723983202
 40
0.7481066414
 40
0.7703420908
 40
0.7908511529
 40
0.8099757245
 40
0.8282879719
 40
0.8466449569
 40
0.8660368479
 40
0.8873755494
 40
0.9112543931
 40
0.9380118887
 40
0.9676769416
 40
1.0
 40
1.0
 40
1.0
 40
1.0
 10
11.8686441898
 20
11.6691695021
 30
0.0
 10
11.8686441898
 20
11.673794884
 30
0.0
 10
11.8681404247
 20
11.6830629161
 30
0.0
 10
11.865894848
 20
11.6968021421
 30
0.0
 10
11.8621595373
 20
11.7102229331
 30
0.0
 10
11.8569609731
 20
11.723142024
 30
0.0
 10
11.8503606725
 20
11.7354014236
 30
0.0
 10
11.8424163419
 20
11.7468309522
 30
0.0
 10
11.8347929336
 20
11.7555696896
 30
0.0
 10
11.8281676336
 20
11.7620275542
 30
0.0
 10
11.8212288615
 20
11.7680972443
 30
0.0
 10
11.8120297163
 20
11.7749662473
 30
0.0
 10
11.8003573184
 20
11.7820717301
 30
0.0
 10
11.788268216
 20
11.7880354187
 30
0.0
 10
11.7721034134
 20
11.794481974
 30
0.0
 10
11.7557695574
 20
11.7991301603
 30
0.0
 10
11.7396840842
 20
11.8022699756
 30
0.0
 10
11.7282130739
 20
11.8039325237
 30
0.0
 10
11.7172226683
 20
11.8050073117
 30
0.0
 10
11.706784708
 20
11.8055334861
 30
0.0
 10
11.6969614003
 20
11.8055661829
 30
0.0
 10
11.6878040181
 20
11.8050891539
 30
0.0
 10
11.6793598837
 20
11.8040678599
 30
0.0
 10
11.6716619349
 20
11.8024734414
 30
0.0
 10
11.6647417148
 20
11.8002053223
 30
0.0
 10
11.6586320589
 20
11.7971447667
 30
0.0
 10
11.6533812374
 20
11.7931584276
 30
0.0
 10
11.6490429352
 20
11.7881459594
 30
0.0
 10
11.6456490587
 20
11.7820469671
 30
0.0
 10
11.6431749358
 20
11.7748466648
 30
0.0
 10
11.641472261
 20
11.7665548049
 30
0.0
 10
11.6404393938
 20
11.7571760951
 30
0.0
 10
11.6399433612
 20
11.7467666346
 30
0.0
 10
11.6398705818
 20
11.7394894712
 30
0.0
 10
11.6398699761
 20
11.7356952174
 30
0.0
  0
SPLINE
  5
2C6
100
AcDbEntity
  8
0
100
AcDbSpline
 62
7
  6
CONTINUOUS
 70
0
 71
3
 72
30
 73
26
 74
0
 42
0.0000001
 43
0.0000001
 44
0.0000000001
 40
0.0
 40
0.0
 40
0.0
 40
0.0
 40
0.0813579718
 40
0.1627145779
 40
0.2435885569
 40
0.3233527112
 40
0.4011369106
 40
0.4757894004
 40
0.5115235398
 40
0.5459443614
 40
0.5788838662
 40
0.6102089483
 40
0.6398461264
 40
0.66780393
 40
0.6941822623
 40
0.7191699821
 40
0.7430283799
 40
0.7660584896
 40
0.7885665074
 40
0.8108376562
 40
0.8331137366
 40
0.8555858103
 40
0.9016040938
 40
0.9496497676
 40
1.0
 40
1.0
 40
1.0
 40
1.0
 10
10.1340393631
 20
11.0591695021
 30
0.0
 10
10.1401879657
 20
11.0537682285
 30
0.0
 10
10.1526647645
 20
11.0431678747
 30
0.0
 10
10.1719201199
 20
11.028003607
 30
0.0
 10
10.1916827556
 20
11.0137750991
 30
0.0
 10
10.2118514484
 20
11.0007722438
 30
0.0
 10
10.2322571058
 20
10.9893696963
 30
0.0
 10
10.2494895784
 20
10.981465127
 30
0.0
 10
10.2631739271
 20
10.9764518996
 30
0.0
 10
10.2731148052
 20
10.9734723027
 30
0.0
 10
10.2828060161
 20
10.971280155
 30
0.0
 10
10.2921661331
 20
10.9699288504
 30
0.0
 10
10.3011121501
 20
10.9694544683
 30
0.0
 10
10.3095655262
 20
10.9698726073
 30
0.0
 10
10.3174570441
 20
10.9711772096
 30
0.0
 10
10.3247306257
 20
10.9733397299
 30
0.0
 10
10.3313469229
 20
10.9763099593
 30
0.0
 10
10.3372839908
 20
10.9800234747
 30
0.0
 10
10.3425372744
 20
10.984406612
 30
0.0
 10
10.3471185123
 20
10.9893823358
 30
0.0
 10
10.3510495687
 20
10.9948789965
 30
0.0
 10
10.3554964921
 20
11.0028720154
 30
0.0
 10
10.3595704081
 20
11.0139448938
 30
0.0
 10
10.3622813527
 20
11.0282656344
 30
0.0
 10
10.3628135769
 20
11.0381777723
 30
0.0
 10
10.3628136935
 20
11.0432426729
 30
0.0
  0
SPLINE
  5
2C7
100
AcDbEntity
  8
0
100
AcDbSpline
 62
7
  6
CONTINUOUS
 70
0
 71
3
 72
21
 73
17
 74
0
 42
0.0000001
 43
0.0000001
 44
0.0000000001
 40
0.0
 40
0.0
 40
0.0
 40
0.0
 40
0.1143910015
 40
0.1741407381
 40
0.2357520746
 40
0.2993212784
 40
0.3648128698
 40
0.4319268409
 40
0.4999998981
 40
0.5680728615
 40
0.6351869102
 40
0.7006783963
 40
0.7642475615
 40
0.8258589493
 40
0.8856087435
 40
1.0
 40
1.0
 40
1.0
 40
1.0
 10
10.840168545
 20
11.0591695021
 30
0.0
 10
10.8487855157
 20
11.0474087848
 30
0.0
 10
10.8634762916
 20
11.0305687076
 30
0.0
 10
10.8862187222
 20
11.0108750571
 30
0.0
 10
10.905575293
 20
10.9973402976
 30
0.0
 10
10.9270055116
 20
10.9857567208
 30
0.0
 10
10.950404111
 20
10.9767322957
 30
0.0
 10
10.9754101517
 20
10.9709367912
 30
0.0
 10
11.0013417262
 20
10.9689310849
 30
0.0
 10
11.0272733101
 20
10.9709367814
 30
0.0
 10
11.0522793424
 20
10.9767322564
 30
0.0
 10
11.0756779354
 20
10.9857566748
 30
0.0
 10
11.0971081525
 20
10.9973402287
 30
0.0
 10
11.1164647389
 20
11.0108749819
 30
0.0
 10
11.1392072162
 20
11.0305686495
 30
0.0
 10
11.1538980181
 20
11.0474087586
 30
0.0
 10
11.1625150079
 20
11.0591695021
 30
0.0
  0
SPLINE
  5
2C8
100
AcDbEntity
  8
0
100
AcDbSpline
 62
7
  6
CONTINUOUS
 70
0
 71
3
 72
43
 73
39
 74
0
 42
0.0000001
 43
0.0000001
 44
0.0000000001
 40
0.0
 40
0.0
 40
0.0
 40
0.0
 40
0.0330341296
 40
0.0658395823
 40
0.0980654566
 40
0.1295098501
 40
0.1601156003
 40
0.1899726135
 40
0.2046944483
 40
0.2193240373
 40
0.2484892895
 40
0.2631364173
 40
0.2778735446
 40
0.3077448044
 40
0.3383038067
 40
0.3695859027
 40
0.4015409019
 40
0.4340321343
 40
0.4668949917
 40
0.4999523727
 40
0.533009615
 40
0.5658786774
 40
0.5983835635
 40
0.6303473332
 40
0.6616437191
 40
0.6922195872
 40
0.7221039643
 40
0.7368483283
 40
0.7515025219
 40
0.7806790286
 40
0.795312126
 40
0.8100363246
 40
0.8398966425
 40
0.8705023823
 40
0.9019428984
 40
0.9341637876
 40
0.966966505
 40
1.0
 40
1.0
 40
1.0
 40
1.0
 10
11.1625150079
 20
11.6691695021
 30
0.0
 10
11.1625150079
 20
11.6745170735
 30
0.0
 10
11.1620909945
 20
11.6851803964
 30
0.0
 10
11.1601527915
 20
11.7009550667
 30
0.0
 10
11.1568694637
 20
11.7162472323
 30
0.0
 10
11.1521717374
 20
11.73079932
 30
0.0
 10
11.1459712957
 20
11.7443641989
 30
0.0
 10
11.1394884277
 20
11.7547144252
 30
0.0
 10
11.1335507483
 20
11.7622485455
 30
0.0
 10
11.1271429455
 20
11.7692349162
 30
0.0
 10
11.1199854623
 20
11.7754813074
 30
0.0
 10
11.1122212974
 20
11.7809272545
 30
0.0
 10
11.1040029497
 20
11.7858876289
 30
0.0
 10
11.0929939043
 20
11.791145356
 30
0.0
 10
11.0789604385
 20
11.7960604305
 30
0.0
 10
11.0642212857
 20
11.799777861
 30
0.0
 10
11.0489471186
 20
11.802456942
 30
0.0
 10
11.0332918827
 20
11.8042699688
 30
0.0
 10
11.0173888441
 20
11.8053062843
 30
0.0
 10
11.0013651994
 20
11.8056393537
 30
0.0
 10
10.9853401008
 20
11.8053133277
 30
0.0
 10
10.9694346811
 20
11.8042668658
 30
0.0
 10
10.9537732668
 20
11.8024680607
 30
0.0
 10
10.9384931385
 20
11.7997865764
 30
0.0
 10
10.9237484677
 20
11.7960653183
 30
0.0
 10
10.9097067011
 20
11.7911527456
 30
0.0
 10
10.8986906791
 20
11.7858949643
 30
0.0
 10
10.8904698837
 20
11.7809300055
 30
0.0
 10
10.8827027992
 20
11.7754810936
 30
0.0
 10
10.8755420495
 20
11.7692332153
 30
0.0
 10
10.8691307478
 20
11.7622462833
 30
0.0
 10
10.8631913802
 20
11.754711521
 30
0.0
 10
10.8567101391
 20
11.7443591222
 30
0.0
 10
10.8505100288
 20
11.7307943305
 30
0.0
 10
10.8458128786
 20
11.716243525
 30
0.0
 10
10.8425306005
 20
11.7009530654
 30
0.0
 10
10.8405926459
 20
11.6851797463
 30
0.0
 10
10.840168545
 20
11.6745169708
 30
0.0
 10
10.840168545
 20
11.6691695021
 30
0.0
  0
SPLINE
  5
2C9
100
AcDbEntity
  8
0
100
AcDbSpline
 62
7
  6
CONTINUOUS
 70
0
 71
3
 72
38
 73
34
 74
0
 42
0.0000001
 43
0.0000001
 44
0.0000000001
 40
0.0
 40
0.0
 40
0.0
 40
0.0
 40
0.03232514
 40
0.0619895867
 40
0.0887492874
 40
0.1126258996
 40
0.1339559667
 40
0.1533397005
 40
0.1716915408
 40
0.1900012622
 40
0.209114695
 40
0.2296108742
 40
0.2518417199
 40
0.2759553042
 40
0.3019824408
 40
0.329891533
 40
0.3595932531
 40
0.3909843253
 40
0.4582978847
 40
0.4939161717
 40
0.5306421417
 40
0.5682496107
 40
0.6065513818
 40
0.645395708
 40
0.6845657939
 40
0.70422957
 40
0.7239275174
 40
0.7633698208
 40
0.8028306043
 40
0.8422771952
 40
0.8817340151
 40
0.9212199963
 40
1.0
 40
1.0
 40
1.0
 40
1.0
 10
10.3628137435
 20
11.7356953832
 30
0.0
 10
10.3628128469
 20
11.7394894977
 30
0.0
 10
10.3627395578
 20
11.7467660947
 30
0.0
 10
10.3622434117
 20
11.7571749014
 30
0.0
 10
10.3612125726
 20
11.7665527506
 30
0.0
 10
10.3595120256
 20
11.7748432049
 30
0.0
 10
10.3570377307
 20
11.7820404035
 30
0.0
 10
10.353645952
 20
11.7881362864
 30
0.0
 10
10.3493145107
 20
11.7931513356
 30
0.0
 10
10.3440659712
 20
11.7971365362
 30
0.0
 10
10.337959575
 20
11.800194946
 30
0.0
 10
10.3310440662
 20
11.8024631376
 30
0.0
 10
10.3233524262
 20
11.8040685173
 30
0.0
 10
10.3149107853
 20
11.8050856832
 30
0.0
 10
10.3057565986
 20
11.8055591801
 30
0.0
 10
10.2959357552
 20
11.8055413361
 30
0.0
 10
10.2854984309
 20
11.8050097442
 30
0.0
 10
10.2704956509
 20
11.8035384498
 30
0.0
 10
10.2549172518
 20
11.8009155055
 30
0.0
 10
10.2390214776
 20
11.7968804444
 30
0.0
 10
10.2267216023
 20
11.7929427768
 30
0.0
 10
10.2144295541
 20
11.7880437315
 30
0.0
 10
10.2023366529
 20
11.782076191
 30
0.0
 10
10.1906597294
 20
11.7749668532
 30
0.0
 10
10.1814561031
 20
11.768096379
 30
0.0
 10
10.1745142289
 20
11.7620262727
 30
0.0
 10
10.167887445
 20
11.7555678982
 30
0.0
 10
10.1602647758
 20
11.7468270178
 30
0.0
 10
10.1523206034
 20
11.7353967763
 30
0.0
 10
10.1457201561
 20
11.7231389764
 30
0.0
 10
10.140522959
 20
11.71021842
 30
0.0
 10
10.1355508412
 20
11.6923593887
 30
0.0
 10
10.1340393631
 20
11.6784161865
 30
0.0
 10
10.1340393631
 20
11.6691695021
 30
0.0
  0
SPLINE
  5
2CA
100
AcDbEntity
  8
0
100
AcDbSpline
 62
7
  6
CONTINUOUS
 70
0
 71
3
 72
30
 73
26
 74
0
 42
0.0000001
 43
0.0000001
 44
0.0000000001
 40
0.0
 40
0.0
 40
0.0
 40
0.0
 40
0.0503501051
 40
0.0983957482
 40
0.1444139944
 40
0.1668860854
 40
0.1891621657
 40
0.2114333187
 40
0.2339413383
 40
0.2569715445
 40
0.2808299253
 40
0.3058175681
 40
0.3321959261
 40
0.360153758
 40
0.3897908834
 40
0.4211158965
 40
0.4540554961
 40
0.4884762978
 40
0.5242102727
 40
0.5988627105
 40
0.6766468522
 40
0.7564110564
 40
0.8372850771
 40
0.9186418733
 40
1.0
 40
1.0
 40
1.0
 40
1.0
 10
11.6398698614
 20
11.0432426747
 30
0.0
 10
11.6398699768
 20
11.0381777868
 30
0.0
 10
11.6404022019
 20
11.028265665
 30
0.0
 10
11.6431131329
 20
11.0139449424
 30
0.0
 10
11.6471870371
 20
11.0028720649
 30
0.0
 10
11.6516339546
 20
10.9948790449
 30
0.0
 10
11.6555650074
 20
10.9893823792
 30
0.0
 10
11.6601462372
 20
10.9844066471
 30
0.0
 10
11.6653995261
 20
10.9800234989
 30
0.0
 10
11.6713366026
 20
10.9763099831
 30
0.0
 10
11.6779528912
 20
10.9733397331
 30
0.0
 10
11.6852264698
 20
10.9711772257
 30
0.0
 10
11.6931179823
 20
10.9698726087
 30
0.0
 10
11.7015713593
 20
10.9694544685
 30
0.0
 10
11.7105173665
 20
10.9699288474
 30
0.0
 10
11.7198774829
 20
10.9712801399
 30
0.0
 10
11.7295686926
 20
10.9734722954
 30
0.0
 10
11.7395095668
 20
10.9764518737
 30
0.0
 10
11.753193892
 20
10.9814650971
 30
0.0
 10
11.770426345
 20
10.9893696418
 30
0.0
 10
11.790832
 20
11.0007721822
 30
0.0
 10
11.8110007007
 20
11.0137750318
 30
0.0
 10
11.8307633631
 20
11.0280035513
 30
0.0
 10
11.8500187519
 20
11.0431678399
 30
0.0
 10
11.8624955755
 20
11.0537682182
 30
0.0
 10
11.8686441898
 20
11.0591695021
 30
0.0
  0
SPLINE
  5
2CB
100
AcDbEntity
  8
0
100
AcDbSpline
 62
7
  6
CONTINUOUS
 70
0
 71
3
 72
23
 73
19
 74
0
 42
0.0000001
 43
0.0000001
 44
0.0000000001
 40
0.0
 40
0.0
 40
0.0
 40
0.0
 40
0.0401904845
 40
0.1508662732
 40
0.2263505787
 40
0.311687314
 40
0.3571715604
 40
0.4040079159
 40
0.4517633317
 40
0.499998499
 40
0.5482311758
 40
0.5959800455
 40
0.6882615416
 40
0.7319843452
 40
0.7735995186
 40
0.8490884911
 40
0.959797016
 40
1.0
 40
1.0
 40
1.0
 40
1.0
 10
15.4276923427
 20
9.0536695021
 30
0.0
 10
15.4257557903
 20
9.048741637
 30
0.0
 10
15.4186900379
 20
9.0301585387
 30
0.0
 10
15.4093236575
 20
9.0018137479
 30
0.0
 10
15.4002741044
 20
8.9671889868
 30
0.0
 10
15.3949851938
 20
8.9405019945
 30
0.0
 10
15.3916661876
 20
8.9173252711
 30
0.0
 10
15.3897538936
 20
8.8989630031
 30
0.0
 10
15.3885624608
 20
8.8801761097
 30
0.0
 10
15.3881690107
 20
8.8611715446
 30
0.0
 10
15.3885621929
 20
8.8421674489
 30
0.0
 10
15.3901320397
 20
8.8174055519
 30
0.0
 10
15.3931088952
 20
8.7933485701
 30
0.0
 10
15.3972710922
 20
8.7703148456
 30
0.0
 10
15.4017248925
 20
8.7495936739
 30
0.0
 10
15.409320919
 20
8.7205384466
 30
0.0
 10
15.4186868171
 20
8.6921873824
 30
0.0
 10
15.4257548838
 20
8.6735988654
 30
0.0
 10
15.4276923427
 20
8.6686695021
 30
0.0
  0
LINE
  5
2CC
100
AcDbEntity
  8
0
100
AcDbLine
 62
7
  6
CONTINUOUS
 10
14.9376923427
 20
6.9129376289
 11
14.9376923427
 21
7.7253613519
  0
SPLINE
  5
2CD
100
AcDbEntity
  8
0
100
AcDbSpline
 62
7
  6
CONTINUOUS
 70
0
 71
3
 72
23
 73
19
 74
0
 42
0.0000001
 43
0.0000001
 44
0.0000000001
 40
0.0
 40
0.0
 40
0.0
 40
0.0
 40
0.0401906656
 40
0.1508661009
 40
0.2263502166
 40
0.3116868864
 40
0.3571712198
 40
0.4040076562
 40
0.4517631843
 40
0.4999984922
 40
0.5482313041
 40
0.5959802803
 40
0.6882619423
 40
0.7319847458
 40
0.7735998822
 40
0.8490886389
 40
0.9597968405
 40
1.0
 40
1.0
 40
1.0
 40
1.0
 10
6.4476923427
 20
8.6686695021
 30
0.0
 10
6.449628902
 20
8.6735973902
 30
0.0
 10
6.4566946429
 20
8.6921804685
 30
0.0
 10
6.4660610188
 20
8.7205252105
 30
0.0
 10
6.4751105408
 20
8.755149896
 30
0.0
 10
6.4803994772
 20
8.7818368611
 30
0.0
 10
6.4837184609
 20
8.805013601
 30
0.0
 10
6.4856307896
 20
8.8233759023
 30
0.0
 10
6.4868222152
 20
8.8421628407
 30
0.0
 10
6.4872156599
 20
8.8611674566
 30
0.0
 10
6.4868224889
 20
8.8801716028
 30
0.0
 10
6.4852526329
 20
8.9049335531
 30
0.0
 10
6.4822757727
 20
8.9289905703
 30
0.0
 10
6.4781135647
 20
8.9520243101
 30
0.0
 10
6.473659761
 20
8.9727454468
 30
0.0
 10
6.4660637561
 20
9.0018006011
 30
0.0
 10
6.4566978653
 20
9.0301516169
 30
0.0
 10
6.4496298086
 20
9.0487401169
 30
0.0
 10
6.4476923427
 20
9.0536695021
 30
0.0
  0
LINE
  5
2CE
100
AcDbEntity
  8
0
100
AcDbLine
 62
7
  6
CONTINUOUS
 10
6.9376923427
 20
6.9129376289
 11
6.9376923427
 21
7.7253613519
  0
ELLIPSE
  5
2CF
100
AcDbEntity
  8
0
100
AcDbEllipse
 62
7
  6
CONTINUOUS
 10
14.9376923427
 20
7.9006682725
 30
0.0
 11
1.0411369379
 21
0.9898582626
 31
0.0
 40
0.5769821704
 41
-3.1197341656
 42
-2.0725366144
  0
ELLIPSE
  5
2D0
100
AcDbEntity
  8
0
100
AcDbEllipse
 62
7
  6
CONTINUOUS
 10
14.9376923427
 20
7.9006682725
 30
0.0
 11
-1.0411369379
 21
0.9898582626
 31
0.0
 40
0.5769821704
 41
-4.2106486927
 42
-3.1634511416
  0
ELLIPSE
  5
2D1
100
AcDbEntity
  8
0
100
AcDbEllipse
 62
7
  6
CONTINUOUS
 10
6.9376923427
 20
7.9006682725
 30
0.0
 11
-1.0411369379
 21
0.9898582626
 31
0.0
 40
0.5769821704
 41
-4.2106486927
 42
-3.1634511416
  0
ELLIPSE
  5
2D2
100
AcDbEntity
  8
0
100
AcDbEllipse
 62
7
  6
CONTINUOUS
 10
6.9376923427
 20
7.9006682725
 30
0.0
 11
1.0411369379
 21
0.9898582626
 31
0.0
 40
0.5769821704
 41
-3.1197341656
 42
-2.0725366144
  0
ENDSEC
  0
SECTION
  2
OBJECTS
  0
DICTIONARY
  5
C
100
AcDbDictionary
280
0
281
1
  3
ACAD_GROUP
350
D
  3
ACAD_MLINESTYLE
350
17
  3
ACAD_LAYOUT
350
1A
  3
ACAD_PLOTSETTINGS
350
19
  3
ACAD_PLOTSTYLENAME
350
E
  0
DICTIONARY
  5
D
102
{ACAD_REACTORS
330
C
102
}
100
AcDbDictionary
280
0
281
1
  0
ACDBDICTIONARYWDFLT
  5
E
102
{ACAD_REACTORS
330
C
102
}
100
AcDbDictionary
281
1
  3
Normal
350
F
100
AcDbDictionaryWithDefault
340
F
  0
DICTIONARY
  5
17
102
{ACAD_REACTORS
330
C
102
}
100
AcDbDictionary
280
0
281
1
  3
Standard
350
18
  0
DICTIONARY
  5
19
102
{ACAD_REACTORS
330
C
102
}
100
AcDbDictionary
281
1
  0
DICTIONARY
  5
1A
102
{ACAD_REACTORS
330
C
102
}
100
AcDbDictionary
281
1
  3
Model
350
2D3
  3
Layout1
350
2D4
  0
ACDBPLACEHOLDER
  5
F
102
{ACAD_REACTORS
330
E
102
}
  0
MLINESTYLE
  5
18
102
{ACAD_REACTORS
330
17
102
}
100
AcDbMlineStyle
  2
STANDARD
 70
0
  3

 62
256
 51
90.0
 52
90.0
 71
2
 49
0.5
 62
256
  6
BYLAYER
 49
-0.5
 62
256
  6
BYLAYER
  0
LAYOUT
  5
2D3
102
{ACAD_REACTORS
330
1A
102
}
100
AcDbPlotSettings
  1

  2
none_device
  4
ANSI_C_(22.00_x_17.00_Inches)
  6

 40
0.0
 41
0.0
 42
0.0
 43
0.0
 44
558.8
 45
431.8
 46
0.0
 47
0.0
 48
0.0
 49
0.0
140
0.0
141
0.0
142
1.0
143
1.0
 70
1024
 72
0
 73
0
 74
0
  7

 75
0
147
1.0
148
0.0
149
0.0
100
AcDbLayout
  1
Model
 70
0
 71
0
 10
0.0
 20
0.0
 11
22.0
 21
17.0
 12
0.0
 22
0.0
 32
0.0
 14
0.0
 24
0.0
 34
0.0
 15
0.0
 25
0.0
 35
0.0
146
0.0
 13
0.0
 23
0.0
 33
0.0
 16
1.0
 26
0.0
 36
0.0
 17
0.0
 27
1.0
 37
0.0
 76
0
330
202
345
0
346
0
  0
LAYOUT
  5
2D4
102
{ACAD_REACTORS
330
1A
102
}
100
AcDbPlotSettings
  1

  2
none_device
  4
ANSI_C_(22.00_x_17.00_Inches)
  6

 40
0.0
 41
0.0
 42
0.0
 43
0.0
 44
558.8
 45
431.8
 46
0.0
 47
0.0
 48
0.0
 49
0.0
140
0.0
141
0.0
142
1.0
143
1.0
 70
0
 72
0
 73
0
 74
0
  7

 75
0
147
1.0
148
0.0
149
0.0
100
AcDbLayout
  1
Layout1
 70
0
 71
1
 10
0.0
 20
0.0
 11
22.0
 21
17.0
 12
0.0
 22
0.0
 32
0.0
 14
0.0
 24
0.0
 34
0.0
 15
0.0
 25
0.0
 35
0.0
146
0.0
 13
0.0
 23
0.0
 33
0.0
 16
1.0
 26
0.0
 36
0.0
 17
0.0
 27
1.0
 37
0.0
 76
0
330
203
345
0
346
0
  0
ENDSEC
  0
EOF
