999
DXF file: E:\BT Custom\CADOUTPUT\_RIGHT.dxf
999
Pro/ENGINEER 2018400 by Parametric Technology Corporation
  0
SECTION
  2
HEADER
  9
$ACADVER
  1
AC1018
  9
$DWGCODEPAGE
  3
ANSI_1252
  9
$EXTMAX
 10
22.0
 20
17.0
 30
0.0
  9
$EXTMIN
 10
0.0
 20
0.0
 30
0.0
  9
$LIMMIN
 10
0.0
 20
0.0
  9
$LIMMAX
 10
22.0
 20
17.0
  9
$VIEWCTR
 10
11.0
 20
8.5
  9
$VIEWSIZE
 40
17.0
  9
$CLAYER
  8
0
  9
$LTSCALE
 40
1.21
  9
$CELTYPE
  6
BYLAYER
  9
$DIMSCALE
 40
1.0
  9
$DIMASZ
 40
0.1
  9
$DIMEXO
 40
0.0625
  9
$DIMDLI
 40
0.836
  9
$DIMEXE
 40
0.125
  9
$DIMCEN
 40
0.198
  9
$DIMLFAC
 40
1.0
  9
$DIMBLK
  1
_FILLED
  9
$DIMALT
 70
1
  9
$DIMALTD
 70
2
  9
$DIMALTTD
 70
2
  9
$DIMALTF
 40
25.4
  9
$DIMTXT
 40
0.08
  9
$DIMTOL
 70
1
  9
$DIMLIM
 70
0
  9
$DIMTFAC
 40
1.0
  9
$DIMTP
 40
0.001
  9
$DIMTM
 40
0.001
  9
$DIMGAP
 40
0.09
  9
$DIMDSEP
 70
46
  9
$AUNITS
 70
0
  9
$PDMODE
 70
3
  9
$PDSIZE
 40
0.06
  9
$HANDSEED
  5
297
  9
$TILEMODE
 70
1
  9
$MEASUREMENT
 70
0
  9
$INSUNITS
 70
1
  0
ENDSEC
  0
SECTION
  2
CLASSES
  0
CLASS
  1
ACDBDICTIONARYWDFLT
  2
AcDbDictionaryWithDefault
  3
AutoCAD 2000
 90
0
 91
1
280
0
281
0
  0
CLASS
  1
ACDBPLACEHOLDER
  2
AcDbPlaceHolder
  3
AutoCAD 2000
 90
0
 91
1
280
0
281
0
  0
CLASS
  1
LAYOUT
  2
AcDbLayout
  3
AutoCAD 2000
 90
0
 91
0
280
0
281
0
  0
ENDSEC
  0
SECTION
  2
TABLES
  0
TABLE
  2
VPORT
  5
8
100
AcDbSymbolTable
 70
2
  0
VPORT
  5
1F4
100
AcDbSymbolTableRecord
100
AcDbViewportTableRecord
  2
*ACTIVE
 70
0
 10
0.0
 20
0.0
 11
1.0
 21
1.0
 12
11.0
 22
8.5
 13
0.0
 23
0.0
 14
1.0
 24
1.0
 15
0.0
 25
0.0
 16
0.0
 26
0.0
 36
1.0
 17
0.0
 27
0.0
 37
0.0
 40
17.0
 41
1.2941176471
 42
50.0
 43
0.0
 44
0.0
 50
0.0
 51
0.0
 71
0
 72
100
 73
1
 74
1
 75
0
 76
0
 77
0
 78
0
  0
ENDTAB
  0
TABLE
  2
LTYPE
  5
5
100
AcDbSymbolTable
 70
6
  0
LTYPE
  5
14
100
AcDbSymbolTableRecord
100
AcDbLinetypeTableRecord
  2
BYBLOCK
 70
0
  3

 72
65
 73
0
 40
0.0
  0
LTYPE
  5
15
100
AcDbSymbolTableRecord
100
AcDbLinetypeTableRecord
  2
BYLAYER
 70
0
  3

 72
65
 73
0
 40
0.0
  0
LTYPE
  5
16
100
AcDbSymbolTableRecord
100
AcDbLinetypeTableRecord
  2
CONTINUOUS
 70
64
  3
Solid line
 72
65
 73
0
 40
0.0
  0
LTYPE
  5
1F5
100
AcDbSymbolTableRecord
100
AcDbLinetypeTableRecord
  2
CENTER
 70
64
  3
____ _ ____ _ ____ _ ____ _ ____ _ ____ _ ____
 72
65
 73
4
 40
0.6
 49
0.375
 74
0
 49
-0.075
 74
0
 49
0.075
 74
0
 49
-0.075
 74
0
  0
LTYPE
  5
1F6
100
AcDbSymbolTableRecord
100
AcDbLinetypeTableRecord
  2
HIDDEN
 70
64
  3
- - - - - - - - - - - - - - - - - - - -
 72
65
 73
2
 40
0.2
 49
0.1
 74
0
 49
-0.1
 74
0
  0
LTYPE
  5
1F7
100
AcDbSymbolTableRecord
100
AcDbLinetypeTableRecord
  2
PHANTOM
 70
64
  3
_____ _ _ _____ _ _ _____ _ _ _____
 72
65
 73
6
 40
0.8
 49
0.45
 74
0
 49
-0.05
 74
0
 49
0.1
 74
0
 49
-0.05
 74
0
 49
0.1
 74
0
 49
-0.05
 74
0
  0
LTYPE
  5
1F8
100
AcDbSymbolTableRecord
100
AcDbLinetypeTableRecord
  2
DOT
 70
64
  3
. . . . . . . . . . . . . . . . . . . .
 72
65
 73
2
 40
0.2
 49
0.1
 74
0
 49
-0.1
 74
0
  0
LTYPE
  5
1F9
100
AcDbSymbolTableRecord
100
AcDbLinetypeTableRecord
  2
DASHED
 70
64
  3
- - - - - - - - - - - - - - - - - - - -
 72
65
 73
2
 40
0.2
 49
0.1
 74
0
 49
-0.1
 74
0
  0
ENDTAB
  0
TABLE
  2
LAYER
  5
2
100
AcDbSymbolTable
 70
36
  0
LAYER
  5
10
100
AcDbSymbolTableRecord
100
AcDbLayerTableRecord
  2
0
 70
0
 62
7
  6
CONTINUOUS
370
-3
390
F
  0
LAYER
  5
1FA
100
AcDbSymbolTableRecord
100
AcDbLayerTableRecord
  2
DEFAULT_1
 70
0
 62
7
  6
CENTER
370
-3
390
F
  0
LAYER
  5
1FB
100
AcDbSymbolTableRecord
100
AcDbLayerTableRecord
  2
DEFAULT_2
 70
0
 62
8
  6
HIDDEN
370
-3
390
F
  0
LAYER
  5
1FC
100
AcDbSymbolTableRecord
100
AcDbLayerTableRecord
  2
DEFAULT_3
 70
0
 62
7
  6
PHANTOM
370
-3
390
F
  0
LAYER
  5
1FD
100
AcDbSymbolTableRecord
100
AcDbLayerTableRecord
  2
ALL_FEATURES
 70
0
 62
7
  6
CONTINUOUS
370
-3
390
F
  0
LAYER
  5
1FE
100
AcDbSymbolTableRecord
100
AcDbLayerTableRecord
  2
AXES_FEATURES
 70
0
 62
7
  6
CONTINUOUS
370
-3
390
F
  0
LAYER
  5
1FF
100
AcDbSymbolTableRecord
100
AcDbLayerTableRecord
  2
DIMENSIONS
 70
0
 62
7
  6
CONTINUOUS
370
-3
390
F
  0
ENDTAB
  0
TABLE
  2
STYLE
  5
3
100
AcDbSymbolTable
 70
1
  0
STYLE
  5
11
100
AcDbSymbolTableRecord
100
AcDbTextStyleTableRecord
  2
STANDARD
 70
0
 40
0.0
 41
0.8
 50
0.0
 71
0
 42
0.2
  3
txt
  4

  0
STYLE
  5
200
100
AcDbSymbolTableRecord
100
AcDbTextStyleTableRecord
  2
TEXTSTYLE_1
 70
0
 40
0.0
 41
0.8
 50
0.0
 71
0
 42
0.2
  3
gdt
  4

  0
ENDTAB
  0
TABLE
  2
VIEW
  5
6
100
AcDbSymbolTable
 70
0
  0
ENDTAB
  0
TABLE
  2
UCS
  5
7
100
AcDbSymbolTable
 70
0
  0
ENDTAB
  0
TABLE
  2
APPID
  5
9
100
AcDbSymbolTable
 70
1
  0
APPID
  5
201
100
AcDbSymbolTableRecord
100
AcDbRegAppTableRecord
  2
ACAD
 70
0
  0
ENDTAB
  0
TABLE
  2
BLOCK_RECORD
  5
1
100
AcDbSymbolTable
 70
0
  0
BLOCK_RECORD
  5
202
100
AcDbSymbolTableRecord
100
AcDbBlockTableRecord
  2
*Model_Space
  0
BLOCK_RECORD
  5
203
100
AcDbSymbolTableRecord
100
AcDbBlockTableRecord
  2
*Paper_Space
  0
BLOCK_RECORD
  5
204
100
AcDbSymbolTableRecord
100
AcDbBlockTableRecord
  2
_FILLED
  0
ENDTAB
  0
TABLE
  2
DIMSTYLE
  5
A
100
AcDbSymbolTable
 70
1
100
AcDbDimStyleTable
 71
0
  0
DIMSTYLE
105
205
100
AcDbSymbolTableRecord
100
AcDbDimStyleTableRecord
  2
STANDARD
 70
0
  3

  4

 40
1.0
 41
0.1
 42
0.0625
 43
0.38
 44
0.125
 45
0.0
 46
0.0
 47
0.001
 48
0.001
140
0.08
141
0.09
142
0.0
143
25.4
144
1.0
145
0.0
146
1.0
147
0.09
 71
1.0
 72
0.0
 73
1
 74
1
 75
0
 76
0
 77
0
 78
4
 79
1
170
1
171
2
172
0
173
0
174
0
175
0
176
0
177
0
178
0
270
2
179
3
271
3
272
3
273
2
274
2
275
0
280
0
281
0
282
0
283
1
284
4
285
0
286
0
287
3
288
0
340
11
278
46
341
204
342
204
343
204
344
204
  0
ENDTAB
  0
ENDSEC
  0
SECTION
  2
BLOCKS
  0
BLOCK
  5
20
100
AcDbEntity
  8
0
100
AcDbBlockBegin
  2
*Model_Space
 70
0
 10
0.0
 20
0.0
 30
0.0
  3
*Model_Space
  1

  0
ENDBLK
  5
21
100
AcDbEntity
  8
0
100
AcDbBlockEnd
  0
BLOCK
  5
1C
100
AcDbEntity
  8
0
100
AcDbBlockBegin
  2
*Paper_Space
 70
0
 10
0.0
 20
0.0
 30
0.0
  3
*Paper_Space
  1

  0
ENDBLK
  5
1D
100
AcDbEntity
  8
0
100
AcDbBlockEnd
  0
BLOCK
  5
206
100
AcDbEntity
  8
0
100
AcDbBlockBegin
  2
_FILLED
 70
64
 10
0.0
 20
0.0
  3
_FILLED
  1

  0
SOLID
  5
207
100
AcDbEntity
  8
0
  6
BYBLOCK
 62
0
100
AcDbTrace
 10
0.0
 20
0.0
 11
-1.0
 21
0.2
 12
-1.0
 22
-0.2
 13
-1.0
 23
-0.2
  0
ENDBLK
  5
208
100
AcDbEntity
  8
0
  6
BYBLOCK
 62
0
100
AcDbBlockEnd
  0
ENDSEC
  0
SECTION
  2
ENTITIES
  0
LINE
  5
209
100
AcDbEntity
  8
0
100
AcDbLine
 62
7
  6
CONTINUOUS
 10
-0.3902053198
 20
6.833391804
 11
-0.3902053198
 21
6.913391804
  0
LINE
  5
20A
100
AcDbEntity
  8
0
100
AcDbLine
 62
7
  6
CONTINUOUS
 10
0.5347946802
 20
6.833391804
 11
0.5347946802
 21
6.913391804
  0
LINE
  5
20B
100
AcDbEntity
  8
0
100
AcDbLine
 62
7
  6
CONTINUOUS
 10
3.4922946802
 20
7.263391804
 11
3.4922946802
 21
7.053391804
  0
LINE
  5
20C
100
AcDbEntity
  8
0
100
AcDbLine
 62
7
  6
CONTINUOUS
 10
4.6522946802
 20
7.263391804
 11
4.6522946802
 21
7.053391804
  0
LINE
  5
20D
100
AcDbEntity
  8
0
100
AcDbLine
 62
7
  6
CONTINUOUS
 10
-0.7177053198
 20
6.333391804
 11
0.8622946802
 21
6.333391804
  0
LINE
  5
20E
100
AcDbEntity
  8
0
100
AcDbLine
 62
7
  6
CONTINUOUS
 10
3.4162950446
 20
6.333391804
 11
4.7282943159
 21
6.333391804
  0
LINE
  5
20F
100
AcDbEntity
  8
0
100
AcDbLine
 62
7
  6
CONTINUOUS
 10
10.8847946802
 20
6.333391804
 11
13.2597946802
 21
6.333391804
  0
LINE
  5
210
100
AcDbEntity
  8
0
100
AcDbLine
 62
7
  6
CONTINUOUS
 10
20.0598116017
 20
6.333391804
 11
22.0847777587
 21
6.333391804
  0
LINE
  5
211
100
AcDbEntity
  8
0
100
AcDbLine
 62
7
  6
CONTINUOUS
 10
4.5518655777
 20
6.458391804
 11
3.5927237828
 21
6.458391804
  0
LINE
  5
212
100
AcDbEntity
  8
0
100
AcDbLine
 62
9
  6
CONTINUOUS
 10
22.0847946802
 20
6.5823592717
 11
20.0597946802
 21
6.5823592717
  0
LINE
  5
213
100
AcDbEntity
  8
0
100
AcDbLine
 62
7
  6
CONTINUOUS
 10
4.3657946802
 20
6.583391804
 11
3.7787946802
 21
6.583391804
  0
LINE
  5
214
100
AcDbEntity
  8
0
100
AcDbLine
 62
9
  6
CONTINUOUS
 10
3.7331271
 20
6.6192800031
 11
4.4114622604
 21
6.6192800031
  0
LINE
  5
215
100
AcDbEntity
  8
0
100
AcDbLine
 62
7
  6
CONTINUOUS
 10
22.0472946802
 20
6.653391804
 11
20.0972946802
 21
6.653391804
  0
LINE
  5
216
100
AcDbEntity
  8
0
100
AcDbLine
 62
9
  6
CONTINUOUS
 10
13.2420063256
 20
6.6551599308
 11
10.9025830348
 21
6.6551599308
  0
LINE
  5
217
100
AcDbEntity
  8
0
100
AcDbLine
 62
7
  6
CONTINUOUS
 10
0.5672942109
 20
6.833391804
 11
-0.4227048505
 21
6.833391804
  0
LINE
  5
218
100
AcDbEntity
  8
0
100
AcDbLine
 62
9
  6
CONTINUOUS
 10
0.5347946802
 20
6.913391804
 11
-0.3902053198
 21
6.913391804
  0
LINE
  5
219
100
AcDbEntity
  8
0
100
AcDbLine
 62
7
  6
CONTINUOUS
 10
3.4922946802
 20
7.053391804
 11
4.6522946802
 21
7.053391804
  0
LINE
  5
21A
100
AcDbEntity
  8
0
100
AcDbLine
 62
9
  6
CONTINUOUS
 10
-0.3549934068
 20
7.0774943681
 11
0.4995827673
 21
7.0774943681
  0
LINE
  5
21B
100
AcDbEntity
  8
0
100
AcDbLine
 62
7
  6
CONTINUOUS
 10
-0.3458737046
 20
7.083391804
 11
0.4904627385
 21
7.083391804
  0
LINE
  5
21C
100
AcDbEntity
  8
0
100
AcDbLine
 62
7
  6
CONTINUOUS
 10
4.6522946802
 20
7.263391804
 11
3.4922946802
 21
7.263391804
  0
LINE
  5
21D
100
AcDbEntity
  8
0
100
AcDbLine
 62
7
  6
CONTINUOUS
 10
4.0797744511
 20
7.4434206477
 11
4.0646995219
 21
7.4434206477
  0
LINE
  5
21E
100
AcDbEntity
  8
0
100
AcDbLine
 62
9
  6
CONTINUOUS
 10
11.4077529962
 20
7.4675836538
 11
12.7368363642
 21
7.4675836538
  0
LINE
  5
21F
100
AcDbEntity
  8
0
100
AcDbLine
 62
9
  6
CONTINUOUS
 10
20.3641024827
 20
7.4941369442
 11
21.7804868778
 21
7.4941369442
  0
LINE
  5
220
100
AcDbEntity
  8
0
100
AcDbLine
 62
9
  6
CONTINUOUS
 10
20.4154240768
 20
7.6367325769
 11
21.7291652836
 21
7.6367325769
  0
LINE
  5
221
100
AcDbEntity
  8
0
100
AcDbLine
 62
7
  6
CONTINUOUS
 10
11.494944411
 20
7.860391804
 11
12.6496449494
 21
7.860391804
  0
LINE
  5
222
100
AcDbEntity
  8
0
100
AcDbLine
 62
7
  6
CONTINUOUS
 10
12.5022946802
 20
7.980391804
 11
11.6422946802
 21
7.980391804
  0
LINE
  5
223
100
AcDbEntity
  8
0
100
AcDbLine
 62
7
  6
CONTINUOUS
 10
11.58229563
 20
8.290391804
 11
11.8324736045
 21
8.290391804
  0
LINE
  5
224
100
AcDbEntity
  8
0
100
AcDbLine
 62
7
  6
CONTINUOUS
 10
12.312115756
 20
8.290391804
 11
12.5622937304
 21
8.290391804
  0
LINE
  5
225
100
AcDbEntity
  8
0
100
AcDbLine
 62
7
  6
CONTINUOUS
 10
12.5622946802
 20
8.915391804
 11
12.3133342595
 21
8.915391804
  0
LINE
  5
226
100
AcDbEntity
  8
0
100
AcDbLine
 62
7
  6
CONTINUOUS
 10
11.8312551009
 20
8.915391804
 11
11.5822946802
 21
8.915391804
  0
LINE
  5
227
100
AcDbEntity
  8
0
100
AcDbLine
 62
7
  6
CONTINUOUS
 10
13.2597946802
 20
6.6401390468
 11
13.2420063256
 21
6.6551599308
  0
LINE
  5
228
100
AcDbEntity
  8
0
100
AcDbLine
 62
7
  6
CONTINUOUS
 10
10.8847946802
 20
6.333391804
 11
10.8847946802
 21
6.6401390468
  0
LINE
  5
229
100
AcDbEntity
  8
0
100
AcDbLine
 62
7
  6
CONTINUOUS
 10
11.5822946802
 20
8.290391804
 11
11.5822946802
 21
8.915391804
  0
LINE
  5
22A
100
AcDbEntity
  8
0
100
AcDbLine
 62
7
  6
CONTINUOUS
 10
20.3322956821
 20
9.801391804
 11
21.8122936783
 21
9.801391804
  0
LINE
  5
22B
100
AcDbEntity
  8
0
100
AcDbLine
 62
9
  6
CONTINUOUS
 10
20.3122946802
 20
9.8762249518
 11
21.8322946802
 21
9.8762249518
  0
LINE
  5
22C
100
AcDbEntity
  8
0
100
AcDbLine
 62
7
  6
CONTINUOUS
 10
12.6660446802
 20
6.6401390468
 11
12.6571505029
 21
6.6551599308
  0
LINE
  5
22D
100
AcDbEntity
  8
0
100
AcDbLine
 62
7
  6
CONTINUOUS
 10
11.6422946802
 20
7.980391804
 11
11.6422946802
 21
7.860391804
  0
LINE
  5
22E
100
AcDbEntity
  8
0
100
AcDbLine
 62
7
  6
CONTINUOUS
 10
11.7597946802
 20
7.980391804
 11
11.7597946802
 21
8.290391804
  0
LINE
  5
22F
100
AcDbEntity
  8
0
100
AcDbLine
 62
7
  6
CONTINUOUS
 10
11.7400238382
 20
7.4675836538
 11
11.7836195456
 21
7.860391804
  0
LINE
  5
230
100
AcDbEntity
  8
0
100
AcDbLine
 62
7
  6
CONTINUOUS
 10
11.4077529962
 20
7.4675836538
 11
11.494944411
 21
7.860391804
  0
LINE
  5
231
100
AcDbEntity
  8
0
100
AcDbLine
 62
9
  6
CONTINUOUS
 10
21.8322946802
 20
10.4356525729
 11
20.3122946802
 21
10.4356525729
  0
LINE
  5
232
100
AcDbEntity
  8
0
100
AcDbLine
 62
9
  6
CONTINUOUS
 10
20.2838259015
 20
10.5055330736
 11
21.860763459
 21
10.5055330736
  0
LINE
  5
233
100
AcDbEntity
  8
0
100
AcDbLine
 62
7
  6
CONTINUOUS
 10
12.7368363642
 20
7.4675836538
 11
12.6496449494
 21
7.860391804
  0
LINE
  5
234
100
AcDbEntity
  8
0
100
AcDbLine
 62
7
  6
CONTINUOUS
 10
12.4045655222
 20
7.4675836538
 11
12.3609698148
 21
7.860391804
  0
LINE
  5
235
100
AcDbEntity
  8
0
100
AcDbLine
 62
7
  6
CONTINUOUS
 10
12.3847946802
 20
7.980391804
 11
12.3847946802
 21
8.290391804
  0
LINE
  5
236
100
AcDbEntity
  8
0
100
AcDbLine
 62
7
  6
CONTINUOUS
 10
12.5022946802
 20
7.980391804
 11
12.5022946802
 21
7.860391804
  0
LINE
  5
237
100
AcDbEntity
  8
0
100
AcDbLine
 62
7
  6
CONTINUOUS
 10
12.5622946802
 20
8.290391804
 11
12.5622946802
 21
8.915391804
  0
LINE
  5
238
100
AcDbEntity
  8
0
100
AcDbLine
 62
7
  6
CONTINUOUS
 10
11.4785446802
 20
6.6401390468
 11
11.4874388575
 21
6.6551599308
  0
LINE
  5
239
100
AcDbEntity
  8
0
100
AcDbLine
 62
7
  6
CONTINUOUS
 10
10.8847946802
 20
6.6401390468
 11
10.9025830348
 21
6.6551599308
  0
LINE
  5
23A
100
AcDbEntity
  8
0
100
AcDbLine
 62
7
  6
CONTINUOUS
 10
20.0069170761
 20
10.801391804
 11
20.2049922669
 21
10.801391804
  0
LINE
  5
23B
100
AcDbEntity
  8
0
100
AcDbLine
 62
7
  6
CONTINUOUS
 10
20.4329256367
 20
10.801391804
 11
20.9111214488
 21
10.801391804
  0
LINE
  5
23C
100
AcDbEntity
  8
0
100
AcDbLine
 62
7
  6
CONTINUOUS
 10
21.2334679117
 20
10.801391804
 11
21.7116637237
 21
10.801391804
  0
LINE
  5
23D
100
AcDbEntity
  8
0
100
AcDbLine
 62
7
  6
CONTINUOUS
 10
21.9395970936
 20
10.801391804
 11
22.1376722844
 21
10.801391804
  0
LINE
  5
23E
100
AcDbEntity
  8
0
100
AcDbLine
 62
9
  6
CONTINUOUS
 10
22.1376722844
 20
11.411391804
 11
21.9395970936
 21
11.411391804
  0
LINE
  5
23F
100
AcDbEntity
  8
0
100
AcDbLine
 62
9
  6
CONTINUOUS
 10
21.7116637237
 20
11.411391804
 11
21.2334679117
 21
11.411391804
  0
LINE
  5
240
100
AcDbEntity
  8
0
100
AcDbLine
 62
9
  6
CONTINUOUS
 10
20.9111214488
 20
11.411391804
 11
20.4329256367
 21
11.411391804
  0
LINE
  5
241
100
AcDbEntity
  8
0
100
AcDbLine
 62
9
  6
CONTINUOUS
 10
20.2049922669
 20
11.411391804
 11
20.0069170761
 21
11.411391804
  0
LINE
  5
242
100
AcDbEntity
  8
0
100
AcDbLine
 62
7
  6
CONTINUOUS
 10
13.2597946802
 20
6.333391804
 11
13.2597946802
 21
6.6401390468
  0
LINE
  5
243
100
AcDbEntity
  8
0
100
AcDbLine
 62
7
  6
CONTINUOUS
 10
21.9997796386
 20
11.561391804
 11
20.1448097219
 21
11.561391804
  0
LINE
  5
244
100
AcDbEntity
  8
0
100
AcDbLine
 62
9
  6
CONTINUOUS
 10
20.1631582472
 20
11.621391804
 11
21.9814311133
 21
11.621391804
  0
LINE
  5
245
100
AcDbEntity
  8
0
100
AcDbLine
 62
7
  6
CONTINUOUS
 10
21.860763459
 20
10.5055330736
 11
22.0622946802
 21
10.7118248749
  0
LINE
  5
246
100
AcDbEntity
  8
0
100
AcDbLine
 62
7
  6
CONTINUOUS
 10
20.2838259015
 20
10.5055330736
 11
20.0822946802
 21
10.7118248749
  0
LINE
  5
247
100
AcDbEntity
  8
0
100
AcDbLine
 62
7
  6
CONTINUOUS
 10
20.0069170761
 20
10.801391804
 11
20.0069170761
 21
11.411391804
  0
LINE
  5
248
100
AcDbEntity
  8
0
100
AcDbLine
 62
7
  6
CONTINUOUS
 10
20.0597946802
 20
6.5823592717
 11
20.0597946802
 21
6.333391804
  0
LINE
  5
249
100
AcDbEntity
  8
0
100
AcDbLine
 62
7
  6
CONTINUOUS
 10
20.4337665428
 20
10.7854668541
 11
20.4329256367
 21
10.801391804
  0
LINE
  5
24A
100
AcDbEntity
  8
0
100
AcDbLine
 62
7
  6
CONTINUOUS
 10
20.2049922669
 20
10.801391804
 11
20.2049922669
 21
11.411391804
  0
LINE
  5
24B
100
AcDbEntity
  8
0
100
AcDbLine
 62
7
  6
CONTINUOUS
 10
20.3122946802
 20
10.4356525729
 11
20.3122946802
 21
9.8762249518
  0
LINE
  5
24C
100
AcDbEntity
  8
0
100
AcDbLine
 62
7
  6
CONTINUOUS
 10
20.4329256367
 20
10.801391804
 11
20.4329256367
 21
11.411391804
  0
LINE
  5
24D
100
AcDbEntity
  8
0
100
AcDbLine
 62
7
  6
CONTINUOUS
 10
20.9111214488
 20
10.801391804
 11
20.9111214488
 21
11.411391804
  0
LINE
  5
24E
100
AcDbEntity
  8
0
100
AcDbLine
 62
7
  6
CONTINUOUS
 10
20.4967057474
 20
9.801391804
 11
20.4154240768
 21
7.6367325769
  0
LINE
  5
24F
100
AcDbEntity
  8
0
100
AcDbLine
 62
7
  6
CONTINUOUS
 10
21.647883613
 20
9.801391804
 11
21.7291652836
 21
7.6367325769
  0
LINE
  5
250
100
AcDbEntity
  8
0
100
AcDbLine
 62
7
  6
CONTINUOUS
 10
21.2334679117
 20
10.801391804
 11
21.2334679117
 21
11.411391804
  0
LINE
  5
251
100
AcDbEntity
  8
0
100
AcDbLine
 62
7
  6
CONTINUOUS
 10
21.7116637237
 20
10.801391804
 11
21.7116637237
 21
11.411391804
  0
LINE
  5
252
100
AcDbEntity
  8
0
100
AcDbLine
 62
7
  6
CONTINUOUS
 10
21.8322946802
 20
10.4356525729
 11
21.8322946802
 21
9.8762249518
  0
LINE
  5
253
100
AcDbEntity
  8
0
100
AcDbLine
 62
7
  6
CONTINUOUS
 10
21.9395970936
 20
10.801391804
 11
21.9395970936
 21
11.411391804
  0
LINE
  5
254
100
AcDbEntity
  8
0
100
AcDbLine
 62
7
  6
CONTINUOUS
 10
22.0847946802
 20
6.5823592717
 11
22.0847946802
 21
6.333391804
  0
LINE
  5
255
100
AcDbEntity
  8
0
100
AcDbLine
 62
7
  6
CONTINUOUS
 10
22.1376722844
 20
10.801391804
 11
22.1376722844
 21
11.411391804
  0
LINE
  5
256
100
AcDbEntity
  8
0
100
AcDbLine
 62
7
  6
CONTINUOUS
 10
21.7116637237
 20
10.801391804
 11
21.7108228177
 21
10.7854666202
  0
ARC
  5
257
100
AcDbEntity
  8
0
100
AcDbCircle
 62
7
  6
CONTINUOUS
 10
4.0798898386
 20
6.4434206477
 40
1.0
100
AcDbArc
 50
55.0819064989
 51
90.0
  0
ARC
  5
258
100
AcDbEntity
  8
0
100
AcDbCircle
 62
7
  6
CONTINUOUS
 10
4.0646995219
 20
6.4434206477
 40
1.0
100
AcDbArc
 50
90.0
 51
124.9180935011
  0
ARC
  5
259
100
AcDbEntity
  8
0
100
AcDbCircle
 62
7
  6
CONTINUOUS
 10
2.8217187977
 20
6.3975168268
 40
0.938
100
AcDbArc
 50
13.675418161
 51
44.3650233311
  0
ARC
  5
25A
100
AcDbEntity
  8
0
100
AcDbCircle
 62
7
  6
CONTINUOUS
 10
5.3228705628
 20
6.3975168268
 40
0.938
100
AcDbArc
 50
135.6349766689
 51
166.324581839
  0
ARC
  5
25B
100
AcDbEntity
  8
0
100
AcDbCircle
 62
7
  6
CONTINUOUS
 10
0.1635150865
 20
6.1504967643
 40
0.9
100
AcDbArc
 50
130.6439171763
 51
168.2748731243
  0
ARC
  5
25C
100
AcDbEntity
  8
0
100
AcDbCircle
 62
7
  6
CONTINUOUS
 10
-0.0189257261
 20
6.1504967643
 40
0.9
100
AcDbArc
 50
11.7251268757
 51
49.3560828237
  0
ARC
  5
25D
100
AcDbEntity
  8
0
100
AcDbCircle
 62
7
  6
CONTINUOUS
 10
0.0097946802
 20
6.913391804
 40
0.4
100
AcDbArc
 50
155.7790568908
 51
180.0
  0
ARC
  5
25E
100
AcDbEntity
  8
0
100
AcDbCircle
 62
7
  6
CONTINUOUS
 10
0.1347946802
 20
6.913391804
 40
0.4
100
AcDbArc
 50
0.0
 51
24.2209431092
  0
ARC
  5
25F
100
AcDbEntity
  8
0
100
AcDbCircle
 62
7
  6
CONTINUOUS
 10
4.5518718926
 20
6.271391804
 40
0.187
100
AcDbArc
 50
19.3629299219
 51
90.0
  0
ARC
  5
260
100
AcDbEntity
  8
0
100
AcDbCircle
 62
7
  6
CONTINUOUS
 10
3.5927174679
 20
6.271391804
 40
0.187
100
AcDbArc
 50
90.0
 51
160.6370700781
  0
ARC
  5
261
100
AcDbEntity
  8
0
100
AcDbCircle
 62
7
  6
CONTINUOUS
 10
3.7799674679
 20
6.396391804
 40
0.187
100
AcDbArc
 50
90.0
 51
160.6370700781
  0
ARC
  5
262
100
AcDbEntity
  8
0
100
AcDbCircle
 62
7
  6
CONTINUOUS
 10
4.3646218926
 20
6.396391804
 40
0.187
100
AcDbArc
 50
19.3629299219
 51
90.0
  0
ARC
  5
263
100
AcDbEntity
  8
0
100
AcDbCircle
 62
7
  6
CONTINUOUS
 10
4.3657946802
 20
6.630391804
 40
0.047
100
AcDbArc
 50
270.0
 51
346.3245818389
  0
ARC
  5
264
100
AcDbEntity
  8
0
100
AcDbCircle
 62
7
  6
CONTINUOUS
 10
3.7787946802
 20
6.630391804
 40
0.047
100
AcDbArc
 50
193.6754181611
 51
270.0
  0
ARC
  5
265
100
AcDbEntity
  8
0
100
AcDbCircle
 62
7
  6
CONTINUOUS
 10
-0.3458737046
 20
7.073391804
 40
0.01
100
AcDbArc
 50
90.0
 51
155.7790568908
  0
ARC
  5
266
100
AcDbEntity
  8
0
100
AcDbCircle
 62
7
  6
CONTINUOUS
 10
0.4904630651
 20
7.073391804
 40
0.01
100
AcDbArc
 50
24.2209431092
 51
90.0
  0
ARC
  5
267
100
AcDbEntity
  8
0
100
AcDbCircle
 62
7
  6
CONTINUOUS
 10
21.0722946802
 20
5.2959760049
 40
6.3904157991
100
AcDbArc
 50
81.821031102
 51
98.178968898
  0
ARC
  5
268
100
AcDbEntity
  8
0
100
AcDbCircle
 62
7
  6
CONTINUOUS
 10
12.0722946802
 20
7.4976823839
 40
1.5
100
AcDbArc
 50
91.5225981433
 51
109.0665801007
  0
ARC
  5
269
100
AcDbEntity
  8
0
100
AcDbCircle
 62
7
  6
CONTINUOUS
 10
12.0722946802
 20
7.4976823839
 40
1.5
100
AcDbArc
 50
70.9334198993
 51
88.4774018567
  0
ARC
  5
26A
100
AcDbEntity
  8
0
100
AcDbCircle
 62
7
  6
CONTINUOUS
 10
20.7482746722
 20
6.7038598012
 40
1.3
100
AcDbArc
 50
357.7751307226
 51
37.4382101818
  0
ARC
  5
26B
100
AcDbEntity
  8
0
100
AcDbCircle
 62
7
  6
CONTINUOUS
 10
21.3963146883
 20
6.7038598012
 40
1.3
100
AcDbArc
 50
142.5617898181
 51
182.2248692774
  0
ARC
  5
26C
100
AcDbEntity
  8
0
100
AcDbCircle
 62
7
  6
CONTINUOUS
 10
20.1656001354
 20
7.6461133178
 40
0.25
100
AcDbArc
 50
322.5617898181
 51
357.849587733
  0
ARC
  5
26D
100
AcDbEntity
  8
0
100
AcDbCircle
 62
7
  6
CONTINUOUS
 10
21.978989225
 20
7.6461133178
 40
0.25
100
AcDbArc
 50
182.150412267
 51
217.4382101818
  0
ARC
  5
26E
100
AcDbEntity
  8
0
100
AcDbCircle
 62
7
  6
CONTINUOUS
 10
20.1458196223
 20
6.5823592717
 40
0.0860249421
100
AcDbArc
 50
124.3384233779
 51
180.0
  0
ARC
  5
26F
100
AcDbEntity
  8
0
100
AcDbCircle
 62
7
  6
CONTINUOUS
 10
21.9987697382
 20
6.5823592717
 40
0.0860249421
100
AcDbArc
 50
0.0
 51
55.661576622
  0
ARC
  5
270
100
AcDbEntity
  8
0
100
AcDbCircle
 62
7
  6
CONTINUOUS
 10
24.2588319258
 20
8.9397638578
 40
2.8222290542
100
AcDbArc
 50
138.7283125268
 51
141.0996740112
  0
ARC
  5
271
100
AcDbEntity
  8
0
100
AcDbCircle
 62
7
  6
CONTINUOUS
 10
17.9262795976
 20
8.9738697775
 40
2.7692759115
100
AcDbArc
 50
38.8776465535
 51
41.2943629704
  0
CIRCLE
  5
272
100
AcDbEntity
  8
0
100
AcDbCircle
 62
7
  6
CONTINUOUS
 10
12.0722946802
 20
8.603391804
 40
0.396
  0
CIRCLE
  5
273
100
AcDbEntity
  8
0
100
AcDbCircle
 62
9
  6
CONTINUOUS
 10
12.0722946802
 20
8.603391804
 40
0.333
  0
CIRCLE
  5
274
100
AcDbEntity
  8
0
100
AcDbCircle
 62
9
  6
CONTINUOUS
 10
12.0722946802
 20
8.603391804
 40
0.2457641145
  0
CIRCLE
  5
275
100
AcDbEntity
  8
0
100
AcDbCircle
 62
9
  6
CONTINUOUS
 10
12.0722946802
 20
8.603391804
 40
0.1840783009
  0
ARC
  5
276
100
AcDbEntity
  8
0
100
AcDbCircle
 62
7
  6
CONTINUOUS
 10
21.6822946802
 20
9.8762249518
 40
0.15
100
AcDbArc
 50
330.0735651332
 51
360.0
  0
ARC
  5
277
100
AcDbEntity
  8
0
100
AcDbCircle
 62
7
  6
CONTINUOUS
 10
20.4622946802
 20
9.8762249518
 40
0.15
100
AcDbArc
 50
180.0
 51
209.9264348668
  0
ARC
  5
278
100
AcDbEntity
  8
0
100
AcDbCircle
 62
7
  6
CONTINUOUS
 10
20.1447946802
 20
11.411391804
 40
0.15
100
AcDbArc
 50
90.0
 51
114.6243183522
  0
ARC
  5
279
100
AcDbEntity
  8
0
100
AcDbCircle
 62
7
  6
CONTINUOUS
 10
21.9997946802
 20
11.411391804
 40
0.15
100
AcDbArc
 50
65.3756816478
 51
90.0
  0
ARC
  5
27A
100
AcDbEntity
  8
0
100
AcDbCircle
 62
7
  6
CONTINUOUS
 10
21.9322946802
 20
10.4356525729
 40
0.1
100
AcDbArc
 50
135.6687919533
 51
180.0
  0
ARC
  5
27B
100
AcDbEntity
  8
0
100
AcDbCircle
 62
7
  6
CONTINUOUS
 10
20.2122946802
 20
10.4356525729
 40
0.1
100
AcDbArc
 50
0.0
 51
44.3312080467
  0
ARC
  5
27C
100
AcDbEntity
  8
0
100
AcDbCircle
 62
7
  6
CONTINUOUS
 10
20.1674480324
 20
11.5915451562
 40
0.0301533521
100
AcDbArc
 50
98.1789688981
 51
270.0
  0
ARC
  5
27D
100
AcDbEntity
  8
0
100
AcDbCircle
 62
7
  6
CONTINUOUS
 10
21.9771413281
 20
11.5915451562
 40
0.0301533521
100
AcDbArc
 50
270.0
 51
81.8210311019
  0
SPLINE
  5
27E
100
AcDbEntity
  8
0
100
AcDbSpline
 62
7
  6
CONTINUOUS
 70
0
 71
3
 72
17
 73
13
 74
0
 42
0.0000001
 43
0.0000001
 44
0.0000000001
 40
0.0
 40
0.0
 40
0.0
 40
0.0
 40
0.1249770438
 40
0.2499919467
 40
0.3125003967
 40
0.3750034916
 40
0.4999932389
 40
0.6249856049
 40
0.7499782317
 40
0.8124967258
 40
0.8750250085
 40
1.0
 40
1.0
 40
1.0
 40
1.0
 10
10.9025830348
 20
6.6551599308
 30
0.0
 10
10.9335728331
 20
6.6813284088
 30
0.0
 10
10.9936975758
 20
6.735927547
 30
0.0
 10
11.0635865007
 20
6.809561947
 30
0.0
 10
11.1159790488
 20
6.8715495576
 30
0.0
 10
11.1659129232
 20
6.9355224983
 30
0.0
 10
11.2235199301
 20
7.0191325658
 30
0.0
 10
11.2842369598
 20
7.1247531017
 30
0.0
 10
11.3272730778
 20
7.2167386848
 30
0.0
 10
11.3568510869
 20
7.2923299863
 30
0.0
 10
11.3830952948
 20
7.3691307944
 30
0.0
 10
11.3989638632
 20
7.4279875183
 30
0.0
 10
11.4077529962
 20
7.4675836538
 30
0.0
  0
SPLINE
  5
27F
100
AcDbEntity
  8
0
100
AcDbSpline
 62
7
  6
CONTINUOUS
 70
0
 71
3
 72
17
 73
13
 74
0
 42
0.0000001
 43
0.0000001
 44
0.0000000001
 40
0.0
 40
0.0
 40
0.0
 40
0.0
 40
0.1249770438
 40
0.2499919467
 40
0.3125003967
 40
0.3750034916
 40
0.4999932389
 40
0.6249856049
 40
0.7499782317
 40
0.8124967258
 40
0.8750250085
 40
1.0
 40
1.0
 40
1.0
 40
1.0
 10
13.2420063256
 20
6.6551599308
 30
0.0
 10
13.2110165273
 20
6.6813284088
 30
0.0
 10
13.1508917846
 20
6.735927547
 30
0.0
 10
13.0810028597
 20
6.809561947
 30
0.0
 10
13.0286103117
 20
6.8715495576
 30
0.0
 10
12.9786764373
 20
6.9355224983
 30
0.0
 10
12.9210694304
 20
7.0191325658
 30
0.0
 10
12.8603524007
 20
7.1247531017
 30
0.0
 10
12.8173162827
 20
7.2167386848
 30
0.0
 10
12.7877382735
 20
7.2923299863
 30
0.0
 10
12.7614940657
 20
7.3691307944
 30
0.0
 10
12.7456254972
 20
7.4279875183
 30
0.0
 10
12.7368363642
 20
7.4675836538
 30
0.0
  0
SPLINE
  5
280
100
AcDbEntity
  8
0
100
AcDbSpline
 62
7
  6
CONTINUOUS
 70
0
 71
3
 72
15
 73
11
 74
0
 42
0.0000001
 43
0.0000001
 44
0.0000000001
 40
0.0
 40
0.0
 40
0.0
 40
0.0
 40
0.1090055954
 40
0.2230766534
 40
0.3420584967
 40
0.4657745473
 40
0.5939097186
 40
0.7260378035
 40
0.8616432249
 40
1.0
 40
1.0
 40
1.0
 40
1.0
 10
11.4874388575
 20
6.6551599308
 30
0.0
 10
11.5033021178
 20
6.6819505135
 30
0.0
 10
11.5339771881
 20
6.7378525555
 30
0.0
 10
11.5757741989
 20
6.8262191682
 30
0.0
 10
11.6140565239
 20
6.9207148558
 30
0.0
 10
11.6484736057
 20
7.0209387651
 30
0.0
 10
11.6786946198
 20
7.1264163259
 30
0.0
 10
11.7043854258
 20
7.236576745
 30
0.0
 10
11.7252395394
 20
7.3507193426
 30
0.0
 10
11.7356646749
 20
7.4283065098
 30
0.0
 10
11.7400238382
 20
7.4675836538
 30
0.0
  0
SPLINE
  5
281
100
AcDbEntity
  8
0
100
AcDbSpline
 62
7
  6
CONTINUOUS
 70
0
 71
3
 72
15
 73
11
 74
0
 42
0.0000001
 43
0.0000001
 44
0.0000000001
 40
0.0
 40
0.0
 40
0.0
 40
0.0
 40
0.1090055921
 40
0.2230766496
 40
0.3420584978
 40
0.4657745493
 40
0.5939097186
 40
0.726037803
 40
0.8616432247
 40
1.0
 40
1.0
 40
1.0
 40
1.0
 10
12.6571505029
 20
6.6551599308
 30
0.0
 10
12.6412872431
 20
6.6819505127
 30
0.0
 10
12.6106121791
 20
6.7378525569
 30
0.0
 10
12.5688151708
 20
6.8262191707
 30
0.0
 10
12.5305328302
 20
6.9207148535
 30
0.0
 10
12.4961157474
 20
7.020938764
 30
0.0
 10
12.4658947421
 20
7.1264163267
 30
0.0
 10
12.4402039372
 20
7.2365767452
 30
0.0
 10
12.4193498221
 20
7.3507193426
 30
0.0
 10
12.4089246855
 20
7.4283065097
 30
0.0
 10
12.4045655222
 20
7.4675836538
 30
0.0
  0
LINE
  5
282
100
AcDbEntity
  8
0
100
AcDbLine
 62
7
  6
CONTINUOUS
 10
22.0650148042
 20
11.5461965705
 11
22.0622948425
 21
11.5477516022
  0
SPLINE
  5
283
100
AcDbEntity
  8
0
100
AcDbSpline
 62
7
  6
CONTINUOUS
 70
0
 71
3
 72
11
 73
7
 74
0
 42
0.0000001
 43
0.0000001
 44
0.0000000001
 40
0.0
 40
0.0
 40
0.0
 40
0.0
 40
0.2620228486
 40
0.5196947359
 40
0.7673404198
 40
1.0
 40
1.0
 40
1.0
 40
1.0
 10
20.4329256367
 20
11.411391804
 30
0.0
 10
20.4329256367
 20
11.4172027744
 30
0.0
 10
20.4330053885
 20
11.4287282477
 30
0.0
 10
20.4332786248
 20
11.4457437929
 30
0.0
 10
20.4336279128
 20
11.4621062638
 30
0.0
 10
20.4337678664
 20
11.4727579142
 30
0.0
 10
20.4337666472
 20
11.4779176851
 30
0.0
  0
SPLINE
  5
284
100
AcDbEntity
  8
0
100
AcDbSpline
 62
7
  6
CONTINUOUS
 70
0
 71
3
 72
42
 73
38
 74
0
 42
0.0000001
 43
0.0000001
 44
0.0000000001
 40
0.0
 40
0.0
 40
0.0
 40
0.0
 40
0.0984104406
 40
0.196371012
 40
0.2929110557
 40
0.3871240056
 40
0.4330693707
 40
0.478058313
 40
0.564538374
 40
0.6452544148
 40
0.7190742501
 40
0.785034621
 40
0.814807239
 40
0.8424008029
 40
0.8677883299
 40
0.8909305654
 40
0.9118030587
 40
0.9304253946
 40
0.9468168654
 40
0.9609904779
 40
0.9729535675
 40
0.9781086343
 40
0.9827149626
 40
0.9867742497
 40
0.9902881237
 40
0.9932581441
 40
0.9956858015
 40
0.9966966919
 40
0.9975725197
 40
0.9983134527
 40
0.9989196554
 40
0.9993912903
 40
0.9997285203
 40
0.9998467677
 40
0.9999314262
 40
0.9999824895
 40
1.0
 40
1.0
 40
1.0
 40
1.0
 10
20.0069170761
 20
11.411391804
 30
0.0
 10
20.0069170761
 20
11.4167417723
 30
0.0
 10
20.0074393451
 20
11.4274237422
 30
0.0
 10
20.0097178204
 20
11.4432070934
 30
0.0
 10
20.0134499204
 20
11.4584768855
 30
0.0
 10
20.01766609
 20
11.4706555132
 30
0.0
 10
20.0216159433
 20
11.4799169154
 30
0.0
 10
20.0258091939
 20
11.4886057876
 30
0.0
 10
20.0315017378
 20
11.498656885
 30
0.0
 10
20.0389257568
 20
11.5094722522
 30
0.0
 10
20.0465147241
 20
11.5187671873
 30
0.0
 10
20.0528732726
 20
11.5254527764
 30
0.0
 10
20.0577551171
 20
11.5300498617
 30
0.0
 10
20.0611328697
 20
11.5330226691
 30
0.0
 10
20.0643245618
 20
11.5356578657
 30
0.0
 10
20.0673024092
 20
11.5379754678
 30
0.0
 10
20.0700435628
 20
11.539996337
 30
0.0
 10
20.072533664
 20
11.5417375499
 30
0.0
 10
20.0747601055
 20
11.5432189322
 30
0.0
 10
20.0767110573
 20
11.5444597782
 30
0.0
 10
20.0781607418
 20
11.5453499895
 30
0.0
 10
20.0791728502
 20
11.5459586538
 30
0.0
 10
20.0798191461
 20
11.5463418366
 30
0.0
 10
20.0803907338
 20
11.5466760525
 30
0.0
 10
20.0808872502
 20
11.5469624036
 30
0.0
 10
20.0813083157
 20
11.5472020131
 30
0.0
 10
20.0816120562
 20
11.5473726681
 30
0.0
 10
20.0818169739
 20
11.5474867683
 30
0.0
 10
20.0819419432
 20
11.5475559863
 30
0.0
 10
20.0820477217
 20
11.5476143737
 30
0.0
 10
20.082134449
 20
11.5476620065
 30
0.0
 10
20.0822015895
 20
11.5476991808
 30
0.0
 10
20.0822462209
 20
11.5477234095
 30
0.0
 10
20.0822711016
 20
11.547738035
 30
0.0
 10
20.0822842656
 20
11.5477445048
 30
0.0
 10
20.0822893552
 20
11.5477494008
 30
0.0
 10
20.0822947171
 20
11.5477506714
 30
0.0
 10
20.082294518
 20
11.5477516022
 30
0.0
  0
LINE
  5
285
100
AcDbEntity
  8
0
100
AcDbLine
 62
7
  6
CONTINUOUS
 10
20.0821277762
 20
10.7120319406
 11
20.0822945102
 21
10.7118251083
  0
LINE
  5
286
100
AcDbEntity
  8
0
100
AcDbLine
 62
7
  6
CONTINUOUS
 10
22.0624615842
 20
10.7120319406
 11
22.0622948502
 21
10.7118251083
  0
SPLINE
  5
287
100
AcDbEntity
  8
0
100
AcDbSpline
 62
7
  6
CONTINUOUS
 70
0
 71
3
 72
11
 73
7
 74
0
 42
0.0000001
 43
0.0000001
 44
0.0000000001
 40
0.0
 40
0.0
 40
0.0
 40
0.0
 40
0.2326552005
 40
0.4802852671
 40
0.737957213
 40
1.0
 40
1.0
 40
1.0
 40
1.0
 10
21.7108228798
 20
11.4779175193
 30
0.0
 10
21.7108220562
 20
11.4727578585
 30
0.0
 10
21.7109616443
 20
11.4621066817
 30
0.0
 10
21.7113106583
 20
11.4457446854
 30
0.0
 10
21.7115842043
 20
11.4287290918
 30
0.0
 10
21.7116637237
 20
11.4172032018
 30
0.0
 10
21.7116637237
 20
11.411391804
 30
0.0
  0
LINE
  5
288
100
AcDbEntity
  8
0
100
AcDbLine
 62
7
  6
CONTINUOUS
 10
20.082294518
 20
11.5477516022
 11
20.0790144206
 21
11.5458612383
  0
SPLINE
  5
289
100
AcDbEntity
  8
0
100
AcDbSpline
 62
7
  6
CONTINUOUS
 70
0
 71
3
 72
41
 73
37
 74
0
 42
0.0000001
 43
0.0000001
 44
0.0000000001
 40
0.0
 40
0.0
 40
0.0
 40
0.0
 40
0.0000163506
 40
0.0000662652
 40
0.0001498228
 40
0.0002670475
 40
0.0006025697
 40
0.0010729669
 40
0.0016783688
 40
0.0024189049
 40
0.0032947063
 40
0.0043059052
 40
0.0067350314
 40
0.0097073769
 40
0.0132240605
 40
0.0172862288
 40
0.0218950554
 40
0.0270516663
 40
0.0390122818
 40
0.0531786959
 40
0.069566215
 40
0.0881953195
 40
0.1090911322
 40
0.1322529135
 40
0.1576445346
 40
0.2150099
 40
0.2810121326
 40
0.3548534313
 40
0.435571516
 40
0.5220527849
 40
0.5670395198
 40
0.6129777945
 40
0.7071639021
 40
0.8036729542
 40
0.9016085991
 40
1.0
 40
1.0
 40
1.0
 40
1.0
 10
22.0622948425
 20
11.5477516022
 30
0.0
 10
22.0622950284
 20
11.5477524714
 30
0.0
 10
22.0622999708
 20
11.5477482359
 30
0.0
 10
22.0623055992
 20
11.5477471974
 30
0.0
 10
22.0623186149
 20
11.5477393873
 30
0.0
 10
22.0623437983
 20
11.5477266385
 30
0.0
 10
22.0623883878
 20
11.5477021187
 30
0.0
 10
22.0624555293
 20
11.5476656933
 30
0.0
 10
22.0625421021
 20
11.5476179289
 30
0.0
 10
22.0626476859
 20
11.5475593744
 30
0.0
 10
22.0627724
 20
11.5474896969
 30
0.0
 10
22.0629769363
 20
11.5473747301
 30
0.0
 10
22.063280154
 20
11.547202697
 30
0.0
 10
22.0637007176
 20
11.5469614959
 30
0.0
 10
22.0641970021
 20
11.5466738838
 30
0.0
 10
22.0647687875
 20
11.5463391376
 30
0.0
 10
22.0654158707
 20
11.545956562
 30
0.0
 10
22.0664299057
 20
11.5453509673
 30
0.0
 10
22.0678808995
 20
11.5444637205
 30
0.0
 10
22.0698305454
 20
11.543222191
 30
0.0
 10
22.072055295
 20
11.5417387327
 30
0.0
 10
22.0745450583
 20
11.5399946262
 30
0.0
 10
22.0772889358
 20
11.5379730017
 30
0.0
 10
22.0802700282
 20
11.5356553981
 30
0.0
 10
22.0847110191
 20
11.531989079
 30
0.0
 10
22.090689284
 20
11.5265329326
 30
0.0
 10
22.0980823106
 20
11.5187558568
 30
0.0
 10
22.1056737098
 20
11.5094580908
 30
0.0
 10
22.1130980949
 20
11.4986414774
 30
0.0
 10
22.1187881233
 20
11.4885889474
 30
0.0
 10
22.1229804083
 20
11.4799002166
 30
0.0
 10
22.1269298305
 20
11.4706408362
 30
0.0
 10
22.131143
 20
11.4584649643
 30
0.0
 10
22.1348729177
 20
11.4431994583
 30
0.0
 10
22.1371503632
 20
11.4274202001
 30
0.0
 10
22.1376722844
 20
11.416740698
 30
0.0
 10
22.1376722844
 20
11.411391804
 30
0.0
  0
SPLINE
  5
28A
100
AcDbEntity
  8
0
100
AcDbSpline
 62
7
  6
CONTINUOUS
 70
0
 71
3
 72
30
 73
26
 74
0
 42
0.0000001
 43
0.0000001
 44
0.0000000001
 40
0.0
 40
0.0
 40
0.0
 40
0.0
 40
0.0503501051
 40
0.0983957482
 40
0.1444139944
 40
0.1668860854
 40
0.1891621657
 40
0.2114333187
 40
0.2339413383
 40
0.2569715445
 40
0.2808299253
 40
0.3058175681
 40
0.3321959261
 40
0.360153758
 40
0.3897908833
 40
0.4211158965
 40
0.4540554961
 40
0.4884762978
 40
0.5242102727
 40
0.5988627105
 40
0.6766468521
 40
0.7564110564
 40
0.8372850771
 40
0.9186418733
 40
1.0
 40
1.0
 40
1.0
 40
1.0
 10
21.7108227651
 20
10.7854649766
 30
0.0
 10
21.7108228806
 20
10.7804000888
 30
0.0
 10
21.7113551057
 20
10.7704879669
 30
0.0
 10
21.7140660366
 20
10.7561672443
 30
0.0
 10
21.7181399409
 20
10.7450943668
 30
0.0
 10
21.7225868584
 20
10.7371013468
 30
0.0
 10
21.7265179112
 20
10.7316046811
 30
0.0
 10
21.7310991409
 20
10.726628949
 30
0.0
 10
21.7363524298
 20
10.7222458008
 30
0.0
 10
21.7422895063
 20
10.718532285
 30
0.0
 10
21.7489057949
 20
10.715562035
 30
0.0
 10
21.7561793736
 20
10.7133995276
 30
0.0
 10
21.764070886
 20
10.7120949106
 30
0.0
 10
21.772524263
 20
10.7116767704
 30
0.0
 10
21.7814702702
 20
10.7121511493
 30
0.0
 10
21.7908303866
 20
10.7135024418
 30
0.0
 10
21.8005215964
 20
10.7156945973
 30
0.0
 10
21.8104624705
 20
10.7186741756
 30
0.0
 10
21.8241467958
 20
10.723687399
 30
0.0
 10
21.8413792488
 20
10.7315919437
 30
0.0
 10
21.8617849038
 20
10.7429944841
 30
0.0
 10
21.8819536044
 20
10.7559973337
 30
0.0
 10
21.9017162668
 20
10.7702258532
 30
0.0
 10
21.9209716557
 20
10.7853901418
 30
0.0
 10
21.9334484793
 20
10.7959905201
 30
0.0
 10
21.9395970936
 20
10.801391804
 30
0.0
  0
SPLINE
  5
28B
100
AcDbEntity
  8
0
100
AcDbSpline
 62
7
  6
CONTINUOUS
 70
0
 71
3
 72
24
 73
20
 74
0
 42
0.0000001
 43
0.0000001
 44
0.0000000001
 40
0.0
 40
0.0
 40
0.0
 40
0.0
 40
0.1318129966
 40
0.1968423154
 40
0.2607468027
 40
0.3233046616
 40
0.3844464781
 40
0.4442210558
 40
0.4737096216
 40
0.5030160735
 40
0.5613658755
 40
0.5906309857
 40
0.6200786153
 40
0.6798030208
 40
0.7410219261
 40
0.8039080375
 40
0.8683438957
 40
0.9339375096
 40
1.0
 40
1.0
 40
1.0
 40
1.0
 10
21.0722946802
 20
11.5477507055
 30
0.0
 10
21.0616260885
 20
11.5477507055
 30
0.0
 10
21.0456784271
 20
11.5471046008
 30
0.0
 10
21.0247056568
 20
11.5446833864
 30
0.0
 10
21.0094285416
 20
11.5420047106
 30
0.0
 10
20.9946895492
 20
11.5382853518
 30
0.0
 10
20.9806523225
 20
11.5333706776
 30
0.0
 10
20.969637551
 20
11.5281125485
 30
0.0
 10
20.9614154807
 20
11.5231497374
 30
0.0
 10
20.9536493681
 20
11.5177005995
 30
0.0
 10
20.9464912033
 20
11.5114510662
 30
0.0
 10
20.9400807203
 20
11.5044644702
 30
0.0
 10
20.9341408212
 20
11.4969303086
 30
0.0
 10
20.9276611639
 20
11.4865763508
 30
0.0
 10
20.9214607439
 20
11.4730109229
 30
0.0
 10
20.9167639425
 20
11.4584599341
 30
0.0
 10
20.9134829267
 20
11.4431708142
 30
0.0
 10
20.9115454926
 20
11.4273998148
 30
0.0
 10
20.9111214488
 20
11.4167387255
 30
0.0
 10
20.9111214488
 20
11.411391804
 30
0.0
  0
SPLINE
  5
28C
100
AcDbEntity
  8
0
100
AcDbSpline
 62
7
  6
CONTINUOUS
 70
0
 71
3
 72
39
 73
35
 74
0
 42
0.0000001
 43
0.0000001
 44
0.0000000001
 40
0.0
 40
0.0
 40
0.0
 40
0.0
 40
0.0394033962
 40
0.0788893817
 40
0.1183764373
 40
0.1578352423
 40
0.1972805798
 40
0.2367350154
 40
0.2761692186
 40
0.2958621126
 40
0.3155193146
 40
0.3546709475
 40
0.3934915988
 40
0.4317742045
 40
0.46936601
 40
0.5416318614
 40
0.575998889
 40
0.6089481158
 40
0.6403328021
 40
0.670038992
 40
0.697949132
 40
0.7239832002
 40
0.7481066399
 40
0.7703420896
 40
0.7908511523
 40
0.8099757241
 40
0.8282879703
 40
0.846644953
 40
0.8660368436
 40
0.8873755458
 40
0.9112543898
 40
0.9380118868
 40
0.967676941
 40
1.0
 40
1.0
 40
1.0
 40
1.0
 10
21.9395970936
 20
11.411391804
 30
0.0
 10
21.9395970936
 20
11.4160171859
 30
0.0
 10
21.9390933286
 20
11.4252852178
 30
0.0
 10
21.936847752
 20
11.4390244437
 30
0.0
 10
21.9331124411
 20
11.4524452345
 30
0.0
 10
21.9279138768
 20
11.4653643256
 30
0.0
 10
21.9213135762
 20
11.4776237254
 30
0.0
 10
21.9133692458
 20
11.489053254
 30
0.0
 10
21.9057458378
 20
11.4977919911
 30
0.0
 10
21.8991205383
 20
11.5042498553
 30
0.0
 10
21.892181767
 20
11.5103195449
 30
0.0
 10
21.8829826236
 20
11.517188548
 30
0.0
 10
21.8713102266
 20
11.5242940302
 30
0.0
 10
21.8592211238
 20
11.5302577177
 30
0.0
 10
21.843056321
 20
11.5367042747
 30
0.0
 10
21.8267224642
 20
11.5413524617
 30
0.0
 10
21.8106369907
 20
11.5444922767
 30
0.0
 10
21.7991659804
 20
11.5461548257
 30
0.0
 10
21.7881755743
 20
11.5472296136
 30
0.0
 10
21.7777376133
 20
11.547755788
 30
0.0
 10
21.767914305
 20
11.5477884851
 30
0.0
 10
21.7587569225
 20
11.547311456
 30
0.0
 10
21.7503127879
 20
11.5462901618
 30
0.0
 10
21.7426148391
 20
11.5446957431
 30
0.0
 10
21.7356946189
 20
11.5424276237
 30
0.0
 10
21.7295849629
 20
11.5393670685
 30
0.0
 10
21.724334141
 20
11.5353807306
 30
0.0
 10
21.7199958387
 20
11.530368263
 30
0.0
 10
21.7166019635
 20
11.5242692702
 30
0.0
 10
21.7141278407
 20
11.5170689678
 30
0.0
 10
21.7124251649
 20
11.5087771078
 30
0.0
 10
21.7113922974
 20
11.4993983977
 30
0.0
 10
21.7108962648
 20
11.4889889368
 30
0.0
 10
21.7108234855
 20
11.4817117732
 30
0.0
 10
21.7108228798
 20
11.4779175193
 30
0.0
  0
SPLINE
  5
28D
100
AcDbEntity
  8
0
100
AcDbSpline
 62
7
  6
CONTINUOUS
 70
0
 71
3
 72
30
 73
26
 74
0
 42
0.0000001
 43
0.0000001
 44
0.0000000001
 40
0.0
 40
0.0
 40
0.0
 40
0.0
 40
0.0813579719
 40
0.162714578
 40
0.2435885569
 40
0.3233527112
 40
0.4011369106
 40
0.4757894004
 40
0.5115235398
 40
0.5459443614
 40
0.5788838662
 40
0.6102089483
 40
0.6398461264
 40
0.6678039301
 40
0.6941822624
 40
0.7191699821
 40
0.7430283799
 40
0.7660584896
 40
0.7885665074
 40
0.8108376562
 40
0.8331137366
 40
0.8555858103
 40
0.9016040938
 40
0.9496497676
 40
1.0
 40
1.0
 40
1.0
 40
1.0
 10
20.2049922669
 20
10.801391804
 30
0.0
 10
20.2111408695
 20
10.7959905304
 30
0.0
 10
20.2236176682
 20
10.7853901766
 30
0.0
 10
20.2428730237
 20
10.7702259089
 30
0.0
 10
20.2626356593
 20
10.755997401
 30
0.0
 10
20.2828043522
 20
10.7429945457
 30
0.0
 10
20.3032100095
 20
10.7315919982
 30
0.0
 10
20.3204424821
 20
10.7236874289
 30
0.0
 10
20.3341268308
 20
10.7186742015
 30
0.0
 10
20.3440677089
 20
10.7156946046
 30
0.0
 10
20.3537589198
 20
10.7135024569
 30
0.0
 10
20.3631190369
 20
10.7121511523
 30
0.0
 10
20.3720650538
 20
10.7116767702
 30
0.0
 10
20.38051843
 20
10.7120949092
 30
0.0
 10
20.3884099478
 20
10.7133995115
 30
0.0
 10
20.3956835294
 20
10.7155620318
 30
0.0
 10
20.4022998267
 20
10.7185322613
 30
0.0
 10
20.4082368945
 20
10.7222457766
 30
0.0
 10
20.4134901781
 20
10.7266289139
 30
0.0
 10
20.418071416
 20
10.7316046377
 30
0.0
 10
20.4220024725
 20
10.7371012984
 30
0.0
 10
20.4264493958
 20
10.7450943173
 30
0.0
 10
20.4305233118
 20
10.7561671958
 30
0.0
 10
20.4332342564
 20
10.7704879363
 30
0.0
 10
20.4337664806
 20
10.7804000742
 30
0.0
 10
20.4337665973
 20
10.7854649748
 30
0.0
  0
SPLINE
  5
28E
100
AcDbEntity
  8
0
100
AcDbSpline
 62
7
  6
CONTINUOUS
 70
0
 71
3
 72
38
 73
34
 74
0
 42
0.0000001
 43
0.0000001
 44
0.0000000001
 40
0.0
 40
0.0
 40
0.0
 40
0.0
 40
0.0323251401
 40
0.0619895881
 40
0.0887492907
 40
0.1126259041
 40
0.1339559739
 40
0.153339708
 40
0.1716915461
 40
0.1900012665
 40
0.2091147005
 40
0.2296108805
 40
0.2518417251
 40
0.2759553085
 40
0.3019824442
 40
0.329891536
 40
0.3595932559
 40
0.3909843272
 40
0.4582978828
 40
0.4939161711
 40
0.5306421461
 40
0.5682496196
 40
0.6065513909
 40
0.6453957147
 40
0.6845657984
 40
0.7042295734
 40
0.7239275198
 40
0.7633698214
 40
0.8028306038
 40
0.8422771947
 40
0.881734015
 40
0.9212199965
 40
1.0
 40
1.0
 40
1.0
 40
1.0
 10
20.4337666472
 20
11.4779176851
 30
0.0
 10
20.4337657507
 20
11.4817117996
 30
0.0
 10
20.4336924617
 20
11.4889883968
 30
0.0
 10
20.4331963157
 20
11.4993972039
 30
0.0
 10
20.4321654762
 20
11.5087750536
 30
0.0
 10
20.4304649274
 20
11.5170655082
 30
0.0
 10
20.4279906331
 20
11.5242627074
 30
0.0
 10
20.4245988557
 20
11.5303585913
 30
0.0
 10
20.4202674131
 20
11.5353736391
 30
0.0
 10
20.4150188733
 20
11.5393588386
 30
0.0
 10
20.408912477
 20
11.5424172485
 30
0.0
 10
20.4019969681
 20
11.5446854402
 30
0.0
 10
20.3943053281
 20
11.546290819
 30
0.0
 10
20.3858636875
 20
11.5473079852
 30
0.0
 10
20.376709501
 20
11.547781482
 30
0.0
 10
20.3668886578
 20
11.5477636377
 30
0.0
 10
20.3564513337
 20
11.5472320459
 30
0.0
 10
20.3414485543
 20
11.5457607518
 30
0.0
 10
20.3258701555
 20
11.5431378078
 30
0.0
 10
20.3099743811
 20
11.5391027463
 30
0.0
 10
20.2976745048
 20
11.5351650778
 30
0.0
 10
20.2853824556
 20
11.5302660318
 30
0.0
 10
20.2732895539
 20
11.5242984918
 30
0.0
 10
20.2616126309
 20
11.5171891541
 30
0.0
 10
20.2524090055
 20
11.5103186798
 30
0.0
 10
20.2454671317
 20
11.5042485738
 30
0.0
 10
20.2388403481
 20
11.4977901996
 30
0.0
 10
20.2312176793
 20
11.4890493196
 30
0.0
 10
20.2232735072
 20
11.4776190783
 30
0.0
 10
20.21667306
 20
11.4653612784
 30
0.0
 10
20.2114758628
 20
11.452440722
 30
0.0
 10
20.2065037448
 20
11.4345816906
 30
0.0
 10
20.2049922669
 20
11.4206384884
 30
0.0
 10
20.2049922669
 20
11.411391804
 30
0.0
  0
SPLINE
  5
28F
100
AcDbEntity
  8
0
100
AcDbSpline
 62
7
  6
CONTINUOUS
 70
0
 71
3
 72
13
 73
9
 74
0
 42
0.0000001
 43
0.0000001
 44
0.0000000001
 40
0.0
 40
0.0
 40
0.0
 40
0.0
 40
0.1361919511
 40
0.2704629512
 40
0.4014873344
 40
0.528668417
 40
0.7711438783
 40
1.0
 40
1.0
 40
1.0
 40
1.0
 10
21.0722946802
 20
10.7118248749
 30
0.0
 10
21.0636183699
 20
10.7118248749
 30
0.0
 10
21.0463591176
 20
10.7131595146
 30
0.0
 10
21.021358214
 20
10.7189541396
 30
0.0
 10
20.9979573829
 20
10.727979693
 30
0.0
 10
20.9698359099
 20
10.7431793185
 30
0.0
 10
20.9395841459
 20
10.7668722986
 30
0.0
 10
20.9197383917
 20
10.7896311246
 30
0.0
 10
20.9111214488
 20
10.801391804
 30
0.0
  0
SPLINE
  5
290
100
AcDbEntity
  8
0
100
AcDbSpline
 62
7
  6
CONTINUOUS
 70
0
 71
3
 72
13
 73
9
 74
0
 42
0.0000001
 43
0.0000001
 44
0.0000000001
 40
0.0
 40
0.0
 40
0.0
 40
0.0
 40
0.1361908367
 40
0.2704614127
 40
0.4014855412
 40
0.5286667038
 40
0.7711427449
 40
1.0
 40
1.0
 40
1.0
 40
1.0
 10
21.0722946802
 20
10.7118248749
 30
0.0
 10
21.0809709196
 20
10.7118248749
 30
0.0
 10
21.0982300745
 20
10.7131594855
 30
0.0
 10
21.1232308716
 20
10.7189540636
 30
0.0
 10
21.146631683
 20
10.7279795598
 30
0.0
 10
21.1747532055
 20
10.7431791489
 30
0.0
 10
21.2050051005
 20
10.7668721535
 30
0.0
 10
21.2248509261
 20
10.7896310663
 30
0.0
 10
21.2334679117
 20
10.801391804
 30
0.0
  0
SPLINE
  5
291
100
AcDbEntity
  8
0
100
AcDbSpline
 62
7
  6
CONTINUOUS
 70
0
 71
3
 72
23
 73
19
 74
0
 42
0.0000001
 43
0.0000001
 44
0.0000000001
 40
0.0
 40
0.0
 40
0.0
 40
0.0
 40
0.0661007429
 40
0.1317098185
 40
0.1961438302
 40
0.2590309228
 40
0.3202567337
 40
0.3799693721
 40
0.438634352
 40
0.4678149681
 40
0.4970058075
 40
0.5557615212
 40
0.615535917
 40
0.676659269
 40
0.7392298224
 40
0.8031308525
 40
0.8681484286
 40
1.0
 40
1.0
 40
1.0
 40
1.0
 10
21.2334679117
 20
11.411391804
 30
0.0
 10
21.2334679117
 20
11.4167416548
 30
0.0
 10
21.2330431326
 20
11.4274067704
 30
0.0
 10
21.2311046766
 20
11.4431812919
 30
0.0
 10
21.2278230719
 20
11.4584712565
 30
0.0
 10
21.2231219051
 20
11.4730203266
 30
0.0
 10
21.216925267
 20
11.4865878389
 30
0.0
 10
21.2091902241
 20
11.498949299
 30
0.0
 10
21.2014238774
 20
11.5080835916
 30
0.0
 10
21.1945258883
 20
11.5145859521
 30
0.0
 10
21.1871609627
 20
11.5205667839
 30
0.0
 10
21.1770880285
 20
11.5270820164
 30
0.0
 10
21.1639439633
 20
11.53337613
 30
0.0
 10
21.1499032395
 20
11.5382845265
 30
0.0
 10
21.1351649683
 20
11.5419980331
 30
0.0
 10
21.1198899112
 20
11.54468553
 30
0.0
 10
21.0989149079
 20
11.5470988857
 30
0.0
 10
21.0829660614
 20
11.5477507055
 30
0.0
 10
21.0722946802
 20
11.5477507055
 30
0.0
  0
ELLIPSE
  5
292
100
AcDbEntity
  8
0
100
AcDbEllipse
 62
7
  6
CONTINUOUS
 10
12.0722946802
 20
7.6428905744
 30
0.0
 11
1.1492470711
 21
1.1162095399
 31
0.0
 40
0.2678505055
 41
-3.3961017501
 42
-2.3489041989
  0
ELLIPSE
  5
293
100
AcDbEntity
  8
0
100
AcDbEllipse
 62
7
  6
CONTINUOUS
 10
12.0722946802
 20
7.6428905744
 30
0.0
 11
-1.1492470711
 21
1.1162095399
 31
0.0
 40
0.2678505055
 41
-3.9342811082
 42
-2.887083557
  0
ELLIPSE
  5
294
100
AcDbEntity
  8
0
100
AcDbEllipse
 62
7
  6
CONTINUOUS
 10
12.0722946802
 20
7.6428905744
 30
0.0
 11
1.1875
 21
0.0
 31
0.0
 40
0.9750549296
 41
-2.0943951024
 42
-1.0471975512
  0
ENDSEC
  0
SECTION
  2
OBJECTS
  0
DICTIONARY
  5
C
100
AcDbDictionary
280
0
281
1
  3
ACAD_GROUP
350
D
  3
ACAD_MLINESTYLE
350
17
  3
ACAD_LAYOUT
350
1A
  3
ACAD_PLOTSETTINGS
350
19
  3
ACAD_PLOTSTYLENAME
350
E
  0
DICTIONARY
  5
D
102
{ACAD_REACTORS
330
C
102
}
100
AcDbDictionary
280
0
281
1
  0
ACDBDICTIONARYWDFLT
  5
E
102
{ACAD_REACTORS
330
C
102
}
100
AcDbDictionary
281
1
  3
Normal
350
F
100
AcDbDictionaryWithDefault
340
F
  0
DICTIONARY
  5
17
102
{ACAD_REACTORS
330
C
102
}
100
AcDbDictionary
280
0
281
1
  3
Standard
350
18
  0
DICTIONARY
  5
19
102
{ACAD_REACTORS
330
C
102
}
100
AcDbDictionary
281
1
  0
DICTIONARY
  5
1A
102
{ACAD_REACTORS
330
C
102
}
100
AcDbDictionary
281
1
  3
Model
350
295
  3
Layout1
350
296
  0
ACDBPLACEHOLDER
  5
F
102
{ACAD_REACTORS
330
E
102
}
  0
MLINESTYLE
  5
18
102
{ACAD_REACTORS
330
17
102
}
100
AcDbMlineStyle
  2
STANDARD
 70
0
  3

 62
256
 51
90.0
 52
90.0
 71
2
 49
0.5
 62
256
  6
BYLAYER
 49
-0.5
 62
256
  6
BYLAYER
  0
LAYOUT
  5
295
102
{ACAD_REACTORS
330
1A
102
}
100
AcDbPlotSettings
  1

  2
none_device
  4
ANSI_C_(22.00_x_17.00_Inches)
  6

 40
0.0
 41
0.0
 42
0.0
 43
0.0
 44
558.8
 45
431.8
 46
0.0
 47
0.0
 48
0.0
 49
0.0
140
0.0
141
0.0
142
1.0
143
1.0
 70
1024
 72
0
 73
0
 74
0
  7

 75
0
147
1.0
148
0.0
149
0.0
100
AcDbLayout
  1
Model
 70
0
 71
0
 10
0.0
 20
0.0
 11
22.0
 21
17.0
 12
0.0
 22
0.0
 32
0.0
 14
0.0
 24
0.0
 34
0.0
 15
0.0
 25
0.0
 35
0.0
146
0.0
 13
0.0
 23
0.0
 33
0.0
 16
1.0
 26
0.0
 36
0.0
 17
0.0
 27
1.0
 37
0.0
 76
0
330
202
345
0
346
0
  0
LAYOUT
  5
296
102
{ACAD_REACTORS
330
1A
102
}
100
AcDbPlotSettings
  1

  2
none_device
  4
ANSI_C_(22.00_x_17.00_Inches)
  6

 40
0.0
 41
0.0
 42
0.0
 43
0.0
 44
558.8
 45
431.8
 46
0.0
 47
0.0
 48
0.0
 49
0.0
140
0.0
141
0.0
142
1.0
143
1.0
 70
0
 72
0
 73
0
 74
0
  7

 75
0
147
1.0
148
0.0
149
0.0
100
AcDbLayout
  1
Layout1
 70
0
 71
1
 10
0.0
 20
0.0
 11
22.0
 21
17.0
 12
0.0
 22
0.0
 32
0.0
 14
0.0
 24
0.0
 34
0.0
 15
0.0
 25
0.0
 35
0.0
146
0.0
 13
0.0
 23
0.0
 33
0.0
 16
1.0
 26
0.0
 36
0.0
 17
0.0
 27
1.0
 37
0.0
 76
0
330
203
345
0
346
0
  0
ENDSEC
  0
EOF
