999
DXF file: 120_front.dxf
999
Pro/ENGINEER 2018400 by Parametric Technology Corporation
  0
SECTION
  2
HEADER
  9
$ACADVER
  1
AC1027
  9
$DWGCODEPAGE
  3
ANSI_1252
  9
$EXTMAX
 10
11.0
 20
8.5
 30
0.0
  9
$EXTMIN
 10
0.0
 20
0.0
 30
0.0
  9
$LIMMIN
 10
0.0
 20
0.0
  9
$LIMMAX
 10
11.0
 20
8.5
  9
$VIEWCTR
 10
5.5
 20
4.25
  9
$VIEWSIZE
 40
8.5
  9
$CLAYER
  8
0
  9
$LTSCALE
 40
0.605
  9
$CELTYPE
  6
BYLAYER
  9
$DIMSCALE
 40
1.0
  9
$DIMASZ
 40
0.1
  9
$DIMEXO
 40
0.0625
  9
$DIMDLI
 40
0.418
  9
$DIMEXE
 40
0.125
  9
$DIMCEN
 40
0.099
  9
$DIMLFAC
 40
1.0
  9
$DIMBLK
  1
_FILLED
  9
$DIMALT
 70
1
  9
$DIMALTD
 70
1
  9
$DIMALTTD
 70
2
  9
$DIMALTF
 40
25.4
  9
$DIMTXT
 40
0.08
  9
$DIMTOL
 70
1
  9
$DIMLIM
 70
0
  9
$DIMTFAC
 40
1.0
  9
$DIMTP
 40
0.01
  9
$DIMTM
 40
0.01
  9
$DIMGAP
 40
0.09
  9
$DIMDSEP
 70
46
  9
$AUNITS
 70
0
  9
$PDMODE
 70
3
  9
$PDSIZE
 40
0.3125
  9
$HANDSEED
  5
400
  9
$TILEMODE
 70
1
  9
$MEASUREMENT
 70
0
  9
$INSUNITS
 70
1
  0
ENDSEC
  0
SECTION
  2
CLASSES
  0
CLASS
  1
ACDBDICTIONARYWDFLT
  2
AcDbDictionaryWithDefault
  3
AutoCAD 2000
 90
0
 91
1
280
0
281
0
  0
CLASS
  1
ACDBPLACEHOLDER
  2
AcDbPlaceHolder
  3
AutoCAD 2000
 90
0
 91
1
280
0
281
0
  0
CLASS
  1
LAYOUT
  2
AcDbLayout
  3
AutoCAD 2000
 90
0
 91
0
280
0
281
0
  0
ENDSEC
  0
SECTION
  2
TABLES
  0
TABLE
  2
VPORT
  5
8
100
AcDbSymbolTable
 70
2
  0
VPORT
  5
1F4
100
AcDbSymbolTableRecord
100
AcDbViewportTableRecord
  2
*ACTIVE
 70
0
 10
0.0
 20
0.0
 11
1.0
 21
1.0
 12
5.5
 22
4.25
 13
0.0
 23
0.0
 14
1.0
 24
1.0
 15
0.0
 25
0.0
 16
0.0
 26
0.0
 36
1.0
 17
0.0
 27
0.0
 37
0.0
 40
8.5
 41
1.2941176471
 42
50.0
 43
0.0
 44
0.0
 50
0.0
 51
0.0
 71
0
 72
100
 73
1
 74
1
 75
0
 76
0
 77
0
 78
0
  0
ENDTAB
  0
TABLE
  2
LTYPE
  5
5
100
AcDbSymbolTable
 70
6
  0
LTYPE
  5
14
100
AcDbSymbolTableRecord
100
AcDbLinetypeTableRecord
  2
BYBLOCK
 70
0
  3

 72
65
 73
0
 40
0.0
  0
LTYPE
  5
15
100
AcDbSymbolTableRecord
100
AcDbLinetypeTableRecord
  2
BYLAYER
 70
0
  3

 72
65
 73
0
 40
0.0
  0
LTYPE
  5
16
100
AcDbSymbolTableRecord
100
AcDbLinetypeTableRecord
  2
CONTINUOUS
 70
64
  3
Solid line
 72
65
 73
0
 40
0.0
  0
LTYPE
  5
1F5
100
AcDbSymbolTableRecord
100
AcDbLinetypeTableRecord
  2
CENTER
 70
64
  3
____ _ ____ _ ____ _ ____ _ ____ _ ____ _ ____
 72
65
 73
4
 40
0.6
 49
0.375
 74
0
 49
-0.075
 74
0
 49
0.075
 74
0
 49
-0.075
 74
0
  0
LTYPE
  5
1F6
100
AcDbSymbolTableRecord
100
AcDbLinetypeTableRecord
  2
HIDDEN
 70
64
  3
- - - - - - - - - - - - - - - - - - - -
 72
65
 73
2
 40
0.2
 49
0.1
 74
0
 49
-0.1
 74
0
  0
LTYPE
  5
1F7
100
AcDbSymbolTableRecord
100
AcDbLinetypeTableRecord
  2
PHANTOM
 70
64
  3
_____ _ _ _____ _ _ _____ _ _ _____
 72
65
 73
6
 40
0.8
 49
0.45
 74
0
 49
-0.05
 74
0
 49
0.1
 74
0
 49
-0.05
 74
0
 49
0.1
 74
0
 49
-0.05
 74
0
  0
LTYPE
  5
1F8
100
AcDbSymbolTableRecord
100
AcDbLinetypeTableRecord
  2
DOT
 70
64
  3
. . . . . . . . . . . . . . . . . . . .
 72
65
 73
2
 40
0.2
 49
0.1
 74
0
 49
-0.1
 74
0
  0
LTYPE
  5
1F9
100
AcDbSymbolTableRecord
100
AcDbLinetypeTableRecord
  2
DASHED
 70
64
  3
- - - - - - - - - - - - - - - - - - - -
 72
65
 73
2
 40
0.2
 49
0.1
 74
0
 49
-0.1
 74
0
  0
ENDTAB
  0
TABLE
  2
LAYER
  5
2
100
AcDbSymbolTable
 70
36
  0
LAYER
  5
10
100
AcDbSymbolTableRecord
100
AcDbLayerTableRecord
  2
0
 70
0
 62
7
  6
CONTINUOUS
370
-3
390
F
  0
LAYER
  5
1FA
100
AcDbSymbolTableRecord
100
AcDbLayerTableRecord
  2
DEFAULT_1
 70
0
 62
7
  6
CENTER
370
-3
390
F
  0
LAYER
  5
1FB
100
AcDbSymbolTableRecord
100
AcDbLayerTableRecord
  2
DEFAULT_2
 70
0
 62
8
  6
HIDDEN
370
-3
390
F
  0
LAYER
  5
1FC
100
AcDbSymbolTableRecord
100
AcDbLayerTableRecord
  2
DEFAULT_3
 70
0
 62
7
  6
PHANTOM
370
-3
390
F
  0
LAYER
  5
1FD
100
AcDbSymbolTableRecord
100
AcDbLayerTableRecord
  2
ALL_ASSEMBLY_MEMBERS
 70
0
 62
7
  6
CONTINUOUS
370
-3
390
F
  0
LAYER
  5
1FE
100
AcDbSymbolTableRecord
100
AcDbLayerTableRecord
  2
ALL_FEATURES
 70
0
 62
7
  6
CONTINUOUS
370
-3
390
F
  0
LAYER
  5
1FF
100
AcDbSymbolTableRecord
100
AcDbLayerTableRecord
  2
AXES_FEATURES
 70
0
 62
7
  6
CONTINUOUS
370
-3
390
F
  0
LAYER
  5
200
100
AcDbSymbolTableRecord
100
AcDbLayerTableRecord
  2
CHAMFER_FEATURES
 70
0
 62
7
  6
CONTINUOUS
370
-3
390
F
  0
LAYER
  5
201
100
AcDbSymbolTableRecord
100
AcDbLayerTableRecord
  2
COSMETIC_SKETCHES
 70
0
 62
7
  6
CONTINUOUS
370
-3
390
F
  0
LAYER
  5
202
100
AcDbSymbolTableRecord
100
AcDbLayerTableRecord
  2
CUT_FEATURES
 70
0
 62
7
  6
CONTINUOUS
370
-3
390
F
  0
LAYER
  5
203
100
AcDbSymbolTableRecord
100
AcDbLayerTableRecord
  2
DATUM_CURVES
 70
0
 62
7
  6
CONTINUOUS
370
-3
390
F
  0
LAYER
  5
204
100
AcDbSymbolTableRecord
100
AcDbLayerTableRecord
  2
DATUM_PLANES
 70
0
 62
7
  6
CONTINUOUS
370
-3
390
F
  0
LAYER
  5
205
100
AcDbSymbolTableRecord
100
AcDbLayerTableRecord
  2
DEFAULT_COORDINATE_SYSTEM
 70
0
 62
7
  6
CONTINUOUS
370
-3
390
F
  0
LAYER
  5
206
100
AcDbSymbolTableRecord
100
AcDbLayerTableRecord
  2
DEFAULT_DATUM_AXES
 70
0
 62
7
  6
CONTINUOUS
370
-3
390
F
  0
LAYER
  5
207
100
AcDbSymbolTableRecord
100
AcDbLayerTableRecord
  2
DEFAULT_DATUM_PLANES
 70
0
 62
7
  6
CONTINUOUS
370
-3
390
F
  0
LAYER
  5
208
100
AcDbSymbolTableRecord
100
AcDbLayerTableRecord
  2
DIMENSIONS
 70
0
 62
7
  6
CONTINUOUS
370
-3
390
F
  0
LAYER
  5
209
100
AcDbSymbolTableRecord
100
AcDbLayerTableRecord
  2
HOLE_FEATURES
 70
0
 62
7
  6
CONTINUOUS
370
-3
390
F
  0
LAYER
  5
20A
100
AcDbSymbolTableRecord
100
AcDbLayerTableRecord
  2
PART_REFERENCE_DIMENSIONS
 70
0
 62
7
  6
CONTINUOUS
370
-3
390
F
  0
LAYER
  5
20B
100
AcDbSymbolTableRecord
100
AcDbLayerTableRecord
  2
PLATED_SURFACE_AREA
 70
0
 62
7
  6
CONTINUOUS
370
-3
390
F
  0
LAYER
  5
20C
100
AcDbSymbolTableRecord
100
AcDbLayerTableRecord
  2
PROTRUSION_FEATURES
 70
0
 62
7
  6
CONTINUOUS
370
-3
390
F
  0
LAYER
  5
20D
100
AcDbSymbolTableRecord
100
AcDbLayerTableRecord
  2
QUILT
 70
0
 62
7
  6
CONTINUOUS
370
-3
390
F
  0
LAYER
  5
20E
100
AcDbSymbolTableRecord
100
AcDbLayerTableRecord
  2
QUILTS
 70
0
 62
7
  6
CONTINUOUS
370
-3
390
F
  0
LAYER
  5
20F
100
AcDbSymbolTableRecord
100
AcDbLayerTableRecord
  2
REFERENCE_DIMENSIONS
 70
0
 62
7
  6
CONTINUOUS
370
-3
390
F
  0
LAYER
  5
210
100
AcDbSymbolTableRecord
100
AcDbLayerTableRecord
  2
ROUND_FEATURES
 70
0
 62
7
  6
CONTINUOUS
370
-3
390
F
  0
LAYER
  5
211
100
AcDbSymbolTableRecord
100
AcDbLayerTableRecord
  2
SHELL_FEATURES
 70
0
 62
7
  6
CONTINUOUS
370
-3
390
F
  0
LAYER
  5
212
100
AcDbSymbolTableRecord
100
AcDbLayerTableRecord
  2
XSEC_DATUMS
 70
0
 62
7
  6
CONTINUOUS
370
-3
390
F
  0
ENDTAB
  0
TABLE
  2
STYLE
  5
3
100
AcDbSymbolTable
 70
1
  0
STYLE
  5
11
100
AcDbSymbolTableRecord
100
AcDbTextStyleTableRecord
  2
STANDARD
 70
0
 40
0.0
 41
0.8
 50
0.0
 71
0
 42
0.2
  3
txt
  4

  0
STYLE
  5
213
100
AcDbSymbolTableRecord
100
AcDbTextStyleTableRecord
  2
TEXTSTYLE_1
 70
0
 40
0.0
 41
0.8
 50
0.0
 71
0
 42
0.2
  3
gdt
  4

  0
ENDTAB
  0
TABLE
  2
VIEW
  5
6
100
AcDbSymbolTable
 70
0
  0
ENDTAB
  0
TABLE
  2
UCS
  5
7
100
AcDbSymbolTable
 70
0
  0
ENDTAB
  0
TABLE
  2
APPID
  5
9
100
AcDbSymbolTable
 70
1
  0
APPID
  5
214
100
AcDbSymbolTableRecord
100
AcDbRegAppTableRecord
  2
ACAD
 70
0
  0
ENDTAB
  0
TABLE
  2
BLOCK_RECORD
  5
1
100
AcDbSymbolTable
 70
0
  0
BLOCK_RECORD
  5
215
100
AcDbSymbolTableRecord
100
AcDbBlockTableRecord
  2
*Model_Space
  0
BLOCK_RECORD
  5
216
100
AcDbSymbolTableRecord
100
AcDbBlockTableRecord
  2
*Paper_Space
  0
BLOCK_RECORD
  5
217
100
AcDbSymbolTableRecord
100
AcDbBlockTableRecord
  2
_FILLED
  0
ENDTAB
  0
TABLE
  2
DIMSTYLE
  5
A
100
AcDbSymbolTable
 70
1
100
AcDbDimStyleTable
 71
0
  0
DIMSTYLE
105
218
100
AcDbSymbolTableRecord
100
AcDbDimStyleTableRecord
  2
STANDARD
 70
0
  3

  4

 40
1.0
 41
0.1
 42
0.0625
 43
0.38
 44
0.125
 45
0.0
 46
0.0
 47
0.01
 48
0.01
140
0.08
141
0.09
142
0.0
143
25.4
144
1.0
145
0.0
146
1.0
147
0.09
 71
1.0
 72
0.0
 73
1
 74
1
 75
0
 76
0
 77
0
 78
4
 79
1
170
1
171
1
172
0
173
0
174
0
175
0
176
0
177
0
178
0
270
2
179
2
271
2
272
2
273
2
274
2
275
0
280
0
281
0
282
0
283
1
284
4
285
0
286
0
287
3
288
0
340
11
278
46
341
217
342
217
343
217
344
217
  0
ENDTAB
  0
ENDSEC
  0
SECTION
  2
BLOCKS
  0
BLOCK
  5
20
100
AcDbEntity
  8
0
100
AcDbBlockBegin
  2
*Model_Space
 70
0
 10
0.0
 20
0.0
 30
0.0
  3
*Model_Space
  1

  0
ENDBLK
  5
21
100
AcDbEntity
  8
0
100
AcDbBlockEnd
  0
BLOCK
  5
1C
100
AcDbEntity
  8
0
100
AcDbBlockBegin
  2
*Paper_Space
 70
0
 10
0.0
 20
0.0
 30
0.0
  3
*Paper_Space
  1

  0
ENDBLK
  5
1D
100
AcDbEntity
  8
0
100
AcDbBlockEnd
  0
BLOCK
  5
219
100
AcDbEntity
  8
0
100
AcDbBlockBegin
  2
_FILLED
 70
64
 10
0.0
 20
0.0
  3
_FILLED
  1

  0
SOLID
  5
21A
100
AcDbEntity
  8
0
  6
BYBLOCK
 62
0
100
AcDbTrace
 10
0.0
 20
0.0
 11
-1.0
 21
0.2
 12
-1.0
 22
-0.2
 13
-1.0
 23
-0.2
  0
ENDBLK
  5
21B
100
AcDbEntity
  8
0
  6
BYBLOCK
 62
0
100
AcDbBlockEnd
  0
ENDSEC
  0
SECTION
  2
ENTITIES
  0
MTEXT
  5
21C
100
AcDbEntity
  8
0
100
AcDbMText
 62
2
  6
CONTINUOUS
  7
STANDARD
 71
3
 72
1
 10
5.0388198758
 20
1.4815395963
 30
0.0
 11
1.0
 21
0.0
 31
0.0
 73
2
 44
0.9
  1
SCALE  .500
 40
0.08
 41
0.704
  0
LINE
  5
21D
100
AcDbEntity
  8
0
100
AcDbLine
 62
7
  6
CONTINUOUS
 10
0.0
 20
0.0
 11
0.0
 21
8.5
  0
LINE
  5
21E
100
AcDbEntity
  8
0
100
AcDbLine
 62
7
  6
CONTINUOUS
 10
0.0
 20
0.0
 11
11.0
 21
0.0
  0
LINE
  5
21F
100
AcDbEntity
  8
0
100
AcDbLine
 62
7
  6
CONTINUOUS
 10
0.0
 20
8.5
 11
11.0
 21
8.5
  0
LINE
  5
220
100
AcDbEntity
  8
0
100
AcDbLine
 62
7
  6
CONTINUOUS
 10
11.0
 20
0.0
 11
11.0
 21
8.5
  0
LINE
  5
221
100
AcDbEntity
  8
ALL_FEATURES
100
AcDbLine
 62
7
  6
CONTINUOUS
 10
4.5127212733
 20
2.1266017081
 11
4.8039712733
 21
2.1266017081
  0
LINE
  5
222
100
AcDbEntity
  8
ALL_ASSEMBLY_MEMBERS
100
AcDbLine
 62
7
  6
CONTINUOUS
 10
4.31959711
 20
2.1346017081
 11
4.9970954366
 21
2.1346017081
  0
LINE
  5
223
100
AcDbEntity
  8
ALL_FEATURES
100
AcDbLine
 62
7
  6
CONTINUOUS
 10
4.2583462733
 20
2.2104211382
 11
5.0583462733
 21
2.2104211382
  0
LINE
  5
224
100
AcDbEntity
  8
ALL_FEATURES
100
AcDbLine
 62
7
  6
CONTINUOUS
 10
4.1753230175
 20
2.2320731049
 11
5.1413695291
 21
2.2320731049
  0
LINE
  5
225
100
AcDbEntity
  8
ALL_FEATURES
100
AcDbLine
 62
7
  6
CONTINUOUS
 10
4.1433462733
 20
2.286612823
 11
4.1565480373
 21
2.286612823
  0
LINE
  5
226
100
AcDbEntity
  8
ALL_FEATURES
100
AcDbLine
 62
7
  6
CONTINUOUS
 10
4.3071094866
 20
2.286612823
 11
4.507784824
 21
2.286612823
  0
LINE
  5
227
100
AcDbEntity
  8
ALL_FEATURES
100
AcDbLine
 62
7
  6
CONTINUOUS
 10
4.8089077225
 20
2.286612823
 11
5.00958306
 21
2.286612823
  0
LINE
  5
228
100
AcDbEntity
  8
ALL_FEATURES
100
AcDbLine
 62
7
  6
CONTINUOUS
 10
5.1601445093
 20
2.286612823
 11
5.1733462733
 21
2.286612823
  0
LINE
  5
229
100
AcDbEntity
  8
ALL_FEATURES
100
AcDbLine
 62
7
  6
CONTINUOUS
 10
4.1433462733
 20
2.3632163168
 11
4.1565480373
 21
2.3632163168
  0
LINE
  5
22A
100
AcDbEntity
  8
ALL_FEATURES
100
AcDbLine
 62
7
  6
CONTINUOUS
 10
4.3071094866
 20
2.3632163168
 11
4.507784824
 21
2.3632163168
  0
LINE
  5
22B
100
AcDbEntity
  8
ALL_FEATURES
100
AcDbLine
 62
7
  6
CONTINUOUS
 10
4.8089077225
 20
2.3632163168
 11
5.00958306
 21
2.3632163168
  0
LINE
  5
22C
100
AcDbEntity
  8
ALL_FEATURES
100
AcDbLine
 62
7
  6
CONTINUOUS
 10
5.1601445093
 20
2.3632163168
 11
5.1733462733
 21
2.3632163168
  0
LINE
  5
22D
100
AcDbEntity
  8
ALL_FEATURES
100
AcDbLine
 62
7
  6
CONTINUOUS
 10
4.1733462733
 20
2.4166017081
 11
5.1433462733
 21
2.4166017081
  0
LINE
  5
22E
100
AcDbEntity
  8
ALL_FEATURES
100
AcDbLine
 62
7
  6
CONTINUOUS
 10
4.1733462733
 20
2.4766017081
 11
5.1433462733
 21
2.4766017081
  0
LINE
  5
22F
100
AcDbEntity
  8
ALL_FEATURES
100
AcDbLine
 62
7
  6
CONTINUOUS
 10
5.1158462733
 20
2.5325514548
 11
4.2008462733
 21
2.5325514548
  0
LINE
  5
230
100
AcDbEntity
  8
ALL_FEATURES
100
AcDbLine
 62
7
  6
CONTINUOUS
 10
3.9173091624
 20
2.6824770229
 11
4.1344444385
 21
2.6205419776
  0
LINE
  5
231
100
AcDbEntity
  8
ALL_FEATURES
100
AcDbLine
 62
7
  6
CONTINUOUS
 10
4.2010147307
 20
2.5013976314
 11
4.225629294
 21
2.4871808745
  0
LINE
  5
232
100
AcDbEntity
  8
ALL_FEATURES
100
AcDbLine
 62
7
  6
CONTINUOUS
 10
5.1822481076
 20
2.6205419775
 11
4.134444439
 21
2.6205419775
  0
LINE
  5
233
100
AcDbEntity
  8
ALL_FEATURES
100
AcDbLine
 62
7
  6
CONTINUOUS
 10
3.9173091647
 20
2.6824770223
 11
5.3993833819
 21
2.6824770223
  0
LINE
  5
234
100
AcDbEntity
  8
ALL_ASSEMBLY_MEMBERS
100
AcDbLine
 62
7
  6
CONTINUOUS
 10
5.5308462733
 20
2.7096017081
 11
3.7858462733
 21
2.7096017081
  0
LINE
  5
235
100
AcDbEntity
  8
ALL_FEATURES
100
AcDbLine
 62
7
  6
CONTINUOUS
 10
4.2010147307
 20
2.5013976314
 11
4.2008462733
 21
2.5015922089
  0
LINE
  5
236
100
AcDbEntity
  8
ALL_ASSEMBLY_MEMBERS
100
AcDbLine
 62
7
  6
CONTINUOUS
 10
5.6875827535
 20
2.7841017081
 11
5.530042194
 21
2.7841017081
  0
LINE
  5
237
100
AcDbEntity
  8
ALL_ASSEMBLY_MEMBERS
100
AcDbLine
 62
7
  6
CONTINUOUS
 10
5.1925827535
 20
2.7841017081
 11
5.0617619361
 21
2.7841017081
  0
LINE
  5
238
100
AcDbEntity
  8
ALL_ASSEMBLY_MEMBERS
100
AcDbLine
 62
7
  6
CONTINUOUS
 10
4.2549396842
 20
2.7841017081
 11
4.1241097931
 21
2.7841017081
  0
LINE
  5
239
100
AcDbEntity
  8
ALL_ASSEMBLY_MEMBERS
100
AcDbLine
 62
7
  6
CONTINUOUS
 10
3.7866507919
 20
2.7841017081
 11
3.6291097931
 21
2.7841017081
  0
LINE
  5
23A
100
AcDbEntity
  8
ALL_ASSEMBLY_MEMBERS
100
AcDbLine
 62
7
  6
CONTINUOUS
 10
5.530042194
 20
2.8921017081
 11
5.1925962733
 21
2.8921017081
  0
LINE
  5
23B
100
AcDbEntity
  8
ALL_ASSEMBLY_MEMBERS
100
AcDbLine
 62
7
  6
CONTINUOUS
 10
5.0617619361
 20
2.8921017081
 11
4.2549396842
 21
2.8921017081
  0
LINE
  5
23C
100
AcDbEntity
  8
ALL_ASSEMBLY_MEMBERS
100
AcDbLine
 62
7
  6
CONTINUOUS
 10
4.1240962733
 20
2.8921017081
 11
3.7866507919
 21
2.8921017081
  0
LINE
  5
23D
100
AcDbEntity
  8
ALL_FEATURES
100
AcDbLine
 62
7
  6
CONTINUOUS
 10
3.8267104533
 20
3.1524649481
 11
3.85171399
 21
3.1380271061
  0
LINE
  5
23E
100
AcDbEntity
  8
ALL_FEATURES
100
AcDbLine
 62
7
  6
CONTINUOUS
 10
3.8267104533
 20
3.2024649975
 11
3.85171399
 21
3.1880271554
  0
LINE
  5
23F
100
AcDbEntity
  8
ALL_FEATURES
100
AcDbLine
 62
7
  6
CONTINUOUS
 10
3.8267104533
 20
3.1524649481
 11
3.8265962733
 21
3.1525968069
  0
LINE
  5
240
100
AcDbEntity
  8
ALL_FEATURES
100
AcDbLine
 62
7
  6
CONTINUOUS
 10
3.8267104533
 20
3.2024649975
 11
3.8265962733
 21
3.2025968563
  0
LINE
  5
241
100
AcDbEntity
  8
ALL_ASSEMBLY_MEMBERS
100
AcDbLine
 62
7
  6
CONTINUOUS
 10
3.5653462733
 20
3.0016017081
 11
3.5653462733
 21
3.1366017081
  0
LINE
  5
242
100
AcDbEntity
  8
ALL_FEATURES
100
AcDbLine
 62
7
  6
CONTINUOUS
 10
3.5658462733
 20
3.4146841721
 11
3.5658462733
 21
3.4087427044
  0
LINE
  5
243
100
AcDbEntity
  8
ALL_ASSEMBLY_MEMBERS
100
AcDbLine
 62
7
  6
CONTINUOUS
 10
3.5895962733
 20
3.0016017081
 11
3.5895962733
 21
2.9616017081
  0
LINE
  5
244
100
AcDbEntity
  8
ALL_ASSEMBLY_MEMBERS
100
AcDbLine
 62
7
  6
CONTINUOUS
 10
3.5975962733
 20
2.9216017081
 11
3.5975962733
 21
2.9616017081
  0
LINE
  5
245
100
AcDbEntity
  8
ALL_ASSEMBLY_MEMBERS
100
AcDbLine
 62
7
  6
CONTINUOUS
 10
4.1763462733
 20
5.3021017081
 11
4.1876957315
 21
5.3185695494
  0
LINE
  5
246
100
AcDbEntity
  8
ALL_ASSEMBLY_MEMBERS
100
AcDbLine
 62
7
  6
CONTINUOUS
 10
5.7190962733
 20
2.9216017081
 11
3.5975962733
 21
2.9216017081
  0
LINE
  5
247
100
AcDbEntity
  8
ALL_ASSEMBLY_MEMBERS
100
AcDbLine
 62
7
  6
CONTINUOUS
 10
3.5895962733
 20
2.9616017081
 11
5.7270962733
 21
2.9616017081
  0
LINE
  5
248
100
AcDbEntity
  8
ALL_ASSEMBLY_MEMBERS
100
AcDbLine
 62
7
  6
CONTINUOUS
 10
3.5653462733
 20
3.0016017081
 11
5.7513462733
 21
3.0016017081
  0
LINE
  5
249
100
AcDbEntity
  8
ALL_FEATURES
100
AcDbLine
 62
7
  6
CONTINUOUS
 10
5.1156778159
 20
2.4848353797
 11
5.0910632526
 21
2.4990521367
  0
LINE
  5
24A
100
AcDbEntity
  8
ALL_FEATURES
100
AcDbLine
 62
7
  6
CONTINUOUS
 10
3.8267104529
 20
3.2524650078
 11
3.8517139897
 21
3.2380271657
  0
LINE
  5
24B
100
AcDbEntity
  8
ALL_FEATURES
100
AcDbLine
 62
7
  6
CONTINUOUS
 10
3.8265962733
 20
3.2525968661
 11
3.8267104529
 21
3.2524650078
  0
LINE
  5
24C
100
AcDbEntity
  8
ALL_ASSEMBLY_MEMBERS
100
AcDbLine
 62
7
  6
CONTINUOUS
 10
3.6290962733
 20
2.9216017081
 11
3.6290962733
 21
2.7841017081
  0
LINE
  5
24D
100
AcDbEntity
  8
ALL_ASSEMBLY_MEMBERS
100
AcDbLine
 62
7
  6
CONTINUOUS
 10
3.6683462733
 20
2.9216017081
 11
3.6683462733
 21
2.7841017081
  0
LINE
  5
24E
100
AcDbEntity
  8
ALL_ASSEMBLY_MEMBERS
100
AcDbLine
 62
7
  6
CONTINUOUS
 10
3.6791507919
 20
2.9216017081
 11
3.6791507919
 21
2.7841017081
  0
LINE
  5
24F
100
AcDbEntity
  8
ALL_ASSEMBLY_MEMBERS
100
AcDbLine
 62
7
  6
CONTINUOUS
 10
3.5653462733
 20
3.1366017081
 11
5.7513462733
 21
3.1366017081
  0
LINE
  5
250
100
AcDbEntity
  8
ALL_ASSEMBLY_MEMBERS
100
AcDbLine
 62
7
  6
CONTINUOUS
 10
3.7858462733
 20
2.7096017081
 11
3.7858462733
 21
2.7841017081
  0
LINE
  5
251
100
AcDbEntity
  8
ALL_ASSEMBLY_MEMBERS
100
AcDbLine
 62
7
  6
CONTINUOUS
 10
3.7866507919
 20
2.8921017081
 11
3.7866507919
 21
2.7841017081
  0
LINE
  5
252
100
AcDbEntity
  8
ALL_ASSEMBLY_MEMBERS
100
AcDbLine
 62
7
  6
CONTINUOUS
 10
3.8183462733
 20
5.7721017081
 11
3.8183462733
 21
5.7886017081
  0
LINE
  5
253
100
AcDbEntity
  8
ALL_FEATURES
100
AcDbLine
 62
7
  6
CONTINUOUS
 10
3.8265962733
 20
3.2775968316
 11
3.8265962733
 21
3.2525968661
  0
LINE
  5
254
100
AcDbEntity
  8
ALL_FEATURES
100
AcDbLine
 62
7
  6
CONTINUOUS
 10
3.8265962733
 20
3.2137293527
 11
3.8265962733
 21
3.2025968563
  0
LINE
  5
255
100
AcDbEntity
  8
ALL_FEATURES
100
AcDbLine
 62
7
  6
CONTINUOUS
 10
3.8265962733
 20
3.1637293428
 11
3.8265962733
 21
3.1525968069
  0
LINE
  5
256
100
AcDbEntity
  8
ALL_FEATURES
100
AcDbLine
 62
7
  6
CONTINUOUS
 10
3.8515962733
 20
3.2381631094
 11
3.8515962733
 21
3.2281631094
  0
LINE
  5
257
100
AcDbEntity
  8
ALL_FEATURES
100
AcDbLine
 62
7
  6
CONTINUOUS
 10
3.8515962733
 20
3.1881630995
 11
3.8515962733
 21
3.1781630995
  0
LINE
  5
258
100
AcDbEntity
  8
ALL_FEATURES
100
AcDbLine
 62
7
  6
CONTINUOUS
 10
3.8515962733
 20
3.1381630502
 11
3.8515962733
 21
3.1366017081
  0
LINE
  5
259
100
AcDbEntity
  8
ALL_FEATURES
100
AcDbLine
 62
7
  6
CONTINUOUS
 10
5.7425827551
 20
3.3988946269
 11
5.565707465
 21
3.367706741
  0
LINE
  5
25A
100
AcDbEntity
  8
ALL_FEATURES
100
AcDbLine
 62
7
  6
CONTINUOUS
 10
5.4900962733
 20
3.2775968316
 11
3.8265962733
 21
3.2775968316
  0
LINE
  5
25B
100
AcDbEntity
  8
ALL_FEATURES
100
AcDbLine
 62
7
  6
CONTINUOUS
 10
3.5741097915
 20
3.3988946269
 11
3.7509850815
 21
3.367706741
  0
LINE
  5
25C
100
AcDbEntity
  8
ALL_ASSEMBLY_MEMBERS
100
AcDbLine
 62
7
  6
CONTINUOUS
 10
3.9320962733
 20
5.4766017081
 11
3.9320962733
 21
5.6941017081
  0
LINE
  5
25D
100
AcDbEntity
  8
ALL_ASSEMBLY_MEMBERS
100
AcDbLine
 62
7
  6
CONTINUOUS
 10
3.9362774435
 20
5.6688517081
 11
3.9362774435
 21
5.5588517081
  0
LINE
  5
25E
100
AcDbEntity
  8
ALL_ASSEMBLY_MEMBERS
100
AcDbLine
 62
7
  6
CONTINUOUS
 10
3.9461480951
 20
5.5588517081
 11
3.9461480951
 21
5.6688517081
  0
LINE
  5
25F
100
AcDbEntity
  8
ALL_ASSEMBLY_MEMBERS
100
AcDbLine
 62
7
  6
CONTINUOUS
 10
3.9532081408
 20
5.6688517081
 11
3.9532081408
 21
5.5588517081
  0
LINE
  5
260
100
AcDbEntity
  8
ALL_ASSEMBLY_MEMBERS
100
AcDbLine
 62
7
  6
CONTINUOUS
 10
4.0064389036
 20
5.6688517081
 11
4.0064389036
 21
5.5588517081
  0
LINE
  5
261
100
AcDbEntity
  8
ALL_ASSEMBLY_MEMBERS
100
AcDbLine
 62
7
  6
CONTINUOUS
 10
4.015119009
 20
5.5588517081
 11
4.015119009
 21
5.6688517081
  0
LINE
  5
262
100
AcDbEntity
  8
ALL_ASSEMBLY_MEMBERS
100
AcDbLine
 62
7
  6
CONTINUOUS
 10
4.0551889036
 20
5.6688517081
 11
4.0551889036
 21
5.5588517081
  0
LINE
  5
263
100
AcDbEntity
  8
ALL_ASSEMBLY_MEMBERS
100
AcDbLine
 62
7
  6
CONTINUOUS
 10
4.7508462733
 20
5.1686017081
 11
4.7808462733
 21
5.1986017081
  0
LINE
  5
264
100
AcDbEntity
  8
ALL_ASSEMBLY_MEMBERS
100
AcDbLine
 62
7
  6
CONTINUOUS
 10
5.1129558226
 20
5.2832245056
 11
5.1403462733
 21
5.3021017081
  0
LINE
  5
265
100
AcDbEntity
  8
ALL_FEATURES
100
AcDbLine
 62
7
  6
CONTINUOUS
 10
5.5657074622
 20
3.3677067405
 11
3.7509850844
 21
3.3677067405
  0
LINE
  5
266
100
AcDbEntity
  8
ALL_FEATURES
100
AcDbLine
 62
7
  6
CONTINUOUS
 10
3.5741097922
 20
3.3988946267
 11
5.7425827544
 21
3.3988946267
  0
LINE
  5
267
100
AcDbEntity
  8
ALL_FEATURES
100
AcDbLine
 62
7
  6
CONTINUOUS
 10
3.5658462733
 20
3.4087427044
 11
5.7508462733
 21
3.4087427044
  0
LINE
  5
268
100
AcDbEntity
  8
ALL_FEATURES
100
AcDbLine
 62
7
  6
CONTINUOUS
 10
3.5658462733
 20
3.4146841721
 11
5.7508462733
 21
3.4146841721
  0
LINE
  5
269
100
AcDbEntity
  8
ALL_FEATURES
100
AcDbLine
 62
7
  6
CONTINUOUS
 10
5.7408462733
 20
3.4246841721
 11
3.5758462733
 21
3.4246841721
  0
LINE
  5
26A
100
AcDbEntity
  8
ALL_FEATURES
100
AcDbLine
 62
7
  6
CONTINUOUS
 10
5.1156778159
 20
2.4848353797
 11
5.1158462733
 21
2.4846408022
  0
LINE
  5
26B
100
AcDbEntity
  8
ALL_ASSEMBLY_MEMBERS
100
AcDbLine
 62
7
  6
CONTINUOUS
 10
4.1240962733
 20
2.9216017081
 11
4.1240962733
 21
2.7841017081
  0
LINE
  5
26C
100
AcDbEntity
  8
ALL_FEATURES
100
AcDbLine
 62
7
  6
CONTINUOUS
 10
4.1433462733
 20
2.286612823
 11
4.1433462733
 21
2.3632163168
  0
LINE
  5
26D
100
AcDbEntity
  8
ALL_ASSEMBLY_MEMBERS
100
AcDbLine
 62
7
  6
CONTINUOUS
 10
4.1552300137
 20
5.6688517081
 11
4.1552300137
 21
5.5588517081
  0
LINE
  5
26E
100
AcDbEntity
  8
ALL_FEATURES
100
AcDbLine
 62
7
  6
CONTINUOUS
 10
4.1565480373
 20
2.286612823
 11
4.1565480373
 21
2.3632163168
  0
LINE
  5
26F
100
AcDbEntity
  8
ALL_ASSEMBLY_MEMBERS
100
AcDbLine
 62
7
  6
CONTINUOUS
 10
4.161672624
 20
5.5588517081
 11
4.161672624
 21
5.6688517081
  0
LINE
  5
270
100
AcDbEntity
  8
ALL_FEATURES
100
AcDbLine
 62
7
  6
CONTINUOUS
 10
4.1733462733
 20
2.4766017081
 11
4.1733462733
 21
2.4166017081
  0
LINE
  5
271
100
AcDbEntity
  8
ALL_ASSEMBLY_MEMBERS
100
AcDbLine
 62
7
  6
CONTINUOUS
 10
4.1973377704
 20
2.9216017081
 11
4.1973377704
 21
2.7841017081
  0
LINE
  5
272
100
AcDbEntity
  8
ALL_FEATURES
100
AcDbLine
 62
7
  6
CONTINUOUS
 10
4.2008462733
 20
2.5325514548
 11
4.2008462733
 21
2.5015922089
  0
LINE
  5
273
100
AcDbEntity
  8
ALL_ASSEMBLY_MEMBERS
100
AcDbLine
 62
7
  6
CONTINUOUS
 10
4.2011896842
 20
2.9216017081
 11
4.2011896842
 21
2.7841017081
  0
LINE
  5
274
100
AcDbEntity
  8
ALL_FEATURES
100
AcDbLine
 62
7
  6
CONTINUOUS
 10
4.2254512733
 20
2.4873865056
 11
4.2254512733
 21
2.4763215056
  0
LINE
  5
275
100
AcDbEntity
  8
ALL_ASSEMBLY_MEMBERS
100
AcDbLine
 62
7
  6
CONTINUOUS
 10
4.2458462733
 20
5.8971017081
 11
4.2495677964
 21
6.0036721854
  0
LINE
  5
276
100
AcDbEntity
  8
ALL_ASSEMBLY_MEMBERS
100
AcDbLine
 62
7
  6
CONTINUOUS
 10
4.7508462733
 20
4.9266017081
 11
4.7627907127
 21
4.9385461475
  0
LINE
  5
277
100
AcDbEntity
  8
ALL_ASSEMBLY_MEMBERS
100
AcDbLine
 62
7
  6
CONTINUOUS
 10
4.2299193469
 20
5.6688517081
 11
4.2299193469
 21
5.5588517081
  0
LINE
  5
278
100
AcDbEntity
  8
ALL_ASSEMBLY_MEMBERS
100
AcDbLine
 62
7
  6
CONTINUOUS
 10
4.2549396842
 20
2.8921017081
 11
4.2549396842
 21
2.7841017081
  0
LINE
  5
279
100
AcDbEntity
  8
ALL_FEATURES
100
AcDbLine
 62
7
  6
CONTINUOUS
 10
4.3071094866
 20
2.286612823
 11
4.3071094866
 21
2.3632163168
  0
LINE
  5
27A
100
AcDbEntity
  8
ALL_ASSEMBLY_MEMBERS
100
AcDbLine
 62
7
  6
CONTINUOUS
 10
4.3195962733
 20
2.2104211382
 11
4.3195962733
 21
2.1346017081
  0
LINE
  5
27B
100
AcDbEntity
  8
ALL_ASSEMBLY_MEMBERS
100
AcDbLine
 62
7
  6
CONTINUOUS
 10
4.3647043699
 20
5.6688517081
 11
4.3647043699
 21
5.5588517081
  0
LINE
  5
27C
100
AcDbEntity
  8
ALL_ASSEMBLY_MEMBERS
100
AcDbLine
 62
7
  6
CONTINUOUS
 10
4.3681324112
 20
5.5588517081
 11
4.3681324112
 21
5.6688517081
  0
LINE
  5
27D
100
AcDbEntity
  8
ALL_ASSEMBLY_MEMBERS
100
AcDbLine
 62
7
  6
CONTINUOUS
 10
4.2858300588
 20
5.8971017081
 11
4.2871707726
 21
6.0036721854
  0
LINE
  5
27E
100
AcDbEntity
  8
ALL_ASSEMBLY_MEMBERS
100
AcDbLine
 62
7
  6
CONTINUOUS
 10
4.7308462733
 20
4.7516017081
 11
4.7558462733
 21
4.7766017081
  0
LINE
  5
27F
100
AcDbEntity
  8
ALL_FEATURES
100
AcDbLine
 62
7
  6
CONTINUOUS
 10
5.4650962733
 20
3.2531630749
 11
5.4900962733
 21
3.2387293181
  0
LINE
  5
280
100
AcDbEntity
  8
ALL_FEATURES
100
AcDbLine
 62
7
  6
CONTINUOUS
 10
5.4899820933
 20
3.138861177
 11
5.4649785565
 21
3.153299019
  0
LINE
  5
281
100
AcDbEntity
  8
ALL_FEATURES
100
AcDbLine
 62
7
  6
CONTINUOUS
 10
5.4899820934
 20
3.1888612163
 11
5.4649785567
 21
3.2032990583
  0
LINE
  5
282
100
AcDbEntity
  8
ALL_ASSEMBLY_MEMBERS
100
AcDbLine
 62
7
  6
CONTINUOUS
 10
4.4563244004
 20
5.6688517081
 11
4.4563244004
 21
5.5588517081
  0
LINE
  5
283
100
AcDbEntity
  8
ALL_FEATURES
100
AcDbLine
 62
7
  6
CONTINUOUS
 10
4.507784824
 20
2.286612823
 11
4.507784824
 21
2.3632163168
  0
LINE
  5
284
100
AcDbEntity
  8
ALL_ASSEMBLY_MEMBERS
100
AcDbLine
 62
7
  6
CONTINUOUS
 10
4.5104002668
 20
5.3185695494
 11
4.5104002668
 21
5.3491017081
  0
LINE
  5
285
100
AcDbEntity
  8
ALL_FEATURES
100
AcDbLine
 62
7
  6
CONTINUOUS
 10
4.5127212733
 20
2.1346017081
 11
4.5127212733
 21
2.1266017081
  0
LINE
  5
286
100
AcDbEntity
  8
ALL_ASSEMBLY_MEMBERS
100
AcDbLine
 62
7
  6
CONTINUOUS
 10
4.5358462733
 20
4.9566017081
 11
4.5358462733
 21
4.9644142107
  0
LINE
  5
287
100
AcDbEntity
  8
ALL_ASSEMBLY_MEMBERS
100
AcDbLine
 62
7
  6
CONTINUOUS
 10
4.5358462733
 20
4.9994142107
 11
4.5358462733
 21
5.0206642064
  0
LINE
  5
288
100
AcDbEntity
  8
ALL_ASSEMBLY_MEMBERS
100
AcDbLine
 62
7
  6
CONTINUOUS
 10
4.5358462733
 20
5.0556642064
 11
4.5358462733
 21
5.0769142072
  0
LINE
  5
289
100
AcDbEntity
  8
ALL_ASSEMBLY_MEMBERS
100
AcDbLine
 62
7
  6
CONTINUOUS
 10
4.5358462733
 20
5.1986017081
 11
4.5358462733
 21
5.2766017081
  0
LINE
  5
28A
100
AcDbEntity
  8
ALL_ASSEMBLY_MEMBERS
100
AcDbLine
 62
7
  6
CONTINUOUS
 10
4.5558462734
 20
5.1016017081
 11
4.5558462734
 21
5.0821231587
  0
LINE
  5
28B
100
AcDbEntity
  8
ALL_ASSEMBLY_MEMBERS
100
AcDbLine
 62
7
  6
CONTINUOUS
 10
4.5558462733
 20
5.0531642064
 11
4.5558462733
 21
5.025873154
  0
LINE
  5
28C
100
AcDbEntity
  8
ALL_ASSEMBLY_MEMBERS
100
AcDbLine
 62
7
  6
CONTINUOUS
 10
4.5558462734
 20
4.9969142107
 11
4.5558462734
 21
4.969623162
  0
LINE
  5
28D
100
AcDbEntity
  8
ALL_ASSEMBLY_MEMBERS
100
AcDbLine
 62
7
  6
CONTINUOUS
 10
4.5558462733
 20
4.9406642019
 11
4.5558462733
 21
4.9366017081
  0
LINE
  5
28E
100
AcDbEntity
  8
ALL_ASSEMBLY_MEMBERS
100
AcDbLine
 62
7
  6
CONTINUOUS
 10
4.5600962733
 20
5.3691017081
 11
4.5600962733
 21
5.3766017081
  0
LINE
  5
28F
100
AcDbEntity
  8
ALL_ASSEMBLY_MEMBERS
100
AcDbLine
 62
7
  6
CONTINUOUS
 10
4.5608462733
 20
4.7766017081
 11
4.5608462733
 21
4.8616017081
  0
LINE
  5
290
100
AcDbEntity
  8
ALL_ASSEMBLY_MEMBERS
100
AcDbLine
 62
7
  6
CONTINUOUS
 10
4.5658462733
 20
4.8616017081
 11
4.5658462733
 21
4.9266017081
  0
LINE
  5
291
100
AcDbEntity
  8
ALL_ASSEMBLY_MEMBERS
100
AcDbLine
 62
7
  6
CONTINUOUS
 10
4.5658462733
 20
5.1016017081
 11
4.5658462733
 21
5.1686017081
  0
LINE
  5
292
100
AcDbEntity
  8
ALL_ASSEMBLY_MEMBERS
100
AcDbLine
 62
7
  6
CONTINUOUS
 10
4.5843732701
 20
5.3185695494
 11
4.5843732701
 21
5.3491017081
  0
LINE
  5
293
100
AcDbEntity
  8
ALL_ASSEMBLY_MEMBERS
100
AcDbLine
 62
7
  6
CONTINUOUS
 10
4.5868462733
 20
5.7966017081
 11
4.5868462733
 21
5.8971017081
  0
LINE
  5
294
100
AcDbEntity
  8
ALL_ASSEMBLY_MEMBERS
100
AcDbLine
 62
7
  6
CONTINUOUS
 10
4.6095962733
 20
5.6688517081
 11
4.6095962733
 21
5.5588517081
  0
LINE
  5
295
100
AcDbEntity
  8
ALL_FEATURES
100
AcDbLine
 62
7
  6
CONTINUOUS
 10
4.6260563271
 20
2.1346017081
 11
4.6260563271
 21
2.1266017081
  0
LINE
  5
296
100
AcDbEntity
  8
ALL_FEATURES
100
AcDbLine
 62
7
  6
CONTINUOUS
 10
3.8267104529
 20
3.2138612111
 11
3.8265962733
 21
3.2137293527
  0
LINE
  5
297
100
AcDbEntity
  8
ALL_FEATURES
100
AcDbLine
 62
7
  6
CONTINUOUS
 10
3.8267104533
 20
3.1638612016
 11
3.8265962733
 21
3.1637293428
  0
LINE
  5
298
100
AcDbEntity
  8
ALL_FEATURES
100
AcDbLine
 62
7
  6
CONTINUOUS
 10
5.4899820933
 20
3.138861177
 11
5.4900962733
 21
3.1387293181
  0
LINE
  5
299
100
AcDbEntity
  8
ALL_ASSEMBLY_MEMBERS
100
AcDbLine
 62
7
  6
CONTINUOUS
 10
4.7732375262
 20
5.8971017081
 11
4.7702932892
 21
6.0036721854
  0
LINE
  5
29A
100
AcDbEntity
  8
ALL_FEATURES
100
AcDbLine
 62
7
  6
CONTINUOUS
 10
4.6906362195
 20
2.1346017081
 11
4.6906362195
 21
2.1266017081
  0
LINE
  5
29B
100
AcDbEntity
  8
ALL_ASSEMBLY_MEMBERS
100
AcDbLine
 62
7
  6
CONTINUOUS
 10
4.7070962733
 20
5.6688517081
 11
4.7070962733
 21
5.5588517081
  0
LINE
  5
29C
100
AcDbEntity
  8
ALL_ASSEMBLY_MEMBERS
100
AcDbLine
 62
7
  6
CONTINUOUS
 10
4.7298462733
 20
5.7966017081
 11
4.7298462733
 21
5.8971017081
  0
LINE
  5
29D
100
AcDbEntity
  8
ALL_ASSEMBLY_MEMBERS
100
AcDbLine
 62
7
  6
CONTINUOUS
 10
4.7323192765
 20
5.3185695494
 11
4.7323192765
 21
5.3491017081
  0
LINE
  5
29E
100
AcDbEntity
  8
ALL_ASSEMBLY_MEMBERS
100
AcDbLine
 62
7
  6
CONTINUOUS
 10
4.7508462733
 20
4.8616017081
 11
4.7508462733
 21
4.9266017081
  0
LINE
  5
29F
100
AcDbEntity
  8
ALL_ASSEMBLY_MEMBERS
100
AcDbLine
 62
7
  6
CONTINUOUS
 10
4.7508462733
 20
5.1016017081
 11
4.7508462733
 21
5.1686017081
  0
LINE
  5
2A0
100
AcDbEntity
  8
ALL_ASSEMBLY_MEMBERS
100
AcDbLine
 62
7
  6
CONTINUOUS
 10
4.7558462733
 20
4.7766017081
 11
4.7558462733
 21
4.8616017081
  0
LINE
  5
2A1
100
AcDbEntity
  8
ALL_ASSEMBLY_MEMBERS
100
AcDbLine
 62
7
  6
CONTINUOUS
 10
4.7565962733
 20
5.3691017081
 11
4.7565962733
 21
5.3766017081
  0
LINE
  5
2A2
100
AcDbEntity
  8
ALL_ASSEMBLY_MEMBERS
100
AcDbLine
 62
7
  6
CONTINUOUS
 10
4.7608462732
 20
4.9387892024
 11
4.7608462732
 21
4.9660801959
  0
LINE
  5
2A3
100
AcDbEntity
  8
ALL_ASSEMBLY_MEMBERS
100
AcDbLine
 62
7
  6
CONTINUOUS
 10
4.7608462732
 20
4.9950392157
 11
4.7608462732
 21
5.0223302099
  0
LINE
  5
2A4
100
AcDbEntity
  8
ALL_ASSEMBLY_MEMBERS
100
AcDbLine
 62
7
  6
CONTINUOUS
 10
4.7608462732
 20
5.0512892007
 11
4.7608462732
 21
5.0785801897
  0
LINE
  5
2A5
100
AcDbEntity
  8
ALL_ASSEMBLY_MEMBERS
100
AcDbLine
 62
7
  6
CONTINUOUS
 10
4.7808462733
 20
4.9712892025
 11
4.7808462733
 21
4.9925392156
  0
LINE
  5
2A6
100
AcDbEntity
  8
ALL_ASSEMBLY_MEMBERS
100
AcDbLine
 62
7
  6
CONTINUOUS
 10
4.7808462733
 20
5.0275392157
 11
4.7808462733
 21
5.0487892007
  0
LINE
  5
2A7
100
AcDbEntity
  8
ALL_ASSEMBLY_MEMBERS
100
AcDbLine
 62
7
  6
CONTINUOUS
 10
4.7808462733
 20
5.0837892007
 11
4.7808462733
 21
5.1016017081
  0
LINE
  5
2A8
100
AcDbEntity
  8
ALL_ASSEMBLY_MEMBERS
100
AcDbLine
 62
7
  6
CONTINUOUS
 10
4.7808462733
 20
5.1986017081
 11
4.7808462733
 21
5.2766017081
  0
LINE
  5
2A9
100
AcDbEntity
  8
ALL_FEATURES
100
AcDbLine
 62
7
  6
CONTINUOUS
 10
4.8039712733
 20
2.1346017081
 11
4.8039712733
 21
2.1266017081
  0
LINE
  5
2AA
100
AcDbEntity
  8
ALL_ASSEMBLY_MEMBERS
100
AcDbLine
 62
7
  6
CONTINUOUS
 10
4.8062922798
 20
5.3185695494
 11
4.8062922798
 21
5.3491017081
  0
LINE
  5
2AB
100
AcDbEntity
  8
ALL_FEATURES
100
AcDbLine
 62
7
  6
CONTINUOUS
 10
4.8089077225
 20
2.286612823
 11
4.8089077225
 21
2.3632163168
  0
LINE
  5
2AC
100
AcDbEntity
  8
ALL_FEATURES
100
AcDbLine
 62
7
  6
CONTINUOUS
 10
5.4899820934
 20
3.1888612163
 11
5.4900962733
 21
3.1887293576
  0
LINE
  5
2AD
100
AcDbEntity
  8
ALL_ASSEMBLY_MEMBERS
100
AcDbLine
 62
7
  6
CONTINUOUS
 10
4.7756455636
 20
6.0460305492
 11
4.7756081579
 21
6.0471017081
  0
LINE
  5
2AE
100
AcDbEntity
  8
ALL_ASSEMBLY_MEMBERS
100
AcDbLine
 62
7
  6
CONTINUOUS
 10
4.8603681462
 20
5.6688517081
 11
4.8603681462
 21
5.5588517081
  0
LINE
  5
2AF
100
AcDbEntity
  8
ALL_ASSEMBLY_MEMBERS
100
AcDbLine
 62
7
  6
CONTINUOUS
 10
4.9485601354
 20
5.5588517081
 11
4.9485601354
 21
5.6688517081
  0
LINE
  5
2B0
100
AcDbEntity
  8
ALL_ASSEMBLY_MEMBERS
100
AcDbLine
 62
7
  6
CONTINUOUS
 10
4.9519881767
 20
5.6688517081
 11
4.9519881767
 21
5.5588517081
  0
LINE
  5
2B1
100
AcDbEntity
  8
ALL_ASSEMBLY_MEMBERS
100
AcDbLine
 62
7
  6
CONTINUOUS
 10
4.9838513759
 20
5.8971017081
 11
4.9855359543
 21
6.0036721854
  0
LINE
  5
2B2
100
AcDbEntity
  8
ALL_ASSEMBLY_MEMBERS
100
AcDbLine
 62
7
  6
CONTINUOUS
 10
4.9970962733
 20
2.2104211382
 11
4.9970962733
 21
2.1346017081
  0
LINE
  5
2B3
100
AcDbEntity
  8
ALL_FEATURES
100
AcDbLine
 62
7
  6
CONTINUOUS
 10
5.00958306
 20
2.286612823
 11
5.00958306
 21
2.3632163168
  0
LINE
  5
2B4
100
AcDbEntity
  8
ALL_ASSEMBLY_MEMBERS
100
AcDbLine
 62
7
  6
CONTINUOUS
 10
5.0617619361
 20
2.8921017081
 11
5.0617619361
 21
2.7841017081
  0
LINE
  5
2B5
100
AcDbEntity
  8
ALL_ASSEMBLY_MEMBERS
100
AcDbLine
 62
7
  6
CONTINUOUS
 10
5.0867731997
 20
5.6688517081
 11
5.0867731997
 21
5.5588517081
  0
LINE
  5
2B6
100
AcDbEntity
  8
ALL_FEATURES
100
AcDbLine
 62
7
  6
CONTINUOUS
 10
5.0912412733
 20
2.4988465056
 11
5.0912412733
 21
2.5099115056
  0
LINE
  5
2B7
100
AcDbEntity
  8
ALL_ASSEMBLY_MEMBERS
100
AcDbLine
 62
7
  6
CONTINUOUS
 10
5.1155119361
 20
2.9216017081
 11
5.1155119361
 21
2.7841017081
  0
LINE
  5
2B8
100
AcDbEntity
  8
ALL_FEATURES
100
AcDbLine
 62
7
  6
CONTINUOUS
 10
5.1158462733
 20
2.5325514548
 11
5.1158462733
 21
2.5241172089
  0
LINE
  5
2B9
100
AcDbEntity
  8
ALL_FEATURES
100
AcDbLine
 62
7
  6
CONTINUOUS
 10
5.1158462733
 20
2.4846408022
 11
5.1158462733
 21
2.4790672089
  0
LINE
  5
2BA
100
AcDbEntity
  8
ALL_ASSEMBLY_MEMBERS
100
AcDbLine
 62
7
  6
CONTINUOUS
 10
5.1193547762
 20
2.9216017081
 11
5.1193547762
 21
2.7841017081
  0
LINE
  5
2BB
100
AcDbEntity
  8
ALL_FEATURES
100
AcDbLine
 62
7
  6
CONTINUOUS
 10
3.8517139897
 20
3.2282990531
 11
3.8267104529
 21
3.2138612111
  0
LINE
  5
2BC
100
AcDbEntity
  8
ALL_FEATURES
100
AcDbLine
 62
7
  6
CONTINUOUS
 10
3.85171399
 20
3.1782990437
 11
3.8267104533
 21
3.1638612016
  0
LINE
  5
2BD
100
AcDbEntity
  8
ALL_ASSEMBLY_MEMBERS
100
AcDbLine
 62
7
  6
CONTINUOUS
 10
4.5858462733
 20
4.7516017081
 11
4.5608462733
 21
4.7766017081
  0
LINE
  5
2BE
100
AcDbEntity
  8
ALL_ASSEMBLY_MEMBERS
100
AcDbLine
 62
7
  6
CONTINUOUS
 10
5.0708462733
 20
5.8971017081
 11
5.0671247502
 21
6.0036721854
  0
LINE
  5
2BF
100
AcDbEntity
  8
ALL_FEATURES
100
AcDbLine
 62
7
  6
CONTINUOUS
 10
5.1433462733
 20
2.4766017081
 11
5.1433462733
 21
2.4166017081
  0
LINE
  5
2C0
100
AcDbEntity
  8
ALL_ASSEMBLY_MEMBERS
100
AcDbLine
 62
7
  6
CONTINUOUS
 10
5.1550199226
 20
5.5588517081
 11
5.1550199226
 21
5.6688517081
  0
LINE
  5
2C1
100
AcDbEntity
  8
ALL_FEATURES
100
AcDbLine
 62
7
  6
CONTINUOUS
 10
5.1601445093
 20
2.286612823
 11
5.1601445093
 21
2.3632163168
  0
LINE
  5
2C2
100
AcDbEntity
  8
ALL_ASSEMBLY_MEMBERS
100
AcDbLine
 62
7
  6
CONTINUOUS
 10
5.1614625329
 20
5.6688517081
 11
5.1614625329
 21
5.5588517081
  0
LINE
  5
2C3
100
AcDbEntity
  8
ALL_FEATURES
100
AcDbLine
 62
7
  6
CONTINUOUS
 10
5.1733462733
 20
2.286612823
 11
5.1733462733
 21
2.3632163168
  0
LINE
  5
2C4
100
AcDbEntity
  8
ALL_ASSEMBLY_MEMBERS
100
AcDbLine
 62
7
  6
CONTINUOUS
 10
5.1925962733
 20
2.9216017081
 11
5.1925962733
 21
2.7841017081
  0
LINE
  5
2C5
100
AcDbEntity
  8
ALL_ASSEMBLY_MEMBERS
100
AcDbLine
 62
7
  6
CONTINUOUS
 10
5.261503643
 20
5.6688517081
 11
5.261503643
 21
5.5588517081
  0
LINE
  5
2C6
100
AcDbEntity
  8
ALL_ASSEMBLY_MEMBERS
100
AcDbLine
 62
7
  6
CONTINUOUS
 10
4.5658462733
 20
4.9266017081
 11
4.5558462733
 21
4.9366017081
  0
LINE
  5
2C7
100
AcDbEntity
  8
ALL_ASSEMBLY_MEMBERS
100
AcDbLine
 62
7
  6
CONTINUOUS
 10
4.5512034232
 20
4.9412445582
 11
4.5358462733
 21
4.9566017081
  0
LINE
  5
2C8
100
AcDbEntity
  8
ALL_ASSEMBLY_MEMBERS
100
AcDbLine
 62
7
  6
CONTINUOUS
 10
5.3015735376
 20
5.5588517081
 11
5.3015735376
 21
5.6688517081
  0
LINE
  5
2C9
100
AcDbEntity
  8
ALL_ASSEMBLY_MEMBERS
100
AcDbLine
 62
7
  6
CONTINUOUS
 10
5.310253643
 20
5.6688517081
 11
5.310253643
 21
5.5588517081
  0
LINE
  5
2CA
100
AcDbEntity
  8
ALL_ASSEMBLY_MEMBERS
100
AcDbLine
 62
7
  6
CONTINUOUS
 10
5.3634844058
 20
5.6688517081
 11
5.3634844058
 21
5.5588517081
  0
LINE
  5
2CB
100
AcDbEntity
  8
ALL_ASSEMBLY_MEMBERS
100
AcDbLine
 62
7
  6
CONTINUOUS
 10
5.3705444515
 20
5.5588517081
 11
5.3705444515
 21
5.6688517081
  0
LINE
  5
2CC
100
AcDbEntity
  8
ALL_ASSEMBLY_MEMBERS
100
AcDbLine
 62
7
  6
CONTINUOUS
 10
5.3804151031
 20
5.6688517081
 11
5.3804151031
 21
5.5588517081
  0
LINE
  5
2CD
100
AcDbEntity
  8
ALL_ASSEMBLY_MEMBERS
100
AcDbLine
 62
7
  6
CONTINUOUS
 10
5.3845962733
 20
5.4766017081
 11
5.3845962733
 21
5.6941017081
  0
LINE
  5
2CE
100
AcDbEntity
  8
ALL_ASSEMBLY_MEMBERS
100
AcDbLine
 62
7
  6
CONTINUOUS
 10
4.5858520404
 20
4.7516017081
 11
4.7308405061
 21
4.7516017081
  0
LINE
  5
2CF
100
AcDbEntity
  8
ALL_ASSEMBLY_MEMBERS
100
AcDbLine
 62
7
  6
CONTINUOUS
 10
4.5608462733
 20
4.7766017081
 11
4.7558462733
 21
4.7766017081
  0
LINE
  5
2D0
100
AcDbEntity
  8
ALL_ASSEMBLY_MEMBERS
100
AcDbLine
 62
7
  6
CONTINUOUS
 10
4.5608506542
 20
4.8616017081
 11
4.7558418924
 21
4.8616017081
  0
LINE
  5
2D1
100
AcDbEntity
  8
ALL_ASSEMBLY_MEMBERS
100
AcDbLine
 62
7
  6
CONTINUOUS
 10
4.203736724
 20
5.2832245056
 11
4.1763462733
 21
5.3021017081
  0
LINE
  5
2D2
100
AcDbEntity
  8
ALL_ASSEMBLY_MEMBERS
100
AcDbLine
 62
7
  6
CONTINUOUS
 10
4.5658462733
 20
5.1686017081
 11
4.5358462733
 21
5.1986017081
  0
LINE
  5
2D3
100
AcDbEntity
  8
ALL_FEATURES
100
AcDbLine
 62
7
  6
CONTINUOUS
 10
5.4650962733
 20
3.2631630749
 11
5.4650962733
 21
3.2531630749
  0
LINE
  5
2D4
100
AcDbEntity
  8
ALL_FEATURES
100
AcDbLine
 62
7
  6
CONTINUOUS
 10
5.4650962733
 20
3.1531630749
 11
5.4650962733
 21
3.1631630749
  0
LINE
  5
2D5
100
AcDbEntity
  8
ALL_FEATURES
100
AcDbLine
 62
7
  6
CONTINUOUS
 10
5.4650962733
 20
3.2031631144
 11
5.4650962733
 21
3.2131631144
  0
LINE
  5
2D6
100
AcDbEntity
  8
ALL_FEATURES
100
AcDbLine
 62
7
  6
CONTINUOUS
 10
5.4900962733
 20
3.2775968316
 11
5.4900962733
 21
3.2275968711
  0
LINE
  5
2D7
100
AcDbEntity
  8
ALL_FEATURES
100
AcDbLine
 62
7
  6
CONTINUOUS
 10
5.4900962733
 20
3.1887293576
 11
5.4900962733
 21
3.1775968316
  0
LINE
  5
2D8
100
AcDbEntity
  8
ALL_FEATURES
100
AcDbLine
 62
7
  6
CONTINUOUS
 10
5.4900962733
 20
3.1387293181
 11
5.4900962733
 21
3.1366017081
  0
LINE
  5
2D9
100
AcDbEntity
  8
ALL_ASSEMBLY_MEMBERS
100
AcDbLine
 62
7
  6
CONTINUOUS
 10
5.4983462733
 20
5.7721017081
 11
5.4983462733
 21
5.7886017081
  0
LINE
  5
2DA
100
AcDbEntity
  8
ALL_ASSEMBLY_MEMBERS
100
AcDbLine
 62
7
  6
CONTINUOUS
 10
5.530042194
 20
2.8921017081
 11
5.530042194
 21
2.7841017081
  0
LINE
  5
2DB
100
AcDbEntity
  8
ALL_ASSEMBLY_MEMBERS
100
AcDbLine
 62
7
  6
CONTINUOUS
 10
5.5308462733
 20
2.7096017081
 11
5.5308462733
 21
2.7841017081
  0
LINE
  5
2DC
100
AcDbEntity
  8
ALL_ASSEMBLY_MEMBERS
100
AcDbLine
 62
7
  6
CONTINUOUS
 10
4.7423675568
 20
4.9633293199
 11
4.7484181628
 21
4.9642441534
  0
LINE
  5
2DD
100
AcDbEntity
  8
ALL_ASSEMBLY_MEMBERS
100
AcDbLine
 62
7
  6
CONTINUOUS
 10
4.7423675591
 20
5.0195793343
 11
4.7484181651
 21
5.0204941678
  0
LINE
  5
2DE
100
AcDbEntity
  8
ALL_ASSEMBLY_MEMBERS
100
AcDbLine
 62
7
  6
CONTINUOUS
 10
4.5743249845
 20
4.9723740929
 11
4.5680770275
 21
4.9714296718
  0
LINE
  5
2DF
100
AcDbEntity
  8
ALL_ASSEMBLY_MEMBERS
100
AcDbLine
 62
7
  6
CONTINUOUS
 10
4.7484181628
 20
4.9642441534
 11
4.757190484
 21
4.9655456269
  0
LINE
  5
2E0
100
AcDbEntity
  8
ALL_ASSEMBLY_MEMBERS
100
AcDbLine
 62
7
  6
CONTINUOUS
 10
4.5680770275
 20
4.9714296718
 11
4.5593051118
 21
4.9701288688
  0
LINE
  5
2E1
100
AcDbEntity
  8
ALL_ASSEMBLY_MEMBERS
100
AcDbLine
 62
7
  6
CONTINUOUS
 10
4.7484181651
 20
5.0204941678
 11
4.7571904865
 21
5.0217956413
  0
LINE
  5
2E2
100
AcDbEntity
  8
ALL_ASSEMBLY_MEMBERS
100
AcDbLine
 62
7
  6
CONTINUOUS
 10
4.757190484
 20
4.9655456269
 11
4.7640987082
 21
4.9665528685
  0
LINE
  5
2E3
100
AcDbEntity
  8
ALL_ASSEMBLY_MEMBERS
100
AcDbLine
 62
7
  6
CONTINUOUS
 10
4.5593051118
 20
4.9701288688
 11
4.5525938346
 21
4.9691505445
  0
LINE
  5
2E4
100
AcDbEntity
  8
ALL_ASSEMBLY_MEMBERS
100
AcDbLine
 62
7
  6
CONTINUOUS
 10
4.7571904865
 20
5.0217956413
 11
4.764098711
 21
5.0228028829
  0
LINE
  5
2E5
100
AcDbEntity
  8
ALL_ASSEMBLY_MEMBERS
100
AcDbLine
 62
7
  6
CONTINUOUS
 10
4.5658462733
 20
4.9266017081
 11
4.7508462733
 21
4.9266017081
  0
LINE
  5
2E6
100
AcDbEntity
  8
ALL_ASSEMBLY_MEMBERS
100
AcDbLine
 62
7
  6
CONTINUOUS
 10
4.7578016019
 20
4.936601708
 11
4.5558462733
 21
4.9366017081
  0
LINE
  5
2E7
100
AcDbEntity
  8
ALL_ASSEMBLY_MEMBERS
100
AcDbLine
 62
7
  6
CONTINUOUS
 10
4.6498012085
 20
4.9566017081
 11
4.5358462733
 21
4.9566017081
  0
LINE
  5
2E8
100
AcDbEntity
  8
ALL_ASSEMBLY_MEMBERS
100
AcDbLine
 62
7
  6
CONTINUOUS
 10
4.5525938423
 20
4.9946778757
 11
4.5558462734
 21
4.9942052036
  0
LINE
  5
2E9
100
AcDbEntity
  8
ALL_ASSEMBLY_MEMBERS
100
AcDbLine
 62
7
  6
CONTINUOUS
 10
4.7640987223
 20
4.9972755463
 11
4.7608462732
 21
4.9977481653
  0
LINE
  5
2EA
100
AcDbEntity
  8
ALL_ASSEMBLY_MEMBERS
100
AcDbLine
 62
7
  6
CONTINUOUS
 10
5.637542194
 20
2.9216017081
 11
5.637542194
 21
2.7841017081
  0
LINE
  5
2EB
100
AcDbEntity
  8
ALL_ASSEMBLY_MEMBERS
100
AcDbLine
 62
7
  6
CONTINUOUS
 10
5.6483462733
 20
2.9216017081
 11
5.6483462733
 21
2.7841017081
  0
LINE
  5
2EC
100
AcDbEntity
  8
ALL_ASSEMBLY_MEMBERS
100
AcDbLine
 62
7
  6
CONTINUOUS
 10
5.6875962733
 20
2.9216017081
 11
5.6875962733
 21
2.7841017081
  0
LINE
  5
2ED
100
AcDbEntity
  8
ALL_ASSEMBLY_MEMBERS
100
AcDbLine
 62
7
  6
CONTINUOUS
 10
5.7190962733
 20
2.9216017081
 11
5.7190962733
 21
2.9616017081
  0
LINE
  5
2EE
100
AcDbEntity
  8
ALL_ASSEMBLY_MEMBERS
100
AcDbLine
 62
7
  6
CONTINUOUS
 10
5.7270962733
 20
3.0016017081
 11
5.7270962733
 21
2.9616017081
  0
LINE
  5
2EF
100
AcDbEntity
  8
ALL_ASSEMBLY_MEMBERS
100
AcDbLine
 62
7
  6
CONTINUOUS
 10
4.7423674854
 20
5.0758293081
 11
4.7484174606
 21
5.0767440472
  0
LINE
  5
2F0
100
AcDbEntity
  8
ALL_ASSEMBLY_MEMBERS
100
AcDbLine
 62
7
  6
CONTINUOUS
 10
4.5743249659
 20
5.0286240817
 11
4.5680770093
 21
5.0276796607
  0
LINE
  5
2F1
100
AcDbEntity
  8
ALL_ASSEMBLY_MEMBERS
100
AcDbLine
 62
7
  6
CONTINUOUS
 10
4.5743249857
 20
5.0848740898
 11
4.5680770287
 21
5.0839296686
  0
LINE
  5
2F2
100
AcDbEntity
  8
ALL_ASSEMBLY_MEMBERS
100
AcDbLine
 62
7
  6
CONTINUOUS
 10
4.5680770093
 20
5.0276796607
 11
4.5593050934
 21
5.026378858
  0
LINE
  5
2F3
100
AcDbEntity
  8
ALL_ASSEMBLY_MEMBERS
100
AcDbLine
 62
7
  6
CONTINUOUS
 10
4.7484174606
 20
5.0767440472
 11
4.7571702264
 21
5.0780426508
  0
LINE
  5
2F4
100
AcDbEntity
  8
ALL_ASSEMBLY_MEMBERS
100
AcDbLine
 62
7
  6
CONTINUOUS
 10
4.5680770287
 20
5.0839296686
 11
4.5593051129
 21
5.0826288655
  0
LINE
  5
2F5
100
AcDbEntity
  8
ALL_ASSEMBLY_MEMBERS
100
AcDbLine
 62
7
  6
CONTINUOUS
 10
4.5593050934
 20
5.026378858
 11
4.5525938159
 21
5.0254005339
  0
LINE
  5
2F6
100
AcDbEntity
  8
ALL_ASSEMBLY_MEMBERS
100
AcDbLine
 62
7
  6
CONTINUOUS
 10
4.7571702264
 20
5.0780426508
 11
4.7640985749
 21
5.0790528482
  0
LINE
  5
2F7
100
AcDbEntity
  8
ALL_ASSEMBLY_MEMBERS
100
AcDbLine
 62
7
  6
CONTINUOUS
 10
4.5593051129
 20
5.0826288655
 11
4.5525938357
 21
5.0816505413
  0
LINE
  5
2F8
100
AcDbEntity
  8
ALL_ASSEMBLY_MEMBERS
100
AcDbLine
 62
7
  6
CONTINUOUS
 10
4.5558480487
 20
5.1016017081
 11
4.7808458449
 21
5.1016017081
  0
LINE
  5
2F9
100
AcDbEntity
  8
ALL_ASSEMBLY_MEMBERS
100
AcDbLine
 62
7
  6
CONTINUOUS
 10
4.5525938182
 20
5.0509278791
 11
4.5558462733
 21
5.0504552037
  0
LINE
  5
2FA
100
AcDbEntity
  8
ALL_ASSEMBLY_MEMBERS
100
AcDbLine
 62
7
  6
CONTINUOUS
 10
4.7640987155
 20
5.0535255332
 11
4.7608462732
 21
5.0539981512
  0
LINE
  5
2FB
100
AcDbEntity
  8
ALL_FEATURES
100
AcDbLine
 62
7
  6
CONTINUOUS
 10
5.7508462733
 20
3.4146841721
 11
5.7508462733
 21
3.4087427044
  0
LINE
  5
2FC
100
AcDbEntity
  8
ALL_ASSEMBLY_MEMBERS
100
AcDbLine
 62
7
  6
CONTINUOUS
 10
5.7513462733
 20
3.0016017081
 11
5.7513462733
 21
3.1366017081
  0
LINE
  5
2FD
100
AcDbEntity
  8
ALL_FEATURES
100
AcDbLine
 62
7
  6
CONTINUOUS
 10
5.4900962733
 20
3.2775968316
 11
5.489982094
 21
3.2774649736
  0
LINE
  5
2FE
100
AcDbEntity
  8
ALL_FEATURES
100
AcDbLine
 62
7
  6
CONTINUOUS
 10
5.4899820934
 20
3.2274650124
 11
5.4900962733
 21
3.2275968711
  0
LINE
  5
2FF
100
AcDbEntity
  8
ALL_FEATURES
100
AcDbLine
 62
7
  6
CONTINUOUS
 10
5.4649785572
 20
3.2630271316
 11
5.489982094
 21
3.2774649736
  0
LINE
  5
300
100
AcDbEntity
  8
ALL_FEATURES
100
AcDbLine
 62
7
  6
CONTINUOUS
 10
5.4649785567
 20
3.2130271704
 11
5.4899820934
 21
3.2274650124
  0
LINE
  5
301
100
AcDbEntity
  8
ALL_FEATURES
100
AcDbLine
 62
7
  6
CONTINUOUS
 10
5.4649785565
 20
3.1630271307
 11
5.4899820933
 21
3.1774649728
  0
LINE
  5
302
100
AcDbEntity
  8
ALL_ASSEMBLY_MEMBERS
100
AcDbLine
 62
7
  6
CONTINUOUS
 10
4.5658462733
 20
5.1686017081
 11
4.7508462733
 21
5.1686017081
  0
LINE
  5
303
100
AcDbEntity
  8
ALL_ASSEMBLY_MEMBERS
100
AcDbLine
 62
7
  6
CONTINUOUS
 10
4.5358462733
 20
5.1986017081
 11
4.7808462733
 21
5.1986017081
  0
LINE
  5
304
100
AcDbEntity
  8
ALL_ASSEMBLY_MEMBERS
100
AcDbLine
 62
7
  6
CONTINUOUS
 10
4.2250169581
 20
5.2766017081
 11
5.0916755884
 21
5.2766017081
  0
LINE
  5
305
100
AcDbEntity
  8
ALL_ASSEMBLY_MEMBERS
100
AcDbLine
 62
7
  6
CONTINUOUS
 10
4.203736724
 20
5.2832245056
 11
5.1129558226
 21
5.2832245056
  0
LINE
  5
306
100
AcDbEntity
  8
ALL_ASSEMBLY_MEMBERS
100
AcDbLine
 62
7
  6
CONTINUOUS
 10
5.1403462733
 20
5.3021017081
 11
4.1763462733
 21
5.3021017081
  0
LINE
  5
307
100
AcDbEntity
  8
ALL_ASSEMBLY_MEMBERS
100
AcDbLine
 62
7
  6
CONTINUOUS
 10
5.1403462733
 20
5.3021017081
 11
5.1289968151
 21
5.3185695494
  0
LINE
  5
308
100
AcDbEntity
  8
ALL_FEATURES
100
AcDbLine
 62
7
  6
CONTINUOUS
 10
5.4899820933
 20
3.1774649728
 11
5.4900962733
 21
3.1775968316
  0
LINE
  5
309
100
AcDbEntity
  8
ALL_ASSEMBLY_MEMBERS
100
AcDbLine
 62
7
  6
CONTINUOUS
 10
5.1289968151
 20
5.3185695494
 11
4.1876957315
 21
5.3185695494
  0
LINE
  5
30A
100
AcDbEntity
  8
ALL_ASSEMBLY_MEMBERS
100
AcDbLine
 62
7
  6
CONTINUOUS
 10
4.5435665147
 20
5.3691017081
 11
4.7731260319
 21
5.3691017081
  0
LINE
  5
30B
100
AcDbEntity
  8
ALL_ASSEMBLY_MEMBERS
100
AcDbLine
 62
7
  6
CONTINUOUS
 10
4.0320962733
 20
5.3766017081
 11
5.2845962733
 21
5.3766017081
  0
LINE
  5
30C
100
AcDbEntity
  8
ALL_FEATURES
100
AcDbLine
 62
7
  6
CONTINUOUS
 10
5.1156778159
 20
2.5239226314
 11
5.1158462733
 21
2.5241172089
  0
LINE
  5
30D
100
AcDbEntity
  8
ALL_FEATURES
100
AcDbLine
 62
7
  6
CONTINUOUS
 10
5.1156778159
 20
2.4788726314
 11
5.1158462733
 21
2.4790672089
  0
LINE
  5
30E
100
AcDbEntity
  8
ALL_ASSEMBLY_MEMBERS
100
AcDbLine
 62
7
  6
CONTINUOUS
 10
3.9320962733
 20
5.4766017081
 11
5.3845962733
 21
5.4766017081
  0
LINE
  5
30F
100
AcDbEntity
  8
ALL_ASSEMBLY_MEMBERS
100
AcDbLine
 62
7
  6
CONTINUOUS
 10
4.7039079339
 20
5.5416017081
 11
4.6127847464
 21
5.5416017081
  0
LINE
  5
310
100
AcDbEntity
  8
ALL_ASSEMBLY_MEMBERS
100
AcDbLine
 62
7
  6
CONTINUOUS
 10
4.3681324112
 20
5.5588517081
 11
4.3647043699
 21
5.5588517081
  0
LINE
  5
311
100
AcDbEntity
  8
ALL_ASSEMBLY_MEMBERS
100
AcDbLine
 62
7
  6
CONTINUOUS
 10
4.161672624
 20
5.5588517081
 11
4.1552300137
 21
5.5588517081
  0
LINE
  5
312
100
AcDbEntity
  8
ALL_ASSEMBLY_MEMBERS
100
AcDbLine
 62
7
  6
CONTINUOUS
 10
4.015119009
 20
5.5588517081
 11
4.0064389036
 21
5.5588517081
  0
LINE
  5
313
100
AcDbEntity
  8
ALL_ASSEMBLY_MEMBERS
100
AcDbLine
 62
7
  6
CONTINUOUS
 10
3.9461480951
 20
5.5588517081
 11
3.9362774435
 21
5.5588517081
  0
LINE
  5
314
100
AcDbEntity
  8
ALL_ASSEMBLY_MEMBERS
100
AcDbLine
 62
7
  6
CONTINUOUS
 10
4.9485601354
 20
5.5588517081
 11
4.9519881767
 21
5.5588517081
  0
LINE
  5
315
100
AcDbEntity
  8
ALL_ASSEMBLY_MEMBERS
100
AcDbLine
 62
7
  6
CONTINUOUS
 10
5.1550199226
 20
5.5588517081
 11
5.1614625329
 21
5.5588517081
  0
LINE
  5
316
100
AcDbEntity
  8
ALL_ASSEMBLY_MEMBERS
100
AcDbLine
 62
7
  6
CONTINUOUS
 10
5.3015735376
 20
5.5588517081
 11
5.310253643
 21
5.5588517081
  0
LINE
  5
317
100
AcDbEntity
  8
ALL_ASSEMBLY_MEMBERS
100
AcDbLine
 62
7
  6
CONTINUOUS
 10
5.3705444515
 20
5.5588517081
 11
5.3804151031
 21
5.5588517081
  0
LINE
  5
318
100
AcDbEntity
  8
ALL_FEATURES
100
AcDbLine
 62
7
  6
CONTINUOUS
 10
5.0910632526
 20
2.5097058745
 11
5.1156778159
 21
2.5239226314
  0
LINE
  5
319
100
AcDbEntity
  8
ALL_FEATURES
100
AcDbLine
 62
7
  6
CONTINUOUS
 10
5.1117459237
 20
2.4766017081
 11
5.1156778159
 21
2.4788726314
  0
LINE
  5
31A
100
AcDbEntity
  8
ALL_FEATURES
100
AcDbLine
 62
7
  6
CONTINUOUS
 10
5.3993833842
 20
2.6824770229
 11
5.1822481081
 21
2.6205419776
  0
LINE
  5
31B
100
AcDbEntity
  8
ALL_ASSEMBLY_MEMBERS
100
AcDbLine
 62
7
  6
CONTINUOUS
 10
4.3681324112
 20
5.6688517081
 11
4.3647043699
 21
5.6688517081
  0
LINE
  5
31C
100
AcDbEntity
  8
ALL_ASSEMBLY_MEMBERS
100
AcDbLine
 62
7
  6
CONTINUOUS
 10
4.161672624
 20
5.6688517081
 11
4.1552300137
 21
5.6688517081
  0
LINE
  5
31D
100
AcDbEntity
  8
ALL_ASSEMBLY_MEMBERS
100
AcDbLine
 62
7
  6
CONTINUOUS
 10
4.015119009
 20
5.6688517081
 11
4.0064389036
 21
5.6688517081
  0
LINE
  5
31E
100
AcDbEntity
  8
ALL_ASSEMBLY_MEMBERS
100
AcDbLine
 62
7
  6
CONTINUOUS
 10
3.9461480951
 20
5.6688517081
 11
3.9362774435
 21
5.6688517081
  0
LINE
  5
31F
100
AcDbEntity
  8
ALL_ASSEMBLY_MEMBERS
100
AcDbLine
 62
7
  6
CONTINUOUS
 10
4.9485601354
 20
5.6688517081
 11
4.9519881767
 21
5.6688517081
  0
LINE
  5
320
100
AcDbEntity
  8
ALL_ASSEMBLY_MEMBERS
100
AcDbLine
 62
7
  6
CONTINUOUS
 10
5.1550199226
 20
5.6688517081
 11
5.1614625329
 21
5.6688517081
  0
LINE
  5
321
100
AcDbEntity
  8
ALL_ASSEMBLY_MEMBERS
100
AcDbLine
 62
7
  6
CONTINUOUS
 10
5.3015735376
 20
5.6688517081
 11
5.310253643
 21
5.6688517081
  0
LINE
  5
322
100
AcDbEntity
  8
ALL_ASSEMBLY_MEMBERS
100
AcDbLine
 62
7
  6
CONTINUOUS
 10
5.3705444515
 20
5.6688517081
 11
5.3804151031
 21
5.6688517081
  0
LINE
  5
323
100
AcDbEntity
  8
ALL_ASSEMBLY_MEMBERS
100
AcDbLine
 62
7
  6
CONTINUOUS
 10
5.3845962733
 20
5.6941017081
 11
5.3796242312
 21
5.6941017081
  0
LINE
  5
324
100
AcDbEntity
  8
ALL_ASSEMBLY_MEMBERS
100
AcDbLine
 62
7
  6
CONTINUOUS
 10
5.3651415151
 20
5.6941017081
 11
5.3071101806
 21
5.6941017081
  0
LINE
  5
325
100
AcDbEntity
  8
ALL_ASSEMBLY_MEMBERS
100
AcDbLine
 62
7
  6
CONTINUOUS
 10
5.2654088617
 20
5.6941017081
 11
5.1563456281
 21
5.6941017081
  0
LINE
  5
326
100
AcDbEntity
  8
ALL_ASSEMBLY_MEMBERS
100
AcDbLine
 62
7
  6
CONTINUOUS
 10
5.0924555008
 20
5.6941017081
 11
4.9455150037
 21
5.6941017081
  0
LINE
  5
327
100
AcDbEntity
  8
ALL_ASSEMBLY_MEMBERS
100
AcDbLine
 62
7
  6
CONTINUOUS
 10
4.8671421603
 20
5.6941017081
 11
4.7000475922
 21
5.6941017081
  0
LINE
  5
328
100
AcDbEntity
  8
ALL_ASSEMBLY_MEMBERS
100
AcDbLine
 62
7
  6
CONTINUOUS
 10
4.6166449544
 20
5.6941017081
 11
4.4495503862
 21
5.6941017081
  0
LINE
  5
329
100
AcDbEntity
  8
ALL_ASSEMBLY_MEMBERS
100
AcDbLine
 62
7
  6
CONTINUOUS
 10
4.3711775429
 20
5.6941017081
 11
4.2242370457
 21
5.6941017081
  0
LINE
  5
32A
100
AcDbEntity
  8
ALL_ASSEMBLY_MEMBERS
100
AcDbLine
 62
7
  6
CONTINUOUS
 10
4.1603469185
 20
5.6941017081
 11
4.0512836849
 21
5.6941017081
  0
LINE
  5
32B
100
AcDbEntity
  8
ALL_ASSEMBLY_MEMBERS
100
AcDbLine
 62
7
  6
CONTINUOUS
 10
4.0095823659
 20
5.6941017081
 11
3.9515510314
 21
5.6941017081
  0
LINE
  5
32C
100
AcDbEntity
  8
ALL_ASSEMBLY_MEMBERS
100
AcDbLine
 62
7
  6
CONTINUOUS
 10
3.9370683154
 20
5.6941017081
 11
3.9320962733
 21
5.6941017081
  0
LINE
  5
32D
100
AcDbEntity
  8
ALL_ASSEMBLY_MEMBERS
100
AcDbLine
 62
7
  6
CONTINUOUS
 10
3.8263462733
 20
5.7641017081
 11
5.4903462733
 21
5.7641017081
  0
LINE
  5
32E
100
AcDbEntity
  8
ALL_ASSEMBLY_MEMBERS
100
AcDbLine
 62
7
  6
CONTINUOUS
 10
3.8183462733
 20
5.7721017081
 11
5.4983462733
 21
5.7721017081
  0
LINE
  5
32F
100
AcDbEntity
  8
ALL_ASSEMBLY_MEMBERS
100
AcDbLine
 62
7
  6
CONTINUOUS
 10
3.8183462733
 20
5.7886017081
 11
5.4983462733
 21
5.7886017081
  0
LINE
  5
330
100
AcDbEntity
  8
ALL_ASSEMBLY_MEMBERS
100
AcDbLine
 62
7
  6
CONTINUOUS
 10
3.8263462733
 20
5.7966017081
 11
5.4903462733
 21
5.7966017081
  0
LINE
  5
331
100
AcDbEntity
  8
ALL_ASSEMBLY_MEMBERS
100
AcDbLine
 62
7
  6
CONTINUOUS
 10
4.2458460132
 20
5.8971017081
 11
5.0708465334
 21
5.8971017081
  0
LINE
  5
332
100
AcDbEntity
  8
ALL_ASSEMBLY_MEMBERS
100
AcDbLine
 62
7
  6
CONTINUOUS
 10
4.2495677964
 20
6.0036721854
 11
4.5532661033
 21
6.0036721854
  0
LINE
  5
333
100
AcDbEntity
  8
ALL_ASSEMBLY_MEMBERS
100
AcDbLine
 62
7
  6
CONTINUOUS
 10
4.7702932892
 20
6.0036721854
 11
5.0671247502
 21
6.0036721854
  0
LINE
  5
334
100
AcDbEntity
  8
ALL_ASSEMBLY_MEMBERS
100
AcDbLine
 62
7
  6
CONTINUOUS
 10
4.2945406903
 20
6.0471017081
 11
5.0221518563
 21
6.0471017081
  0
LINE
  5
335
100
AcDbEntity
  8
ALL_ASSEMBLY_MEMBERS
100
AcDbLine
 62
7
  6
CONTINUOUS
 10
4.56021119
 20
6.0621017081
 11
4.7564799973
 21
6.0621017081
  0
ARC
  5
336
100
AcDbEntity
  8
ALL_FEATURES
100
AcDbCircle
 62
7
  6
CONTINUOUS
 10
4.2583462733
 20
2.3804211382
 40
0.17
100
AcDbArc
 50
240.7663599774
 51
270.0
  0
ARC
  5
337
100
AcDbEntity
  8
ALL_FEATURES
100
AcDbCircle
 62
7
  6
CONTINUOUS
 10
3.9515962733
 20
2.8026826552
 40
0.125
100
AcDbArc
 50
228.15725538
 51
254.0798823907
  0
ARC
  5
338
100
AcDbEntity
  8
ALL_FEATURES
100
AcDbCircle
 62
7
  6
CONTINUOUS
 10
4.1093462733
 20
2.5325514548
 40
0.0915
100
AcDbArc
 50
0.0
 51
74.0798823907
  0
ARC
  5
339
100
AcDbEntity
  8
ALL_FEATURES
100
AcDbCircle
 62
7
  6
CONTINUOUS
 10
3.7350962733
 20
3.2775968316
 40
0.0915
100
AcDbArc
 50
0.0
 51
80.0
  0
ARC
  5
33A
100
AcDbEntity
  8
ALL_FEATURES
100
AcDbCircle
 62
7
  6
CONTINUOUS
 10
4.2058462733
 20
2.3632163168
 40
0.0625
100
AcDbArc
 50
121.3322514976
 51
180.0
  0
ARC
  5
33B
100
AcDbEntity
  8
ALL_FEATURES
100
AcDbCircle
 62
7
  6
CONTINUOUS
 10
4.2058462733
 20
2.286612823
 40
0.0625
100
AcDbArc
 50
180.0
 51
240.7663599774
  0
ARC
  5
33C
100
AcDbEntity
  8
ALL_FEATURES
100
AcDbCircle
 62
7
  6
CONTINUOUS
 10
3.5758462733
 20
3.4087427044
 40
0.01
100
AcDbArc
 50
180.0
 51
260.0
  0
ARC
  5
33D
100
AcDbEntity
  8
ALL_FEATURES
100
AcDbCircle
 62
7
  6
CONTINUOUS
 10
3.5758462733
 20
3.4146841721
 40
0.01
100
AcDbArc
 50
90.0
 51
180.0
  0
ARC
  5
33E
100
AcDbEntity
  8
ALL_ASSEMBLY_MEMBERS
100
AcDbCircle
 62
7
  6
CONTINUOUS
 10
4.0320962733
 20
5.4766017081
 40
0.1
100
AcDbArc
 50
180.0
 51
270.0
  0
ARC
  5
33F
100
AcDbEntity
  8
ALL_ASSEMBLY_MEMBERS
100
AcDbCircle
 62
7
  6
CONTINUOUS
 10
3.8620962733
 20
5.6941017081
 40
0.07
100
AcDbArc
 50
0.0
 51
90.0
  0
ARC
  5
340
100
AcDbEntity
  8
ALL_ASSEMBLY_MEMBERS
100
AcDbCircle
 62
7
  6
CONTINUOUS
 10
4.4060205769
 20
5.6688940037
 40
0.0503028287
100
AcDbArc
 50
359.9518255214
 51
30.0747298088
  0
ARC
  5
341
100
AcDbEntity
  8
ALL_ASSEMBLY_MEMBERS
100
AcDbCircle
 62
7
  6
CONTINUOUS
 10
4.2945403836
 20
6.0021017081
 40
0.045
100
AcDbArc
 50
90.0
 51
178.0
  0
ARC
  5
342
100
AcDbEntity
  8
ALL_ASSEMBLY_MEMBERS
100
AcDbCircle
 62
7
  6
CONTINUOUS
 10
4.5530057587
 20
5.3234607602
 40
0.0427030877
100
AcDbArc
 50
72.0168919846
 51
75.9842015376
  0
ARC
  5
343
100
AcDbEntity
  8
ALL_ASSEMBLY_MEMBERS
100
AcDbCircle
 62
7
  6
CONTINUOUS
 10
4.5539574521
 20
5.3264448058
 40
0.0395710007
100
AcDbArc
 50
71.2927173089
 51
71.9936047353
  0
ARC
  5
344
100
AcDbEntity
  8
ALL_ASSEMBLY_MEMBERS
100
AcDbCircle
 62
7
  6
CONTINUOUS
 10
4.5673141487
 20
4.9754281444
 40
0.0381559701
100
AcDbArc
 50
252.1989621096
 51
252.484328879
  0
ARC
  5
345
100
AcDbEntity
  8
ALL_ASSEMBLY_MEMBERS
100
AcDbCircle
 62
7
  6
CONTINUOUS
 10
4.5435665147
 20
5.3316017081
 40
0.0375
100
AcDbArc
 50
90.0
 51
152.1818607153
  0
ARC
  5
346
100
AcDbEntity
  8
ALL_ASSEMBLY_MEMBERS
100
AcDbCircle
 62
7
  6
CONTINUOUS
 10
4.2250169581
 20
5.3141017081
 40
0.0375
100
AcDbArc
 50
235.4258085259
 51
270.0
  0
ARC
  5
347
100
AcDbEntity
  8
ALL_ASSEMBLY_MEMBERS
100
AcDbCircle
 62
7
  6
CONTINUOUS
 10
4.5665661052
 20
4.9731009054
 40
0.0357114641
100
AcDbArc
 50
251.6157830142
 51
252.2001876581
  0
ARC
  5
348
100
AcDbEntity
  8
ALL_ASSEMBLY_MEMBERS
100
AcDbCircle
 62
7
  6
CONTINUOUS
 10
4.5561875477
 20
5.3342403041
 40
0.031863714
100
AcDbArc
 50
27.8012062844
 51
34.0467668586
  0
ARC
  5
349
100
AcDbEntity
  8
ALL_ASSEMBLY_MEMBERS
100
AcDbCircle
 62
7
  6
CONTINUOUS
 10
4.5571468662
 20
5.333956951
 40
0.0313980482
100
AcDbArc
 50
60.5132828345
 51
60.9699361147
  0
ARC
  5
34A
100
AcDbEntity
  8
ALL_ASSEMBLY_MEMBERS
100
AcDbCircle
 62
7
  6
CONTINUOUS
 10
4.5572508083
 20
5.3349317311
 40
0.0305956161
100
AcDbArc
 50
34.0886848029
 51
37.3112648938
  0
ARC
  5
34B
100
AcDbEntity
  8
ALL_ASSEMBLY_MEMBERS
100
AcDbCircle
 62
7
  6
CONTINUOUS
 10
4.197967566
 20
5.6890295673
 40
0.0285736329
100
AcDbArc
 50
98.8870214837
 51
101.5682325968
  0
ARC
  5
34C
100
AcDbEntity
  8
ALL_ASSEMBLY_MEMBERS
100
AcDbCircle
 62
7
  6
CONTINUOUS
 10
4.56021119
 20
6.0421017081
 40
0.02
100
AcDbArc
 50
90.0
 51
165.5224878141
  0
ARC
  5
34D
100
AcDbEntity
  8
ALL_ASSEMBLY_MEMBERS
100
AcDbCircle
 62
7
  6
CONTINUOUS
 10
4.0391158947
 20
5.7027768992
 40
0.0150391067
100
AcDbArc
 50
117.1311916758
 51
122.1677548695
  0
ARC
  5
34E
100
AcDbEntity
  8
ALL_ASSEMBLY_MEMBERS
100
AcDbCircle
 62
7
  6
CONTINUOUS
 10
3.8263462733
 20
5.7721017081
 40
0.008
100
AcDbArc
 50
180.0
 51
270.0
  0
ARC
  5
34F
100
AcDbEntity
  8
ALL_ASSEMBLY_MEMBERS
100
AcDbCircle
 62
7
  6
CONTINUOUS
 10
3.8263462733
 20
5.7886017081
 40
0.008
100
AcDbArc
 50
90.0
 51
180.0
  0
ARC
  5
350
100
AcDbEntity
  8
ALL_FEATURES
100
AcDbCircle
 62
7
  6
CONTINUOUS
 10
5.0583462733
 20
2.3804211382
 40
0.17
100
AcDbArc
 50
270.0
 51
299.2336400226
  0
ARC
  5
351
100
AcDbEntity
  8
ALL_FEATURES
100
AcDbCircle
 62
7
  6
CONTINUOUS
 10
5.3650962733
 20
2.8026826552
 40
0.125
100
AcDbArc
 50
285.9201176093
 51
311.8369866882
  0
ARC
  5
352
100
AcDbEntity
  8
ALL_FEATURES
100
AcDbCircle
 62
7
  6
CONTINUOUS
 10
5.2073462733
 20
2.5325514548
 40
0.0915
100
AcDbArc
 50
105.9201176093
 51
180.0
  0
ARC
  5
353
100
AcDbEntity
  8
ALL_FEATURES
100
AcDbCircle
 62
7
  6
CONTINUOUS
 10
5.5815962733
 20
3.2775968316
 40
0.0915
100
AcDbArc
 50
100.0
 51
180.0
  0
ARC
  5
354
100
AcDbEntity
  8
ALL_FEATURES
100
AcDbCircle
 62
7
  6
CONTINUOUS
 10
5.1108462733
 20
2.3632163168
 40
0.0625
100
AcDbArc
 50
0.0
 51
58.6677485024
  0
ARC
  5
355
100
AcDbEntity
  8
ALL_FEATURES
100
AcDbCircle
 62
7
  6
CONTINUOUS
 10
5.1108462733
 20
2.286612823
 40
0.0625
100
AcDbArc
 50
299.2336400226
 51
360.0
  0
ARC
  5
356
100
AcDbEntity
  8
ALL_FEATURES
100
AcDbCircle
 62
7
  6
CONTINUOUS
 10
5.7408462733
 20
3.4087427044
 40
0.01
100
AcDbArc
 50
280.0
 51
360.0
  0
ARC
  5
357
100
AcDbEntity
  8
ALL_FEATURES
100
AcDbCircle
 62
7
  6
CONTINUOUS
 10
5.7408462733
 20
3.4146841721
 40
0.01
100
AcDbArc
 50
0.0
 51
90.0
  0
ARC
  5
358
100
AcDbEntity
  8
ALL_ASSEMBLY_MEMBERS
100
AcDbCircle
 62
7
  6
CONTINUOUS
 10
5.2845962733
 20
5.4766017081
 40
0.1
100
AcDbArc
 50
270.0
 51
360.0
  0
ARC
  5
359
100
AcDbEntity
  8
ALL_ASSEMBLY_MEMBERS
100
AcDbCircle
 62
7
  6
CONTINUOUS
 10
5.4545962733
 20
5.6941017081
 40
0.07
100
AcDbArc
 50
90.0
 51
180.0
  0
ARC
  5
35A
100
AcDbEntity
  8
ALL_ASSEMBLY_MEMBERS
100
AcDbCircle
 62
7
  6
CONTINUOUS
 10
4.9106719172
 20
5.6688940195
 40
0.0503027723
100
AcDbArc
 50
149.9252558625
 51
180.0481925553
  0
ARC
  5
35B
100
AcDbEntity
  8
ALL_ASSEMBLY_MEMBERS
100
AcDbCircle
 62
7
  6
CONTINUOUS
 10
4.6583462733
 20
5.5588517081
 40
0.04875
100
AcDbArc
 50
180.0
 51
360.0
  0
ARC
  5
35C
100
AcDbEntity
  8
ALL_ASSEMBLY_MEMBERS
100
AcDbCircle
 62
7
  6
CONTINUOUS
 10
4.6583462733
 20
5.6688517081
 40
0.04875
100
AcDbArc
 50
0.0
 51
180.0
  0
ARC
  5
35D
100
AcDbEntity
  8
ALL_ASSEMBLY_MEMBERS
100
AcDbCircle
 62
7
  6
CONTINUOUS
 10
5.022152163
 20
6.0021017081
 40
0.045
100
AcDbArc
 50
2.0
 51
90.0
  0
ARC
  5
35E
100
AcDbEntity
  8
ALL_ASSEMBLY_MEMBERS
100
AcDbCircle
 62
7
  6
CONTINUOUS
 10
4.7731260319
 20
5.3316017081
 40
0.0375
100
AcDbArc
 50
27.8181392847
 51
90.0
  0
ARC
  5
35F
100
AcDbEntity
  8
ALL_ASSEMBLY_MEMBERS
100
AcDbCircle
 62
7
  6
CONTINUOUS
 10
5.0916755884
 20
5.3141017081
 40
0.0375
100
AcDbArc
 50
270.0
 51
304.5741914741
  0
ARC
  5
360
100
AcDbEntity
  8
ALL_ASSEMBLY_MEMBERS
100
AcDbCircle
 62
7
  6
CONTINUOUS
 10
4.7564813566
 20
6.0421017081
 40
0.02
100
AcDbArc
 50
14.4775121859
 51
90.0
  0
ARC
  5
361
100
AcDbEntity
  8
ALL_ASSEMBLY_MEMBERS
100
AcDbCircle
 62
7
  6
CONTINUOUS
 10
5.4903462733
 20
5.7721017081
 40
0.008
100
AcDbArc
 50
270.0
 51
360.0
  0
ARC
  5
362
100
AcDbEntity
  8
ALL_ASSEMBLY_MEMBERS
100
AcDbCircle
 62
7
  6
CONTINUOUS
 10
5.4903462733
 20
5.7886017081
 40
0.008
100
AcDbArc
 50
0.0
 51
90.0
  0
SPLINE
  5
363
100
AcDbEntity
  8
ALL_ASSEMBLY_MEMBERS
100
AcDbSpline
 62
7
  6
CONTINUOUS
 70
0
 71
3
 72
14
 73
10
 74
0
 42
0.0000001
 43
0.0000001
 44
0.0000000001
 40
0.0
 40
0.0
 40
0.0
 40
0.0
 40
0.1388588749
 40
0.2727290259
 40
0.4021947895
 40
0.5277716385
 40
0.6499359064
 40
0.7691238349
 40
1.0
 40
1.0
 40
1.0
 40
1.0
 10
4.5815851638
 20
5.3534771042
 30
0.0
 10
4.5812488437
 20
5.3539182835
 30
0.0
 10
4.5805642649
 20
5.3547668072
 30
0.0
 10
4.5794868762
 20
5.355959924
 30
0.0
 10
4.5783838808
 20
5.3570552943
 30
0.0
 10
4.577260039
 20
5.358060238
 30
0.0
 10
4.5761183745
 20
5.3589808069
 30
0.0
 10
4.5745924828
 20
5.3600911593
 30
0.0
 10
4.573404562
 20
5.3608339916
 30
0.0
 10
4.5726016691
 20
5.3612880047
 30
0.0
  0
SPLINE
  5
364
100
AcDbEntity
  8
ALL_ASSEMBLY_MEMBERS
100
AcDbSpline
 62
7
  6
CONTINUOUS
 70
0
 71
3
 72
9
 73
5
 74
0
 42
0.0000001
 43
0.0000001
 44
0.0000000001
 40
0.0
 40
0.0
 40
0.0
 40
0.0
 40
0.5070704894
 40
1.0
 40
1.0
 40
1.0
 40
1.0
 10
4.5723833492
 20
5.3614103117
 30
0.0
 10
4.5714570483
 20
5.3619244087
 30
0.0
 10
4.5695778681
 20
5.3628460654
 30
0.0
 10
4.5676246376
 20
5.3635949305
 30
0.0
 10
4.5666491931
 20
5.3639252514
 30
0.0
  0
LINE
  5
365
100
AcDbEntity
  8
ALL_ASSEMBLY_MEMBERS
100
AcDbLine
 62
7
  6
CONTINUOUS
 10
4.5633479953
 20
5.3648925335
 11
4.5581689209
 21
5.3659065144
  0
SPLINE
  5
366
100
AcDbEntity
  8
ALL_ASSEMBLY_MEMBERS
100
AcDbSpline
 62
7
  6
CONTINUOUS
 70
0
 71
3
 72
24
 73
20
 74
0
 42
0.0000001
 43
0.0000001
 44
0.0000000001
 40
0.0
 40
0.0
 40
0.0
 40
0.0
 40
0.0576824963
 40
0.1151740999
 40
0.172568325
 40
0.2299333124
 40
0.2586249234
 40
0.287332188
 40
0.344828262
 40
0.402519236
 40
0.4605482846
 40
0.5191341853
 40
0.578608842
 40
0.6394646343
 40
0.7024121107
 40
0.7684431791
 40
0.8388893369
 40
0.9154273741
 40
1.0
 40
1.0
 40
1.0
 40
1.0
 10
4.5581689209
 20
5.3659065144
 30
0.0
 10
4.5571409122
 20
5.3660572768
 30
0.0
 10
4.5550802401
 20
5.3663050821
 30
0.0
 10
4.551979959
 20
5.3665404577
 30
0.0
 10
4.5488785775
 20
5.366652466
 30
0.0
 10
4.5462940474
 20
5.3666510135
 30
0.0
 10
4.5442276014
 20
5.3665919263
 30
0.0
 10
4.5421602802
 20
5.3664938552
 30
0.0
 10
4.5395753262
 20
5.3662936107
 30
0.0
 10
4.5364771737
 20
5.3659149367
 30
0.0
 10
4.5333829894
 20
5.3653726942
 30
0.0
 10
4.5302959885
 20
5.364633976
 30
0.0
 10
4.5272215377
 20
5.3636565434
 30
0.0
 10
4.5241686694
 20
5.3623877761
 30
0.0
 10
4.5211523231
 20
5.3607634359
 30
0.0
 10
4.5181968143
 20
5.3587066141
 30
0.0
 10
4.5153412626
 20
5.3561269638
 30
0.0
 10
4.5126478684
 20
5.3529252293
 30
0.0
 10
4.5111111695
 20
5.3504490209
 30
0.0
 10
4.5104002668
 20
5.3491017081
 30
0.0
  0
SPLINE
  5
367
100
AcDbEntity
  8
ALL_ASSEMBLY_MEMBERS
100
AcDbSpline
 62
7
  6
CONTINUOUS
 70
0
 71
3
 72
23
 73
19
 74
0
 42
0.0000001
 43
0.0000001
 44
0.0000000001
 40
0.0
 40
0.0
 40
0.0
 40
0.0
 40
0.084562614
 40
0.1611140808
 40
0.231583801
 40
0.297640082
 40
0.3606088241
 40
0.4214799359
 40
0.4809635423
 40
0.5395524614
 40
0.5975797045
 40
0.6552654031
 40
0.7127532463
 40
0.7701387681
 40
0.8274910786
 40
0.8848699737
 40
0.9423422562
 40
1.0
 40
1.0
 40
1.0
 40
1.0
 10
4.8062922798
 20
5.3491017081
 30
0.0
 10
4.8055835194
 20
5.3504449608
 30
0.0
 10
4.8040518022
 20
5.3529143107
 30
0.0
 10
4.8013680416
 20
5.3561088539
 30
0.0
 10
4.7985226282
 20
5.3586846877
 30
0.0
 10
4.7955774078
 20
5.3607401815
 30
0.0
 10
4.7925713108
 20
5.3623649339
 30
0.0
 10
4.7895285867
 20
5.3636352796
 30
0.0
 10
4.7864641504
 20
5.3646149972
 30
0.0
 10
4.7833870611
 20
5.3653564362
 30
0.0
 10
4.7803027433
 20
5.3659018115
 30
0.0
 10
4.7772143739
 20
5.366283978
 30
0.0
 10
4.7741238225
 20
5.3665272543
 30
0.0
 10
4.7710322161
 20
5.3666479992
 30
0.0
 10
4.7679402683
 20
5.3666548141
 30
0.0
 10
4.7648485611
 20
5.36654736
 30
0.0
 10
4.7617578515
 20
5.3663192321
 30
0.0
 10
4.7597034481
 20
5.3660764496
 30
0.0
 10
4.7586784497
 20
5.3659289837
 30
0.0
  0
LINE
  5
368
100
AcDbEntity
  8
ALL_ASSEMBLY_MEMBERS
100
AcDbLine
 62
7
  6
CONTINUOUS
 10
4.7586784497
 20
5.3659289837
 11
4.7537208135
 21
5.3649851837
  0
SPLINE
  5
369
100
AcDbEntity
  8
ALL_ASSEMBLY_MEMBERS
100
AcDbSpline
 62
7
  6
CONTINUOUS
 70
0
 71
3
 72
20
 73
16
 74
0
 42
0.0000001
 43
0.0000001
 44
0.0000000001
 40
0.0
 40
0.0
 40
0.0
 40
0.0
 40
0.1082401138
 40
0.218352454
 40
0.3312609722
 40
0.3891686509
 40
0.4482961752
 40
0.5088806895
 40
0.5711817815
 40
0.6354967772
 40
0.702164415
 40
0.771553893
 40
0.8440869436
 40
0.920140617
 40
1.0
 40
1.0
 40
1.0
 40
1.0
 10
4.7537208135
 20
5.3649851837
 30
0.0
 10
4.75275555
 20
5.364751747
 30
0.0
 10
4.7508225556
 20
5.3642186499
 30
0.0
 10
4.7479569139
 20
5.3631972513
 30
0.0
 10
4.7456084435
 20
5.3621254085
 30
0.0
 10
4.743756872
 20
5.3611126024
 30
0.0
 10
4.7423690894
 20
5.3602568137
 30
0.0
 10
4.7409967069
 20
5.3593038416
 30
0.0
 10
4.7396436856
 20
5.3582442627
 30
0.0
 10
4.7383148905
 20
5.357068268
 30
0.0
 10
4.7370151015
 20
5.3557664629
 30
0.0
 10
4.7357519748
 20
5.3543269146
 30
0.0
 10
4.7345339729
 20
5.3527388235
 30
0.0
 10
4.7333715308
 20
5.3509929277
 30
0.0
 10
4.732661203
 20
5.349749732
 30
0.0
 10
4.7323192765
 20
5.3491017081
 30
0.0
  0
SPLINE
  5
36A
100
AcDbEntity
  8
ALL_ASSEMBLY_MEMBERS
100
AcDbSpline
 62
7
  6
CONTINUOUS
 70
0
 71
3
 72
42
 73
38
 74
0
 42
0.0000001
 43
0.0000001
 44
0.0000000001
 40
0.0
 40
0.0
 40
0.0
 40
0.0
 40
0.031247397
 40
0.0624959238
 40
0.0781226129
 40
0.0937494097
 40
0.1249955679
 40
0.1562410443
 40
0.1874867097
 40
0.2187327036
 40
0.2499790777
 40
0.2812253865
 40
0.3124716809
 40
0.343717988
 40
0.3749638118
 40
0.4062097084
 40
0.4374553032
 40
0.4687010061
 40
0.4999466087
 40
0.5311924253
 40
0.5624383354
 40
0.5936844579
 40
0.6249311765
 40
0.6561778616
 40
0.6874260027
 40
0.7186738927
 40
0.749924019
 40
0.7811738201
 40
0.8124263028
 40
0.8280537653
 40
0.8436814429
 40
0.8749396421
 40
0.9061953569
 40
0.9374555814
 40
0.9530939052
 40
0.9687434991
 40
1.0
 40
1.0
 40
1.0
 40
1.0
 10
4.7323192765
 20
5.3491017081
 30
0.0
 10
4.73114562
 20
5.3502138733
 30
0.0
 10
4.7286412596
 20
5.3522762805
 30
0.0
 10
4.7252405584
 20
5.354474928
 30
0.0
 10
4.722405164
 20
5.3560326074
 30
0.0
 10
4.7195045918
 20
5.3574649572
 30
0.0
 10
4.7157759558
 20
5.3590364784
 30
0.0
 10
4.7111874295
 20
5.3606177725
 30
0.0
 10
4.7065174183
 20
5.3619366558
 30
0.0
 10
4.7017900267
 20
5.3630295074
 30
0.0
 10
4.6970222737
 20
5.3639280294
 30
0.0
 10
4.6922263859
 20
5.3646597111
 30
0.0
 10
4.6874110428
 20
5.3652481118
 30
0.0
 10
4.6825823797
 20
5.365712809
 30
0.0
 10
4.6777447864
 20
5.3660710604
 30
0.0
 10
4.6729012763
 20
5.3663355585
 30
0.0
 10
4.668054018
 20
5.3665174215
 30
0.0
 10
4.6632045528
 20
5.3666233967
 30
0.0
 10
4.6583540592
 20
5.3666585328
 30
0.0
 10
4.6535035557
 20
5.3666235722
 30
0.0
 10
4.6486540294
 20
5.3665180626
 30
0.0
 10
4.6438066942
 20
5.3663361392
 30
0.0
 10
4.6389630339
 20
5.366072278
 30
0.0
 10
4.634125263
 20
5.3657139775
 30
0.0
 10
4.6292963093
 20
5.3652499662
 30
0.0
 10
4.624480592
 20
5.3646615815
 30
0.0
 10
4.6196841095
 20
5.3639306665
 30
0.0
 10
4.6149156855
 20
5.3630321548
 30
0.0
 10
4.6109751199
 20
5.3621219903
 30
0.0
 10
4.6078516265
 20
5.3612806951
 30
0.0
 10
4.6047510801
 20
5.3603575551
 30
0.0
 10
4.6009253148
 20
5.3590402207
 30
0.0
 10
4.5964501989
 20
5.3571540316
 30
0.0
 10
4.5928546001
 20
5.3552905094
 30
0.0
 10
4.5900946672
 20
5.3535971635
 30
0.0
 10
4.5874275787
 20
5.3517625335
 30
0.0
 10
4.5855472685
 20
5.3502141973
 30
0.0
 10
4.5843732701
 20
5.3491017081
 30
0.0
  0
LINE
  5
36B
100
AcDbEntity
  8
ALL_ASSEMBLY_MEMBERS
100
AcDbLine
 62
7
  6
CONTINUOUS
 10
4.5515462265
 20
5.8971017081
 11
4.5532661033
 21
6.0036721854
  0
SPLINE
  5
36C
100
AcDbEntity
  8
ALL_ASSEMBLY_MEMBERS
100
AcDbSpline
 62
7
  6
CONTINUOUS
 70
0
 71
3
 72
25
 73
21
 74
0
 42
0.0000001
 43
0.0000001
 44
0.0000000001
 40
0.0
 40
0.0
 40
0.0
 40
0.0
 40
0.0910843945
 40
0.1809173175
 40
0.2683537877
 40
0.3526993494
 40
0.4333874013
 40
0.510075325
 40
0.5824530986
 40
0.6502938288
 40
0.7133946409
 40
0.7715222818
 40
0.8244135329
 40
0.8717972295
 40
0.91335675
 40
0.9487661776
 40
0.9640709721
 40
0.9777287068
 40
0.9897109763
 40
1.0
 40
1.0
 40
1.0
 40
1.0
 10
4.7702932892
 20
6.0036721854
 30
0.0
 10
4.7702572001
 20
6.0049712106
 30
0.0
 10
4.7702373937
 20
6.0075531134
 30
0.0
 10
4.7703539082
 20
6.0113808899
 30
0.0
 10
4.7706065405
 20
6.0151056632
 30
0.0
 10
4.7709689273
 20
6.0186900273
 30
0.0
 10
4.771416345
 20
6.0221100207
 30
0.0
 10
4.7719220709
 20
6.0253490048
 30
0.0
 10
4.7724596928
 20
6.0283967715
 30
0.0
 10
4.7730075918
 20
6.0312454539
 30
0.0
 10
4.7735445612
 20
6.033888996
 30
0.0
 10
4.7740513937
 20
6.0363209606
 30
0.0
 10
4.7745129798
 20
6.0385332912
 30
0.0
 10
4.7749128897
 20
6.0405170206
 30
0.0
 10
4.7752384388
 20
6.0422611313
 30
0.0
 10
4.7754478601
 20
6.0435611831
 30
0.0
 10
4.7755626725
 20
6.0444724842
 30
0.0
 10
4.7756189142
 20
6.0450540575
 30
0.0
 10
4.7756487516
 20
6.0455659286
 30
0.0
 10
4.7756506873
 20
6.045883942
 30
0.0
 10
4.7756455766
 20
6.0460306493
 30
0.0
  0
SPLINE
  5
36D
100
AcDbEntity
  8
ALL_ASSEMBLY_MEMBERS
100
AcDbSpline
 62
7
  6
CONTINUOUS
 70
0
 71
3
 72
26
 73
22
 74
0
 42
0.0000001
 43
0.0000001
 44
0.0000000001
 40
0.0
 40
0.0
 40
0.0
 40
0.0
 40
0.0158265296
 40
0.0319123607
 40
0.0484780739
 40
0.0657222657
 40
0.1028670657
 40
0.123071364
 40
0.1444759827
 40
0.1911134341
 40
0.243095244
 40
0.3004420567
 40
0.3630161487
 40
0.4305233159
 40
0.5025868703
 40
0.578719231
 40
0.6583752581
 40
0.740979593
 40
0.8259323467
 40
0.9125481341
 40
1.0
 40
1.0
 40
1.0
 40
1.0
 10
4.3033725713
 20
6.0471017081
 30
0.0
 10
4.3031130662
 20
6.0471017081
 30
0.0
 10
4.3025891571
 20
6.0470663196
 30
0.0
 10
4.3018079693
 20
6.0469084944
 30
0.0
 10
4.3010306689
 20
6.0466466686
 30
0.0
 10
4.2999769978
 20
6.046148165
 30
0.0
 10
4.2989647319
 20
6.0454453217
 30
0.0
 10
4.2980042844
 20
6.0445812007
 30
0.0
 10
4.2970050041
 20
6.0435327646
 30
0.0
 10
4.295800796
 20
6.0419692659
 30
0.0
 10
4.2944659921
 20
6.0397835612
 30
0.0
 10
4.293212228
 20
6.0372556599
 30
0.0
 10
4.2920517152
 20
6.0344074987
 30
0.0
 10
4.2909933845
 20
6.031264512
 30
0.0
 10
4.2900482364
 20
6.0278546993
 30
0.0
 10
4.2892238418
 20
6.0242094148
 30
0.0
 10
4.2885284562
 20
6.0203617202
 30
0.0
 10
4.2879683677
 20
6.0163460609
 30
0.0
 10
4.287548835
 20
6.0121986362
 30
0.0
 10
4.2872742032
 20
6.0079595639
 30
0.0
 10
4.2871888109
 20
6.0051060063
 30
0.0
 10
4.2871707726
 20
6.0036721854
 30
0.0
  0
LINE
  5
36E
100
AcDbEntity
  8
ALL_ASSEMBLY_MEMBERS
100
AcDbLine
 62
7
  6
CONTINUOUS
 10
4.5419729514
 20
6.0470194334
 11
4.5423445536
 21
6.0467702188
  0
LINE
  5
36F
100
AcDbEntity
  8
ALL_ASSEMBLY_MEMBERS
100
AcDbLine
 62
7
  6
CONTINUOUS
 10
4.5423445536
 20
6.0467702188
 11
4.5427774763
 21
6.0463478625
  0
SPLINE
  5
370
100
AcDbEntity
  8
ALL_ASSEMBLY_MEMBERS
100
AcDbSpline
 62
7
  6
CONTINUOUS
 70
0
 71
3
 72
22
 73
18
 74
0
 42
0.0000001
 43
0.0000001
 44
0.0000000001
 40
0.0
 40
0.0
 40
0.0
 40
0.0
 40
0.011144071
 40
0.0239698263
 40
0.038477902
 40
0.0546619226
 40
0.09199747
 40
0.1357303063
 40
0.185516375
 40
0.2409554817
 40
0.3015849455
 40
0.3669340714
 40
0.5097818617
 40
0.6655307656
 40
0.8302567529
 40
0.9147878829
 40
1.0
 40
1.0
 40
1.0
 40
1.0
 10
4.5427774763
 20
6.0463478625
 30
0.0
 10
4.5428886743
 20
6.0462251477
 30
0.0
 10
4.5431176166
 20
6.0459518915
 30
0.0
 10
4.5434602799
 20
6.0454939152
 30
0.0
 10
4.5438245001
 20
6.0449593347
 30
0.0
 10
4.5443624821
 20
6.044103268
 30
0.0
 10
4.5450711135
 20
6.0428427632
 30
0.0
 10
4.5459400977
 20
6.0411025614
 30
0.0
 10
4.5468436009
 20
6.0390811314
 30
0.0
 10
4.5477610384
 20
6.036793019
 30
0.0
 10
4.5486708632
 20
6.0342546339
 30
0.0
 10
4.5498809919
 20
6.0304467803
 30
0.0
 10
4.5512305746
 20
6.025204105
 30
0.0
 10
4.5524524523
 20
6.0184221495
 30
0.0
 10
4.5530645304
 20
6.0124281138
 30
0.0
 10
4.553277905
 20
6.0074614776
 30
0.0
 10
4.5532869509
 20
6.0049382717
 30
0.0
 10
4.5532661033
 20
6.0036721854
 30
0.0
  0
SPLINE
  5
371
100
AcDbEntity
  8
ALL_ASSEMBLY_MEMBERS
100
AcDbSpline
 62
7
  6
CONTINUOUS
 70
0
 71
3
 72
23
 73
19
 74
0
 42
0.0000001
 43
0.0000001
 44
0.0000000001
 40
0.0
 40
0.0
 40
0.0
 40
0.0
 40
0.0850541471
 40
0.169337913
 40
0.2521159109
 40
0.3327997974
 40
0.4108497125
 40
0.4857419038
 40
0.5569833847
 40
0.6241626407
 40
0.6869323931
 40
0.7450481933
 40
0.7983649128
 40
0.8468889722
 40
0.8907935671
 40
0.9304800042
 40
0.9666048425
 40
1.0
 40
1.0
 40
1.0
 40
1.0
 10
4.9855359543
 20
6.0036721854
 30
0.0
 10
4.9855586221
 20
6.0051098971
 30
0.0
 10
4.9856660573
 20
6.0079717044
 30
0.0
 10
4.986011564
 20
6.0122211764
 30
0.0
 10
4.9865388665
 20
6.0163776253
 30
0.0
 10
4.9872408371
 20
6.0204012993
 30
0.0
 10
4.9881104412
 20
6.0242556849
 30
0.0
 10
4.9891367656
 20
6.0279059733
 30
0.0
 10
4.9903094932
 20
6.0313183806
 30
0.0
 10
4.9916140723
 20
6.0344621561
 30
0.0
 10
4.9930368122
 20
6.0373086702
 30
0.0
 10
4.9945602673
 20
6.0398331986
 30
0.0
 10
4.9961683187
 20
6.0420128427
 30
0.0
 10
4.9978412284
 20
6.0438296598
 30
0.0
 10
4.9995607454
 20
6.0452666839
 30
0.0
 10
5.001305975
 20
6.0463115525
 30
0.0
 10
5.0030514063
 20
6.0469492574
 30
0.0
 10
5.0042299085
 20
6.0471017081
 30
0.0
 10
5.0047944733
 20
6.0471017081
 30
0.0
  0
SPLINE
  5
372
100
AcDbEntity
  8
ALL_ASSEMBLY_MEMBERS
100
AcDbSpline
 62
7
  6
CONTINUOUS
 70
0
 71
3
 72
18
 73
14
 74
0
 42
0.0000001
 43
0.0000001
 44
0.0000000001
 40
0.0
 40
0.0
 40
0.0
 40
0.0
 40
0.2095071111
 40
0.3936176398
 40
0.5523453912
 40
0.6858896562
 40
0.7948090708
 40
0.8404523022
 40
0.880598122
 40
0.9157289801
 40
0.9465652766
 40
0.9741676037
 40
1.0
 40
1.0
 40
1.0
 40
1.0
 10
4.54184185
 20
5.0528517081
 30
0.0
 10
4.5413753075
 20
5.0529620436
 30
0.0
 10
4.5405012935
 20
5.0531803847
 30
0.0
 10
4.5392859947
 20
5.0535286133
 30
0.0
 10
4.5382521609
 20
5.0538761115
 30
0.0
 10
4.5374013942
 20
5.0542226601
 30
0.0
 10
4.5368139538
 20
5.0545258368
 30
0.0
 10
4.5364433591
 20
5.0547740675
 30
0.0
 10
4.5362286271
 20
5.0549494059
 30
0.0
 10
4.5360601627
 20
5.0551253504
 30
0.0
 10
4.5359381002
 20
5.0553027369
 30
0.0
 10
4.5358633659
 20
5.0554822936
 30
0.0
 10
4.5358462682
 20
5.0556050969
 30
0.0
 10
4.5358462609
 20
5.0556642088
 30
0.0
  0
SPLINE
  5
373
100
AcDbEntity
  8
ALL_ASSEMBLY_MEMBERS
100
AcDbSpline
 62
7
  6
CONTINUOUS
 70
0
 71
3
 72
13
 73
9
 74
0
 42
0.0000001
 43
0.0000001
 44
0.0000000001
 40
0.0
 40
0.0
 40
0.0
 40
0.0
 40
0.3264257404
 40
0.6005299378
 40
0.7184149732
 40
0.823915083
 40
0.9175349944
 40
1.0
 40
1.0
 40
1.0
 40
1.0
 10
4.5553031507
 20
4.93921205
 30
0.0
 10
4.5548274112
 20
4.9393702302
 30
0.0
 10
4.5539583271
 20
4.9396803233
 30
0.0
 10
4.5529438897
 20
4.9401178903
 30
0.0
 10
4.5522668774
 20
4.9404728852
 30
0.0
 10
4.5518499266
 20
4.9407250462
 30
0.0
 10
4.5514976089
 20
4.9409766536
 30
0.0
 10
4.5512933851
 20
4.9411550042
 30
0.0
 10
4.5512038249
 20
4.941244562
 30
0.0
  0
SPLINE
  5
374
100
AcDbEntity
  8
ALL_ASSEMBLY_MEMBERS
100
AcDbSpline
 62
7
  6
CONTINUOUS
 70
0
 71
3
 72
22
 73
18
 74
0
 42
0.0000001
 43
0.0000001
 44
0.0000000001
 40
0.0
 40
0.0
 40
0.0
 40
0.0
 40
0.2192262097
 40
0.4118387715
 40
0.5771925316
 40
0.649488518
 40
0.7147927216
 40
0.7730902063
 40
0.8244109106
 40
0.868823624
 40
0.9064623427
 40
0.9375819961
 40
0.962682598
 40
0.9732884872
 40
0.982843249
 40
0.991627555
 40
1.0
 40
1.0
 40
1.0
 40
1.0
 10
4.552594128
 20
5.0816505424
 30
0.0
 10
4.5513074833
 20
5.0814642523
 30
0.0
 10
4.5488928771
 20
5.0810964205
 30
0.0
 10
4.5455201928
 20
5.0805108606
 30
0.0
 10
4.5430187463
 20
5.0800047727
 30
0.0
 10
4.5412697499
 20
5.0795933672
 30
0.0
 10
4.5401457784
 20
5.0792990432
 30
0.0
 10
4.5391507677
 20
5.0790050507
 30
0.0
 10
4.5382854476
 20
5.0787114923
 30
0.0
 10
4.537550323
 20
5.0784185085
 30
0.0
 10
4.5369453046
 20
5.078126001
 30
0.0
 10
4.5364703358
 20
5.0778338933
 30
0.0
 10
4.5361655479
 20
5.0775758781
 30
0.0
 10
4.5359968197
 20
5.0773660586
 30
0.0
 10
4.5359107461
 20
5.0772165668
 30
0.0
 10
4.5358584495
 20
5.0770659358
 30
0.0
 10
4.5358466239
 20
5.0769638578
 30
0.0
 10
4.5358466208
 20
5.0769142073
 30
0.0
  0
SPLINE
  5
375
100
AcDbEntity
  8
ALL_ASSEMBLY_MEMBERS
100
AcDbSpline
 62
7
  6
CONTINUOUS
 70
0
 71
3
 72
22
 73
18
 74
0
 42
0.0000001
 43
0.0000001
 44
0.0000000001
 40
0.0
 40
0.0
 40
0.0
 40
0.0
 40
0.2192182522
 40
0.4118382275
 40
0.5771822361
 40
0.6494790063
 40
0.7147939149
 40
0.7730990023
 40
0.8244136438
 40
0.8688147924
 40
0.9064448498
 40
0.9375661478
 40
0.9626794396
 40
0.9732894029
 40
0.9828452709
 40
0.9916288632
 40
1.0
 40
1.0
 40
1.0
 40
1.0
 10
4.5525941599
 20
5.0254005334
 30
0.0
 10
4.5513075501
 20
5.0252142387
 30
0.0
 10
4.5488929239
 20
5.0248463976
 30
0.0
 10
4.5455202523
 20
5.0242609127
 30
0.0
 10
4.5430188003
 20
5.0237547627
 30
0.0
 10
4.5412697815
 20
5.0233433292
 30
0.0
 10
4.5401456774
 20
5.0230490196
 30
0.0
 10
4.5391505731
 20
5.0227550479
 30
0.0
 10
4.5382853167
 20
5.0224614521
 30
0.0
 10
4.5375503686
 20
5.0221684257
 30
0.0
 10
4.5369454822
 20
5.0218758771
 30
0.0
 10
4.5364705112
 20
5.0215837182
 30
0.0
 10
4.5361654983
 20
5.0213258106
 30
0.0
 10
4.5359965581
 20
5.0211160198
 30
0.0
 10
4.5359104001
 20
5.020966541
 30
0.0
 10
4.5358580715
 20
5.0208159223
 30
0.0
 10
4.5358462548
 20
5.020713852
 30
0.0
 10
4.5358462609
 20
5.0206642088
 30
0.0
  0
SPLINE
  5
376
100
AcDbEntity
  8
ALL_ASSEMBLY_MEMBERS
100
AcDbSpline
 62
7
  6
CONTINUOUS
 70
0
 71
3
 72
22
 73
18
 74
0
 42
0.0000001
 43
0.0000001
 44
0.0000000001
 40
0.0
 40
0.0
 40
0.0
 40
0.0
 40
0.2192232997
 40
0.4118357496
 40
0.5771870893
 40
0.6494833235
 40
0.7147895763
 40
0.773088019
 40
0.8244085174
 40
0.8688207422
 40
0.9064595235
 40
0.9375805032
 40
0.9626827157
 40
0.9732887778
 40
0.9828434762
 40
0.9916276424
 40
1.0
 40
1.0
 40
1.0
 40
1.0
 10
4.7640984192
 20
5.0535255339
 30
0.0
 10
4.7653850474
 20
5.0533392437
 30
0.0
 10
4.7677996378
 20
5.0529714155
 30
0.0
 10
4.7711722951
 20
5.0523858731
 30
0.0
 10
4.7736737286
 20
5.0518797787
 30
0.0
 10
4.7754227252
 20
5.0514683721
 30
0.0
 10
4.7765467193
 20
5.0511740549
 30
0.0
 10
4.7775417478
 20
5.050880061
 30
0.0
 10
4.7784070688
 20
5.0505864977
 30
0.0
 10
4.7791421877
 20
5.0502935081
 30
0.0
 10
4.7797472092
 20
5.050000993
 30
0.0
 10
4.7802221957
 20
5.049708883
 30
0.0
 10
4.7805270178
 20
5.0494508782
 30
0.0
 10
4.7806957568
 20
5.0492410533
 30
0.0
 10
4.780781829
 20
5.0490915603
 30
0.0
 10
4.7808341185
 20
5.0489409283
 30
0.0
 10
4.7808459371
 20
5.0488388507
 30
0.0
 10
4.7808459368
 20
5.0487892007
 30
0.0
  0
SPLINE
  5
377
100
AcDbEntity
  8
ALL_ASSEMBLY_MEMBERS
100
AcDbSpline
 62
7
  6
CONTINUOUS
 70
0
 71
3
 72
11
 73
7
 74
0
 42
0.0000001
 43
0.0000001
 44
0.0000000001
 40
0.0
 40
0.0
 40
0.0
 40
0.0
 40
0.2932812397
 40
0.5581590568
 40
0.7939439985
 40
1.0
 40
1.0
 40
1.0
 40
1.0
 10
4.5525937464
 20
5.0509278757
 30
0.0
 10
4.5515366699
 20
5.0510809356
 30
0.0
 10
4.549526645
 20
5.0513846156
 30
0.0
 10
4.5466747681
 20
5.0518624143
 30
0.0
 10
4.5441453227
 20
5.0523391822
 30
0.0
 10
4.5425721401
 20
5.0526789974
 30
0.0
 10
4.54184185
 20
5.0528517081
 30
0.0
  0
SPLINE
  5
378
100
AcDbEntity
  8
ALL_ASSEMBLY_MEMBERS
100
AcDbSpline
 62
7
  6
CONTINUOUS
 70
0
 71
3
 72
22
 73
18
 74
0
 42
0.0000001
 43
0.0000001
 44
0.0000000001
 40
0.0
 40
0.0
 40
0.0
 40
0.0
 40
0.2192291569
 40
0.4118453954
 40
0.5771980525
 40
0.6494959947
 40
0.7148054514
 40
0.7731038464
 40
0.824420563
 40
0.8688276219
 40
0.9064621163
 40
0.9375817132
 40
0.9626850231
 40
0.9732907569
 40
0.9828447652
 40
0.9916281926
 40
1.0
 40
1.0
 40
1.0
 40
1.0
 10
4.5525941579
 20
4.9946778746
 30
0.0
 10
4.5513074915
 20
4.9948641696
 30
0.0
 10
4.5488928372
 20
4.9952320038
 30
0.0
 10
4.5455201077
 20
4.9958175684
 30
0.0
 10
4.5430186312
 20
4.9963236912
 30
0.0
 10
4.5412695951
 20
4.9967351126
 30
0.0
 10
4.5401455655
 20
4.9970294213
 30
0.0
 10
4.5391505365
 20
4.9973234117
 30
0.0
 10
4.5382852688
 20
4.9976169755
 30
0.0
 10
4.5375502322
 20
4.9979099646
 30
0.0
 10
4.5369452781
 20
4.9982024785
 30
0.0
 10
4.5364703256
 20
4.9984945878
 30
0.0
 10
4.5361654731
 20
4.998752553
 30
0.0
 10
4.535996728
 20
4.998962376
 30
0.0
 10
4.5359106666
 20
4.9991118643
 30
0.0
 10
4.5358583968
 20
4.9992624919
 30
0.0
 10
4.5358465946
 20
4.9993645641
 30
0.0
 10
4.5358466023
 20
4.999414211
 30
0.0
  0
SPLINE
  5
379
100
AcDbEntity
  8
ALL_ASSEMBLY_MEMBERS
100
AcDbSpline
 62
7
  6
CONTINUOUS
 70
0
 71
3
 72
22
 73
18
 74
0
 42
0.0000001
 43
0.0000001
 44
0.0000000001
 40
0.0
 40
0.0
 40
0.0
 40
0.0
 40
0.2192185303
 40
0.4118305015
 40
0.5771860838
 40
0.6494852636
 40
0.7147943766
 40
0.7730935408
 40
0.8244128913
 40
0.8688232334
 40
0.906460488
 40
0.9375812696
 40
0.9626841394
 40
0.9732899514
 40
0.9828442114
 40
0.9916279428
 40
1.0
 40
1.0
 40
1.0
 40
1.0
 10
4.764098438
 20
5.0228028818
 30
0.0
 10
4.7653850372
 20
5.0229891674
 30
0.0
 10
4.7677995945
 20
5.0233569917
 30
0.0
 10
4.7711722409
 20
5.0239425439
 30
0.0
 10
4.7736737109
 20
5.0244486469
 30
0.0
 10
4.775422765
 20
5.0248600621
 30
0.0
 10
4.7765467981
 20
5.0251543791
 30
0.0
 10
4.77754184
 20
5.0254483759
 30
0.0
 10
4.7784071449
 20
5.0257419421
 30
0.0
 10
4.7791422328
 20
5.0260349338
 30
0.0
 10
4.7797472298
 20
5.0263274505
 30
0.0
 10
4.7802222061
 20
5.0266195601
 30
0.0
 10
4.780527046
 20
5.0268775463
 30
0.0
 10
4.7806957838
 20
5.0270873724
 30
0.0
 10
4.7807818461
 20
5.0272368635
 30
0.0
 10
4.780834121
 20
5.0273874935
 30
0.0
 10
4.7808459285
 20
5.0274895679
 30
0.0
 10
4.7808459235
 20
5.0275392161
 30
0.0
  0
LINE
  5
37A
100
AcDbEntity
  8
ALL_ASSEMBLY_MEMBERS
100
AcDbLine
 62
7
  6
CONTINUOUS
 10
4.7608951023
 20
4.9407630924
 11
4.7617446435
 21
4.9404132149
  0
SPLINE
  5
37B
100
AcDbEntity
  8
ALL_ASSEMBLY_MEMBERS
100
AcDbSpline
 62
7
  6
CONTINUOUS
 70
0
 71
3
 72
15
 73
11
 74
0
 42
0.0000001
 43
0.0000001
 44
0.0000000001
 40
0.0
 40
0.0
 40
0.0
 40
0.0
 40
0.19276843
 40
0.3559030216
 40
0.491471069
 40
0.6032794862
 40
0.6982929955
 40
0.7876996517
 40
0.8847120707
 40
1.0
 40
1.0
 40
1.0
 40
1.0
 10
4.7617446435
 20
4.9404132149
 30
0.0
 10
4.7618970372
 20
4.9403417577
 30
0.0
 10
4.7621744177
 20
4.9402008205
 30
0.0
 10
4.762537759
 20
4.9399709053
 30
0.0
 10
4.7628134615
 20
4.9397394965
 30
0.0
 10
4.7630019655
 20
4.9395038343
 30
0.0
 10
4.7630989454
 20
4.9392580919
 30
0.0
 10
4.7630920686
 20
4.9390055504
 30
0.0
 10
4.7629827638
 20
4.9387603144
 30
0.0
 10
4.7628619643
 20
4.9386173459
 30
0.0
 10
4.7627907931
 20
4.9385461578
 30
0.0
  0
SPLINE
  5
37C
100
AcDbEntity
  8
ALL_ASSEMBLY_MEMBERS
100
AcDbSpline
 62
7
  6
CONTINUOUS
 70
0
 71
3
 72
22
 73
18
 74
0
 42
0.0000001
 43
0.0000001
 44
0.0000000001
 40
0.0
 40
0.0
 40
0.0
 40
0.0
 40
0.0083719207
 40
0.0171553667
 40
0.0267104658
 40
0.0373195736
 40
0.0624311905
 40
0.0935516591
 40
0.1311822363
 40
0.1755853997
 40
0.2269035359
 40
0.2852125132
 40
0.3505270178
 40
0.4228203614
 40
0.5881575923
 40
0.7807823078
 40
1.0
 40
1.0
 40
1.0
 40
1.0
 10
4.5358465726
 20
4.9644142087
 30
0.0
 10
4.5358465417
 20
4.9644638564
 30
0.0
 10
4.5358583023
 20
4.9645659363
 30
0.0
 10
4.535910552
 20
4.964716582
 30
0.0
 10
4.5359966454
 20
4.9648660869
 30
0.0
 10
4.5361655253
 20
4.9650759019
 30
0.0
 10
4.5364704993
 20
4.9653338277
 30
0.0
 10
4.5369454555
 20
4.9656259859
 30
0.0
 10
4.5375503569
 20
4.9659185224
 30
0.0
 10
4.5382853479
 20
4.9662115299
 30
0.0
 10
4.5391506674
 20
4.9665051029
 30
0.0
 10
4.5401458195
 20
4.9667990444
 30
0.0
 10
4.5412699206
 20
4.9670933485
 30
0.0
 10
4.5430188691
 20
4.9675047766
 30
0.0
 10
4.5455202755
 20
4.9680109421
 30
0.0
 10
4.5488929253
 20
4.9685963888
 30
0.0
 10
4.5513075646
 20
4.9689642464
 30
0.0
 10
4.5525941657
 20
4.9691505443
 30
0.0
  0
SPLINE
  5
37D
100
AcDbEntity
  8
ALL_ASSEMBLY_MEMBERS
100
AcDbSpline
 62
7
  6
CONTINUOUS
 70
0
 71
3
 72
22
 73
18
 74
0
 42
0.0000001
 43
0.0000001
 44
0.0000000001
 40
0.0
 40
0.0
 40
0.0
 40
0.0
 40
0.0083732177
 40
0.0171593263
 40
0.0267162393
 40
0.0373235551
 40
0.0624201507
 40
0.0935276937
 40
0.131165858
 40
0.1755879696
 40
0.2269200254
 40
0.2852222681
 40
0.3505170554
 40
0.4228032051
 40
0.5881754268
 40
0.780798105
 40
1.0
 40
1.0
 40
1.0
 40
1.0
 10
4.7808459678
 20
4.9712892009
 30
0.0
 10
4.780845937
 20
4.9712395467
 30
0.0
 10
4.7808340465
 20
4.9711374623
 30
0.0
 10
4.7807816598
 20
4.9709868376
 30
0.0
 10
4.7806955203
 20
4.9708373526
 30
0.0
 10
4.7805267715
 20
4.9706275629
 30
0.0
 10
4.7802221267
 20
4.9703695415
 30
0.0
 10
4.7797473434
 20
4.9700773279
 30
0.0
 10
4.7791423325
 20
4.9697848643
 30
0.0
 10
4.778407085
 20
4.9694919066
 30
0.0
 10
4.7775416146
 20
4.9691983704
 30
0.0
 10
4.7765465782
 20
4.9689043933
 30
0.0
 10
4.7754227283
 20
4.9686100271
 30
0.0
 10
4.7736737839
 20
4.9681985554
 30
0.0
 10
4.7711722479
 20
4.9676925674
 30
0.0
 10
4.7677995968
 20
4.9671070362
 30
0.0
 10
4.7653851299
 20
4.9667391325
 30
0.0
 10
4.7640986504
 20
4.9665528673
 30
0.0
  0
SPLINE
  5
37E
100
AcDbEntity
  8
ALL_ASSEMBLY_MEMBERS
100
AcDbSpline
 62
7
  6
CONTINUOUS
 70
0
 71
3
 72
22
 73
18
 74
0
 42
0.0000001
 43
0.0000001
 44
0.0000000001
 40
0.0
 40
0.0
 40
0.0
 40
0.0
 40
0.008372241
 40
0.0171560085
 40
0.0267103697
 40
0.037316605
 40
0.0624216989
 40
0.0935434433
 40
0.1311801515
 40
0.1755893341
 40
0.2269079236
 40
0.2852077783
 40
0.350517809
 40
0.4228151468
 40
0.5881646402
 40
0.780777719
 40
1.0
 40
1.0
 40
1.0
 40
1.0
 10
4.7808458986
 20
4.9925392151
 30
0.0
 10
4.7808459099
 20
4.9925888644
 30
0.0
 10
4.7808341148
 20
4.9926909419
 30
0.0
 10
4.7807818518
 20
4.9928415787
 30
0.0
 10
4.7806957919
 20
4.9929910759
 30
0.0
 10
4.7805270382
 20
4.9932009117
 30
0.0
 10
4.7802221568
 20
4.9934588834
 30
0.0
 10
4.7797471696
 20
4.9937510018
 30
0.0
 10
4.7791421775
 20
4.9940435218
 30
0.0
 10
4.778407105
 20
4.9943365144
 30
0.0
 10
4.7775418059
 20
4.9946300791
 30
0.0
 10
4.7765467548
 20
4.9949240667
 30
0.0
 10
4.7754227185
 20
4.9952183708
 30
0.0
 10
4.7736737045
 20
4.995629783
 30
0.0
 10
4.7711722744
 20
4.9961358941
 30
0.0
 10
4.7677996284
 20
4.9967214297
 30
0.0
 10
4.7653850396
 20
4.9970892564
 30
0.0
 10
4.7640984173
 20
4.997275547
 30
0.0
  0
SPLINE
  5
37F
100
AcDbEntity
  8
ALL_ASSEMBLY_MEMBERS
100
AcDbSpline
 62
7
  6
CONTINUOUS
 70
0
 71
3
 72
22
 73
18
 74
0
 42
0.0000001
 43
0.0000001
 44
0.0000000001
 40
0.0
 40
0.0
 40
0.0
 40
0.0
 40
0.0083720285
 40
0.0171554896
 40
0.0267098821
 40
0.0373169705
 40
0.0624255193
 40
0.0935475077
 40
0.1311819748
 40
0.1755883741
 40
0.2269058107
 40
0.2852083649
 40
0.3505210858
 40
0.4228176406
 40
0.58816239
 40
0.7807781133
 40
1.0
 40
1.0
 40
1.0
 40
1.0
 10
4.7808459194
 20
5.0837892018
 30
0.0
 10
4.7808459404
 20
5.0837395532
 30
0.0
 10
4.7808341636
 20
5.0836374749
 30
0.0
 10
4.7807819133
 20
5.0834868337
 30
0.0
 10
4.7806958472
 20
5.0833373327
 30
0.0
 10
4.7805270482
 20
5.083127495
 30
0.0
 10
4.7802221019
 20
5.0828695542
 30
0.0
 10
4.7797471136
 20
5.082577416
 30
0.0
 10
4.779142147
 20
5.0822848884
 30
0.0
 10
4.778407108
 20
5.0819918876
 30
0.0
 10
4.7775418076
 20
5.0816983165
 30
0.0
 10
4.7765467147
 20
5.0814043407
 30
0.0
 10
4.7754226356
 20
5.0811100419
 30
0.0
 10
4.7736736202
 20
5.0806986222
 30
0.0
 10
4.7711721828
 20
5.0801924895
 30
0.0
 10
4.7677995092
 20
5.0796069756
 30
0.0
 10
4.7653848807
 20
5.0792391422
 30
0.0
 10
4.7640982466
 20
5.0790528478
 30
0.0
  0
SPLINE
  5
380
100
AcDbEntity
  8
ALL_ASSEMBLY_MEMBERS
100
AcDbSpline
 62
7
  6
CONTINUOUS
 70
0
 71
3
 72
16
 73
12
 74
0
 42
0.0000001
 43
0.0000001
 44
0.0000000001
 40
0.0
 40
0.0
 40
0.0
 40
0.0
 40
0.0403701261
 40
0.0847579927
 40
0.1329862805
 40
0.1848496686
 40
0.2986242097
 40
0.4241892457
 40
0.5594398051
 40
0.7020913995
 40
1.0
 40
1.0
 40
1.0
 40
1.0
 10
4.7640982466
 20
5.0790528478
 30
0.0
 10
4.7626841859
 20
5.0788481031
 30
0.0
 10
4.7597118017
 20
5.0784425091
 30
0.0
 10
4.755040788
 20
5.0778630368
 30
0.0
 10
4.749960193
 20
5.0772831131
 30
0.0
 10
4.7424330934
 20
5.0764843995
 30
0.0
 10
4.7321736248
 20
5.0754989656
 30
0.0
 10
4.7189659331
 20
5.0743469133
 30
0.0
 10
4.7047327683
 20
5.073193219
 30
0.0
 10
4.6844132353
 20
5.0716307958
 30
0.0
 10
4.6688620095
 20
5.0704952054
 30
0.0
 10
4.6583462733
 20
5.0697267013
 30
0.0
  0
SPLINE
  5
381
100
AcDbEntity
  8
ALL_ASSEMBLY_MEMBERS
100
AcDbSpline
 62
7
  6
CONTINUOUS
 70
0
 71
3
 72
38
 73
34
 74
0
 42
0.0000001
 43
0.0000001
 44
0.0000000001
 40
0.0
 40
0.0
 40
0.0
 40
0.0
 40
0.0009444481
 40
0.0019354802
 40
0.003013702
 40
0.004210887
 40
0.0070447021
 40
0.0105556979
 40
0.0147987559
 40
0.0198017863
 40
0.0255791621
 40
0.0321369933
 40
0.0394729284
 40
0.0475807763
 40
0.0660787181
 40
0.0875491453
 40
0.1118687483
 40
0.1389000941
 40
0.1684829781
 40
0.2004352875
 40
0.2345670334
 40
0.3085075083
 40
0.3884847154
 40
0.4725210702
 40
0.5585336758
 40
0.6443901922
 40
0.727962807
 40
0.8071814904
 40
0.8800870016
 40
0.9136041862
 40
0.9448859317
 40
0.9737440494
 40
1.0
 40
1.0
 40
1.0
 40
1.0
 10
4.5558462878
 20
5.0531642109
 30
0.0
 10
4.5558462862
 20
5.0532236031
 30
0.0
 10
4.555860446
 20
5.0533457201
 30
0.0
 10
4.5559231033
 20
5.0535259108
 30
0.0
 10
4.5560262401
 20
5.0537047322
 30
0.0
 10
4.5562284395
 20
5.0539557156
 30
0.0
 10
4.5565934449
 20
5.0542642025
 30
0.0
 10
4.5571615639
 20
5.0546136708
 30
0.0
 10
4.5578846244
 20
5.0549636272
 30
0.0
 10
4.5587624969
 20
5.0553141665
 30
0.0
 10
4.5597951176
 20
5.0556653661
 30
0.0
 10
4.5609813841
 20
5.0560169646
 30
0.0
 10
4.5623196078
 20
5.0563690365
 30
0.0
 10
4.5643968104
 20
5.056860792
 30
0.0
 10
4.5673596537
 20
5.0574657426
 30
0.0
 10
4.5713416898
 20
5.0581657408
 30
0.0
 10
4.5758672743
 20
5.0588675002
 30
0.0
 10
4.5809082287
 20
5.0595704011
 30
0.0
 10
4.5864332681
 20
5.0602740759
 30
0.0
 10
4.5924080298
 20
5.0609785408
 30
0.0
 10
4.6011605248
 20
5.0619441714
 30
0.0
 10
4.6129262665
 20
5.0631347747
 30
0.0
 10
4.6278249191
 20
5.0645313208
 30
0.0
 10
4.6434857201
 20
5.0659295324
 30
0.0
 10
4.659517579
 20
5.0673285852
 30
0.0
 10
4.6755201704
 20
5.0687275841
 30
0.0
 10
4.6910939699
 20
5.0701256052
 30
0.0
 10
4.7058500893
 20
5.0715217988
 30
0.0
 10
4.7174635599
 20
5.072713221
 30
0.0
 10
4.7260691182
 20
5.073680113
 30
0.0
 10
4.7319166284
 20
5.0743843841
 30
0.0
 10
4.7373040577
 20
5.0750878124
 30
0.0
 10
4.7407349149
 20
5.0755803979
 30
0.0
 10
4.7423671683
 20
5.0758293092
 30
0.0
  0
SPLINE
  5
382
100
AcDbEntity
  8
ALL_ASSEMBLY_MEMBERS
100
AcDbSpline
 62
7
  6
CONTINUOUS
 70
0
 71
3
 72
21
 73
17
 74
0
 42
0.0000001
 43
0.0000001
 44
0.0000000001
 40
0.0
 40
0.0
 40
0.0
 40
0.0
 40
0.045188291
 40
0.0966246742
 40
0.1536258743
 40
0.2154318639
 40
0.281214543
 40
0.3500849941
 40
0.4933478863
 40
0.63750271
 40
0.7074792218
 40
0.7747860872
 40
0.8385116381
 40
0.897805749
 40
0.9518931593
 40
1.0
 40
1.0
 40
1.0
 40
1.0
 10
4.5743253182
 20
5.0848740894
 30
0.0
 10
4.5767920658
 20
5.0852502488
 30
0.0
 10
4.5820770758
 20
5.0859861477
 30
0.0
 10
4.5904973899
 20
5.0870180788
 30
0.0
 10
4.5998412095
 20
5.0880523833
 30
0.0
 10
4.6099814264
 20
5.0890883017
 30
0.0
 10
4.6207801237
 20
5.0901252758
 30
0.0
 10
4.6360622928
 20
5.0915272861
 30
0.0
 10
4.655661233
 20
5.0932441902
 30
0.0
 10
4.6753218609
 20
5.0949564552
 30
0.0
 10
4.6907997115
 20
5.0963541236
 30
0.0
 10
4.7018507223
 20
5.0973915236
 30
0.0
 10
4.7123092454
 20
5.0984279153
 30
0.0
 10
4.7220341635
 20
5.0994630167
 30
0.0
 10
4.7308915063
 20
5.1004964609
 30
0.0
 10
4.7364872471
 20
5.1012285894
 30
0.0
 10
4.7391173362
 20
5.1016017081
 30
0.0
  0
SPLINE
  5
383
100
AcDbEntity
  8
ALL_ASSEMBLY_MEMBERS
100
AcDbSpline
 62
7
  6
CONTINUOUS
 70
0
 71
3
 72
38
 73
34
 74
0
 42
0.0000001
 43
0.0000001
 44
0.0000000001
 40
0.0
 40
0.0
 40
0.0
 40
0.0
 40
0.0262561764
 40
0.0551142237
 40
0.0863951446
 40
0.1199129751
 40
0.1928177141
 40
0.2720357122
 40
0.3556081492
 40
0.4414644183
 40
0.5274765713
 40
0.6115126654
 40
0.6914901976
 40
0.7654308188
 40
0.7995620539
 40
0.8315146697
 40
0.8610982031
 40
0.8881287989
 40
0.9124496366
 40
0.9339195026
 40
0.9524178342
 40
0.9605264049
 40
0.9678626123
 40
0.9744198537
 40
0.9801973472
 40
0.9852012599
 40
0.989445185
 40
0.9929563361
 40
0.9957892845
 40
0.996986172
 40
0.9980643211
 40
0.9990554277
 40
1.0
 40
1.0
 40
1.0
 40
1.0
 10
4.5743252285
 20
5.0286240791
 30
0.0
 10
4.5759574941
 20
5.0288730032
 30
0.0
 10
4.5793883643
 20
5.029365565
 30
0.0
 10
4.5847757504
 20
5.0300689906
 30
0.0
 10
4.5906232408
 20
5.0307732895
 30
0.0
 10
4.5992287439
 20
5.0317401284
 30
0.0
 10
4.610842158
 20
5.0329315827
 30
0.0
 10
4.6255981734
 20
5.0343277647
 30
0.0
 10
4.6411719015
 20
5.0357257768
 30
0.0
 10
4.657174436
 20
5.0371247687
 30
0.0
 10
4.6732062323
 20
5.0385238199
 30
0.0
 10
4.6888670068
 20
5.03992203
 30
0.0
 10
4.7037656715
 20
5.0413185672
 30
0.0
 10
4.7155314111
 20
5.0425091513
 30
0.0
 10
4.7242838993
 20
5.0434748007
 30
0.0
 10
4.7302586882
 20
5.0441792649
 30
0.0
 10
4.7357837456
 20
5.0448828982
 30
0.0
 10
4.7408247614
 20
5.0455858675
 30
0.0
 10
4.7453503538
 20
5.0462875403
 30
0.0
 10
4.7493324483
 20
5.0469875942
 30
0.0
 10
4.7522953232
 20
5.0475925565
 30
0.0
 10
4.7543726213
 20
5.0480842838
 30
0.0
 10
4.7557108784
 20
5.0484363308
 30
0.0
 10
4.7568971194
 20
5.0487879714
 30
0.0
 10
4.7579297675
 20
5.0491391647
 30
0.0
 10
4.7588077828
 20
5.0494896625
 30
0.0
 10
4.7595309897
 20
5.049839585
 30
0.0
 10
4.7600991632
 20
5.0501889992
 30
0.0
 10
4.7604640133
 20
5.0504975898
 30
0.0
 10
4.7606660331
 20
5.0507486168
 30
0.0
 10
4.7607690881
 20
5.0509274619
 30
0.0
 10
4.7608317033
 20
5.0511076731
 30
0.0
 10
4.7608458622
 20
5.0512298004
 30
0.0
 10
4.7608458656
 20
5.0512892005
 30
0.0
  0
SPLINE
  5
384
100
AcDbEntity
  8
ALL_ASSEMBLY_MEMBERS
100
AcDbSpline
 62
7
  6
CONTINUOUS
 70
0
 71
3
 72
16
 73
12
 74
0
 42
0.0000001
 43
0.0000001
 44
0.0000000001
 40
0.0
 40
0.0
 40
0.0
 40
0.0
 40
0.2979034215
 40
0.4405602527
 40
0.5758170637
 40
0.7013842319
 40
0.8151567699
 40
0.8670184986
 40
0.9152444838
 40
0.959629888
 40
1.0
 40
1.0
 40
1.0
 40
1.0
 10
4.6583462733
 20
5.0134767143
 30
0.0
 10
4.6688618457
 20
5.0142452067
 30
0.0
 10
4.6844131019
 20
5.0153807984
 30
0.0
 10
4.7047328941
 20
5.0169432445
 30
0.0
 10
4.7189665653
 20
5.0180969778
 30
0.0
 10
4.7321745054
 20
5.0192490584
 30
0.0
 10
4.7424339372
 20
5.0202345049
 30
0.0
 10
4.7499608408
 20
5.0210331937
 30
0.0
 10
4.755041219
 20
5.0216130938
 30
0.0
 10
4.75971207
 20
5.0221925729
 30
0.0
 10
4.7626843747
 20
5.0225981409
 30
0.0
 10
4.764098438
 20
5.0228028818
 30
0.0
  0
SPLINE
  5
385
100
AcDbEntity
  8
ALL_ASSEMBLY_MEMBERS
100
AcDbSpline
 62
7
  6
CONTINUOUS
 70
0
 71
3
 72
16
 73
12
 74
0
 42
0.0000001
 43
0.0000001
 44
0.0000000001
 40
0.0
 40
0.0
 40
0.0
 40
0.0
 40
0.0399975741
 40
0.0842102902
 40
0.1324409771
 40
0.1844625154
 40
0.2988703554
 40
0.4252685774
 40
0.561248348
 40
0.7041859308
 40
1.0
 40
1.0
 40
1.0
 40
1.0
 10
4.7640986504
 20
4.9665528673
 30
0.0
 10
4.7625845803
 20
4.9663336501
 30
0.0
 10
4.7593928199
 20
4.9659000293
 30
0.0
 10
4.7543648533
 20
4.965282095
 30
0.0
 10
4.7488738912
 20
4.9646636078
 30
0.0
 10
4.7407077212
 20
4.96381108
 30
0.0
 10
4.7295565756
 20
4.9627602262
 30
0.0
 10
4.7151972872
 20
4.9615323749
 30
0.0
 10
4.699743255
 20
4.9603026423
 30
0.0
 10
4.6778232574
 20
4.9586422471
 30
0.0
 10
4.6610854894
 20
4.9574283923
 30
0.0
 10
4.6498012085
 20
4.9566017081
 30
0.0
  0
SPLINE
  5
386
100
AcDbEntity
  8
ALL_ASSEMBLY_MEMBERS
100
AcDbSpline
 62
7
  6
CONTINUOUS
 70
0
 71
3
 72
38
 73
34
 74
0
 42
0.0000001
 43
0.0000001
 44
0.0000000001
 40
0.0
 40
0.0
 40
0.0
 40
0.0
 40
0.000944574
 40
0.0019359562
 40
0.0030147342
 40
0.0042123899
 40
0.0070457926
 40
0.0105552329
 40
0.0147974244
 40
0.0198020651
 40
0.0255818638
 40
0.0321397047
 40
0.0394740825
 40
0.0475808485
 40
0.0660820472
 40
0.0875508607
 40
0.1118705307
 40
0.1389036905
 40
0.1684843391
 40
0.2004389617
 40
0.234569633
 40
0.30851095
 40
0.3884876747
 40
0.4725231127
 40
0.5585356906
 40
0.6443920529
 40
0.7279636716
 40
0.8071813728
 40
0.8800874365
 40
0.9136035365
 40
0.9448869659
 40
0.973742558
 40
1.0
 40
1.0
 40
1.0
 40
1.0
 10
4.5558462988
 20
4.9969142097
 30
0.0
 10
4.5558462749
 20
4.9969736099
 30
0.0
 10
4.5558604423
 20
4.9970957653
 30
0.0
 10
4.555923253
 20
4.9972759763
 30
0.0
 10
4.5560265571
 20
4.9974547981
 30
0.0
 10
4.5562288581
 20
4.99770574
 30
0.0
 10
4.5565936588
 20
4.9980142941
 30
0.0
 10
4.5571615253
 20
4.9983638547
 30
0.0
 10
4.5578845132
 20
4.9987138541
 30
0.0
 10
4.5587626475
 20
4.9990642868
 30
0.0
 10
4.5597955719
 20
4.999415374
 30
0.0
 10
4.5609818807
 20
4.9997670176
 30
0.0
 10
4.562319922
 20
5.0001191352
 30
0.0
 10
4.5643971452
 20
5.0006109814
 30
0.0
 10
4.5673600754
 20
5.0012156919
 30
0.0
 10
4.5713421835
 20
5.0019158901
 30
0.0
 10
4.5758677959
 20
5.0026176069
 30
0.0
 10
4.5809087413
 20
5.0033204122
 30
0.0
 10
4.5864338838
 20
5.0040242351
 30
0.0
 10
4.5924086012
 20
5.0047285596
 30
0.0
 10
4.6011612182
 20
5.0056942984
 30
0.0
 10
4.6129269281
 20
5.006884814
 30
0.0
 10
4.6278255472
 20
5.0082813878
 30
0.0
 10
4.6434862631
 20
5.0096796006
 30
0.0
 10
4.6595180591
 20
5.011078639
 30
0.0
 10
4.675520582
 20
5.0124776277
 30
0.0
 10
4.6910942526
 20
5.0138756437
 30
0.0
 10
4.705850283
 20
5.0152718707
 30
0.0
 10
4.7174636709
 20
5.0164632083
 30
0.0
 10
4.7260692938
 20
5.0174301951
 30
0.0
 10
4.7319166997
 20
5.0181343377
 30
0.0
 10
4.7373041538
 20
5.0188379057
 30
0.0
 10
4.740734954
 20
5.0193304334
 30
0.0
 10
4.7423673047
 20
5.0195793323
 30
0.0
  0
SPLINE
  5
387
100
AcDbEntity
  8
ALL_ASSEMBLY_MEMBERS
100
AcDbSpline
 62
7
  6
CONTINUOUS
 70
0
 71
3
 72
38
 73
34
 74
0
 42
0.0000001
 43
0.0000001
 44
0.0000000001
 40
0.0
 40
0.0
 40
0.0
 40
0.0
 40
0.0009446415
 40
0.0019359611
 40
0.0030143369
 40
0.004211287
 40
0.0070432034
 40
0.0105530003
 40
0.0147973233
 40
0.0198024783
 40
0.0255807792
 40
0.032137132
 40
0.0394721156
 40
0.0475812018
 40
0.0660815062
 40
0.0875491092
 40
0.1118714753
 40
0.1389019522
 40
0.1684846154
 40
0.2004388159
 40
0.2345683576
 40
0.3085099289
 40
0.3884875824
 40
0.4725230124
 40
0.5585349403
 40
0.6443914937
 40
0.7279635512
 40
0.807180548
 40
0.880085312
 40
0.9136036136
 40
0.9448850882
 40
0.9737412368
 40
1.0
 40
1.0
 40
1.0
 40
1.0
 10
4.5558467197
 20
4.9406642006
 30
0.0
 10
4.5558467678
 20
4.940723605
 30
0.0
 10
4.5558610264
 20
4.9408457384
 30
0.0
 10
4.5559237649
 20
4.9410259372
 30
0.0
 10
4.5560268917
 20
4.9412047735
 30
0.0
 10
4.5562288823
 20
4.9414557566
 30
0.0
 10
4.5565934484
 20
4.9417644373
 30
0.0
 10
4.5571614346
 20
4.9421139494
 30
0.0
 10
4.5578847019
 20
4.9424637952
 30
0.0
 10
4.5587628966
 20
4.9428142561
 30
0.0
 10
4.5597956343
 20
4.9431654096
 30
0.0
 10
4.5609817746
 20
4.9435170978
 30
0.0
 10
4.5623199173
 20
4.9438691907
 30
0.0
 10
4.5643973097
 20
4.9443608711
 30
0.0
 10
4.5673602185
 20
4.9449657321
 30
0.0
 10
4.571342359
 20
4.9456659783
 30
0.0
 10
4.5758679213
 20
4.9463675125
 30
0.0
 10
4.5809089661
 20
4.9470705195
 30
0.0
 10
4.5864340581
 20
4.947774195
 30
0.0
 10
4.5924087971
 20
4.9484785702
 30
0.0
 10
4.6011613287
 20
4.949444328
 30
0.0
 10
4.6129270418
 20
4.9506348238
 30
0.0
 10
4.6278257338
 20
4.9520313833
 30
0.0
 10
4.6434864639
 20
4.9534295966
 30
0.0
 10
4.6595182263
 20
4.9548286479
 30
0.0
 10
4.6755207461
 20
4.9562276267
 30
0.0
 10
4.6910944096
 20
4.9576256349
 30
0.0
 10
4.7058503415
 20
4.9590218357
 30
0.0
 10
4.7174637283
 20
4.9602132779
 30
0.0
 10
4.7260692988
 20
4.961180125
 30
0.0
 10
4.7319167436
 20
4.9618843614
 30
0.0
 10
4.7373041915
 20
4.9625879245
 30
0.0
 10
4.7407351212
 20
4.9630803808
 30
0.0
 10
4.7423675495
 20
4.9633293205
 30
0.0
  0
SPLINE
  5
388
100
AcDbEntity
  8
ALL_ASSEMBLY_MEMBERS
100
AcDbSpline
 62
7
  6
CONTINUOUS
 70
0
 71
3
 72
15
 73
11
 74
0
 42
0.0000001
 43
0.0000001
 44
0.0000000001
 40
0.0
 40
0.0
 40
0.0
 40
0.0
 40
0.1941585363
 40
0.3663953731
 40
0.5171306015
 40
0.647070516
 40
0.7574134574
 40
0.85023047
 40
0.929119246
 40
1.0
 40
1.0
 40
1.0
 40
1.0
 10
4.7578016019
 20
4.936601708
 30
0.0
 10
4.758040044
 20
4.9366877931
 30
0.0
 10
4.7584871198
 20
4.9368585124
 30
0.0
 10
4.7591057071
 20
4.9371299655
 30
0.0
 10
4.7596316775
 20
4.9374013435
 30
0.0
 10
4.7600649935
 20
4.9376727973
 30
0.0
 10
4.7604059073
 20
4.9379448964
 30
0.0
 10
4.7606546807
 20
4.9382194526
 30
0.0
 10
4.7608098638
 20
4.9384999188
 30
0.0
 10
4.7608463976
 20
4.9386966622
 30
0.0
 10
4.7608463798
 20
4.9387892087
 30
0.0
  0
SPLINE
  5
389
100
AcDbEntity
  8
ALL_ASSEMBLY_MEMBERS
100
AcDbSpline
 62
7
  6
CONTINUOUS
 70
0
 71
3
 72
41
 73
37
 74
0
 42
0.0000001
 43
0.0000001
 44
0.0000000001
 40
0.0
 40
0.0
 40
0.0
 40
0.0
 40
0.0236515909
 40
0.0501871769
 40
0.0794324733
 40
0.1112007418
 40
0.145283121
 40
0.1814554051
 40
0.2591064648
 40
0.3421060857
 40
0.4282603038
 40
0.5152898068
 40
0.6008919173
 40
0.682802697
 40
0.7588582551
 40
0.794056336
 40
0.8270544457
 40
0.8576357099
 40
0.8856032219
 40
0.910772642
 40
0.9329893737
 40
0.9429451274
 40
0.9521125089
 40
0.960480261
 40
0.9680379769
 40
0.9747764971
 40
0.9806901097
 40
0.9857803872
 40
0.9900552228
 40
0.9935334064
 40
0.9949866149
 40
0.9962603985
 40
0.9973697935
 40
0.9983376822
 40
0.9991983491
 40
1.0
 40
1.0
 40
1.0
 40
1.0
 10
4.5525941657
 20
4.9691505443
 30
0.0
 10
4.554389885
 20
4.9694105616
 30
0.0
 10
4.5582059924
 20
4.969923043
 30
0.0
 10
4.5642566134
 20
4.9706475524
 30
0.0
 10
4.5709337892
 20
4.9713732678
 30
0.0
 10
4.5781929479
 20
4.9720996595
 30
0.0
 10
4.5859859094
 20
4.9728266763
 30
0.0
 10
4.5972890517
 20
4.9738201927
 30
0.0
 10
4.6123387806
 20
4.9750455644
 30
0.0
 10
4.6312177012
 20
4.9764864173
 30
0.0
 10
4.6508179936
 20
4.9779285799
 30
0.0
 10
4.6706184258
 20
4.9793711704
 30
0.0
 10
4.690092514
 20
4.9808130894
 30
0.0
 10
4.7087224674
 20
4.9822534287
 30
0.0
 10
4.7234904824
 20
4.983480383
 30
0.0
 10
4.7345120285
 20
4.9844758902
 30
0.0
 10
4.7420549307
 20
4.9852026361
 30
0.0
 10
4.7490404478
 20
4.9859287764
 30
0.0
 10
4.7554220162
 20
4.9866538486
 30
0.0
 10
4.7611574546
 20
4.9873779687
 30
0.0
 10
4.7655125736
 20
4.9880002085
 30
0.0
 10
4.7686437557
 20
4.9885042658
 30
0.0
 10
4.770721187
 20
4.9888681538
 30
0.0
 10
4.77261167
 20
4.9892317008
 30
0.0
 10
4.774312156
 20
4.9895948382
 30
0.0
 10
4.7758197999
 20
4.9899574398
 30
0.0
 10
4.7771321931
 20
4.9903194706
 30
0.0
 10
4.7782479216
 20
4.9906805419
 30
0.0
 10
4.7791657372
 20
4.9910405187
 30
0.0
 10
4.7797999206
 20
4.9913554853
 30
0.0
 10
4.7802005297
 20
4.9916135787
 30
0.0
 10
4.7804324177
 20
4.9917957057
 30
0.0
 10
4.7806143799
 20
4.9919784655
 30
0.0
 10
4.7807463334
 20
4.9921627955
 30
0.0
 10
4.7808272953
 20
4.9923496079
 30
0.0
 10
4.7808458846
 20
4.9924777159
 30
0.0
 10
4.7808458986
 20
4.9925392151
 30
0.0
  0
SPLINE
  5
38A
100
AcDbEntity
  8
ALL_ASSEMBLY_MEMBERS
100
AcDbSpline
 62
7
  6
CONTINUOUS
 70
0
 71
3
 72
39
 73
35
 74
0
 42
0.0000001
 43
0.0000001
 44
0.0000000001
 40
0.0
 40
0.0
 40
0.0
 40
0.0
 40
0.0262590348
 40
0.0551143369
 40
0.0863968457
 40
0.1199145036
 40
0.1928196996
 40
0.2720366979
 40
0.3556084721
 40
0.4414651022
 40
0.5274771556
 40
0.6115123838
 40
0.691489723
 40
0.7654315167
 40
0.79956079
 40
0.8315155548
 40
0.8610972476
 40
0.8881282945
 40
0.912450483
 40
0.9339176074
 40
0.9435453902
 40
0.9524193211
 40
0.9605279557
 40
0.967862143
 40
0.9744185007
 40
0.9801971836
 40
0.9852026222
 40
0.9894466837
 40
0.9929560382
 40
0.9957882482
 40
0.9969854119
 40
0.9980639484
 40
0.9990553423
 40
1.0
 40
1.0
 40
1.0
 40
1.0
 10
4.5743250112
 20
4.9723740941
 30
0.0
 10
4.5759574617
 20
4.9726230152
 30
0.0
 10
4.579388358
 20
4.9731154792
 30
0.0
 10
4.5847758369
 20
4.9738190851
 30
0.0
 10
4.5906232673
 20
4.974523265
 30
0.0
 10
4.5992288948
 20
4.9754901684
 30
0.0
 10
4.6108422879
 20
4.9766815718
 30
0.0
 10
4.625598247
 20
4.9780777875
 30
0.0
 10
4.6411719177
 20
4.979475801
 30
0.0
 10
4.6571744534
 20
4.980874779
 30
0.0
 10
4.6732062369
 20
4.9822738295
 30
0.0
 10
4.688866963
 20
4.9836720441
 30
0.0
 10
4.7037656542
 20
4.9850686196
 30
0.0
 10
4.715531363
 20
4.9862590919
 30
0.0
 10
4.7242839346
 20
4.9872248821
 30
0.0
 10
4.7302586459
 20
4.9879292116
 30
0.0
 10
4.7357837417
 20
4.9886329546
 30
0.0
 10
4.7408247834
 20
4.9893358864
 30
0.0
 10
4.7453502769
 20
4.9900375416
 30
0.0
 10
4.7487829962
 20
4.99064086
 30
0.0
 10
4.7512486549
 20
4.9911292609
 30
0.0
 10
4.7528845836
 20
4.9914819078
 30
0.0
 10
4.7543727426
 20
4.9918342572
 30
0.0
 10
4.7557108009
 20
4.9921863651
 30
0.0
 10
4.7568969161
 20
4.9925380526
 30
0.0
 10
4.7579297027
 20
4.9928891974
 30
0.0
 10
4.7588079328
 20
4.9932396397
 30
0.0
 10
4.7595311784
 20
4.9935894805
 30
0.0
 10
4.7600990971
 20
4.9939390508
 30
0.0
 10
4.7604637
 20
4.9942476824
 30
0.0
 10
4.7606657861
 20
4.9944986419
 30
0.0
 10
4.7607689855
 20
4.9946774692
 30
0.0
 10
4.7608317802
 20
4.994857667
 30
0.0
 10
4.7608460499
 20
4.9949798079
 30
0.0
 10
4.7608460933
 20
4.9950392134
 30
0.0
  0
SPLINE
  5
38B
100
AcDbEntity
  8
ALL_ASSEMBLY_MEMBERS
100
AcDbSpline
 62
7
  6
CONTINUOUS
 70
0
 71
3
 72
31
 73
27
 74
0
 42
0.0000001
 43
0.0000001
 44
0.0000000001
 40
0.0
 40
0.0
 40
0.0
 40
0.0
 40
0.001797138
 40
0.0037811718
 40
0.0060941207
 40
0.008827193
 40
0.0120352469
 40
0.01575032
 40
0.0199917699
 40
0.0247715749
 40
0.035971719
 40
0.0493833839
 40
0.065006056
 40
0.0828168949
 40
0.1027859223
 40
0.1248785513
 40
0.1490470216
 40
0.1752346532
 40
0.2334323848
 40
0.2989377193
 40
0.3711354889
 40
0.4493443539
 40
0.5328271172
 40
0.6207778594
 40
0.8066942925
 40
1.0
 40
1.0
 40
1.0
 40
1.0
 10
4.7808459368
 20
5.0487892007
 30
0.0
 10
4.7808459363
 20
5.048714938
 30
0.0
 10
4.7808180828
 20
5.0485577851
 30
0.0
 10
4.7806992143
 20
5.048332525
 30
0.0
 10
4.7805078066
 20
5.0481116338
 30
0.0
 10
4.7802448312
 20
5.0478928042
 30
0.0
 10
4.7799099952
 20
5.0476745917
 30
0.0
 10
4.779503022
 20
5.047456424
 30
0.0
 10
4.7790238399
 20
5.0472380866
 30
0.0
 10
4.778246709
 20
5.0469302692
 30
0.0
 10
4.7770911367
 20
5.046553142
 30
0.0
 10
4.7754856877
 20
5.0461194087
 30
0.0
 10
4.7735990105
 20
5.0456846001
 30
0.0
 10
4.7714355433
 20
5.0452487193
 30
0.0
 10
4.7690001166
 20
5.0448121409
 30
0.0
 10
4.7662983148
 20
5.044375141
 30
0.0
 10
4.7633365792
 20
5.0439377529
 30
0.0
 10
4.7588917654
 20
5.0433326085
 30
0.0
 10
4.7527427606
 20
5.042585712
 30
0.0
 10
4.7446943342
 20
5.0417157388
 30
0.0
 10
4.7358147962
 20
5.0408443665
 30
0.0
 10
4.7261892437
 20
5.0399718431
 30
0.0
 10
4.7159103213
 20
5.0390985735
 30
0.0
 10
4.7011914027
 20
5.0379114266
 30
0.0
 10
4.6819417696
 20
5.0364510565
 30
0.0
 10
4.6663129506
 20
5.0353089168
 30
0.0
 10
4.6583462733
 20
5.0347267013
 30
0.0
  0
LINE
  5
38C
100
AcDbEntity
  8
ALL_ASSEMBLY_MEMBERS
100
AcDbLine
 62
7
  6
CONTINUOUS
 10
4.7627907931
 20
4.9385461578
 11
4.7610633728
 21
4.9375804487
  0
LINE
  5
38D
100
AcDbEntity
  8
ALL_ASSEMBLY_MEMBERS
100
AcDbLine
 62
7
  6
CONTINUOUS
 10
4.7610633728
 20
4.9375804487
 11
4.7578016019
 21
4.936601708
  0
SPLINE
  5
38E
100
AcDbEntity
  8
ALL_ASSEMBLY_MEMBERS
100
AcDbSpline
 62
7
  6
CONTINUOUS
 70
0
 71
3
 72
18
 73
14
 74
0
 42
0.0000001
 43
0.0000001
 44
0.0000000001
 40
0.0
 40
0.0
 40
0.0
 40
0.0
 40
0.0330436427
 40
0.0713323028
 40
0.1146547684
 40
0.16277846
 40
0.2154572169
 40
0.2724153853
 40
0.3979061324
 40
0.5365342112
 40
0.6852738219
 40
0.840910686
 40
1.0
 40
1.0
 40
1.0
 40
1.0
 10
4.7719262643
 20
5.1016017081
 30
0.0
 10
4.7706926117
 20
5.1013610373
 30
0.0
 10
4.7680200394
 20
5.1008898952
 30
0.0
 10
4.763708339
 20
5.1002330202
 30
0.0
 10
4.7588173949
 20
5.0995747834
 30
0.0
 10
4.7533748544
 20
5.0989155598
 30
0.0
 10
4.7474102954
 20
5.0982555748
 30
0.0
 10
4.7385129192
 20
5.0973451945
 30
0.0
 10
4.72635111
 20
5.0962242673
 30
0.0
 10
4.7107014435
 20
5.0949149134
 30
0.0
 10
4.6939015627
 20
5.0936033061
 30
0.0
 10
4.676321266
 20
5.092290312
 30
0.0
 10
4.6643815944
 20
5.0914177811
 30
0.0
 10
4.6583462733
 20
5.0909767115
 30
0.0
  0
SPLINE
  5
38F
100
AcDbEntity
  8
ALL_ASSEMBLY_MEMBERS
100
AcDbSpline
 62
7
  6
CONTINUOUS
 70
0
 71
3
 72
16
 73
12
 74
0
 42
0.0000001
 43
0.0000001
 44
0.0000000001
 40
0.0
 40
0.0
 40
0.0
 40
0.0
 40
0.2979038731
 40
0.4405582131
 40
0.5758134095
 40
0.7013817944
 40
0.8151560675
 40
0.8670178279
 40
0.9152443002
 40
0.9596313579
 40
1.0
 40
1.0
 40
1.0
 40
1.0
 10
4.6583462733
 20
5.0347267013
 30
0.0
 10
4.64783069
 20
5.0339582084
 30
0.0
 10
4.6322795133
 20
5.0328226211
 30
0.0
 10
4.6119598592
 20
5.0312601917
 30
0.0
 10
4.5977262971
 20
5.0301064615
 30
0.0
 10
4.584518316
 20
5.0289543806
 30
0.0
 10
4.5742587823
 20
5.0279689421
 30
0.0
 10
4.5667318042
 20
5.0271702324
 30
0.0
 10
4.5616513536
 20
5.0265903114
 30
0.0
 10
4.5569804763
 20
5.0260108686
 30
0.0
 10
4.5540081699
 20
5.0256052749
 30
0.0
 10
4.5525941599
 20
5.0254005334
 30
0.0
  0
SPLINE
  5
390
100
AcDbEntity
  8
ALL_ASSEMBLY_MEMBERS
100
AcDbSpline
 62
7
  6
CONTINUOUS
 70
0
 71
3
 72
16
 73
12
 74
0
 42
0.0000001
 43
0.0000001
 44
0.0000000001
 40
0.0
 40
0.0
 40
0.0
 40
0.0
 40
0.2979076483
 40
0.4405593432
 40
0.5758101894
 40
0.7013746782
 40
0.8151487649
 40
0.8670127229
 40
0.9152408746
 40
0.9596279077
 40
1.0
 40
1.0
 40
1.0
 40
1.0
 10
4.6583462733
 20
5.0909767115
 30
0.0
 10
4.6478305536
 20
5.0902082083
 30
0.0
 10
4.6322793323
 20
5.0890726197
 30
0.0
 10
4.6119597865
 20
5.08751019
 30
0.0
 10
4.5977266036
 20
5.0863565013
 30
0.0
 10
4.5845189155
 20
5.0852044484
 30
0.0
 10
4.574259447
 20
5.0842189978
 30
0.0
 10
4.566732334
 20
5.0834203024
 30
0.0
 10
4.5616517438
 20
5.0828403858
 30
0.0
 10
4.5569806922
 20
5.0822608703
 30
0.0
 10
4.5540082607
 20
5.0818552912
 30
0.0
 10
4.552594128
 20
5.0816505424
 30
0.0
  0
SPLINE
  5
391
100
AcDbEntity
  8
ALL_ASSEMBLY_MEMBERS
100
AcDbSpline
 62
7
  6
CONTINUOUS
 70
0
 71
3
 72
31
 73
27
 74
0
 42
0.0000001
 43
0.0000001
 44
0.0000000001
 40
0.0
 40
0.0
 40
0.0
 40
0.0
 40
0.0017972071
 40
0.0037813474
 40
0.0060943084
 40
0.0088271527
 40
0.0120350286
 40
0.0157502198
 40
0.0199919965
 40
0.024772231
 40
0.0359730787
 40
0.0493845859
 40
0.0650077406
 40
0.0828196775
 40
0.1027895027
 40
0.1248822437
 40
0.149051769
 40
0.1752408215
 40
0.2334398675
 40
0.2989480329
 40
0.3711482096
 40
0.4493597886
 40
0.532840785
 40
0.6207885494
 40
0.8066954599
 40
1.0
 40
1.0
 40
1.0
 40
1.0
 10
4.5358466023
 20
4.999414211
 30
0.0
 10
4.5358466138
 20
4.9994884765
 30
0.0
 10
4.5358744938
 20
4.9996456315
 30
0.0
 10
4.5359933826
 20
4.9998708873
 30
0.0
 10
4.5361847828
 20
5.0000917763
 30
0.0
 10
4.5364477207
 20
5.0003106248
 30
0.0
 10
4.5367825384
 20
5.000528846
 30
0.0
 10
4.5371895254
 20
5.0007470118
 30
0.0
 10
4.5376687467
 20
5.0009653503
 30
0.0
 10
4.5384459426
 20
5.0012731672
 30
0.0
 10
4.5396015582
 20
5.0016502884
 30
0.0
 10
4.5412070392
 20
5.0020840647
 30
0.0
 10
4.5430937772
 20
5.0025188733
 30
0.0
 10
4.5452573448
 20
5.0029547513
 30
0.0
 10
4.5476928547
 20
5.0033913333
 30
0.0
 10
4.5503947338
 20
5.0038283616
 30
0.0
 10
4.5533565775
 20
5.0042657486
 30
0.0
 10
4.557801549
 20
5.00487089
 30
0.0
 10
4.5639507795
 20
5.0056178306
 30
0.0
 10
4.5719994784
 20
5.0064877937
 30
0.0
 10
4.5808793415
 20
5.0073592057
 30
0.0
 10
4.5905050336
 20
5.008231712
 30
0.0
 10
4.6007838702
 20
5.0091049858
 30
0.0
 10
4.6155022014
 20
5.0102920609
 30
0.0
 10
4.6347512683
 20
5.0117523973
 30
0.0
 10
4.650379645
 20
5.0128945022
 30
0.0
 10
4.6583462733
 20
5.0134767143
 30
0.0
  0
SPLINE
  5
392
100
AcDbEntity
  8
ALL_ASSEMBLY_MEMBERS
100
AcDbSpline
 62
7
  6
CONTINUOUS
 70
0
 71
3
 72
31
 73
27
 74
0
 42
0.0000001
 43
0.0000001
 44
0.0000000001
 40
0.0
 40
0.0
 40
0.0
 40
0.0
 40
0.0017969307
 40
0.0037811398
 40
0.0060951104
 40
0.0088294593
 40
0.0120378642
 40
0.0157524446
 40
0.0199929191
 40
0.0247716913
 40
0.0359714281
 40
0.0493856104
 40
0.0650088053
 40
0.082819407
 40
0.1027895016
 40
0.1248838282
 40
0.1490518839
 40
0.175238703
 40
0.2334377835
 40
0.2989428925
 40
0.3711435906
 40
0.4493548621
 40
0.5328399948
 40
0.6207898872
 40
0.8067003029
 40
1.0
 40
1.0
 40
1.0
 40
1.0
 10
4.5358462609
 20
5.0556642088
 30
0.0
 10
4.5358462518
 20
5.055738463
 30
0.0
 10
4.5358741148
 20
5.0558956205
 30
0.0
 10
4.5359931077
 20
5.0561208714
 30
0.0
 10
4.5361847434
 20
5.0563417019
 30
0.0
 10
4.5364478951
 20
5.0565604802
 30
0.0
 10
4.5367827695
 20
5.0567787136
 30
0.0
 10
4.5371896802
 20
5.0569969009
 30
0.0
 10
4.5376687387
 20
5.0572152612
 30
0.0
 10
4.5384457431
 20
5.0575231309
 30
0.0
 10
4.5396013523
 20
5.057900304
 30
0.0
 10
4.5412069363
 20
5.0583339606
 30
0.0
 10
4.5430937176
 20
5.0587688358
 30
0.0
 10
4.5452572377
 20
5.0592047531
 30
0.0
 10
4.5476927732
 20
5.0596413323
 30
0.0
 10
4.5503946807
 20
5.0600783048
 30
0.0
 10
4.5533564357
 20
5.0605157156
 30
0.0
 10
4.5578012572
 20
5.0611208777
 30
0.0
 10
4.563950288
 20
5.0618677223
 30
0.0
 10
4.5719988851
 20
5.0627377532
 30
0.0
 10
4.5808786469
 20
5.0636091069
 30
0.0
 10
4.5905045253
 20
5.0644816748
 30
0.0
 10
4.6007836222
 20
5.0653549397
 30
0.0
 10
4.6155023712
 20
5.0665420749
 30
0.0
 10
4.6347514951
 20
5.0680023974
 30
0.0
 10
4.6503798351
 20
5.0691445034
 30
0.0
 10
4.6583462733
 20
5.0697267013
 30
0.0
  0
SPLINE
  5
393
100
AcDbEntity
  8
ALL_ASSEMBLY_MEMBERS
100
AcDbSpline
 62
7
  6
CONTINUOUS
 70
0
 71
3
 72
36
 73
32
 74
0
 42
0.0000001
 43
0.0000001
 44
0.0000000001
 40
0.0
 40
0.0
 40
0.0
 40
0.0
 40
0.0033291701
 40
0.0062597021
 40
0.0089018603
 40
0.0114044302
 40
0.0139407062
 40
0.0166760303
 40
0.0197418475
 40
0.0232308152
 40
0.0272046692
 40
0.0317039675
 40
0.0367555006
 40
0.0423764257
 40
0.0553590998
 40
0.0706911607
 40
0.08837465
 40
0.1083920949
 40
0.1307040851
 40
0.155261328
 40
0.1820106426
 40
0.2108922868
 40
0.2747643888
 40
0.3462804629
 40
0.4247762664
 40
0.5095429138
 40
0.5998149706
 40
0.6948045793
 40
0.7937292612
 40
0.8957768829
 40
1.0
 40
1.0
 40
1.0
 40
1.0
 10
4.5512038249
 20
4.941244562
 30
0.0
 10
4.5511237223
 20
4.9413246625
 30
0.0
 10
4.5509818473
 20
4.9414847246
 30
0.0
 10
4.5508210749
 20
4.9417435687
 30
0.0
 10
4.5507290521
 20
4.9420053149
 30
0.0
 10
4.5507088659
 20
4.9422691432
 30
0.0
 10
4.5507614917
 20
4.9425315124
 30
0.0
 10
4.5508841735
 20
4.9427898692
 30
0.0
 10
4.5510739962
 20
4.9430445842
 30
0.0
 10
4.5513296942
 20
4.9432969751
 30
0.0
 10
4.5516509638
 20
4.9435480104
 30
0.0
 10
4.5520377698
 20
4.9437982036
 30
0.0
 10
4.5524900405
 20
4.9440478098
 30
0.0
 10
4.5532156863
 20
4.9443968621
 30
0.0
 10
4.5542897159
 20
4.944824331
 30
0.0
 10
4.5557765372
 20
4.945315068
 30
0.0
 10
4.5575138594
 20
4.9458047346
 30
0.0
 10
4.5594969346
 20
4.9462930683
 30
0.0
 10
4.5617203805
 20
4.9467799888
 30
0.0
 10
4.5641780471
 20
4.9472653725
 30
0.0
 10
4.5668634753
 20
4.947749107
 30
0.0
 10
4.5708751171
 20
4.948414209
 30
0.0
 10
4.5764051785
 20
4.9492305076
 30
0.0
 10
4.5836216539
 20
4.9501747107
 30
0.0
 10
4.5915552763
 20
4.9511129587
 30
0.0
 10
4.600131833
 20
4.952044949
 30
0.0
 10
4.6092733344
 20
4.9529705896
 30
0.0
 10
4.61889952
 20
4.9538897934
 30
0.0
 10
4.6289287013
 20
4.9548026792
 30
0.0
 10
4.6392738921
 20
4.9557090264
 30
0.0
 10
4.6462673461
 20
4.9563040956
 30
0.0
 10
4.6498012085
 20
4.9566017081
 30
0.0
  0
SPLINE
  5
394
100
AcDbEntity
  8
ALL_FEATURES
100
AcDbSpline
 62
7
  6
CONTINUOUS
 70
0
 71
3
 72
39
 73
35
 74
0
 42
0.0000001
 43
0.0000001
 44
0.0000000001
 40
0.0
 40
0.0
 40
0.0
 40
0.0
 40
0.0132088324
 40
0.0262485431
 40
0.0511263881
 40
0.0740914897
 40
0.0952251957
 40
0.11482913
 40
0.1332101488
 40
0.1672450714
 40
0.1987955618
 40
0.2287216637
 40
0.2575549014
 40
0.2856361773
 40
0.3403517142
 40
0.3939924561
 40
0.4471049008
 40
0.4999994683
 40
0.5528940754
 40
0.6060066441
 40
0.6596475761
 40
0.7143633136
 40
0.7424446654
 40
0.7712779556
 40
0.8012040738
 40
0.832754545
 40
0.8667894292
 40
0.885170416
 40
0.9047743138
 40
0.9259080078
 40
0.9488731486
 40
0.9737512126
 40
0.9867911212
 40
1.0
 40
1.0
 40
1.0
 40
1.0
 10
4.3071094866
 20
2.286612823
 30
0.0
 10
4.3071094866
 20
2.2857402879
 30
0.0
 10
4.3070459239
 20
2.2840057372
 30
0.0
 10
4.3066875671
 20
2.2806453772
 30
0.0
 10
4.3058487337
 20
2.2766985113
 30
0.0
 10
4.3043435948
 20
2.2723867612
 30
0.0
 10
4.3025124021
 20
2.2685891528
 30
0.0
 10
4.3004674113
 20
2.2652551701
 30
0.0
 10
4.2976226986
 20
2.2614356764
 30
0.0
 10
4.2937927724
 20
2.2573934781
 30
0.0
 10
4.2888748556
 20
2.2534183973
 30
0.0
 10
4.2838438044
 20
2.2501939215
 30
0.0
 10
4.2787426842
 20
2.2475547744
 30
0.0
 10
4.2719413194
 20
2.2446903792
 30
0.0
 10
4.2633024292
 20
2.2420391765
 30
0.0
 10
4.2528217421
 20
2.2399844179
 30
0.0
 10
4.2423276565
 20
2.2388359245
 30
0.0
 10
4.2318288645
 20
2.2384663816
 30
0.0
 10
4.2213300535
 20
2.2388358207
 30
0.0
 10
4.2108359637
 20
2.2399844645
 30
0.0
 10
4.2003552151
 20
2.2420390791
 30
0.0
 10
4.1917163096
 20
2.2446903492
 30
0.0
 10
4.1849149168
 20
2.2475547305
 30
0.0
 10
4.1798137862
 20
2.2501938797
 30
0.0
 10
4.1747827313
 20
2.253418355
 30
0.0
 10
4.1698648073
 20
2.2573934227
 30
0.0
 10
4.1660348815
 20
2.2614356133
 30
0.0
 10
4.1631901651
 20
2.2652550952
 30
0.0
 10
4.1611451691
 20
2.2685890684
 30
0.0
 10
4.1593139677
 20
2.272386672
 30
0.0
 10
4.1578088121
 20
2.2766984333
 30
0.0
 10
4.156969962
 20
2.2806453273
 30
0.0
 10
4.156611609
 20
2.2840057183
 30
0.0
 10
4.1565480373
 20
2.2857402848
 30
0.0
 10
4.1565480373
 20
2.286612823
 30
0.0
  0
SPLINE
  5
395
100
AcDbEntity
  8
ALL_FEATURES
100
AcDbSpline
 62
7
  6
CONTINUOUS
 70
0
 71
3
 72
57
 73
53
 74
0
 42
0.0000001
 43
0.0000001
 44
0.0000000001
 40
0.0
 40
0.0
 40
0.0
 40
0.0
 40
0.0078222948
 40
0.0156716882
 40
0.0195964083
 40
0.0235149633
 40
0.0313469281
 40
0.0391839381
 40
0.0470101517
 40
0.0548313119
 40
0.0626544456
 40
0.0782830057
 40
0.093911101
 40
0.1095345724
 40
0.1251581498
 40
0.1563935304
 40
0.1876299262
 40
0.2188668002
 40
0.2501037494
 40
0.2813407864
 40
0.3125780214
 40
0.3438150773
 40
0.3750520607
 40
0.4062890768
 40
0.4375258925
 40
0.4687627667
 40
0.4999995518
 40
0.5312363906
 40
0.5624732713
 40
0.5937102124
 40
0.6249472665
 40
0.6561844341
 40
0.6874215541
 40
0.7186589548
 40
0.7498961367
 40
0.7811331831
 40
0.812370159
 40
0.843606637
 40
0.8748420734
 40
0.8904656632
 40
0.9060891471
 40
0.9217172336
 40
0.9373457348
 40
0.9451688394
 40
0.9529899801
 40
0.9608161149
 40
0.9686530227
 40
0.9764849367
 40
0.9804035031
 40
0.9843282557
 40
0.9921776938
 40
1.0
 40
1.0
 40
1.0
 40
1.0
 10
4.507784824
 20
2.3632163168
 30
0.0
 10
4.507784824
 20
2.3640906713
 30
0.0
 10
4.5079162047
 20
2.3658445119
 30
0.0
 10
4.5083790251
 20
2.3679922238
 30
0.0
 10
4.5089141611
 20
2.3696637985
 30
0.0
 10
4.5095540379
 20
2.3712960267
 30
0.0
 10
4.5105341596
 20
2.3732594539
 30
0.0
 10
4.5119460171
 20
2.3754784666
 30
0.0
 10
4.5135487137
 20
2.3775613111
 30
0.0
 10
4.515308796
 20
2.379509986
 30
0.0
 10
4.5178256348
 20
2.3819388639
 30
0.0
 10
4.5212284141
 20
2.3846921216
 30
0.0
 10
4.5255931601
 20
2.3876014162
 30
0.0
 10
4.5301548878
 20
2.3901867797
 30
0.0
 10
4.5364300682
 20
2.3932600061
 30
0.0
 10
4.5445437267
 20
2.3965124637
 30
0.0
 10
4.5545295145
 20
2.3996953705
 30
0.0
 10
4.5646770976
 20
2.4023107022
 30
0.0
 10
4.5749309594
 20
2.4044643554
 30
0.0
 10
4.5852573482
 20
2.4062334258
 30
0.0
 10
4.5956339734
 20
2.4076749741
 30
0.0
 10
4.6060456801
 20
2.408833064
 30
0.0
 10
4.6164819214
 20
2.4097410113
 30
0.0
 10
4.6269351851
 20
2.4104227973
 30
0.0
 10
4.6373997538
 20
2.4108982046
 30
0.0
 10
4.6478712944
 20
2.4111778734
 30
0.0
 10
4.658346129
 20
2.4112709178
 30
0.0
 10
4.6688209655
 20
2.4111779096
 30
0.0
 10
4.6792925241
 20
2.410898174
 30
0.0
 10
4.6897571192
 20
2.4104229066
 30
0.0
 10
4.7002104095
 20
2.4097409438
 30
0.0
 10
4.7106467012
 20
2.4088332028
 30
0.0
 10
4.721058433
 20
2.4076749135
 30
0.0
 10
4.7314351144
 20
2.4062334783
 30
0.0
 10
4.7417615482
 20
2.4044643895
 30
0.0
 10
4.7520154404
 20
2.4023106969
 30
0.0
 10
4.7621630555
 20
2.3996953641
 30
0.0
 10
4.7721488679
 20
2.3965124467
 30
0.0
 10
4.7802625444
 20
2.3932599869
 30
0.0
 10
4.7865377242
 20
2.3901867392
 30
0.0
 10
4.7910994575
 20
2.3876013817
 30
0.0
 10
4.7954641886
 20
2.3846920759
 30
0.0
 10
4.7988669591
 20
2.3819388237
 30
0.0
 10
4.8013837726
 20
2.3795099371
 30
0.0
 10
4.80314385
 20
2.3775612776
 30
0.0
 10
4.80474654
 20
2.3754784563
 30
0.0
 10
4.8061583899
 20
2.3732594694
 30
0.0
 10
4.8071385039
 20
2.3712960556
 30
0.0
 10
4.807778373
 20
2.3696638251
 30
0.0
 10
4.8083135039
 20
2.3679922385
 30
0.0
 10
4.8087763345
 20
2.3658445195
 30
0.0
 10
4.8089077225
 20
2.3640906726
 30
0.0
 10
4.8089077225
 20
2.3632163168
 30
0.0
  0
SPLINE
  5
396
100
AcDbEntity
  8
ALL_FEATURES
100
AcDbSpline
 62
7
  6
CONTINUOUS
 70
0
 71
3
 72
52
 73
48
 74
0
 42
0.0000001
 43
0.0000001
 44
0.0000000001
 40
0.0
 40
0.0
 40
0.0
 40
0.0
 40
0.0132080028
 40
0.0262680061
 40
0.0389619222
 40
0.0511922185
 40
0.0629436466
 40
0.0741970833
 40
0.0849820329
 40
0.0953443682
 40
0.114948008
 40
0.1333243563
 40
0.1507306153
 40
0.1673675901
 40
0.1989029867
 40
0.2288150211
 40
0.2576350648
 40
0.2857037896
 40
0.3403953129
 40
0.3673043816
 40
0.3940274197
 40
0.4206207483
 40
0.4471270316
 40
0.473579779
 40
0.5000070412
 40
0.5264343443
 40
0.5528871031
 40
0.5793934703
 40
0.6059868594
 40
0.6596043973
 40
0.7142961004
 40
0.7423649256
 40
0.77118505
 40
0.8010971504
 40
0.8326326019
 40
0.8492696065
 40
0.8666758776
 40
0.8850522406
 40
0.9046558423
 40
0.915018169
 40
0.9258030896
 40
0.937056413
 40
0.9488076978
 40
0.9610379283
 40
0.9737319177
 40
0.986791982
 40
1.0
 40
1.0
 40
1.0
 40
1.0
 10
4.1565480373
 20
2.3632163168
 30
0.0
 10
4.1565480373
 20
2.3640889385
 30
0.0
 10
4.1566126864
 20
2.3658249648
 30
0.0
 10
4.1568863801
 20
2.3683864262
 30
0.0
 10
4.1573250885
 20
2.3708593733
 30
0.0
 10
4.157909538
 20
2.3732126981
 30
0.0
 10
4.1586127835
 20
2.3754333603
 30
0.0
 10
4.1594123132
 20
2.3775190174
 30
0.0
 10
4.1602915854
 20
2.3794720017
 30
0.0
 10
4.1615281291
 20
2.3818646796
 30
0.0
 10
4.163200796
 20
2.3845917504
 30
0.0
 10
4.1653918003
 20
2.3875278436
 30
0.0
 10
4.1676805005
 20
2.3901316616
 30
0.0
 10
4.1707732922
 20
2.3931701945
 30
0.0
 10
4.1747967074
 20
2.396421102
 30
0.0
 10
4.1798267652
 20
2.3996425813
 30
0.0
 10
4.1849270596
 20
2.4022800059
 30
0.0
 10
4.1917266587
 20
2.4051424621
 30
0.0
 10
4.1986732795
 20
2.4072736743
 30
0.0
 10
4.2056602701
 20
2.4088295592
 30
0.0
 10
4.2108840083
 20
2.4097391417
 30
0.0
 10
4.2161147081
 20
2.4104218959
 30
0.0
 10
4.2213502439
 20
2.4108978494
 30
0.0
 10
4.2265887808
 20
2.4111778036
 30
0.0
 10
4.2318286965
 20
2.411270939
 30
0.0
 10
4.2370686217
 20
2.4111778379
 30
0.0
 10
4.2423071434
 20
2.4108978166
 30
0.0
 10
4.2475427738
 20
2.4104220196
 30
0.0
 10
4.2545354664
 20
2.4095088461
 30
0.0
 10
4.2632940018
 20
2.4077918347
 30
0.0
 10
4.2719306518
 20
2.4051426158
 30
0.0
 10
4.2787304979
 20
2.4022799797
 30
0.0
 10
4.2838307584
 20
2.3996425817
 30
0.0
 10
4.2888608409
 20
2.3964210853
 30
0.0
 10
4.2928842621
 20
2.3931701753
 30
0.0
 10
4.2959770499
 20
2.3901316287
 30
0.0
 10
4.2982657563
 20
2.3875278112
 30
0.0
 10
4.3004567514
 20
2.3845917119
 30
0.0
 10
4.3021294162
 20
2.3818646422
 30
0.0
 10
4.3033659461
 20
2.3794719629
 30
0.0
 10
4.3042452179
 20
2.3775189895
 30
0.0
 10
4.305044745
 20
2.3754333515
 30
0.0
 10
4.3057479874
 20
2.3732127107
 30
0.0
 10
4.3063324343
 20
2.3708593943
 30
0.0
 10
4.3067711352
 20
2.3683864413
 30
0.0
 10
4.3070448343
 20
2.3658249708
 30
0.0
 10
4.3071094866
 20
2.3640889395
 30
0.0
 10
4.3071094866
 20
2.3632163168
 30
0.0
  0
SPLINE
  5
397
100
AcDbEntity
  8
ALL_FEATURES
100
AcDbSpline
 62
7
  6
CONTINUOUS
 70
0
 71
3
 72
52
 73
48
 74
0
 42
0.0000001
 43
0.0000001
 44
0.0000000001
 40
0.0
 40
0.0
 40
0.0
 40
0.0
 40
0.0132079743
 40
0.0262677947
 40
0.0389614397
 40
0.051191792
 40
0.0629433179
 40
0.0741967318
 40
0.0849817142
 40
0.0953440868
 40
0.1149477338
 40
0.1333240933
 40
0.1507303437
 40
0.1673673196
 40
0.198902704
 40
0.2288147318
 40
0.2576347743
 40
0.2857034987
 40
0.3403950567
 40
0.3673041448
 40
0.3940272082
 40
0.4206205723
 40
0.4471268835
 40
0.4735796663
 40
0.5000069558
 40
0.5264342925
 40
0.5528870807
 40
0.5793934837
 40
0.6059869084
 40
0.6596045392
 40
0.7142963401
 40
0.7423652026
 40
0.771185356
 40
0.8010974741
 40
0.8326329312
 40
0.8492699456
 40
0.8666762118
 40
0.8850525903
 40
0.9046561879
 40
0.9150185492
 40
0.9258034943
 40
0.9370567618
 40
0.9488081018
 40
0.9610383681
 40
0.9737321069
 40
0.9867920061
 40
1.0
 40
1.0
 40
1.0
 40
1.0
 10
5.00958306
 20
2.3632163168
 30
0.0
 10
5.00958306
 20
2.3640889366
 30
0.0
 10
5.0096477
 20
2.3658249489
 30
0.0
 10
5.0099213765
 20
2.3683863808
 30
0.0
 10
5.0103601057
 20
2.3708592977
 30
0.0
 10
5.0109445525
 20
2.3732126145
 30
0.0
 10
5.0116477812
 20
2.375433291
 30
0.0
 10
5.0124473016
 20
2.3775189597
 30
0.0
 10
5.0133265812
 20
2.3794719443
 30
0.0
 10
5.0145631247
 20
2.381864628
 30
0.0
 10
5.0162357915
 20
2.3845917028
 30
0.0
 10
5.0184267843
 20
2.387527806
 30
0.0
 10
5.0207154934
 20
2.3901316164
 30
0.0
 10
5.0238082679
 20
2.3931701646
 30
0.0
 10
5.0278316843
 20
2.3964210704
 30
0.0
 10
5.0328617349
 20
2.3996425573
 30
0.0
 10
5.0379620277
 20
2.4022799862
 30
0.0
 10
5.0447616371
 20
2.40514242
 30
0.0
 10
5.0517082434
 20
2.4072736964
 30
0.0
 10
5.0586952523
 20
2.4088295239
 30
0.0
 10
5.0639189872
 20
2.4097391548
 30
0.0
 10
5.069149697
 20
2.4104218819
 30
0.0
 10
5.0743852374
 20
2.4108978519
 30
0.0
 10
5.0796237807
 20
2.4111778075
 30
0.0
 10
5.0848637028
 20
2.4112709348
 30
0.0
 10
5.0901036344
 20
2.4111778482
 30
0.0
 10
5.0953421617
 20
2.4108978107
 30
0.0
 10
5.1005778003
 20
2.4104220292
 30
0.0
 10
5.1075705016
 20
2.4095088372
 30
0.0
 10
5.1163290543
 20
2.4077918364
 30
0.0
 10
5.1249657138
 20
2.4051425952
 30
0.0
 10
5.1317655704
 20
2.4022799568
 30
0.0
 10
5.136865837
 20
2.3996425573
 30
0.0
 10
5.1418959156
 20
2.3964210493
 30
0.0
 10
5.1459193414
 20
2.3931701396
 30
0.0
 10
5.1490121104
 20
2.3901315733
 30
0.0
 10
5.1513008277
 20
2.3875277638
 30
0.0
 10
5.1534918083
 20
2.3845916525
 30
0.0
 10
5.1551644727
 20
2.3818645792
 30
0.0
 10
5.1564009982
 20
2.3794718937
 30
0.0
 10
5.1572802771
 20
2.3775189232
 30
0.0
 10
5.1580797942
 20
2.3754332792
 30
0.0
 10
5.1587830189
 20
2.3732126305
 30
0.0
 10
5.1593674622
 20
2.3708593247
 30
0.0
 10
5.1598061818
 20
2.3683864004
 30
0.0
 10
5.1600798653
 20
2.3658249567
 30
0.0
 10
5.1601445093
 20
2.3640889379
 30
0.0
 10
5.1601445093
 20
2.3632163168
 30
0.0
  0
SPLINE
  5
398
100
AcDbEntity
  8
ALL_FEATURES
100
AcDbSpline
 62
7
  6
CONTINUOUS
 70
0
 71
3
 72
47
 73
43
 74
0
 42
0.0000001
 43
0.0000001
 44
0.0000000001
 40
0.0
 40
0.0
 40
0.0
 40
0.0
 40
0.0156222043
 40
0.0312457944
 40
0.0468697325
 40
0.062493486
 40
0.0781180905
 40
0.0937436808
 40
0.1093698654
 40
0.1249961213
 40
0.1406223468
 40
0.1562485062
 40
0.1874963062
 40
0.2187455419
 40
0.2499955126
 40
0.2812459162
 40
0.3124965671
 40
0.3437473591
 40
0.3749982594
 40
0.4062492083
 40
0.437500108
 40
0.4999994252
 40
0.5624987998
 40
0.5937497586
 40
0.6250007668
 40
0.656251802
 40
0.6875027135
 40
0.7187534596
 40
0.7500039569
 40
0.7812540123
 40
0.8125033036
 40
0.8437511235
 40
0.8593772865
 40
0.8750035153
 40
0.8906297691
 40
0.9062559488
 40
0.9218815342
 40
0.9375061365
 40
0.9531299089
 40
0.9687539029
 40
0.9843776462
 40
1.0
 40
1.0
 40
1.0
 40
1.0
 10
4.8089077225
 20
2.286612823
 30
0.0
 10
4.8089077225
 20
2.2848669269
 30
0.0
 10
4.808391759
 20
2.2813573395
 30
0.0
 10
4.8062817076
 20
2.2765127559
 30
0.0
 10
4.8032336228
 20
2.2722180478
 30
0.0
 10
4.7995659297
 20
2.2684563731
 30
0.0
 10
4.795486499
 20
2.2651553372
 30
0.0
 10
4.7911250797
 20
2.2622428283
 30
0.0
 10
4.7865642331
 20
2.2596573427
 30
0.0
 10
4.7818581144
 20
2.2573493641
 30
0.0
 10
4.7770432804
 20
2.2552794926
 30
0.0
 10
4.7705131762
 20
2.2527957342
 30
0.0
 10
4.7621885387
 20
2.2501411038
 30
0.0
 10
4.7520396151
 20
2.2475239698
 30
0.0
 10
4.7417833757
 20
2.2453689343
 30
0.0
 10
4.7314545663
 20
2.2435988985
 30
0.0
 10
4.7210753913
 20
2.2421562751
 30
0.0
 10
4.7106610244
 20
2.2409974026
 30
0.0
 10
4.7002220207
 20
2.2400891693
 30
0.0
 10
4.6897659523
 20
2.2394066312
 30
0.0
 10
4.6758097795
 20
2.2387731824
 30
0.0
 10
4.6583464605
 20
2.2384668747
 30
0.0
 10
4.6408831308
 20
2.2387730914
 30
0.0
 10
4.6269269418
 20
2.2394066251
 30
0.0
 10
4.6164708472
 20
2.2400891832
 30
0.0
 10
4.6060318012
 20
2.2409973347
 30
0.0
 10
4.5956173957
 20
2.2421562198
 30
0.0
 10
4.5852381886
 20
2.2435988609
 30
0.0
 10
4.5749093486
 20
2.2453688988
 30
0.0
 10
4.5646530814
 20
2.2475239295
 30
0.0
 10
4.5545041391
 20
2.250141063
 30
0.0
 10
4.5461794926
 20
2.2527956938
 30
0.0
 10
4.5396493828
 20
2.2552794456
 30
0.0
 10
4.5348345449
 20
2.2573493097
 30
0.0
 10
4.5301284248
 20
2.2596572844
 30
0.0
 10
4.5255675761
 20
2.2622427634
 30
0.0
 10
4.5212061524
 20
2.2651552632
 30
0.0
 10
4.5171267117
 20
2.2684562889
 30
0.0
 10
4.5134590027
 20
2.2722179588
 30
0.0
 10
4.5104108835
 20
2.2765126742
 30
0.0
 10
4.5083008037
 20
2.2813572897
 30
0.0
 10
4.507784824
 20
2.2848669102
 30
0.0
 10
4.507784824
 20
2.286612823
 30
0.0
  0
SPLINE
  5
399
100
AcDbEntity
  8
ALL_FEATURES
100
AcDbSpline
 62
7
  6
CONTINUOUS
 70
0
 71
3
 72
39
 73
35
 74
0
 42
0.0000001
 43
0.0000001
 44
0.0000000001
 40
0.0
 40
0.0
 40
0.0
 40
0.0
 40
0.0132088544
 40
0.0262486748
 40
0.0511266143
 40
0.0740917375
 40
0.0952254511
 40
0.114829376
 40
0.1332103785
 40
0.167245275
 40
0.1987957571
 40
0.2287218647
 40
0.2575551042
 40
0.2856363764
 40
0.3403518992
 40
0.3939926115
 40
0.4471050141
 40
0.4999995413
 40
0.5528941105
 40
0.6060066341
 40
0.659647504
 40
0.7143631757
 40
0.7424445003
 40
0.7712777711
 40
0.80120388
 40
0.8327543371
 40
0.866789198
 40
0.8851701697
 40
0.9047740571
 40
0.9259077567
 40
0.9488729183
 40
0.9737510804
 40
0.9867910992
 40
1.0
 40
1.0
 40
1.0
 40
1.0
 10
5.1601445093
 20
2.286612823
 30
0.0
 10
5.1601445093
 20
2.2857402864
 30
0.0
 10
5.1600809412
 20
2.2840057273
 30
0.0
 10
5.1597225873
 20
2.280645352
 30
0.0
 10
5.1588837452
 20
2.2766984723
 30
0.0
 10
5.1573785983
 20
2.2723867165
 30
0.0
 10
5.1555474003
 20
2.2685891091
 30
0.0
 10
5.1535024057
 20
2.2652551301
 30
0.0
 10
5.15065769
 20
2.2614356431
 30
0.0
 10
5.1468277669
 20
2.2573934463
 30
0.0
 10
5.1419098435
 20
2.2534183766
 30
0.0
 10
5.1368787942
 20
2.2501938986
 30
0.0
 10
5.131777672
 20
2.247554754
 30
0.0
 10
5.1249763044
 20
2.2446903691
 30
0.0
 10
5.1163374204
 20
2.2420391558
 30
0.0
 10
5.1058567336
 20
2.2399844258
 30
0.0
 10
5.0953626582
 20
2.2388359097
 30
0.0
 10
5.0848638727
 20
2.2384663908
 30
0.0
 10
5.0743650705
 20
2.2388358247
 30
0.0
 10
5.0638709889
 20
2.2399844594
 30
0.0
 10
5.0533902531
 20
2.2420390796
 30
0.0
 10
5.0447513559
 20
2.2446903404
 30
0.0
 10
5.0379499685
 20
2.2475547153
 30
0.0
 10
5.0328488393
 20
2.2501938596
 30
0.0
 10
5.0278177881
 20
2.2534183348
 30
0.0
 10
5.0228998585
 20
2.2573933906
 30
0.0
 10
5.0190699358
 20
2.2614355797
 30
0.0
 10
5.0162252163
 20
2.265255055
 30
0.0
 10
5.0141802165
 20
2.2685890244
 30
0.0
 10
5.0123490099
 20
2.2723866267
 30
0.0
 10
5.0108438462
 20
2.2766983937
 30
0.0
 10
5.0100049873
 20
2.2806453019
 30
0.0
 10
5.0096466371
 20
2.2840057084
 30
0.0
 10
5.00958306
 20
2.2857402834
 30
0.0
 10
5.00958306
 20
2.286612823
 30
0.0
  0
LINE
  5
39A
100
AcDbEntity
  8
ALL_ASSEMBLY_MEMBERS
100
AcDbLine
 62
7
  6
CONTINUOUS
 10
4.2549396842
 20
2.8921017081
 11
4.2455137723
 21
2.9216017081
  0
LINE
  5
39B
100
AcDbEntity
  8
ALL_ASSEMBLY_MEMBERS
100
AcDbLine
 62
7
  6
CONTINUOUS
 10
3.7866507919
 20
2.8921017081
 11
3.7677989682
 21
2.9216017081
  0
LINE
  5
39C
100
AcDbEntity
  8
ALL_ASSEMBLY_MEMBERS
100
AcDbLine
 62
7
  6
CONTINUOUS
 10
5.0711878433
 20
2.9216017081
 11
5.0617619361
 21
2.8921017081
  0
LINE
  5
39D
100
AcDbEntity
  8
ALL_ASSEMBLY_MEMBERS
100
AcDbLine
 62
7
  6
CONTINUOUS
 10
5.5488940083
 20
2.9216017081
 11
5.530042194
 21
2.8921017081
  0
SPLINE
  5
39E
100
AcDbEntity
  8
ALL_ASSEMBLY_MEMBERS
100
AcDbSpline
 62
7
  6
CONTINUOUS
 70
0
 71
3
 72
17
 73
13
 74
0
 42
0.0000001
 43
0.0000001
 44
0.0000000001
 40
0.0
 40
0.0
 40
0.0
 40
0.0
 40
0.1535642606
 40
0.3044655131
 40
0.4494665888
 40
0.5859194707
 40
0.7113474995
 40
0.8234235142
 40
0.8738161574
 40
0.920164342
 40
0.9622758543
 40
1.0
 40
1.0
 40
1.0
 40
1.0
 10
3.9532081408
 20
5.5588517081
 30
0.0
 10
3.9532081408
 20
5.5565567976
 30
0.0
 10
3.9531304498
 20
5.5520064102
 30
0.0
 10
3.9527889062
 20
5.5452968519
 30
0.0
 10
3.9522312085
 20
5.5388582905
 30
0.0
 10
3.9514808822
 20
5.5328226016
 30
0.0
 10
3.9505635144
 20
5.5273082425
 30
0.0
 10
3.9496592134
 20
5.5230996202
 30
0.0
 10
3.9488663436
 20
5.520080919
 30
0.0
 10
3.9482722471
 20
5.5180922416
 30
0.0
 10
3.9476621014
 20
5.5163074138
 30
0.0
 10
3.9472230691
 20
5.515197309
 30
0.0
 10
3.9469995305
 20
5.5146797601
 30
0.0
  0
SPLINE
  5
39F
100
AcDbEntity
  8
ALL_ASSEMBLY_MEMBERS
100
AcDbSpline
 62
7
  6
CONTINUOUS
 70
0
 71
3
 72
15
 73
11
 74
0
 42
0.0000001
 43
0.0000001
 44
0.0000000001
 40
0.0
 40
0.0
 40
0.0
 40
0.0
 40
0.1865515389
 40
0.354018229
 40
0.5024678347
 40
0.6322725726
 40
0.7444462078
 40
0.8408211988
 40
0.9244239324
 40
1.0
 40
1.0
 40
1.0
 40
1.0
 10
3.9469995305
 20
5.5146797601
 30
0.0
 10
3.9468453514
 20
5.5143227961
 30
0.0
 10
3.9465380935
 20
5.5136515256
 30
0.0
 10
3.9460502255
 20
5.5127240762
 30
0.0
 10
3.9455620389
 20
5.5119325706
 30
0.0
 10
3.9450747843
 20
5.5112790929
 30
0.0
 10
3.9445893896
 20
5.5107646594
 30
0.0
 10
3.9441051884
 20
5.5103899079
 30
0.0
 10
3.9436204183
 20
5.5101573377
 30
0.0
 10
3.9432871691
 20
5.5101017095
 30
0.0
 10
3.9431296427
 20
5.5101017081
 30
0.0
  0
SPLINE
  5
3A0
100
AcDbEntity
  8
ALL_ASSEMBLY_MEMBERS
100
AcDbSpline
 62
7
  6
CONTINUOUS
 70
0
 71
3
 72
10
 73
6
 74
0
 42
0.0000001
 43
0.0000001
 44
0.0000000001
 40
0.0
 40
0.0
 40
0.0
 40
0.0
 40
0.2342848852
 40
0.4819984066
 40
1.0
 40
1.0
 40
1.0
 40
1.0
 10
3.9515510314
 20
5.6941017081
 30
0.0
 10
3.9518241224
 20
5.6921432156
 30
0.0
 10
3.9523047454
 20
5.6881022706
 30
0.0
 10
3.9530025814
 20
5.6796897565
 30
0.0
 10
3.9532081408
 20
5.6732238099
 30
0.0
 10
3.9532081408
 20
5.6688517081
 30
0.0
  0
SPLINE
  5
3A1
100
AcDbEntity
  8
ALL_ASSEMBLY_MEMBERS
100
AcDbSpline
 62
7
  6
CONTINUOUS
 70
0
 71
3
 72
21
 73
17
 74
0
 42
0.0000001
 43
0.0000001
 44
0.0000000001
 40
0.0
 40
0.0
 40
0.0
 40
0.0
 40
0.0799968055
 40
0.159615285
 40
0.3150651925
 40
0.462210516
 40
0.5316583647
 40
0.5978359645
 40
0.6604384703
 40
0.7192823031
 40
0.7742712804
 40
0.825454277
 40
0.8730692553
 40
0.9175360771
 40
0.9595414167
 40
1.0
 40
1.0
 40
1.0
 40
1.0
 10
4.0551889036
 20
5.5588517081
 30
0.0
 10
4.0551889036
 20
5.5572599853
 30
0.0
 10
4.0551010861
 20
5.5540833015
 30
0.0
 10
4.0545863893
 20
5.5478330915
 30
0.0
 10
4.0533347454
 20
5.5403144197
 30
0.0
 10
4.0512634568
 20
5.5331853642
 30
0.0
 10
4.0491548008
 20
5.5279647558
 30
0.0
 10
4.0474185188
 20
5.5244190623
 30
0.0
 10
4.0455148976
 20
5.5212027139
 30
0.0
 10
4.0434676169
 20
5.5183447669
 30
0.0
 10
4.041298206
 20
5.5158720775
 30
0.0
 10
4.0390280661
 20
5.5138092913
 30
0.0
 10
4.0366815806
 20
5.5121747008
 30
0.0
 10
4.0342786978
 20
5.5109887942
 30
0.0
 10
4.0318450328
 20
5.5102672325
 30
0.0
 10
4.0302003415
 20
5.5101017106
 30
0.0
 10
4.0293953238
 20
5.5101017081
 30
0.0
  0
SPLINE
  5
3A2
100
AcDbEntity
  8
ALL_ASSEMBLY_MEMBERS
100
AcDbSpline
 62
7
  6
CONTINUOUS
 70
0
 71
3
 72
11
 73
7
 74
0
 42
0.0000001
 43
0.0000001
 44
0.0000000001
 40
0.0
 40
0.0
 40
0.0
 40
0.0
 40
0.2387448311
 40
0.487078173
 40
0.7419265686
 40
1.0
 40
1.0
 40
1.0
 40
1.0
 10
4.0512836849
 20
5.6941017081
 30
0.0
 10
4.051928481
 20
5.692164846
 30
0.0
 10
4.0530632422
 20
5.6881513398
 30
0.0
 10
4.0542808201
 20
5.681918865
 30
0.0
 10
4.0550226282
 20
5.6754458562
 30
0.0
 10
4.0551889036
 20
5.6710583472
 30
0.0
 10
4.0551889036
 20
5.6688517081
 30
0.0
  0
SPLINE
  5
3A3
100
AcDbEntity
  8
ALL_ASSEMBLY_MEMBERS
100
AcDbSpline
 62
7
  6
CONTINUOUS
 70
0
 71
3
 72
19
 73
15
 74
0
 42
0.0000001
 43
0.0000001
 44
0.0000000001
 40
0.0
 40
0.0
 40
0.0
 40
0.0
 40
0.1392993824
 40
0.2768526658
 40
0.4107595791
 40
0.5397363302
 40
0.6021204488
 40
0.6629769214
 40
0.7222984369
 40
0.7801406008
 40
0.836623497
 40
0.8919193709
 40
0.946278596
 40
1.0
 40
1.0
 40
1.0
 40
1.0
 10
4.2299193469
 20
5.5588517081
 30
0.0
 10
4.2299193469
 20
5.5556717131
 30
0.0
 10
4.2294167995
 20
5.549340165
 30
0.0
 10
4.2271906829
 20
5.5401904625
 30
0.0
 10
4.2235837077
 20
5.5317446879
 30
0.0
 10
4.2195089669
 20
5.5254840524
 30
0.0
 10
4.2157110532
 20
5.5211462854
 30
0.0
 10
4.2126679958
 20
5.518288259
 30
0.0
 10
4.2094307569
 20
5.5158191418
 30
0.0
 10
4.2060314269
 20
5.5137643562
 30
0.0
 10
4.2025063588
 20
5.5121414273
 30
0.0
 10
4.1988892226
 20
5.5109701903
 30
0.0
 10
4.1952182002
 20
5.5102618728
 30
0.0
 10
4.1927481505
 20
5.5101017105
 30
0.0
 10
4.1915217718
 20
5.5101017081
 30
0.0
  0
SPLINE
  5
3A4
100
AcDbEntity
  8
ALL_ASSEMBLY_MEMBERS
100
AcDbSpline
 62
7
  6
CONTINUOUS
 70
0
 71
3
 72
9
 73
5
 74
0
 42
0.0000001
 43
0.0000001
 44
0.0000000001
 40
0.0
 40
0.0
 40
0.0
 40
0.0
 40
0.4936124212
 40
1.0
 40
1.0
 40
1.0
 40
1.0
 10
4.2242370457
 20
5.6941017081
 30
0.0
 10
4.2261110098
 20
5.690247578
 30
0.0
 10
4.2289689223
 20
5.681957001
 30
0.0
 10
4.2299193469
 20
5.6732481867
 30
0.0
 10
4.2299193469
 20
5.6688517081
 30
0.0
  0
SPLINE
  5
3A5
100
AcDbEntity
  8
ALL_ASSEMBLY_MEMBERS
100
AcDbSpline
 62
7
  6
CONTINUOUS
 70
0
 71
3
 72
20
 73
16
 74
0
 42
0.0000001
 43
0.0000001
 44
0.0000000001
 40
0.0
 40
0.0
 40
0.0
 40
0.0
 40
0.1280733983
 40
0.1921328685
 40
0.2560081836
 40
0.3196771785
 40
0.3831209435
 40
0.4463093983
 40
0.5091994555
 40
0.6338244612
 40
0.6956812565
 40
0.7571856543
 40
0.818351781
 40
0.8792042965
 40
1.0
 40
1.0
 40
1.0
 40
1.0
 10
4.4563244004
 20
5.5588517081
 30
0.0
 10
4.4563244004
 20
5.5556675394
 30
0.0
 10
4.4558684417
 20
5.5508748537
 30
0.0
 10
4.4543779323
 20
5.5446803334
 30
0.0
 10
4.4528252234
 20
5.5401685756
 30
0.0
 10
4.4508590978
 20
5.535838664
 30
0.0
 10
4.448496614
 20
5.5317311594
 30
0.0
 10
4.4457629094
 20
5.5278838711
 30
0.0
 10
4.4416774911
 20
5.5231669432
 30
0.0
 10
4.436943957
 20
5.5190894491
 30
0.0
 10
4.4317217308
 20
5.5157972373
 30
0.0
 10
4.4276084189
 20
5.513747546
 30
0.0
 10
4.4233328895
 20
5.5121302386
 30
0.0
 10
4.4174911296
 20
5.5105801698
 30
0.0
 10
4.4129573744
 20
5.5101017156
 30
0.0
 10
4.4099541442
 20
5.5101017081
 30
0.0
  0
SPLINE
  5
3A6
100
AcDbEntity
  8
ALL_ASSEMBLY_MEMBERS
100
AcDbSpline
 62
7
  6
CONTINUOUS
 70
0
 71
3
 72
9
 73
5
 74
0
 42
0.0000001
 43
0.0000001
 44
0.0000000001
 40
0.0
 40
0.0
 40
0.0
 40
0.0
 40
0.5063883254
 40
1.0
 40
1.0
 40
1.0
 40
1.0
 10
5.0867731997
 20
5.6688517081
 30
0.0
 10
5.0867731997
 20
5.6732481933
 30
0.0
 10
5.0877236223
 20
5.6819570085
 30
0.0
 10
5.0905815395
 20
5.6902475837
 30
0.0
 10
5.0924555008
 20
5.6941017081
 30
0.0
  0
SPLINE
  5
3A7
100
AcDbEntity
  8
ALL_ASSEMBLY_MEMBERS
100
AcDbSpline
 62
7
  6
CONTINUOUS
 70
0
 71
3
 72
11
 73
7
 74
0
 42
0.0000001
 43
0.0000001
 44
0.0000000001
 40
0.0
 40
0.0
 40
0.0
 40
0.0
 40
0.2580741053
 40
0.5129225852
 40
0.7612551504
 40
1.0
 40
1.0
 40
1.0
 40
1.0
 10
5.261503643
 20
5.6688517081
 30
0.0
 10
5.261503643
 20
5.671058353
 30
0.0
 10
5.2616699229
 20
5.6754458682
 30
0.0
 10
5.2624117253
 20
5.6819188774
 30
0.0
 10
5.2636293075
 20
5.6881513456
 30
0.0
 10
5.2647640655
 20
5.6921648459
 30
0.0
 10
5.2654088617
 20
5.6941017081
 30
0.0
  0
SPLINE
  5
3A8
100
AcDbEntity
  8
ALL_ASSEMBLY_MEMBERS
100
AcDbSpline
 62
7
  6
CONTINUOUS
 70
0
 71
3
 72
10
 73
6
 74
0
 42
0.0000001
 43
0.0000001
 44
0.0000000001
 40
0.0
 40
0.0
 40
0.0
 40
0.0
 40
0.5180023628
 40
0.7657150944
 40
1.0
 40
1.0
 40
1.0
 40
1.0
 10
5.3634844058
 20
5.6688517081
 30
0.0
 10
5.3634844058
 20
5.6732238164
 30
0.0
 10
5.3636899638
 20
5.679689763
 30
0.0
 10
5.3643878025
 20
5.6881022768
 30
0.0
 10
5.3648684242
 20
5.6921432155
 30
0.0
 10
5.3651415151
 20
5.6941017081
 30
0.0
  0
SPLINE
  5
3A9
100
AcDbEntity
  8
ALL_ASSEMBLY_MEMBERS
100
AcDbSpline
 62
7
  6
CONTINUOUS
 70
0
 71
3
 72
14
 73
10
 74
0
 42
0.0000001
 43
0.0000001
 44
0.0000000001
 40
0.0
 40
0.0
 40
0.0
 40
0.0
 40
0.0927238768
 40
0.1977610884
 40
0.313771003
 40
0.4392020193
 40
0.572405694
 40
0.7116326089
 40
1.0
 40
1.0
 40
1.0
 40
1.0
 10
5.3680905682
 20
5.5192230655
 30
0.0
 10
5.3683173153
 20
5.520430508
 30
0.0
 10
5.3687283547
 20
5.5230194365
 30
0.0
 10
5.3692233445
 20
5.5271478107
 30
0.0
 10
5.3696375411
 20
5.5317202984
 30
0.0
 10
5.3699726153
 20
5.5366731756
 30
0.0
 10
5.3702301403
 20
5.5419386373
 30
0.0
 10
5.3704753988
 20
5.5493651046
 30
0.0
 10
5.3705444515
 20
5.5550309731
 30
0.0
 10
5.3705444515
 20
5.5588517081
 30
0.0
  0
SPLINE
  5
3AA
100
AcDbEntity
  8
ALL_ASSEMBLY_MEMBERS
100
AcDbSpline
 62
7
  6
CONTINUOUS
 70
0
 71
3
 72
15
 73
11
 74
0
 42
0.0000001
 43
0.0000001
 44
0.0000000001
 40
0.0
 40
0.0
 40
0.0
 40
0.0
 40
0.0755400503
 40
0.1591152126
 40
0.2554744624
 40
0.3676443071
 40
0.4974560436
 40
0.645922711
 40
0.8134152964
 40
1.0
 40
1.0
 40
1.0
 40
1.0
 10
5.3735629039
 20
5.5101017081
 30
0.0
 10
5.3734052333
 20
5.5101017067
 30
0.0
 10
5.3730716513
 20
5.5101574428
 30
0.0
 10
5.3725864372
 20
5.5103904437
 30
0.0
 10
5.3721018012
 20
5.5107658658
 30
0.0
 10
5.3716159719
 20
5.5112812065
 30
0.0
 10
5.371128282
 20
5.5119358271
 30
0.0
 10
5.3706396656
 20
5.5127287108
 30
0.0
 10
5.3701513776
 20
5.5136577669
 30
0.0
 10
5.3698438664
 20
5.5143301872
 30
0.0
 10
5.3696895618
 20
5.5146877621
 30
0.0
  0
SPLINE
  5
3AB
100
AcDbEntity
  8
ALL_ASSEMBLY_MEMBERS
100
AcDbSpline
 62
7
  6
CONTINUOUS
 70
0
 71
3
 72
17
 73
13
 74
0
 42
0.0000001
 43
0.0000001
 44
0.0000000001
 40
0.0
 40
0.0
 40
0.0
 40
0.0
 40
0.0377420655
 40
0.0798687157
 40
0.1262291732
 40
0.1766312423
 40
0.2887178111
 40
0.4141461812
 40
0.5505907526
 40
0.6955766793
 40
0.8464579704
 40
1.0
 40
1.0
 40
1.0
 40
1.0
 10
5.3696895618
 20
5.5146877621
 30
0.0
 10
5.3694661294
 20
5.5152055292
 30
0.0
 10
5.3690273056
 20
5.5163159962
 30
0.0
 10
5.3684174344
 20
5.5181012451
 30
0.0
 10
5.3678236244
 20
5.5200901607
 30
0.0
 10
5.3670311861
 20
5.5231088457
 30
0.0
 10
5.3661273937
 20
5.5273170289
 30
0.0
 10
5.365210561
 20
5.5328304135
 30
0.0
 10
5.3644606994
 20
5.5388646196
 30
0.0
 10
5.363903362
 20
5.5453012994
 30
0.0
 10
5.3635620444
 20
5.5520087032
 30
0.0
 10
5.3634844058
 20
5.5565575757
 30
0.0
 10
5.3634844058
 20
5.5588517081
 30
0.0
  0
SPLINE
  5
3AC
100
AcDbEntity
  8
ALL_ASSEMBLY_MEMBERS
100
AcDbSpline
 62
7
  6
CONTINUOUS
 70
0
 71
3
 72
10
 73
6
 74
0
 42
0.0000001
 43
0.0000001
 44
0.0000000001
 40
0.0
 40
0.0
 40
0.0
 40
0.0
 40
0.2355188684
 40
0.4794522202
 40
1.0
 40
1.0
 40
1.0
 40
1.0
 10
5.2828299
 20
5.5108441584
 30
0.0
 10
5.2833507817
 20
5.5110317299
 30
0.0
 10
5.2843881
 20
5.5114810823
 30
0.0
 10
5.28642348
 20
5.5126647641
 30
0.0
 10
5.2878188135
 20
5.5138221432
 30
0.0
 10
5.2886916523
 20
5.5146797135
 30
0.0
  0
SPLINE
  5
3AD
100
AcDbEntity
  8
ALL_ASSEMBLY_MEMBERS
100
AcDbSpline
 62
7
  6
CONTINUOUS
 70
0
 71
3
 72
16
 73
12
 74
0
 42
0.0000001
 43
0.0000001
 44
0.0000000001
 40
0.0
 40
0.0
 40
0.0
 40
0.0
 40
0.0935626527
 40
0.1442997497
 40
0.1976998114
 40
0.3123212419
 40
0.4367298796
 40
0.5695759682
 40
0.7091686907
 40
0.8535208545
 40
1.0
 40
1.0
 40
1.0
 40
1.0
 10
5.2886916523
 20
5.5146797135
 30
0.0
 10
5.2897376511
 20
5.5157074149
 30
0.0
 10
5.2911928732
 20
5.5174577158
 30
0.0
 10
5.2928966939
 20
5.520046847
 30
0.0
 10
5.2945832542
 20
5.5230349967
 30
0.0
 10
5.2964555291
 20
5.5272297627
 30
0.0
 10
5.2982920572
 20
5.532769187
 30
0.0
 10
5.2997451913
 20
5.5388234691
 30
0.0
 10
5.3007967415
 20
5.5452760099
 30
0.0
 10
5.3014312176
 20
5.5519965759
 30
0.0
 10
5.3015735376
 20
5.5565559764
 30
0.0
 10
5.3015735376
 20
5.5588517081
 30
0.0
  0
SPLINE
  5
3AE
100
AcDbEntity
  8
ALL_ASSEMBLY_MEMBERS
100
AcDbSpline
 62
7
  6
CONTINUOUS
 70
0
 71
3
 72
21
 73
17
 74
0
 42
0.0000001
 43
0.0000001
 44
0.0000000001
 40
0.0
 40
0.0
 40
0.0
 40
0.0
 40
0.040458618
 40
0.0824640339
 40
0.1269308187
 40
0.1745457837
 40
0.2257287886
 40
0.2807176902
 40
0.3395615057
 40
0.402163973
 40
0.4683415173
 40
0.5377893701
 40
0.6849347149
 40
0.8403845692
 40
0.9200030834
 40
1.0
 40
1.0
 40
1.0
 40
1.0
 10
5.2872972228
 20
5.5101017081
 30
0.0
 10
5.2864922044
 20
5.5101017056
 30
0.0
 10
5.2848475097
 20
5.5102672292
 30
0.0
 10
5.2824138473
 20
5.5109888017
 30
0.0
 10
5.2800109594
 20
5.5121746985
 30
0.0
 10
5.2776644769
 20
5.5138092933
 30
0.0
 10
5.2753943414
 20
5.5158720812
 30
0.0
 10
5.2732249267
 20
5.5183447652
 30
0.0
 10
5.2711776515
 20
5.5212027132
 30
0.0
 10
5.2692740295
 20
5.5244190582
 30
0.0
 10
5.2675377461
 20
5.5279647493
 30
0.0
 10
5.2654290938
 20
5.5331853586
 30
0.0
 10
5.2633578025
 20
5.5403144126
 30
0.0
 10
5.2621061569
 20
5.5478330844
 30
0.0
 10
5.2615914601
 20
5.5540832963
 30
0.0
 10
5.261503643
 20
5.5572599831
 30
0.0
 10
5.261503643
 20
5.5588517081
 30
0.0
  0
SPLINE
  5
3AF
100
AcDbEntity
  8
ALL_ASSEMBLY_MEMBERS
100
AcDbSpline
 62
7
  6
CONTINUOUS
 70
0
 71
3
 72
19
 73
15
 74
0
 42
0.0000001
 43
0.0000001
 44
0.0000000001
 40
0.0
 40
0.0
 40
0.0
 40
0.0
 40
0.0540475283
 40
0.108458285
 40
0.1635581313
 40
0.2196410085
 40
0.2769526703
 40
0.3356894189
 40
0.4577530274
 40
0.5212848896
 40
0.5863680389
 40
0.720599467
 40
0.8592231576
 40
1.0
 40
1.0
 40
1.0
 40
1.0
 10
5.1219753112
 20
5.5102860795
 30
0.0
 10
5.1231208695
 20
5.5104171621
 30
0.0
 10
5.1254060485
 20
5.5108205566
 30
0.0
 10
5.1287517153
 20
5.511839235
 30
0.0
 10
5.1319924949
 20
5.5132658763
 30
0.0
 10
5.1351022931
 20
5.5150834837
 30
0.0
 10
5.1380562443
 20
5.5172773903
 30
0.0
 10
5.141800705
 20
5.5207210103
 30
0.0
 10
5.1450920213
 20
5.5248096092
 30
0.0
 10
5.1478772523
 20
5.5293799146
 30
0.0
 10
5.1503937134
 20
5.5343976286
 30
0.0
 10
5.1528464875
 20
5.5412091924
 30
0.0
 10
5.1546214053
 20
5.5498797571
 30
0.0
 10
5.1550199226
 20
5.5558484177
 30
0.0
 10
5.1550199226
 20
5.5588517081
 30
0.0
  0
SPLINE
  5
3B0
100
AcDbEntity
  8
ALL_ASSEMBLY_MEMBERS
100
AcDbSpline
 62
7
  6
CONTINUOUS
 70
0
 71
3
 72
19
 73
15
 74
0
 42
0.0000001
 43
0.0000001
 44
0.0000000001
 40
0.0
 40
0.0
 40
0.0
 40
0.0
 40
0.0537214607
 40
0.1080807482
 40
0.1633766117
 40
0.2198594776
 40
0.277701624
 40
0.3370230828
 40
0.3978795235
 40
0.460263609
 40
0.5892403114
 40
0.7231472489
 40
0.8607004904
 40
1.0
 40
1.0
 40
1.0
 40
1.0
 10
5.1251707748
 20
5.5101017081
 30
0.0
 10
5.1239443948
 20
5.5101017056
 30
0.0
 10
5.1214743415
 20
5.510261869
 30
0.0
 10
5.1178033196
 20
5.5109701986
 30
0.0
 10
5.1141861794
 20
5.5121414243
 30
0.0
 10
5.1106611139
 20
5.5137643577
 30
0.0
 10
5.1072617896
 20
5.515819147
 30
0.0
 10
5.1040245473
 20
5.5182882559
 30
0.0
 10
5.1009814964
 20
5.5211462855
 30
0.0
 10
5.0971835811
 20
5.5254840473
 30
0.0
 10
5.0931088428
 20
5.5317446835
 30
0.0
 10
5.0895018664
 20
5.5401904555
 30
0.0
 10
5.0872757452
 20
5.5493401598
 30
0.0
 10
5.0867731997
 20
5.5556717101
 30
0.0
 10
5.0867731997
 20
5.5588517081
 30
0.0
  0
SPLINE
  5
3B1
100
AcDbEntity
  8
ALL_ASSEMBLY_MEMBERS
100
AcDbSpline
 62
7
  6
CONTINUOUS
 70
0
 71
3
 72
19
 73
15
 74
0
 42
0.0000001
 43
0.0000001
 44
0.0000000001
 40
0.0
 40
0.0
 40
0.0
 40
0.0
 40
0.1211928081
 40
0.1819479344
 40
0.2428672202
 40
0.3040217634
 40
0.3654805535
 40
0.4272982193
 40
0.489514534
 40
0.615079681
 40
0.7422384489
 40
0.8064142458
 40
0.8708878277
 40
1.0
 40
1.0
 40
1.0
 40
1.0
 10
4.9072808525
 20
5.5102853077
 30
0.0
 10
4.9100920536
 20
5.5105462529
 30
0.0
 10
4.9142893964
 20
5.5113591751
 30
0.0
 10
4.9196280778
 20
5.5132511697
 30
0.0
 10
4.9234908969
 20
5.5150627419
 30
0.0
 10
4.9271719468
 20
5.5172506947
 30
0.0
 10
4.9306404873
 20
5.5197973558
 30
0.0
 10
4.9338702419
 20
5.5226782072
 30
0.0
 10
4.9378308856
 20
5.5269452081
 30
0.0
 10
4.942053229
 20
5.5329986922
 30
0.0
 10
4.945144762
 20
5.5397469647
 30
0.0
 10
4.9469047267
 20
5.5454474717
 30
0.0
 10
4.9481739116
 20
5.5513220409
 30
0.0
 10
4.9485601354
 20
5.5558439339
 30
0.0
 10
4.9485601354
 20
5.5588517081
 30
0.0
  0
SPLINE
  5
3B2
100
AcDbEntity
  8
ALL_ASSEMBLY_MEMBERS
100
AcDbSpline
 62
7
  6
CONTINUOUS
 70
0
 71
3
 72
20
 73
16
 74
0
 42
0.0000001
 43
0.0000001
 44
0.0000000001
 40
0.0
 40
0.0
 40
0.0
 40
0.0
 40
0.1207956137
 40
0.1816473625
 40
0.2428122056
 40
0.304315466
 40
0.3661718379
 40
0.4907975245
 40
0.5536879965
 40
0.6168767917
 40
0.6803208596
 40
0.7439901667
 40
0.8078658487
 40
0.8719257741
 40
1.0
 40
1.0
 40
1.0
 40
1.0
 10
4.9067384024
 20
5.5101017082
 30
0.0
 10
4.9037351744
 20
5.5101016888
 30
0.0
 10
4.8992014455
 20
5.5105802022
 30
0.0
 10
4.893359726
 20
5.5121302022
 30
0.0
 10
4.8890842608
 20
5.5137474597
 30
0.0
 10
4.8849710131
 20
5.5157971215
 30
0.0
 10
4.8797488006
 20
5.5190893118
 30
0.0
 10
4.8750152202
 20
5.5231667771
 30
0.0
 10
4.8709297567
 20
5.5278837141
 30
0.0
 10
4.8681960221
 20
5.5317310137
 30
0.0
 10
4.8658335163
 20
5.5358385332
 30
0.0
 10
4.8638673673
 20
5.540168461
 30
0.0
 10
4.8623146387
 20
5.5446802422
 30
0.0
 10
4.8608241156
 20
5.5508748015
 30
0.0
 10
4.8603681462
 20
5.5556675188
 30
0.0
 10
4.8603681462
 20
5.5588517081
 30
0.0
  0
SPLINE
  5
3B3
100
AcDbEntity
  8
ALL_ASSEMBLY_MEMBERS
100
AcDbSpline
 62
7
  6
CONTINUOUS
 70
0
 71
3
 72
20
 73
16
 74
0
 42
0.0000001
 43
0.0000001
 44
0.0000000001
 40
0.0
 40
0.0
 40
0.0
 40
0.0
 40
0.0606428631
 40
0.1212989242
 40
0.1820470515
 40
0.2429660999
 40
0.3041261125
 40
0.3655942379
 40
0.4274217653
 40
0.4896464179
 40
0.6152164287
 40
0.74235415
 40
0.8065083007
 40
0.8709537594
 40
1.0
 40
1.0
 40
1.0
 40
1.0
 10
4.4086056456
 20
5.7173354401
 30
0.0
 10
4.4072177155
 20
5.7171801229
 30
0.0
 10
4.4044547961
 20
5.7167337362
 30
0.0
 10
4.4003950197
 20
5.7156616564
 30
0.0
 10
4.3964536601
 20
5.7141943763
 30
0.0
 10
4.3926623529
 20
5.7123480364
 30
0.0
 10
4.3890524092
 20
5.710136282
 30
0.0
 10
4.3856537544
 20
5.7075774063
 30
0.0
 10
4.3824912662
 20
5.704695039
 30
0.0
 10
4.3786159592
 20
5.7004394366
 30
0.0
 10
4.3744879245
 20
5.6944248204
 30
0.0
 10
4.3714675822
 20
5.6877393298
 30
0.0
 10
4.3697486729
 20
5.6820993667
 30
0.0
 10
4.3685094947
 20
5.6762914096
 30
0.0
 10
4.3681324112
 20
5.6718236182
 30
0.0
 10
4.3681324112
 20
5.6688517081
 30
0.0
  0
SPLINE
  5
3B4
100
AcDbEntity
  8
ALL_ASSEMBLY_MEMBERS
100
AcDbSpline
 62
7
  6
CONTINUOUS
 70
0
 71
3
 72
15
 73
11
 74
0
 42
0.0000001
 43
0.0000001
 44
0.0000000001
 40
0.0
 40
0.0
 40
0.0
 40
0.0
 40
0.1210015578
 40
0.2440873964
 40
0.3687398279
 40
0.4944004005
 40
0.6206362164
 40
0.7471424445
 40
0.8737824754
 40
1.0
 40
1.0
 40
1.0
 40
1.0
 10
4.4085651972
 20
5.7176008192
 30
0.0
 10
4.4105548438
 20
5.7176008225
 30
0.0
 10
4.4145732872
 20
5.7173232374
 30
0.0
 10
4.4205297089
 20
5.7161075095
 30
0.0
 10
4.4263581455
 20
5.7141258795
 30
0.0
 10
4.4319417303
 20
5.7114136994
 30
0.0
 10
4.4371739462
 20
5.7080169139
 30
0.0
 10
4.4419497605
 20
5.7039761753
 30
0.0
 10
4.4461522795
 20
5.6993424214
 30
0.0
 10
4.4485079169
 20
5.6958963108
 30
0.0
 10
4.4495503862
 20
5.6941017081
 30
0.0
  0
SPLINE
  5
3B5
100
AcDbEntity
  8
ALL_ASSEMBLY_MEMBERS
100
AcDbSpline
 62
7
  6
CONTINUOUS
 70
0
 71
3
 72
17
 73
13
 74
0
 42
0.0000001
 43
0.0000001
 44
0.0000000001
 40
0.0
 40
0.0
 40
0.0
 40
0.0
 40
0.0539136601
 40
0.1083845322
 40
0.1636886379
 40
0.2200676413
 40
0.3366530664
 40
0.4592487572
 40
0.5879186045
 40
0.7219027403
 40
0.859965286
 40
1.0
 40
1.0
 40
1.0
 40
1.0
 10
4.1922375592
 20
5.7170227721
 30
0.0
 10
4.1911550908
 20
5.7168012127
 30
0.0
 10
4.189002819
 20
5.7162288628
 30
0.0
 10
4.1858741545
 20
5.7150000622
 30
0.0
 10
4.1828551777
 20
5.7134098597
 30
0.0
 10
4.1789664833
 20
5.7107957006
 30
0.0
 10
4.1744893002
 20
5.706653382
 30
0.0
 10
4.1699623995
 20
5.7005796804
 30
0.0
 10
4.1663238616
 20
5.6935368077
 30
0.0
 10
4.1636590291
 20
5.6857396708
 30
0.0
 10
4.1620371256
 20
5.6774276582
 30
0.0
 10
4.161672624
 20
5.6717215888
 30
0.0
 10
4.161672624
 20
5.6688517081
 30
0.0
  0
SPLINE
  5
3B6
100
AcDbEntity
  8
ALL_ASSEMBLY_MEMBERS
100
AcDbSpline
 62
7
  6
CONTINUOUS
 70
0
 71
3
 72
15
 73
11
 74
0
 42
0.0000001
 43
0.0000001
 44
0.0000000001
 40
0.0
 40
0.0
 40
0.0
 40
0.0
 40
0.1108669205
 40
0.227105248
 40
0.348301018
 40
0.4736553791
 40
0.6022479532
 40
0.7332660156
 40
0.866139375
 40
1.0
 40
1.0
 40
1.0
 40
1.0
 10
4.1889114052
 20
5.7176008192
 30
0.0
 10
4.1905556499
 20
5.7176008225
 30
0.0
 10
4.1939287049
 20
5.7173107194
 30
0.0
 10
4.198963946
 20
5.7160837451
 30
0.0
 10
4.2039809952
 20
5.7140951811
 30
0.0
 10
4.2088553028
 20
5.7113813549
 30
0.0
 10
4.2134642701
 20
5.7079859171
 30
0.0
 10
4.2176805146
 20
5.703947855
 30
0.0
 10
4.2213623927
 20
5.699316281
 30
0.0
 10
4.2233689441
 20
5.6958871087
 30
0.0
 10
4.2242370457
 20
5.6941017081
 30
0.0
  0
SPLINE
  5
3B7
100
AcDbEntity
  8
ALL_ASSEMBLY_MEMBERS
100
AcDbSpline
 62
7
  6
CONTINUOUS
 70
0
 71
3
 72
9
 73
5
 74
0
 42
0.0000001
 43
0.0000001
 44
0.0000000001
 40
0.0
 40
0.0
 40
0.0
 40
0.0
 40
0.2411128518
 40
1.0
 40
1.0
 40
1.0
 40
1.0
 10
4.0311090748
 20
5.7155073966
 30
0.0
 10
4.0308440525
 20
5.7153410911
 30
0.0
 10
4.029765303
 20
5.714618973
 30
0.0
 10
4.0287703982
 20
5.7137745966
 30
0.0
 10
4.0280651667
 20
5.7130872653
 30
0.0
  0
SPLINE
  5
3B8
100
AcDbEntity
  8
ALL_ASSEMBLY_MEMBERS
100
AcDbSpline
 62
7
  6
CONTINUOUS
 70
0
 71
3
 72
15
 73
11
 74
0
 42
0.0000001
 43
0.0000001
 44
0.0000000001
 40
0.0
 40
0.0
 40
0.0
 40
0.0
 40
0.0933990054
 40
0.1973270135
 40
0.3118407133
 40
0.4362130472
 40
0.5690849363
 40
0.7087669727
 40
0.8532969993
 40
1.0
 40
1.0
 40
1.0
 40
1.0
 10
4.0280651667
 20
5.7130872653
 30
0.0
 10
4.0270149237
 20
5.7120636795
 30
0.0
 10
4.0250144727
 20
5.7096730854
 30
0.0
 10
4.0224736904
 20
5.7054717691
 30
0.0
 10
4.0202654019
 20
5.7005503341
 30
0.0
 10
4.0184200407
 20
5.6950039183
 30
0.0
 10
4.016958563
 20
5.6889385487
 30
0.0
 10
4.0159007821
 20
5.6824699663
 30
0.0
 10
4.0152623279
 20
5.6757294116
 30
0.0
 10
4.015119009
 20
5.6711552203
 30
0.0
 10
4.015119009
 20
5.6688517081
 30
0.0
  0
SPLINE
  5
3B9
100
AcDbEntity
  8
ALL_ASSEMBLY_MEMBERS
100
AcDbSpline
 62
7
  6
CONTINUOUS
 70
0
 71
3
 72
16
 73
12
 74
0
 42
0.0000001
 43
0.0000001
 44
0.0000000001
 40
0.0
 40
0.0
 40
0.0
 40
0.0
 40
0.090698539
 40
0.1400932583
 40
0.1923087013
 40
0.2473350318
 40
0.3051129199
 40
0.4283131825
 40
0.5606791427
 40
0.7009273067
 40
1.0
 40
1.0
 40
1.0
 40
1.0
 10
4.0258783966
 20
5.7176008117
 30
0.0
 10
4.0269813649
 20
5.7176008335
 30
0.0
 10
4.028689507
 20
5.7173694957
 30
0.0
 10
4.0309338676
 20
5.716707273
 30
0.0
 10
4.0327059801
 20
5.7160006818
 30
0.0
 10
4.0345028955
 20
5.7151026277
 30
0.0
 10
4.0369657434
 20
5.7136243637
 30
0.0
 10
4.0400091936
 20
5.7113100711
 30
0.0
 10
4.043437833
 20
5.7079118305
 30
0.0
 10
4.0477184001
 20
5.7024179518
 30
0.0
 10
4.0501348967
 20
5.6975524793
 30
0.0
 10
4.0512836849
 20
5.6941017081
 30
0.0
  0
LINE
  5
3BA
100
AcDbEntity
  8
ALL_ASSEMBLY_MEMBERS
100
AcDbLine
 62
7
  6
CONTINUOUS
 10
3.9482044624
 20
5.7061496639
 11
3.9472566534
 21
5.6981543963
  0
SPLINE
  5
3BB
100
AcDbEntity
  8
ALL_ASSEMBLY_MEMBERS
100
AcDbSpline
 62
7
  6
CONTINUOUS
 70
0
 71
3
 72
11
 73
7
 74
0
 42
0.0000001
 43
0.0000001
 44
0.0000000001
 40
0.0
 40
0.0
 40
0.0
 40
0.0
 40
0.2266123203
 40
0.4729878846
 40
0.73320608
 40
1.0
 40
1.0
 40
1.0
 40
1.0
 10
3.9472566534
 20
5.6981543963
 30
0.0
 10
3.9470575238
 20
5.695947687
 30
0.0
 10
3.9467244373
 20
5.6913342766
 30
0.0
 10
3.9463898571
 20
5.6841727289
 30
0.0
 10
3.9461917501
 20
5.676613163
 30
0.0
 10
3.9461480951
 20
5.6714602547
 30
0.0
 10
3.9461480951
 20
5.6688517081
 30
0.0
  0
SPLINE
  5
3BC
100
AcDbEntity
  8
ALL_ASSEMBLY_MEMBERS
100
AcDbSpline
 62
7
  6
CONTINUOUS
 70
0
 71
3
 72
19
 73
15
 74
0
 42
0.0000001
 43
0.0000001
 44
0.0000000001
 40
0.0
 40
0.0
 40
0.0
 40
0.0
 40
0.0216333252
 40
0.0482498938
 40
0.0808308616
 40
0.1196245864
 40
0.164616823
 40
0.2156807612
 40
0.2725758418
 40
0.3349973729
 40
0.4751878673
 40
0.6340835601
 40
0.8098285065
 40
1.0
 40
1.0
 40
1.0
 40
1.0
 10
3.9391303289
 20
5.7176008192
 30
0.0
 10
3.9393291418
 20
5.717600821
 30
0.0
 10
3.939772239
 20
5.7175112558
 30
0.0
 10
3.9404449172
 20
5.7171872459
 30
0.0
 10
3.9411861619
 20
5.7166708333
 30
0.0
 10
3.9419893417
 20
5.715962267
 30
0.0
 10
3.9428450934
 20
5.7150641573
 30
0.0
 10
3.943741778
 20
5.7139804312
 30
0.0
 10
3.9446660253
 20
5.7127154005
 30
0.0
 10
3.9459653988
 20
5.7107143663
 30
0.0
 10
3.9475508299
 20
5.7077878326
 30
0.0
 10
3.9492474952
 20
5.7037598205
 30
0.0
 10
3.9506635956
 20
5.6991408083
 30
0.0
 10
3.9513096684
 20
5.6958326609
 30
0.0
 10
3.9515510314
 20
5.6941017081
 30
0.0
  0
SPLINE
  5
3BD
100
AcDbEntity
  8
ALL_ASSEMBLY_MEMBERS
100
AcDbSpline
 62
7
  6
CONTINUOUS
 70
0
 71
3
 72
19
 73
15
 74
0
 42
0.0000001
 43
0.0000001
 44
0.0000000001
 40
0.0
 40
0.0
 40
0.0
 40
0.0
 40
0.1901719624
 40
0.3659177693
 40
0.5248142451
 40
0.6650041574
 40
0.7274248689
 40
0.7843190686
 40
0.8353823762
 40
0.8803748332
 40
0.9191690479
 40
0.9517499248
 40
0.9783660855
 40
1.0
 40
1.0
 40
1.0
 40
1.0
 10
5.3651415151
 20
5.6941017081
 30
0.0
 10
5.3653828787
 20
5.6958326651
 30
0.0
 10
5.3660289546
 20
5.6991408243
 30
0.0
 10
5.3674450637
 20
5.7037598539
 30
0.0
 10
5.3691417346
 20
5.7077878741
 30
0.0
 10
5.3707271685
 20
5.7107143997
 30
0.0
 10
5.3720265329
 20
5.7127154146
 30
0.0
 10
5.3729507679
 20
5.7139804274
 30
0.0
 10
5.3738474402
 20
5.7150641483
 30
0.0
 10
5.3747031948
 20
5.7159622564
 30
0.0
 10
5.3755063804
 20
5.7166708242
 30
0.0
 10
5.3762476219
 20
5.7171872414
 30
0.0
 10
5.3769203017
 20
5.7175112501
 30
0.0
 10
5.3773633994
 20
5.7176008175
 30
0.0
 10
5.3775622178
 20
5.7176008192
 30
0.0
  0
SPLINE
  5
3BE
100
AcDbEntity
  8
ALL_ASSEMBLY_MEMBERS
100
AcDbSpline
 62
7
  6
CONTINUOUS
 70
0
 71
3
 72
16
 73
12
 74
0
 42
0.0000001
 43
0.0000001
 44
0.0000000001
 40
0.0
 40
0.0
 40
0.0
 40
0.0
 40
0.2990748878
 40
0.4393244804
 40
0.5716902306
 40
0.6948887203
 40
0.7526658243
 40
0.8076918937
 40
0.8599071019
 40
0.9093010267
 40
1.0
 40
1.0
 40
1.0
 40
1.0
 10
5.2654088617
 20
5.6941017081
 30
0.0
 10
5.2665576581
 20
5.6975525043
 30
0.0
 10
5.2689741809
 20
5.7024180147
 30
0.0
 10
5.2732547882
 20
5.7079119139
 30
0.0
 10
5.2766834309
 20
5.7113101411
 30
0.0
 10
5.2797268618
 20
5.7136244023
 30
0.0
 10
5.2821896827
 20
5.7151026438
 30
0.0
 10
5.283986583
 20
5.7160006923
 30
0.0
 10
5.2857586785
 20
5.7167072832
 30
0.0
 10
5.2880030361
 20
5.7173694946
 30
0.0
 10
5.2897111727
 20
5.7176008147
 30
0.0
 10
5.2908141461
 20
5.7176008081
 30
0.0
  0
SPLINE
  5
3BF
100
AcDbEntity
  8
ALL_ASSEMBLY_MEMBERS
100
AcDbSpline
 62
7
  6
CONTINUOUS
 70
0
 71
3
 72
15
 73
11
 74
0
 42
0.0000001
 43
0.0000001
 44
0.0000000001
 40
0.0
 40
0.0
 40
0.0
 40
0.0
 40
0.1338609486
 40
0.2667350463
 40
0.3977539239
 40
0.5263459025
 40
0.6516986353
 40
0.7728939531
 40
0.8891325487
 40
1.0
 40
1.0
 40
1.0
 40
1.0
 10
5.0924555008
 20
5.6941017081
 30
0.0
 10
5.0933236046
 20
5.695887113
 30
0.0
 10
5.0953301635
 20
5.6993162994
 30
0.0
 10
5.0990120651
 20
5.7039478912
 30
0.0
 10
5.1032283282
 20
5.7079859539
 30
0.0
 10
5.1078372763
 20
5.7113813821
 30
0.0
 10
5.1127115531
 20
5.7140951828
 30
0.0
 10
5.1177285779
 20
5.7160837327
 30
0.0
 10
5.1227638218
 20
5.717310721
 30
0.0
 10
5.126136889
 20
5.7176008159
 30
0.0
 10
5.1277811416
 20
5.7176008192
 30
0.0
  0
SPLINE
  5
3C0
100
AcDbEntity
  8
ALL_ASSEMBLY_MEMBERS
100
AcDbSpline
 62
7
  6
CONTINUOUS
 70
0
 71
3
 72
15
 73
11
 74
0
 42
0.0000001
 43
0.0000001
 44
0.0000000001
 40
0.0
 40
0.0
 40
0.0
 40
0.0
 40
0.1262178256
 40
0.2528585824
 40
0.3793656361
 40
0.5056008188
 40
0.6312597919
 40
0.7559117803
 40
0.8789978489
 40
1.0
 40
1.0
 40
1.0
 40
1.0
 10
4.8671421603
 20
5.6941017081
 30
0.0
 10
4.8681846322
 20
5.6958963151
 30
0.0
 10
4.8705402781
 20
5.6993424405
 30
0.0
 10
4.8747428242
 20
5.7039762121
 30
0.0
 10
4.8795186593
 20
5.708016949
 30
0.0
 10
4.8847508516
 20
5.7114137278
 30
0.0
 10
4.8903344014
 20
5.7141258806
 30
0.0
 10
4.89616281
 20
5.7161074967
 30
0.0
 10
4.902119236
 20
5.7173232395
 30
0.0
 10
4.9061376932
 20
5.717600816
 30
0.0
 10
4.9081273496
 20
5.7176008192
 30
0.0
  0
SPLINE
  5
3C1
100
AcDbEntity
  8
ALL_ASSEMBLY_MEMBERS
100
AcDbSpline
 62
7
  6
CONTINUOUS
 70
0
 71
3
 72
14
 73
10
 74
0
 42
0.0000001
 43
0.0000001
 44
0.0000000001
 40
0.0
 40
0.0
 40
0.0
 40
0.0
 40
0.2883661131
 40
0.4275924282
 40
0.5607958025
 40
0.6862268324
 40
0.8022371056
 40
0.9072749413
 40
1.0
 40
1.0
 40
1.0
 40
1.0
 10
3.9461480951
 20
5.5588517081
 30
0.0
 10
3.9461480951
 20
5.555031036
 30
0.0
 10
3.9462171455
 20
5.5493652605
 30
0.0
 10
3.9464623957
 20
5.5419389113
 30
0.0
 10
3.9467199118
 20
5.5366735244
 30
0.0
 10
3.9470549743
 20
5.5317207054
 30
0.0
 10
3.9474691553
 20
5.5271482585
 30
0.0
 10
3.9479641293
 20
5.5230199039
 30
0.0
 10
3.9483751516
 20
5.5204309806
 30
0.0
 10
3.9486018894
 20
5.5192235355
 30
0.0
  0
SPLINE
  5
3C2
100
AcDbEntity
  8
ALL_ASSEMBLY_MEMBERS
100
AcDbSpline
 62
7
  6
CONTINUOUS
 70
0
 71
3
 72
16
 73
12
 74
0
 42
0.0000001
 43
0.0000001
 44
0.0000000001
 40
0.0
 40
0.0
 40
0.0
 40
0.0
 40
0.1464649394
 40
0.2908046109
 40
0.4303884357
 40
0.5632305139
 40
0.6876409232
 40
0.8022702388
 40
0.8556763277
 40
0.9064206153
 40
1.0
 40
1.0
 40
1.0
 40
1.0
 10
4.015119009
 20
5.5588517081
 30
0.0
 10
4.015119009
 20
5.5565567543
 30
0.0
 10
4.0152612333
 20
5.5519988762
 30
0.0
 10
4.0158952854
 20
5.5452804744
 30
0.0
 10
4.016946138
 20
5.5388298305
 30
0.0
 10
4.0183983194
 20
5.532777055
 30
0.0
 10
4.0202336657
 20
5.5272386421
 30
0.0
 10
4.0221047349
 20
5.5230443017
 30
0.0
 10
4.0237902247
 20
5.5200561264
 30
0.0
 10
4.0254930325
 20
5.5174666659
 30
0.0
 10
4.0269473742
 20
5.515715894
 30
0.0
 10
4.0279927649
 20
5.5146877061
 30
0.0
  0
SPLINE
  5
3C3
100
AcDbEntity
  8
ALL_ASSEMBLY_MEMBERS
100
AcDbSpline
 62
7
  6
CONTINUOUS
 70
0
 71
3
 72
10
 73
6
 74
0
 42
0.0000001
 43
0.0000001
 44
0.0000000001
 40
0.0
 40
0.0
 40
0.0
 40
0.0
 40
0.5205605889
 40
0.764492955
 40
1.0
 40
1.0
 40
1.0
 40
1.0
 10
4.0279927649
 20
5.5146877061
 30
0.0
 10
4.0288650944
 20
5.5138297317
 30
0.0
 10
4.0302595936
 20
5.5126716063
 30
0.0
 10
4.0322938751
 20
5.5114864723
 30
0.0
 10
4.0333306755
 20
5.511036271
 30
0.0
 10
4.033851312
 20
5.5108482485
 30
0.0
  0
SPLINE
  5
3C4
100
AcDbEntity
  8
ALL_ASSEMBLY_MEMBERS
100
AcDbSpline
 62
7
  6
CONTINUOUS
 70
0
 71
3
 72
19
 73
15
 74
0
 42
0.0000001
 43
0.0000001
 44
0.0000000001
 40
0.0
 40
0.0
 40
0.0
 40
0.0
 40
0.1407707105
 40
0.2793898219
 40
0.4136194804
 40
0.4787029053
 40
0.5422358293
 40
0.6643036032
 40
0.7230428857
 40
0.7803570247
 40
0.8364419565
 40
0.8915430614
 40
0.945953901
 40
1.0
 40
1.0
 40
1.0
 40
1.0
 10
4.161672624
 20
5.5588517081
 30
0.0
 10
4.161672624
 20
5.5558494177
 30
0.0
 10
4.1620708782
 20
5.5498827186
 30
0.0
 10
4.1638446321
 20
5.5412148216
 30
0.0
 10
4.1662958054
 20
5.534405073
 30
0.0
 10
4.16881065
 20
5.5293883822
 30
0.0
 10
4.1715941589
 20
5.5248187082
 30
0.0
 10
4.1748834684
 20
5.5207302778
 30
0.0
 10
4.1786257541
 20
5.5172861906
 30
0.0
 10
4.1815780579
 20
5.5150916123
 30
0.0
 10
4.1846861992
 20
5.5132730065
 30
0.0
 10
4.1879253457
 20
5.5118450395
 30
0.0
 10
4.1912694399
 20
5.5108247042
 30
0.0
 10
4.1935536682
 20
5.5104199841
 30
0.0
 10
4.1946987788
 20
5.5102881942
 30
0.0
  0
SPLINE
  5
3C5
100
AcDbEntity
  8
ALL_ASSEMBLY_MEMBERS
100
AcDbSpline
 62
7
  6
CONTINUOUS
 70
0
 71
3
 72
18
 73
14
 74
0
 42
0.0000001
 43
0.0000001
 44
0.0000000001
 40
0.0
 40
0.0
 40
0.0
 40
0.0
 40
0.1291606242
 40
0.1936542708
 40
0.257845836
 40
0.385021744
 40
0.5105864473
 40
0.5727985462
 40
0.6346112459
 40
0.6960657933
 40
0.7572194707
 40
0.8787594297
 40
1.0
 40
1.0
 40
1.0
 40
1.0
 10
4.3681324112
 20
5.5588517081
 30
0.0
 10
4.3681324112
 20
5.5558196501
 30
0.0
 10
4.3685248561
 20
5.5512611363
 30
0.0
 10
4.369814582
 20
5.5453415768
 30
0.0
 10
4.3716025747
 20
5.5396002692
 30
0.0
 10
4.3747427351
 20
5.5328098953
 30
0.0
 10
4.3790292952
 20
5.5267307246
 30
0.0
 10
4.3830480979
 20
5.5224568367
 30
0.0
 10
4.3863234743
 20
5.5195776751
 30
0.0
 10
4.3898396878
 20
5.5170399605
 30
0.0
 10
4.3947995904
 20
5.5141525196
 30
0.0
 10
4.4014708243
 20
5.511487617
 30
0.0
 10
4.4071224499
 20
5.5104647408
 30
0.0
 10
4.4099595382
 20
5.5102380066
 30
0.0
  0
SPLINE
  5
3C6
100
AcDbEntity
  8
ALL_ASSEMBLY_MEMBERS
100
AcDbSpline
 62
7
  6
CONTINUOUS
 70
0
 71
3
 72
18
 73
14
 74
0
 42
0.0000001
 43
0.0000001
 44
0.0000000001
 40
0.0
 40
0.0
 40
0.0
 40
0.0
 40
0.1291150761
 40
0.1935907947
 40
0.2577713061
 40
0.3849490713
 40
0.5105432161
 40
0.5727761865
 40
0.6346109105
 40
0.6960851652
 40
0.7572515222
 40
0.8787951099
 40
1.0
 40
1.0
 40
1.0
 40
1.0
 10
4.9485601354
 20
5.6688517081
 30
0.0
 10
4.9485601354
 20
5.6718454735
 30
0.0
 10
4.9481775367
 20
5.6763462107
 30
0.0
 10
4.946920089
 20
5.682194716
 30
0.0
 10
4.9451762536
 20
5.6878715365
 30
0.0
 10
4.9421126311
 20
5.6945952817
 30
0.0
 10
4.937927412
 20
5.7006337821
 30
0.0
 10
4.9340000999
 20
5.7048964054
 30
0.0
 10
4.9307968213
 20
5.7077779613
 30
0.0
 10
4.9273555193
 20
5.7103296671
 30
0.0
 10
4.9224974165
 20
5.7132519554
 30
0.0
 10
4.915953649
 20
5.715990796
 30
0.0
 10
4.9103935404
 20
5.7171070202
 30
0.0
 10
4.9075972243
 20
5.7173875607
 30
0.0
  0
SPLINE
  5
3C7
100
AcDbEntity
  8
ALL_ASSEMBLY_MEMBERS
100
AcDbSpline
 62
7
  6
CONTINUOUS
 70
0
 71
3
 72
19
 73
15
 74
0
 42
0.0000001
 43
0.0000001
 44
0.0000000001
 40
0.0
 40
0.0
 40
0.0
 40
0.0
 40
0.1403168911
 40
0.278597305
 40
0.4127093717
 40
0.4778222129
 40
0.5414412543
 40
0.6638290619
 40
0.7227549488
 40
0.7802480177
 40
0.836477687
 40
0.8916641768
 40
0.946072409
 40
1.0
 40
1.0
 40
1.0
 40
1.0
 10
5.1550199226
 20
5.6688517081
 30
0.0
 10
5.1550199226
 20
5.6717731543
 30
0.0
 10
5.1546427579
 20
5.6775810177
 30
0.0
 10
5.1529618919
 20
5.686032179
 30
0.0
 10
5.1506387115
 20
5.6926931584
 30
0.0
 10
5.1482537138
 20
5.6976245224
 30
0.0
 10
5.1456090354
 20
5.7021391559
 30
0.0
 10
5.1424824713
 20
5.7062089781
 30
0.0
 10
5.1389175498
 20
5.709684348
 30
0.0
 10
5.1361008688
 20
5.7119280963
 30
0.0
 10
5.1331304431
 20
5.7138231534
 30
0.0
 10
5.1300267711
 20
5.715352137
 30
0.0
 10
5.126815151
 20
5.7165035035
 30
0.0
 10
5.1246114892
 20
5.7170128844
 30
0.0
 10
5.1235045043
 20
5.7172006192
 30
0.0
  0
SPLINE
  5
3C8
100
AcDbEntity
  8
ALL_ASSEMBLY_MEMBERS
100
AcDbSpline
 62
7
  6
CONTINUOUS
 70
0
 71
3
 72
15
 73
11
 74
0
 42
0.0000001
 43
0.0000001
 44
0.0000000001
 40
0.0
 40
0.0
 40
0.0
 40
0.0
 40
0.1455030411
 40
0.2889898575
 40
0.427970288
 40
0.5605473463
 40
0.6850868229
 40
0.8002555591
 40
0.9052611015
 40
1.0
 40
1.0
 40
1.0
 40
1.0
 10
5.3015735376
 20
5.6688517081
 30
0.0
 10
5.3015735376
 20
5.6710913469
 30
0.0
 10
5.3014380865
 20
5.6755407757
 30
0.0
 10
5.3008338135
 20
5.6821046767
 30
0.0
 10
5.2998321612
 20
5.6884192518
 30
0.0
 10
5.2984471465
 20
5.6943627398
 30
0.0
 10
5.2966959309
 20
5.6998265175
 30
0.0
 10
5.2945985573
 20
5.7047111784
 30
0.0
 10
5.2921827468
 20
5.7089269935
 30
0.0
 10
5.2902807592
 20
5.7113629422
 30
0.0
 10
5.2892799626
 20
5.7124235653
 30
0.0
  0
LINE
  5
3C9
100
AcDbEntity
  8
ALL_ASSEMBLY_MEMBERS
100
AcDbLine
 62
7
  6
CONTINUOUS
 10
5.2892799626
 20
5.7124235653
 11
5.2864328626
 21
5.7149366125
  0
LINE
  5
3CA
100
AcDbEntity
  8
ALL_ASSEMBLY_MEMBERS
100
AcDbLine
 62
7
  6
CONTINUOUS
 10
5.2864328626
 20
5.7149366125
 11
5.28444226
 21
5.7161573635
  0
SPLINE
  5
3CB
100
AcDbEntity
  8
ALL_ASSEMBLY_MEMBERS
100
AcDbSpline
 62
7
  6
CONTINUOUS
 70
0
 71
3
 72
11
 73
7
 74
0
 42
0.0000001
 43
0.0000001
 44
0.0000000001
 40
0.0
 40
0.0
 40
0.0
 40
0.0
 40
0.2679627272
 40
0.52884168
 40
0.7749974732
 40
1.0
 40
1.0
 40
1.0
 40
1.0
 10
5.3705444515
 20
5.6688517081
 30
0.0
 10
5.3705444515
 20
5.6715481968
 30
0.0
 10
5.3704978914
 20
5.6768700103
 30
0.0
 10
5.3702863702
 20
5.6846663912
 30
0.0
 10
5.3699288282
 20
5.6920247308
 30
0.0
 10
5.3695713073
 20
5.6967534504
 30
0.0
 10
5.3693568033
 20
5.6990074501
 30
0.0
  0
LINE
  5
3CC
100
AcDbEntity
  8
ALL_ASSEMBLY_MEMBERS
100
AcDbLine
 62
7
  6
CONTINUOUS
 10
5.3693568033
 20
5.6990074501
 11
5.3684867854
 21
5.7061576956
  0
SPLINE
  5
3CD
100
AcDbEntity
  8
ALL_ASSEMBLY_MEMBERS
100
AcDbSpline
 62
7
  6
CONTINUOUS
 70
0
 71
3
 72
19
 73
15
 74
0
 42
0.0000001
 43
0.0000001
 44
0.0000000001
 40
0.0
 40
0.0
 40
0.0
 40
0.0
 40
0.1738730793
 40
0.3320414766
 40
0.4730714603
 40
0.5974782609
 40
0.6540353762
 40
0.7073191455
 40
0.7579241781
 40
0.8065907407
 40
0.8541633523
 40
0.9016093028
 40
0.949945696
 40
1.0
 40
1.0
 40
1.0
 40
1.0
 10
4.0095823659
 20
5.6941017081
 30
0.0
 10
4.010051252
 20
5.6958218303
 30
0.0
 10
4.0109675645
 20
5.6991011598
 30
0.0
 10
4.0124297661
 20
5.7037283622
 30
0.0
 10
4.0139932006
 20
5.7077846156
 30
0.0
 10
4.015490486
 20
5.7107393376
 30
0.0
 10
4.0168285241
 20
5.7127376501
 30
0.0
 10
4.0178717547
 20
5.7140136389
 30
0.0
 10
4.0189951626
 20
5.7151077357
 30
0.0
 10
4.0202041738
 20
5.7160129913
 30
0.0
 10
4.0215005719
 20
5.7167238703
 30
0.0
 10
4.0228851264
 20
5.7172339872
 30
0.0
 10
4.0243546955
 20
5.7175371808
 30
0.0
 10
4.0253651429
 20
5.7176008016
 30
0.0
 10
4.0258783966
 20
5.7176008117
 30
0.0
  0
SPLINE
  5
3CE
100
AcDbEntity
  8
ALL_ASSEMBLY_MEMBERS
100
AcDbSpline
 62
7
  6
CONTINUOUS
 70
0
 71
3
 72
22
 73
18
 74
0
 42
0.0000001
 43
0.0000001
 44
0.0000000001
 40
0.0
 40
0.0
 40
0.0
 40
0.0
 40
0.2119154875
 40
0.4024320181
 40
0.5684380201
 40
0.6416452723
 40
0.7080201956
 40
0.7673439009
 40
0.8194365072
 40
0.8642051589
 40
0.9017358806
 40
0.932429675
 40
0.9573086546
 40
0.9682547787
 40
0.978707801
 40
0.989134133
 40
1.0
 40
1.0
 40
1.0
 40
1.0
 10
3.9370683154
 20
5.6941017081
 30
0.0
 10
3.9371896686
 20
5.6958145913
 30
0.0
 10
3.9373375557
 20
5.6990736333
 30
0.0
 10
3.9373643399
 20
5.7036803692
 30
0.0
 10
3.9372997992
 20
5.7071620167
 30
0.0
 10
3.9372532706
 20
5.7096377893
 30
0.0
 10
3.937237593
 20
5.7112495214
 30
0.0
 10
3.9372514135
 20
5.71269026
 30
0.0
 10
3.9373064674
 20
5.7139550533
 30
0.0
 10
3.9374147281
 20
5.7150394544
 30
0.0
 10
3.9375867673
 20
5.7159407892
 30
0.0
 10
3.9378289669
 20
5.716658279
 30
0.0
 10
3.9381165081
 20
5.7171249817
 30
0.0
 10
3.9383964676
 20
5.7173782034
 30
0.0
 10
3.9386216034
 20
5.7175081832
 30
0.0
 10
3.9388691105
 20
5.7175852454
 30
0.0
 10
3.9390422814
 20
5.7176008185
 30
0.0
 10
3.9391303289
 20
5.7176008192
 30
0.0
  0
SPLINE
  5
3CF
100
AcDbEntity
  8
ALL_ASSEMBLY_MEMBERS
100
AcDbSpline
 62
7
  6
CONTINUOUS
 70
0
 71
3
 72
15
 73
11
 74
0
 42
0.0000001
 43
0.0000001
 44
0.0000000001
 40
0.0
 40
0.0
 40
0.0
 40
0.0
 40
0.1261519994
 40
0.2499425439
 40
0.3721394404
 40
0.4938271836
 40
0.6163779127
 40
0.7410740804
 40
0.8689559082
 40
1.0
 40
1.0
 40
1.0
 40
1.0
 10
4.9081273496
 20
5.7176008192
 30
0.0
 10
4.910078637
 20
5.7176008224
 30
0.0
 10
4.9139508052
 20
5.7173386903
 30
0.0
 10
4.9195980847
 20
5.7161292389
 30
0.0
 10
4.9249481783
 20
5.7141416189
 30
0.0
 10
4.9299368467
 20
5.7114107002
 30
0.0
 10
4.9345257311
 20
5.70798881
 30
0.0
 10
4.9386883098
 20
5.7039232404
 30
0.0
 10
4.9423957933
 20
5.6992731957
 30
0.0
 10
4.9445285783
 20
5.6958724479
 30
0.0
 10
4.9455150037
 20
5.6941017081
 30
0.0
  0
SPLINE
  5
3D0
100
AcDbEntity
  8
ALL_ASSEMBLY_MEMBERS
100
AcDbSpline
 62
7
  6
CONTINUOUS
 70
0
 71
3
 72
25
 73
21
 74
0
 42
0.0000001
 43
0.0000001
 44
0.0000000001
 40
0.0
 40
0.0
 40
0.0
 40
0.0
 40
0.1888106436
 40
0.3705729225
 40
0.4565332828
 40
0.5381660784
 40
0.6147388385
 40
0.6855542999
 40
0.7499619706
 40
0.8074532183
 40
0.8575890157
 40
0.9000697972
 40
0.9184174063
 40
0.9348466903
 40
0.9493970027
 40
0.9621550458
 40
0.9732784294
 40
0.9830157851
 40
0.9917460532
 40
1.0
 40
1.0
 40
1.0
 40
1.0
 10
5.3804151031
 20
5.5588517081
 30
0.0
 10
5.3804151031
 20
5.5556815963
 30
0.0
 10
5.3803507146
 20
5.5494595434
 30
0.0
 10
5.3801024841
 20
5.5417975657
 30
0.0
 10
5.3797898867
 20
5.535940057
 30
0.0
 10
5.3795057683
 20
5.5318501842
 30
0.0
 10
5.3791668422
 20
5.5280196411
 30
0.0
 10
5.3787723963
 20
5.5244851577
 30
0.0
 10
5.3783212491
 20
5.521280579
 30
0.0
 10
5.377814796
 20
5.5184359691
 30
0.0
 10
5.3772535755
 20
5.5159778623
 30
0.0
 10
5.3767190109
 20
5.5141905633
 30
0.0
 10
5.3762531468
 20
5.5129792769
 30
0.0
 10
5.3759083415
 20
5.5122255445
 30
0.0
 10
5.3755510695
 20
5.5115828694
 30
0.0
 10
5.375181107
 20
5.5110524576
 30
0.0
 10
5.3747983391
 20
5.5106347178
 30
0.0
 10
5.3744012042
 20
5.5103306159
 30
0.0
 10
5.3739882093
 20
5.5101437486
 30
0.0
 10
5.3737014869
 20
5.5101017093
 30
0.0
 10
5.3735629039
 20
5.5101017081
 30
0.0
  0
SPLINE
  5
3D1
100
AcDbEntity
  8
ALL_ASSEMBLY_MEMBERS
100
AcDbSpline
 62
7
  6
CONTINUOUS
 70
0
 71
3
 72
20
 73
16
 74
0
 42
0.0000001
 43
0.0000001
 44
0.0000000001
 40
0.0
 40
0.0
 40
0.0
 40
0.0
 40
0.1214092955
 40
0.182184308
 40
0.2430703023
 40
0.3041544415
 40
0.3655151475
 40
0.4272251081
 40
0.489336363
 40
0.6147353614
 40
0.6781594922
 40
0.7419880675
 40
0.8061905021
 40
0.8707197307
 40
1.0
 40
1.0
 40
1.0
 40
1.0
 10
4.4099541442
 20
5.5101017081
 30
0.0
 10
4.4069650682
 20
5.5101017007
 30
0.0
 10
4.4024611608
 20
5.5105751178
 30
0.0
 10
4.3966740238
 20
5.5121278479
 30
0.0
 10
4.3924662424
 20
5.5137454697
 30
0.0
 10
4.3884362741
 20
5.5157955936
 30
0.0
 10
4.3846222569
 20
5.518261603
 30
0.0
 10
4.3810588409
 20
5.5211185284
 30
0.0
 10
4.3766726478
 20
5.5254204998
 30
0.0
 10
4.3729257201
 20
5.5303908804
 30
0.0
 10
4.3699198913
 20
5.5358442992
 30
0.0
 10
4.3680395452
 20
5.5401744541
 30
0.0
 10
4.366558044
 20
5.5446853298
 30
0.0
 10
4.3651368448
 20
5.5508826807
 30
0.0
 10
4.3647043699
 20
5.5556688501
 30
0.0
 10
4.3647043699
 20
5.5588517081
 30
0.0
  0
SPLINE
  5
3D2
100
AcDbEntity
  8
ALL_ASSEMBLY_MEMBERS
100
AcDbSpline
 62
7
  6
CONTINUOUS
 70
0
 71
3
 72
9
 73
5
 74
0
 42
0.0000001
 43
0.0000001
 44
0.0000000001
 40
0.0
 40
0.0
 40
0.0
 40
0.0
 40
0.5028060153
 40
1.0
 40
1.0
 40
1.0
 40
1.0
 10
4.3647043699
 20
5.6688517081
 30
0.0
 10
4.3647043699
 20
5.6732558215
 30
0.0
 10
4.365796404
 20
5.6820498998
 30
0.0
 10
4.3690581884
 20
5.6902972385
 30
0.0
 10
4.3711775429
 20
5.6941017081
 30
0.0
  0
SPLINE
  5
3D3
100
AcDbEntity
  8
ALL_ASSEMBLY_MEMBERS
100
AcDbSpline
 62
7
  6
CONTINUOUS
 70
0
 71
3
 72
11
 73
7
 74
0
 42
0.0000001
 43
0.0000001
 44
0.0000000001
 40
0.0
 40
0.0
 40
0.0
 40
0.0
 40
0.2618163478
 40
0.518903295
 40
0.7664750463
 40
1.0
 40
1.0
 40
1.0
 40
1.0
 10
3.9362774435
 20
5.6688517081
 30
0.0
 10
3.9362774435
 20
5.671056816
 30
0.0
 10
3.9363091053
 20
5.6754272663
 30
0.0
 10
3.9364523367
 20
5.6818814568
 30
0.0
 10
3.9366936041
 20
5.6880943079
 30
0.0
 10
3.9369293193
 20
5.6921397976
 30
0.0
 10
3.9370683154
 20
5.6941017081
 30
0.0
  0
SPLINE
  5
3D4
100
AcDbEntity
  8
ALL_ASSEMBLY_MEMBERS
100
AcDbSpline
 62
7
  6
CONTINUOUS
 70
0
 71
3
 72
22
 73
18
 74
0
 42
0.0000001
 43
0.0000001
 44
0.0000000001
 40
0.0
 40
0.0
 40
0.0
 40
0.0
 40
0.0108661506
 40
0.0212925797
 40
0.0317454566
 40
0.0426912836
 40
0.0675700703
 40
0.0982637141
 40
0.1357943668
 40
0.1805634274
 40
0.2326568127
 40
0.2919813381
 40
0.3583568367
 40
0.4315642025
 40
0.5975694315
 40
0.788085043
 40
1.0
 40
1.0
 40
1.0
 40
1.0
 10
5.3775622178
 20
5.7176008192
 30
0.0
 10
5.3776502675
 20
5.71760082
 30
0.0
 10
5.3778234419
 20
5.7175852506
 30
0.0
 10
5.3780709525
 20
5.7175081928
 30
0.0
 10
5.3782960866
 20
5.7173782136
 30
0.0
 10
5.378576027
 20
5.7171249782
 30
0.0
 10
5.3788635636
 20
5.7166582835
 30
0.0
 10
5.3791057804
 20
5.7159408021
 30
0.0
 10
5.3792778297
 20
5.7150394669
 30
0.0
 10
5.3793860723
 20
5.7139550544
 30
0.0
 10
5.3794411249
 20
5.712690245
 30
0.0
 10
5.3794549476
 20
5.7112494885
 30
0.0
 10
5.3794392761
 20
5.709637744
 30
0.0
 10
5.3793927515
 20
5.7071619716
 30
0.0
 10
5.3793282061
 20
5.7036803365
 30
0.0
 10
5.3793549901
 20
5.6990736178
 30
0.0
 10
5.3795028783
 20
5.6958145872
 30
0.0
 10
5.3796242312
 20
5.6941017081
 30
0.0
  0
SPLINE
  5
3D5
100
AcDbEntity
  8
ALL_ASSEMBLY_MEMBERS
100
AcDbSpline
 62
7
  6
CONTINUOUS
 70
0
 71
3
 72
19
 73
15
 74
0
 42
0.0000001
 43
0.0000001
 44
0.0000000001
 40
0.0
 40
0.0
 40
0.0
 40
0.0
 40
0.0544146543
 40
0.1089082863
 40
0.1638563784
 40
0.2196215616
 40
0.2765198028
 40
0.3348110247
 40
0.4560999692
 40
0.5194092727
 40
0.5844091382
 40
0.7188733225
 40
0.8582077646
 40
1.0
 40
1.0
 40
1.0
 40
1.0
 10
4.1915217718
 20
5.5101017081
 30
0.0
 10
4.1903021797
 20
5.5101017056
 30
0.0
 10
4.1878583119
 20
5.5102593488
 30
0.0
 10
4.1842446656
 20
5.510965955
 30
0.0
 10
4.1807212359
 20
5.5121367522
 30
0.0
 10
4.1773235184
 20
5.5137608445
 30
0.0
 10
4.1740802746
 20
5.5158180362
 30
0.0
 10
4.169951378
 20
5.5191561623
 30
0.0
 10
4.1663027175
 20
5.5232568654
 30
0.0
 10
4.1632090622
 20
5.5279240085
 30
0.0
 10
4.1604029904
 20
5.5331103664
 30
0.0
 10
4.157661265
 20
5.5402308501
 30
0.0
 10
4.1556758035
 20
5.5493632915
 30
0.0
 10
4.1552300137
 20
5.555673728
 30
0.0
 10
4.1552300137
 20
5.5588517081
 30
0.0
  0
SPLINE
  5
3D6
100
AcDbEntity
  8
ALL_ASSEMBLY_MEMBERS
100
AcDbSpline
 62
7
  6
CONTINUOUS
 70
0
 71
3
 72
20
 73
16
 74
0
 42
0.0000001
 43
0.0000001
 44
0.0000000001
 40
0.0
 40
0.0
 40
0.0
 40
0.0
 40
0.1292799827
 40
0.1938093199
 40
0.2580118008
 40
0.3218403434
 40
0.3852643928
 40
0.510663401
 40
0.5727746688
 40
0.6344846557
 40
0.6958454038
 40
0.7569296033
 40
0.8178157169
 40
0.8785907889
 40
1.0
 40
1.0
 40
1.0
 40
1.0
 10
4.9519881767
 20
5.5588517081
 30
0.0
 10
4.9519881767
 20
5.5556688571
 30
0.0
 10
4.9515556938
 20
5.5508826936
 30
0.0
 10
4.9501345086
 20
5.5446853431
 30
0.0
 10
4.9486530057
 20
5.5401744643
 30
0.0
 10
4.9467726606
 20
5.5358443112
 30
0.0
 10
4.9437668381
 20
5.5303908915
 30
0.0
 10
4.9400199061
 20
5.5254205171
 30
0.0
 10
4.9356337218
 20
5.521118534
 30
0.0
 10
4.932070293
 20
5.5182616221
 30
0.0
 10
4.9282562885
 20
5.515795588
 30
0.0
 10
4.9242263064
 20
5.5137454756
 30
0.0
 10
4.9200185178
 20
5.5121278619
 30
0.0
 10
4.9142313872
 20
5.5105750899
 30
0.0
 10
4.9097274762
 20
5.5101017275
 30
0.0
 10
4.9067384024
 20
5.5101017082
 30
0.0
  0
SPLINE
  5
3D7
100
AcDbEntity
  8
ALL_ASSEMBLY_MEMBERS
100
AcDbSpline
 62
7
  6
CONTINUOUS
 70
0
 71
3
 72
9
 73
5
 74
0
 42
0.0000001
 43
0.0000001
 44
0.0000000001
 40
0.0
 40
0.0
 40
0.0
 40
0.0
 40
0.4971947266
 40
1.0
 40
1.0
 40
1.0
 40
1.0
 10
4.9455150037
 20
5.6941017081
 30
0.0
 10
4.9476343614
 20
5.6902972329
 30
0.0
 10
4.9508961408
 20
5.6820498922
 30
0.0
 10
4.9519881767
 20
5.6732558149
 30
0.0
 10
4.9519881767
 20
5.6688517081
 30
0.0
  0
SPLINE
  5
3D8
100
AcDbEntity
  8
ALL_ASSEMBLY_MEMBERS
100
AcDbSpline
 62
7
  6
CONTINUOUS
 70
0
 71
3
 72
19
 73
15
 74
0
 42
0.0000001
 43
0.0000001
 44
0.0000000001
 40
0.0
 40
0.0
 40
0.0
 40
0.0
 40
0.0500548832
 40
0.0983903094
 40
0.1458359427
 40
0.1934092798
 40
0.2420765935
 40
0.2926820286
 40
0.3459664575
 40
0.4025242787
 40
0.5269314581
 40
0.667960401
 40
0.8261278162
 40
1.0
 40
1.0
 40
1.0
 40
1.0
 10
5.2908141461
 20
5.7176008081
 30
0.0
 10
5.2913274058
 20
5.7176008051
 30
0.0
 10
5.2923378519
 20
5.7175372078
 30
0.0
 10
5.2938074101
 20
5.7172339877
 30
0.0
 10
5.2951919494
 20
5.7167238511
 30
0.0
 10
5.2964883656
 20
5.7160129833
 30
0.0
 10
5.2976974065
 20
5.7151077328
 30
0.0
 10
5.2988208158
 20
5.7140136095
 30
0.0
 10
5.2998640504
 20
5.7127376012
 30
0.0
 10
5.3012020936
 20
5.7107392705
 30
0.0
 10
5.3026993818
 20
5.7077845495
 30
0.0
 10
5.3042627989
 20
5.703728307
 30
0.0
 10
5.3057249879
 20
5.6991011321
 30
0.0
 10
5.306641297
 20
5.6958218215
 30
0.0
 10
5.3071101806
 20
5.6941017081
 30
0.0
  0
SPLINE
  5
3D9
100
AcDbEntity
  8
ALL_ASSEMBLY_MEMBERS
100
AcDbSpline
 62
7
  6
CONTINUOUS
 70
0
 71
3
 72
11
 73
7
 74
0
 42
0.0000001
 43
0.0000001
 44
0.0000000001
 40
0.0
 40
0.0
 40
0.0
 40
0.0
 40
0.2553751242
 40
0.5085712563
 40
0.7574046366
 40
1.0
 40
1.0
 40
1.0
 40
1.0
 10
4.1552300137
 20
5.6688517081
 30
0.0
 10
4.1552300137
 20
5.6710594356
 30
0.0
 10
4.155446086
 20
5.6754590873
 30
0.0
 10
4.1564127731
 20
5.6819459303
 30
0.0
 10
4.1580099066
 20
5.6881934824
 30
0.0
 10
4.1594999431
 20
5.6921830957
 30
0.0
 10
4.1603469185
 20
5.6941017081
 30
0.0
  0
SPLINE
  5
3DA
100
AcDbEntity
  8
ALL_ASSEMBLY_MEMBERS
100
AcDbSpline
 62
7
  6
CONTINUOUS
 70
0
 71
3
 72
22
 73
18
 74
0
 42
0.0000001
 43
0.0000001
 44
0.0000000001
 40
0.0
 40
0.0
 40
0.0
 40
0.0
 40
0.0409158476
 40
0.0825585687
 40
0.1260383446
 40
0.1722846125
 40
0.1966783974
 40
0.2219944774
 40
0.2755535102
 40
0.3331974273
 40
0.3949445858
 40
0.4606817679
 40
0.5301337372
 40
0.6029370589
 40
0.6786669622
 40
0.8368839682
 40
1.0
 40
1.0
 40
1.0
 40
1.0
 10
4.0293953238
 20
5.5101017081
 30
0.0
 10
4.0285994255
 20
5.5101017056
 30
0.0
 10
4.0269890134
 20
5.5102621392
 30
0.0
 10
4.0246303595
 20
5.5109819148
 30
0.0
 10
4.0223529147
 20
5.512169686
 30
0.0
 10
4.0205731081
 20
5.5135116921
 30
0.0
 10
4.0192074092
 20
5.5147855545
 30
0.0
 10
4.0178311143
 20
5.5162506598
 30
0.0
 10
4.0161979232
 20
5.5183526795
 30
0.0
 10
4.0144178759
 20
5.5212131481
 30
0.0
 10
4.0127921729
 20
5.5244311333
 30
0.0
 10
4.0113340334
 20
5.5279771808
 30
0.0
 10
4.0100504885
 20
5.5318169235
 30
0.0
 10
4.0089504037
 20
5.535914458
 30
0.0
 10
4.007720759
 20
5.5417558571
 30
0.0
 10
4.0067071334
 20
5.5494250983
 30
0.0
 10
4.0064389036
 20
5.555678762
 30
0.0
 10
4.0064389036
 20
5.5588517081
 30
0.0
  0
SPLINE
  5
3DB
100
AcDbEntity
  8
ALL_ASSEMBLY_MEMBERS
100
AcDbSpline
 62
7
  6
CONTINUOUS
 70
0
 71
3
 72
19
 73
15
 74
0
 42
0.0000001
 43
0.0000001
 44
0.0000000001
 40
0.0
 40
0.0
 40
0.0
 40
0.0
 40
0.1417921064
 40
0.2811265937
 40
0.4155907567
 40
0.480590623
 40
0.5438999698
 40
0.6651889809
 40
0.7234802513
 40
0.7803785219
 40
0.8361437378
 40
0.8910918181
 40
0.9455854174
 40
1.0
 40
1.0
 40
1.0
 40
1.0
 10
5.1614625329
 20
5.5588517081
 30
0.0
 10
5.1614625329
 20
5.555673731
 30
0.0
 10
5.1610167418
 20
5.5493632965
 30
0.0
 10
5.1590312836
 20
5.5402308573
 30
0.0
 10
5.1562895612
 20
5.5331103713
 30
0.0
 10
5.1534834848
 20
5.5279240157
 30
0.0
 10
5.1503898335
 20
5.5232568668
 30
0.0
 10
5.1467411643
 20
5.5191561674
 30
0.0
 10
5.1426122723
 20
5.5158180308
 30
0.0
 10
5.1393690222
 20
5.5137608432
 30
0.0
 10
5.1359713023
 20
5.5121367555
 30
0.0
 10
5.1324478767
 20
5.510965946
 30
0.0
 10
5.1288342298
 20
5.5102593531
 30
0.0
 10
5.1263903653
 20
5.5101017105
 30
0.0
 10
5.1251707748
 20
5.5101017081
 30
0.0
  0
SPLINE
  5
3DC
100
AcDbEntity
  8
ALL_ASSEMBLY_MEMBERS
100
AcDbSpline
 62
7
  6
CONTINUOUS
 70
0
 71
3
 72
11
 73
7
 74
0
 42
0.0000001
 43
0.0000001
 44
0.0000000001
 40
0.0
 40
0.0
 40
0.0
 40
0.0
 40
0.2425953459
 40
0.4914294959
 40
0.7446255445
 40
1.0
 40
1.0
 40
1.0
 40
1.0
 10
5.1563456281
 20
5.6941017081
 30
0.0
 10
5.1571926034
 20
5.6921830958
 30
0.0
 10
5.1586826437
 20
5.6881934768
 30
0.0
 10
5.1602797728
 20
5.6819459177
 30
0.0
 10
5.1612464655
 20
5.6754590754
 30
0.0
 10
5.1614625329
 20
5.6710594298
 30
0.0
 10
5.1614625329
 20
5.6688517081
 30
0.0
  0
SPLINE
  5
3DD
100
AcDbEntity
  8
ALL_ASSEMBLY_MEMBERS
100
AcDbSpline
 62
7
  6
CONTINUOUS
 70
0
 71
3
 72
15
 73
11
 74
0
 42
0.0000001
 43
0.0000001
 44
0.0000000001
 40
0.0
 40
0.0
 40
0.0
 40
0.0
 40
0.1198699347
 40
0.2358261639
 40
0.3506346133
 40
0.467337872
 40
0.5888747911
 40
0.7174903543
 40
0.8546063268
 40
1.0
 40
1.0
 40
1.0
 40
1.0
 10
5.1277811416
 20
5.7176008192
 30
0.0
 10
5.1293533798
 20
5.7176008224
 30
0.0
 10
5.1324550098
 20
5.7173460096
 30
0.0
 10
5.1369168444
 20
5.7161285434
 30
0.0
 10
5.1410364608
 20
5.7141181774
 30
0.0
 10
5.1447832244
 20
5.7113587641
 30
0.0
 10
5.1481678483
 20
5.7079145178
 30
0.0
 10
5.1512189275
 20
5.7038379407
 30
0.0
 10
5.1539666785
 20
5.6991887611
 30
0.0
 10
5.1555754787
 20
5.6958462903
 30
0.0
 10
5.1563456281
 20
5.6941017081
 30
0.0
  0
SPLINE
  5
3DE
100
AcDbEntity
  8
ALL_ASSEMBLY_MEMBERS
100
AcDbSpline
 62
7
  6
CONTINUOUS
 70
0
 71
3
 72
25
 73
21
 74
0
 42
0.0000001
 43
0.0000001
 44
0.0000000001
 40
0.0
 40
0.0
 40
0.0
 40
0.0
 40
0.0082539689
 40
0.0169842513
 40
0.0267216428
 40
0.0378450645
 40
0.0506031015
 40
0.0651533506
 40
0.0815826238
 40
0.0999302607
 40
0.1424110789
 40
0.1925467779
 40
0.2500380267
 40
0.3144456463
 40
0.3852610349
 40
0.4618338081
 40
0.5434666145
 40
0.6294269791
 40
0.8111891867
 40
1.0
 40
1.0
 40
1.0
 40
1.0
 10
3.9431296427
 20
5.5101017081
 30
0.0
 10
3.9429910594
 20
5.5101017069
 30
0.0
 10
3.9427043354
 20
5.5101437438
 30
0.0
 10
3.9422913401
 20
5.5103306139
 30
0.0
 10
3.9418942065
 20
5.51063472
 30
0.0
 10
3.94151144
 20
5.5110524624
 30
0.0
 10
3.9411414771
 20
5.5115828732
 30
0.0
 10
3.9407842015
 20
5.5122255447
 30
0.0
 10
3.9404393971
 20
5.5129792769
 30
0.0
 10
3.9399735348
 20
5.5141905649
 30
0.0
 10
3.9394389729
 20
5.5159778641
 30
0.0
 10
3.9388777485
 20
5.518435969
 30
0.0
 10
3.9383712984
 20
5.521280577
 30
0.0
 10
3.937920151
 20
5.5244851537
 30
0.0
 10
3.9375257043
 20
5.5280196353
 30
0.0
 10
3.9371867789
 20
5.5318501778
 30
0.0
 10
3.9369026605
 20
5.5359400511
 30
0.0
 10
3.9365900628
 20
5.541797559
 30
0.0
 10
3.936341832
 20
5.5494595386
 30
0.0
 10
3.9362774435
 20
5.5556815933
 30
0.0
 10
3.9362774435
 20
5.5588517081
 30
0.0
  0
SPLINE
  5
3DF
100
AcDbEntity
  8
ALL_ASSEMBLY_MEMBERS
100
AcDbSpline
 62
7
  6
CONTINUOUS
 70
0
 71
3
 72
11
 73
7
 74
0
 42
0.0000001
 43
0.0000001
 44
0.0000000001
 40
0.0
 40
0.0
 40
0.0
 40
0.0
 40
0.2594021265
 40
0.5150134939
 40
0.7630342153
 40
1.0
 40
1.0
 40
1.0
 40
1.0
 10
4.0064389036
 20
5.6688517081
 30
0.0
 10
4.0064389036
 20
5.6710577582
 30
0.0
 10
4.0065699845
 20
5.6754387543
 30
0.0
 10
4.007157575
 20
5.6819053363
 30
0.0
 10
4.0081306601
 20
5.6881324705
 30
0.0
 10
4.009052371
 20
5.6921574059
 30
0.0
 10
4.0095823659
 20
5.6941017081
 30
0.0
  0
SPLINE
  5
3E0
100
AcDbEntity
  8
ALL_ASSEMBLY_MEMBERS
100
AcDbSpline
 62
7
  6
CONTINUOUS
 70
0
 71
3
 72
22
 73
18
 74
0
 42
0.0000001
 43
0.0000001
 44
0.0000000001
 40
0.0
 40
0.0
 40
0.0
 40
0.0
 40
0.1631158826
 40
0.3213329448
 40
0.3970628419
 40
0.4698661508
 40
0.5393181128
 40
0.6050553511
 40
0.6668025529
 40
0.724446486
 40
0.7780055853
 40
0.8033216738
 40
0.8277154566
 40
0.8739617394
 40
0.9174415209
 40
0.9590842099
 40
1.0
 40
1.0
 40
1.0
 40
1.0
 10
5.310253643
 20
5.5588517081
 30
0.0
 10
5.310253643
 20
5.555678765
 30
0.0
 10
5.3099854123
 20
5.5494251032
 30
0.0
 10
5.3089717891
 20
5.5417558637
 30
0.0
 10
5.3077421443
 20
5.535914464
 30
0.0
 10
5.3066420609
 20
5.5318169297
 30
0.0
 10
5.3053585133
 20
5.5279771872
 30
0.0
 10
5.3039003755
 20
5.5244311372
 30
0.0
 10
5.3022746729
 20
5.521213149
 30
0.0
 10
5.3004946198
 20
5.5183526815
 30
0.0
 10
5.2988614329
 20
5.5162506563
 30
0.0
 10
5.2974851359
 20
5.5147855509
 30
0.0
 10
5.2961194337
 20
5.5135116913
 30
0.0
 10
5.294339625
 20
5.512169689
 30
0.0
 10
5.292062186
 20
5.5109819062
 30
0.0
 10
5.2897035289
 20
5.5102621433
 30
0.0
 10
5.28809312
 20
5.5101017105
 30
0.0
 10
5.2872972228
 20
5.5101017081
 30
0.0
  0
SPLINE
  5
3E1
100
AcDbEntity
  8
ALL_ASSEMBLY_MEMBERS
100
AcDbSpline
 62
7
  6
CONTINUOUS
 70
0
 71
3
 72
11
 73
7
 74
0
 42
0.0000001
 43
0.0000001
 44
0.0000000001
 40
0.0
 40
0.0
 40
0.0
 40
0.0
 40
0.2369657649
 40
0.4849872706
 40
0.7405985489
 40
1.0
 40
1.0
 40
1.0
 40
1.0
 10
5.3071101806
 20
5.6941017081
 30
0.0
 10
5.3076401756
 20
5.6921574061
 30
0.0
 10
5.3085618888
 20
5.6881324645
 30
0.0
 10
5.3095349713
 20
5.681905324
 30
0.0
 10
5.3101225649
 20
5.6754387422
 30
0.0
 10
5.310253643
 20
5.6710577524
 30
0.0
 10
5.310253643
 20
5.6688517081
 30
0.0
  0
SPLINE
  5
3E2
100
AcDbEntity
  8
ALL_ASSEMBLY_MEMBERS
100
AcDbSpline
 62
7
  6
CONTINUOUS
 70
0
 71
3
 72
11
 73
7
 74
0
 42
0.0000001
 43
0.0000001
 44
0.0000000001
 40
0.0
 40
0.0
 40
0.0
 40
0.0
 40
0.2335249325
 40
0.4810974764
 40
0.7381843319
 40
1.0
 40
1.0
 40
1.0
 40
1.0
 10
5.3796242312
 20
5.6941017081
 30
0.0
 10
5.3797632273
 20
5.6921397978
 30
0.0
 10
5.379998943
 20
5.6880943016
 30
0.0
 10
5.3802402102
 20
5.6818814447
 30
0.0
 10
5.3803834416
 20
5.6754272541
 30
0.0
 10
5.3804151031
 20
5.6710568103
 30
0.0
 10
5.3804151031
 20
5.6688517081
 30
0.0
  0
SPLINE
  5
3E3
100
AcDbEntity
  8
ALL_ASSEMBLY_MEMBERS
100
AcDbSpline
 62
7
  6
CONTINUOUS
 70
0
 71
3
 72
15
 73
11
 74
0
 42
0.0000001
 43
0.0000001
 44
0.0000000001
 40
0.0
 40
0.0
 40
0.0
 40
0.0
 40
0.1310443943
 40
0.2589269432
 40
0.3836239163
 40
0.5061739392
 40
0.6278601579
 40
0.7500566532
 40
0.8738473576
 40
1.0
 40
1.0
 40
1.0
 40
1.0
 10
4.3711775429
 20
5.6941017081
 30
0.0
 10
4.3721639706
 20
5.695872452
 30
0.0
 10
4.3742967623
 20
5.6992732144
 30
0.0
 10
4.3780042699
 20
5.7039232773
 30
0.0
 10
4.3821668691
 20
5.7079888432
 30
0.0
 10
4.3867557279
 20
5.7114107306
 30
0.0
 10
4.3917443671
 20
5.7141416196
 30
0.0
 10
4.3970944354
 20
5.7161292254
 30
0.0
 10
4.4027417187
 20
5.7173386929
 30
0.0
 10
4.4066138999
 20
5.717600816
 30
0.0
 10
4.4085651972
 20
5.7176008192
 30
0.0
  0
SPLINE
  5
3E4
100
AcDbEntity
  8
ALL_ASSEMBLY_MEMBERS
100
AcDbSpline
 62
7
  6
CONTINUOUS
 70
0
 71
3
 72
15
 73
11
 74
0
 42
0.0000001
 43
0.0000001
 44
0.0000000001
 40
0.0
 40
0.0
 40
0.0
 40
0.0
 40
0.1453940046
 40
0.282510709
 40
0.411127042
 40
0.5326632206
 40
0.6493650029
 40
0.7641730902
 40
0.8801294381
 40
1.0
 40
1.0
 40
1.0
 40
1.0
 10
4.1603469185
 20
5.6941017081
 30
0.0
 10
4.1611170696
 20
5.6958462943
 30
0.0
 10
4.1627258739
 20
5.6991887787
 30
0.0
 10
4.1654736426
 20
5.703837977
 30
0.0
 10
4.1685247409
 20
5.7079145513
 30
0.0
 10
4.1719093403
 20
5.7113587952
 30
0.0
 10
4.1756560849
 20
5.7141181789
 30
0.0
 10
4.1797756818
 20
5.7161285295
 30
0.0
 10
4.1842375182
 20
5.7173460125
 30
0.0
 10
4.1873391587
 20
5.7176008161
 30
0.0
 10
4.1889114052
 20
5.7176008192
 30
0.0
  0
SPLINE
  5
3E5
100
AcDbEntity
  8
ALL_FEATURES
100
AcDbSpline
 62
7
  6
CONTINUOUS
 70
0
 71
3
 72
63
 73
59
 74
0
 42
0.0000001
 43
0.0000001
 44
0.0000000001
 40
0.0
 40
0.0
 40
0.0
 40
0.0
 40
0.0002494553
 40
0.000459572
 40
0.0007368077
 40
0.0010839387
 40
0.0015023574
 40
0.0019927727
 40
0.002555529
 40
0.003898633
 40
0.0055321882
 40
0.0096691358
 40
0.0149612275
 40
0.0213994538
 40
0.0289675256
 40
0.0376472679
 40
0.0474202316
 40
0.0582640769
 40
0.0701513559
 40
0.0830542274
 40
0.096944204
 40
0.1117875991
 40
0.144189439
 40
0.1799574507
 40
0.2187505172
 40
0.2602046026
 40
0.3039261796
 40
0.3495030316
 40
0.3965039107
 40
0.4444846229
 40
0.4929916457
 40
0.5415665001
 40
0.5897497101
 40
0.6370863466
 40
0.6831282412
 40
0.7274408581
 40
0.7696049879
 40
0.8092219619
 40
0.8459183629
 40
0.8793456321
 40
0.909190879
 40
0.9226792124
 40
0.935168855
 40
0.9466314957
 40
0.9570388771
 40
0.9663654148
 40
0.97459142
 40
0.9816981166
 40
0.9876672692
 40
0.9902210534
 40
0.9924862941
 40
0.9944621282
 40
0.996147851
 40
0.9975430511
 40
0.9986479204
 40
0.9994642597
 40
0.9997662934
 40
1.0
 40
1.0
 40
1.0
 40
1.0
 10
4.2254522367
 20
2.4873865049
 30
0.0
 10
4.2254521162
 20
2.4874585313
 30
0.0
 10
4.2255711222
 20
2.4875666575
 30
0.0
 10
4.2257539865
 20
2.4876581809
 30
0.0
 10
4.2259821507
 20
2.487745407
 30
0.0
 10
4.2262700846
 20
2.4878302131
 30
0.0
 10
4.2266227971
 20
2.4879165138
 30
0.0
 10
4.2270387969
 20
2.4880027217
 30
0.0
 10
4.2277198303
 20
2.4881254319
 30
0.0
 10
4.2287309614
 20
2.4882750275
 30
0.0
 10
4.2307698871
 20
2.4885240863
 30
0.0
 10
4.2339505624
 20
2.4888225788
 30
0.0
 10
4.2385193683
 20
2.4891637725
 30
0.0
 10
4.2440810723
 20
2.4895066325
 30
0.0
 10
4.250622307
 20
2.4898513155
 30
0.0
 10
4.2581275152
 20
2.4901969199
 30
0.0
 10
4.2665793999
 20
2.4905431675
 30
0.0
 10
4.275958092
 20
2.4908898243
 30
0.0
 10
4.2862410426
 20
2.4912368693
 30
0.0
 10
4.297403968
 20
2.4915841876
 30
0.0
 10
4.3094208049
 20
2.4919316671
 30
0.0
 10
4.3270662423
 20
2.4924092522
 30
0.0
 10
4.3510278352
 20
2.4930004401
 30
0.0
 10
4.3819040772
 20
2.4936919023
 30
0.0
 10
4.4153946025
 20
2.4943842825
 30
0.0
 10
4.451182045
 20
2.4950772395
 30
0.0
 10
4.488928542
 20
2.4957706817
 30
0.0
 10
4.5282768458
 20
2.4964644213
 30
0.0
 10
4.5688550921
 20
2.4971583898
 30
0.0
 10
4.6102795002
 20
2.497852496
 30
0.0
 10
4.652158432
 20
2.4985466758
 30
0.0
 10
4.6940958399
 20
2.4992408597
 30
0.0
 10
4.7356952703
 20
2.4999350006
 30
0.0
 10
4.7765632453
 20
2.500629008
 30
0.0
 10
4.8163134822
 20
2.5013228357
 30
0.0
 10
4.8545700048
 20
2.5020163666
 30
0.0
 10
4.8909711165
 20
2.5027094876
 30
0.0
 10
4.9251727485
 20
2.5034020722
 30
0.0
 10
4.9568512095
 20
2.504093781
 30
0.0
 10
4.9857075187
 20
2.504784524
 30
0.0
 10
5.0078632157
 20
2.5053768003
 30
0.0
 10
5.0239742246
 20
2.5058563686
 30
0.0
 10
5.0347790851
 20
2.506203598
 30
0.0
 10
5.0446938814
 20
2.5065504868
 30
0.0
 10
5.0536947849
 20
2.5068969788
 30
0.0
 10
5.0617604116
 20
2.5072430317
 30
0.0
 10
5.0688720833
 20
2.5075882477
 30
0.0
 10
5.0750131048
 20
2.507932399
 30
0.0
 10
5.0795161852
 20
2.508231031
 30
0.0
 10
5.0826215923
 20
2.5084749044
 30
0.0
 10
5.084575903
 20
2.5086478756
 30
0.0
 10
5.0862785391
 20
2.5088203625
 30
0.0
 10
5.0877284953
 20
2.5089922838
 30
0.0
 10
5.0889252647
 20
2.5091628852
 30
0.0
 10
5.0898677154
 20
2.509332328
 30
0.0
 10
5.0904933525
 20
2.509481138
 30
0.0
 10
5.0908628292
 20
2.5096078135
 30
0.0
 10
5.09100419
 20
2.5096720876
 30
0.0
 10
5.0910626009
 20
2.5097058755
 30
0.0
  0
SPLINE
  5
3E6
100
AcDbEntity
  8
ALL_FEATURES
100
AcDbSpline
 62
7
  6
CONTINUOUS
 70
0
 71
3
 72
33
 73
29
 74
0
 42
0.0000001
 43
0.0000001
 44
0.0000000001
 40
0.0
 40
0.0
 40
0.0
 40
0.0
 40
0.1917605133
 40
0.2854074299
 40
0.3763918755
 40
0.4638860185
 40
0.547065547
 40
0.6251591692
 40
0.6974396325
 40
0.7632403206
 40
0.8219423534
 40
0.8484614435
 40
0.8730053785
 40
0.8955186408
 40
0.9159520206
 40
0.934256509
 40
0.9503870826
 40
0.9643108214
 40
0.9759975123
 40
0.9809927782
 40
0.9854184254
 40
0.9892731402
 40
0.9925561712
 40
0.9952673099
 40
0.9974074739
 40
0.9989803469
 40
0.9995576454
 40
1.0
 40
1.0
 40
1.0
 40
1.0
 10
4.6583462733
 20
2.5128547089
 30
0.0
 10
4.6875906423
 20
2.5133130261
 30
0.0
 10
4.7311166048
 20
2.5139950012
 30
0.0
 10
4.7885177109
 20
2.5149200518
 30
0.0
 10
4.8300175078
 20
2.5156081905
 30
0.0
 10
4.8699205624
 20
2.5162960075
 30
0.0
 10
4.907857167
 20
2.5169834725
 30
0.0
 10
4.9434729396
 20
2.517670323
 30
0.0
 10
4.976437523
 20
2.5183564412
 30
0.0
 10
5.0064437637
 20
2.519041414
 30
0.0
 10
5.029470669
 20
2.5196290465
 30
0.0
 10
5.0462056586
 20
2.5201047077
 30
0.0
 10
5.0574224888
 20
2.520449076
 30
0.0
 10
5.0677106423
 20
2.5207931589
 30
0.0
 10
5.0770465706
 20
2.5211368163
 30
0.0
 10
5.0854082835
 20
2.5214799239
 30
0.0
 10
5.092776232
 20
2.5218222993
 30
0.0
 10
5.0991336106
 20
2.52216366
 30
0.0
 10
5.1037924303
 20
2.5224598156
 30
0.0
 10
5.1070027738
 20
2.5227016982
 30
0.0
 10
5.1090203726
 20
2.5228732262
 30
0.0
 10
5.1107758227
 20
2.5230442636
 30
0.0
 10
5.1122683466
 20
2.5232147381
 30
0.0
 10
5.1134977351
 20
2.52338384
 30
0.0
 10
5.1144630384
 20
2.5235518089
 30
0.0
 10
5.1151018274
 20
2.5236991822
 30
0.0
 10
5.1154768879
 20
2.5238249991
 30
0.0
 10
5.1156193919
 20
2.5238888825
 30
0.0
 10
5.1156778139
 20
2.5239226315
 30
0.0
  0
SPLINE
  5
3E7
100
AcDbEntity
  8
ALL_FEATURES
100
AcDbSpline
 62
7
  6
CONTINUOUS
 70
0
 71
3
 72
38
 73
34
 74
0
 42
0.0000001
 43
0.0000001
 44
0.0000000001
 40
0.0
 40
0.0
 40
0.0
 40
0.0
 40
0.0969667811
 40
0.1930582125
 40
0.2873019387
 40
0.3788399052
 40
0.4668104506
 40
0.5503785357
 40
0.6287567015
 40
0.701208747
 40
0.7670503244
 40
0.7972953262
 40
0.8256596545
 40
0.8520784516
 40
0.8764873473
 40
0.8988288331
 40
0.919052639
 40
0.9371090499
 40
0.9529550681
 40
0.9665564021
 40
0.9725048312
 40
0.9778796409
 40
0.9826779915
 40
0.9868978612
 40
0.9905373228
 40
0.9935945937
 40
0.9960681737
 40
0.9970857983
 40
0.9979573308
 40
0.9986831783
 40
0.9992641327
 40
0.9997017783
 40
1.0
 40
1.0
 40
1.0
 40
1.0
 10
4.6583462733
 20
3.2150968655
 30
0.0
 10
4.6852311874
 20
3.2153540864
 30
0.0
 10
4.7387583171
 20
3.2158662028
 30
0.0
 10
4.8184153005
 20
3.2166355027
 30
0.0
 10
4.8965669572
 20
3.2174046927
 30
0.0
 10
4.9724668133
 20
3.2181736101
 30
0.0
 10
5.0454064629
 20
3.2189421977
 30
0.0
 10
5.1146970657
 20
3.2197103186
 30
0.0
 10
5.1796845569
 20
3.2204777834
 30
0.0
 10
5.2397566322
 20
3.2212443626
 30
0.0
 10
5.286483055
 20
3.2218992117
 30
0.0
 10
5.3209857217
 20
3.2224280814
 30
0.0
 10
5.3445584729
 20
3.2228132883
 30
0.0
 10
5.366512811
 20
3.2231982418
 30
0.0
 10
5.3867969141
 20
3.2235829574
 30
0.0
 10
5.4053629936
 20
3.2239673616
 30
0.0
 10
5.4221673069
 20
3.2243512652
 30
0.0
 10
5.4371701113
 20
3.2247344961
 30
0.0
 10
5.450336036
 20
3.2251169533
 30
0.0
 10
5.46014478
 20
3.2254474219
 30
0.0
 10
5.4670504537
 20
3.22571599
 30
0.0
 10
5.4715163986
 20
3.2259081163
 30
0.0
 10
5.4755025881
 20
3.2260999472
 30
0.0
 10
5.4790070073
 20
3.2262913944
 30
0.0
 10
5.4820279134
 20
3.2264821641
 30
0.0
 10
5.4845635241
 20
3.2266721508
 30
0.0
 10
5.4863718387
 20
3.226837892
 30
0.0
 10
5.4875737993
 20
3.2269744876
 30
0.0
 10
5.4882926664
 20
3.2270698228
 30
0.0
 10
5.4888891427
 20
3.227164701
 30
0.0
 10
5.4893641009
 20
3.2272585229
 30
0.0
 10
5.4897169062
 20
3.2273513256
 30
0.0
 10
5.4899095397
 20
3.2274236418
 30
0.0
 10
5.4899811346
 20
3.2274650127
 30
0.0
  0
SPLINE
  5
3E8
100
AcDbEntity
  8
ALL_FEATURES
100
AcDbSpline
 62
7
  6
CONTINUOUS
 70
0
 71
3
 72
35
 73
31
 74
0
 42
0.0000001
 43
0.0000001
 44
0.0000000001
 40
0.0
 40
0.0
 40
0.0
 40
0.0
 40
0.000555732
 40
0.0009727714
 40
0.0015060004
 40
0.0021628049
 40
0.002947031
 40
0.0049053651
 40
0.0073907407
 40
0.0104069827
 40
0.0139558037
 40
0.0180379022
 40
0.0278020772
 40
0.0396960153
 40
0.053705192
 40
0.0698114699
 40
0.0879961396
 40
0.1082401615
 40
0.130522177
 40
0.1548124071
 40
0.2092897949
 40
0.2714144919
 40
0.3408830511
 40
0.4173472668
 40
0.5004436994
 40
0.5897534734
 40
0.68484192
 40
0.7852448699
 40
0.8904667995
 40
1.0
 40
1.0
 40
1.0
 40
1.0
 10
5.1158462594
 20
2.4846408024
 30
0.0
 10
5.1158462964
 20
2.4845928266
 30
0.0
 10
5.1157876507
 20
2.4845158738
 30
0.0
 10
5.1156812253
 20
2.4844455524
 30
0.0
 10
5.1155561285
 20
2.4843828952
 30
0.0
 10
5.1153973555
 20
2.4843213765
 30
0.0
 10
5.1151176524
 20
2.4842317123
 30
0.0
 10
5.1146790325
 20
2.4841239659
 30
0.0
 10
5.1140467769
 20
2.4840008016
 30
0.0
 10
5.1132752035
 20
2.483877107
 30
0.0
 10
5.1123644297
 20
2.4837528286
 30
0.0
 10
5.1108731146
 20
2.4835760229
 30
0.0
 10
5.1086612537
 20
2.4833605751
 30
0.0
 10
5.105592011
 20
2.4831132411
 30
0.0
 10
5.1019738225
 20
2.4828649881
 30
0.0
 10
5.0978115302
 20
2.4826159683
 30
0.0
 10
5.0931101712
 20
2.4823664847
 30
0.0
 10
5.0878750189
 20
2.4821166671
 30
0.0
 10
5.0821122492
 20
2.4818666315
 30
0.0
 10
5.0733956348
 20
2.4815195732
 30
0.0
 10
5.0612400383
 20
2.4810912
 30
0.0
 10
5.0451844412
 20
2.4805934824
 30
0.0
 10
5.0272299585
 20
2.4800949348
 30
0.0
 10
5.0074644036
 20
2.4795956059
 30
0.0
 10
4.9859854878
 20
2.479095914
 30
0.0
 10
4.9628983703
 20
2.4785957927
 30
0.0
 10
4.9383168778
 20
2.478095428
 30
0.0
 10
4.9123614416
 20
2.4775948784
 30
0.0
 10
4.8851587894
 20
2.4770941153
 30
0.0
 10
4.8666221078
 20
2.4767662438
 30
0.0
 10
4.8571676556
 20
2.476601728
 30
0.0
  0
SPLINE
  5
3E9
100
AcDbEntity
  8
ALL_FEATURES
100
AcDbSpline
 62
7
  6
CONTINUOUS
 70
0
 71
3
 72
41
 73
37
 74
0
 42
0.0000001
 43
0.0000001
 44
0.0000000001
 40
0.0
 40
0.0
 40
0.0
 40
0.0
 40
0.0001394258
 40
0.0002503974
 40
0.0003947137
 40
0.0005740724
 40
0.000789335
 40
0.0013292627
 40
0.002852219
 40
0.0049701052
 40
0.0076841371
 40
0.0109943002
 40
0.0148995336
 40
0.0193972199
 40
0.0244844306
 40
0.0301581672
 40
0.0364153879
 40
0.0432530069
 40
0.058652746
 40
0.0763179253
 40
0.0962074138
 40
0.1182748691
 40
0.1424645861
 40
0.1687197363
 40
0.1969780106
 40
0.2271692523
 40
0.2592224799
 40
0.2930608312
 40
0.3657586284
 40
0.4445638202
 40
0.5287180638
 40
0.6174116948
 40
0.7097880766
 40
0.8049531117
 40
0.9020201533
 40
1.0
 40
1.0
 40
1.0
 40
1.0
 10
5.4900962733
 20
3.2387293181
 30
0.0
 10
5.4900962733
 20
3.238690651
 30
0.0
 10
5.490040828
 20
3.2386302676
 30
0.0
 10
5.4899484862
 20
3.2385774202
 30
0.0
 10
5.4898368197
 20
3.2385286659
 30
0.0
 10
5.4896954548
 20
3.2384810248
 30
0.0
 10
5.4894455803
 20
3.2384112138
 30
0.0
 10
5.4888273833
 20
3.2382794114
 30
0.0
 10
5.4876789608
 20
3.2381136379
 30
0.0
 10
5.4859267332
 20
3.2379245495
 30
0.0
 10
5.4836765295
 20
3.2377339052
 30
0.0
 10
5.4809294858
 20
3.2375415111
 30
0.0
 10
5.4776867675
 20
3.2373484717
 30
0.0
 10
5.4739505223
 20
3.2371548524
 30
0.0
 10
5.4697232526
 20
3.23696089
 30
0.0
 10
5.4650075666
 20
3.2367666695
 30
0.0
 10
5.4598060749
 20
3.2365722466
 30
0.0
 10
5.4519082481
 20
3.2363020037
 30
0.0
 10
5.4408470082
 20
3.2359685234
 30
0.0
 10
5.4261661752
 20
3.2355813667
 30
0.0
 10
5.4096356239
 20
3.2351935546
 30
0.0
 10
5.3912951826
 20
3.2348052507
 30
0.0
 10
5.3711889943
 20
3.2344165264
 30
0.0
 10
5.3493656099
 20
3.2340275275
 30
0.0
 10
5.3258775742
 20
3.2336383331
 30
0.0
 10
5.3007813479
 20
3.2332489311
 30
0.0
 10
5.2741374191
 20
3.2328593959
 30
0.0
 10
5.2357059311
 20
3.2323270764
 30
0.0
 10
5.1843092044
 20
3.2316668591
 30
0.0
 10
5.1189586728
 20
3.2308913619
 30
0.0
 10
5.0491717127
 20
3.2301152018
 30
0.0
 10
4.9756208238
 20
3.2293385213
 30
0.0
 10
4.8990161389
 20
3.2285615118
 30
0.0
 10
4.8200891329
 20
3.2277842169
 30
0.0
 10
4.7396080384
 20
3.2270068049
 30
0.0
 10
4.6855179076
 20
3.2264893033
 30
0.0
 10
4.6583462733
 20
3.2262293397
 30
0.0
  0
SPLINE
  5
3EA
100
AcDbEntity
  8
ALL_FEATURES
100
AcDbSpline
 62
7
  6
CONTINUOUS
 70
0
 71
3
 72
41
 73
37
 74
0
 42
0.0000001
 43
0.0000001
 44
0.0000000001
 40
0.0
 40
0.0
 40
0.0
 40
0.0
 40
0.0001394207
 40
0.0002502581
 40
0.000394376
 40
0.0005734923
 40
0.0007884872
 40
0.001327873
 40
0.0028501841
 40
0.0049686525
 40
0.0076838764
 40
0.0109946555
 40
0.0148993069
 40
0.019395922
 40
0.0244824729
 40
0.0301567118
 40
0.036415039
 40
0.0432531523
 40
0.0586514047
 40
0.0763166154
 40
0.096207615
 40
0.1182737234
 40
0.1424633556
 40
0.1687196958
 40
0.196976923
 40
0.2271682721
 40
0.25922254
 40
0.2930600339
 40
0.3657585347
 40
0.4445631489
 40
0.5287175344
 40
0.6174115225
 40
0.7097859976
 40
0.8049516586
 40
0.9020232151
 40
1.0
 40
1.0
 40
1.0
 40
1.0
 10
5.490095248
 20
3.1887293576
 30
0.0
 10
5.4900952374
 20
3.1886906919
 30
0.0
 10
5.4900399733
 20
3.1886302713
 30
0.0
 10
5.4899477435
 20
3.188577358
 30
0.0
 10
5.4898362705
 20
3.1885285829
 30
0.0
 10
5.4896951153
 20
3.1884809223
 30
0.0
 10
5.4894455521
 20
3.1884110869
 30
0.0
 10
5.488827776
 20
3.1882792298
 30
0.0
 10
5.4876795194
 20
3.1881134658
 30
0.0
 10
5.4859269675
 20
3.1879244815
 30
0.0
 10
5.4836760928
 20
3.1877339344
 30
0.0
 10
5.4809287075
 20
3.1875415965
 30
0.0
 10
5.4776862811
 20
3.1873485526
 30
0.0
 10
5.4739506825
 20
3.1871549219
 30
0.0
 10
5.4697237589
 20
3.1869609401
 30
0.0
 10
5.465007814
 20
3.18676672
 30
0.0
 10
5.4598057436
 20
3.1865723003
 30
0.0
 10
5.4519078931
 20
3.1863020567
 30
0.0
 10
5.4408469326
 20
3.1859685153
 30
0.0
 10
5.4261660979
 20
3.1855813795
 30
0.0
 10
5.4096355074
 20
3.1851936234
 30
0.0
 10
5.3912950633
 20
3.1848052659
 30
0.0
 10
5.3711889617
 20
3.184416547
 30
0.0
 10
5.3493655823
 20
3.1840275779
 30
0.0
 10
5.3258775008
 20
3.183638349
 30
0.0
 10
5.3007812714
 20
3.1832489513
 30
0.0
 10
5.2741372879
 20
3.1828594358
 30
0.0
 10
5.2357055925
 20
3.1823270824
 30
0.0
 10
5.1843091188
 20
3.1816668965
 30
0.0
 10
5.1189585776
 20
3.1808913767
 30
0.0
 10
5.0491717081
 20
3.1801152219
 30
0.0
 10
4.9756212821
 20
3.1793385483
 30
0.0
 10
4.8990169289
 20
3.1785615346
 30
0.0
 10
4.8200891038
 20
3.1777842327
 30
0.0
 10
4.7396075122
 20
3.1770068138
 30
0.0
 10
4.6855170317
 20
3.1764893078
 30
0.0
 10
4.6583462733
 20
3.1762293521
 30
0.0
  0
SPLINE
  5
3EB
100
AcDbEntity
  8
ALL_FEATURES
100
AcDbSpline
 62
7
  6
CONTINUOUS
 70
0
 71
3
 72
25
 73
21
 74
0
 42
0.0000001
 43
0.0000001
 44
0.0000000001
 40
0.0
 40
0.0
 40
0.0
 40
0.0
 40
0.0024406135
 40
0.0040956397
 40
0.0061371201
 40
0.0115049017
 40
0.0186930572
 40
0.0277564405
 40
0.0387217996
 40
0.0516040402
 40
0.0664122811
 40
0.1018274501
 40
0.1449877808
 40
0.1958898104
 40
0.2545234864
 40
0.3208754285
 40
0.3949303251
 40
0.5660816942
 40
0.7678376406
 40
1.0
 40
1.0
 40
1.0
 40
1.0
 10
5.4900952379
 20
3.1387293181
 30
0.0
 10
5.4900952379
 20
3.1387051384
 30
0.0
 10
5.4900735246
 20
3.1386657358
 30
0.0
 10
5.490027794
 20
3.1386263241
 30
0.0
 10
5.4899517273
 20
3.1385776601
 30
0.0
 10
5.4898182435
 20
3.1385206751
 30
0.0
 10
5.4896139872
 20
3.1384558072
 30
0.0
 10
5.4893521729
 20
3.1383906877
 30
0.0
 10
5.4890327292
 20
3.1383251039
 30
0.0
 10
5.4886554028
 20
3.1382593149
 30
0.0
 10
5.488037212
 20
3.1381657018
 30
0.0
 10
5.4871189555
 20
3.1380516241
 30
0.0
 10
5.4858428468
 20
3.1379206436
 30
0.0
 10
5.4843357249
 20
3.1377891956
 30
0.0
 10
5.4825981341
 20
3.1376573579
 30
0.0
 10
5.4806306021
 20
3.1375252703
 30
0.0
 10
5.4775494779
 20
3.1373398532
 30
0.0
 10
5.473127104
 20
3.1371121176
 30
0.0
 10
5.4671382749
 20
3.1368491744
 30
0.0
 10
5.4628424624
 20
3.1366849277
 30
0.0
 10
5.4605438826
 20
3.1366016934
 30
0.0
  0
SPLINE
  5
3EC
100
AcDbEntity
  8
ALL_FEATURES
100
AcDbSpline
 62
7
  6
CONTINUOUS
 70
0
 71
3
 72
61
 73
57
 74
0
 42
0.0000001
 43
0.0000001
 44
0.0000000001
 40
0.0
 40
0.0
 40
0.0
 40
0.0
 40
0.0006513726
 40
0.0015864754
 40
0.0028091799
 40
0.0043204025
 40
0.0061200878
 40
0.008207747
 40
0.0132439672
 40
0.0194213635
 40
0.0267250921
 40
0.0351372221
 40
0.0446396001
 40
0.055211549
 40
0.0668264373
 40
0.0794567049
 40
0.0930745582
 40
0.1231414011
 40
0.1567429409
 40
0.1935650661
 40
0.233262054
 40
0.2754606637
 40
0.3197658662
 40
0.3657603144
 40
0.4130134947
 40
0.461080578
 40
0.5095110256
 40
0.5578495459
 40
0.6056426163
 40
0.6524410471
 40
0.6978061073
 40
0.7413106981
 40
0.7825481321
 40
0.821128867
 40
0.8566937413
 40
0.8889057252
 40
0.9036604469
 40
0.9174659935
 40
0.9302899425
 40
0.9421040435
 40
0.9528802889
 40
0.9625915583
 40
0.9712166254
 40
0.978736831
 40
0.9851337164
 40
0.9903917854
 40
0.9945024624
 40
0.996125661
 40
0.9974601932
 40
0.9980193173
 40
0.9985065284
 40
0.998922202
 40
0.9992671117
 40
0.9995426459
 40
0.9997515677
 40
1.0
 40
1.0
 40
1.0
 40
1.0
 10
4.225782079
 20
2.4766017019
 30
0.0
 10
4.2259551743
 20
2.4766751599
 30
0.0
 10
4.2263965968
 20
2.4768044783
 30
0.0
 10
4.2271898114
 20
2.4769718968
 30
0.0
 10
4.2282359362
 20
2.4771409461
 30
0.0
 10
4.2295335066
 20
2.4773117912
 30
0.0
 10
4.2310826001
 20
2.4774833873
 30
0.0
 10
4.2336470054
 20
2.4777285306
 30
0.0
 10
4.2374754825
 20
2.4780264876
 30
0.0
 10
4.2428101858
 20
2.4783682416
 30
0.0
 10
4.2491210621
 20
2.4787113774
 30
0.0
 10
4.2563929215
 20
2.4790557107
 30
0.0
 10
4.2646091467
 20
2.4794006996
 30
0.0
 10
4.2737506447
 20
2.479746122
 30
0.0
 10
4.2837956654
 20
2.480091937
 30
0.0
 10
4.2947204388
 20
2.480438068
 30
0.0
 10
4.3109703621
 20
2.4809157024
 30
0.0
 10
4.3332734899
 20
2.481505882
 30
0.0
 10
4.3622748084
 20
2.482194433
 30
0.0
 10
4.3940568328
 20
2.4828839714
 30
0.0
 10
4.4283211662
 20
2.4835742991
 30
0.0
 10
4.4647461029
 20
2.4842651858
 30
0.0
 10
4.5029892843
 20
2.4849564348
 30
0.0
 10
4.542691835
 20
2.4856479931
 30
0.0
 10
4.5834805172
 20
2.4863397083
 30
0.0
 10
4.624972517
 20
2.4870315609
 30
0.0
 10
4.6667778737
 20
2.4877234453
 30
0.0
 10
4.708504118
 20
2.4884153297
 30
0.0
 10
4.7497591701
 20
2.4891071286
 30
0.0
 10
4.7901557274
 20
2.4897988014
 30
0.0
 10
4.8293141104
 20
2.4904902279
 30
0.0
 10
4.8668668985
 20
2.4911813754
 30
0.0
 10
4.9024608591
 20
2.4918720196
 30
0.0
 10
4.9357623489
 20
2.4925621037
 30
0.0
 10
4.9664578019
 20
2.4932512619
 30
0.0
 10
4.990275656
 20
2.4938405096
 30
0.0
 10
5.0078128596
 20
2.4943165083
 30
0.0
 10
5.0197545884
 20
2.4946628417
 30
0.0
 10
5.0308470463
 20
2.4950089988
 30
0.0
 10
5.0410645603
 20
2.4953548774
 30
0.0
 10
5.050382966
 20
2.4957003733
 30
0.0
 10
5.0587800859
 20
2.4960454844
 30
0.0
 10
5.0662364124
 20
2.4963899273
 30
0.0
 10
5.07273483
 20
2.4967334425
 30
0.0
 10
5.0782598687
 20
2.4970751725
 30
0.0
 10
5.0827984365
 20
2.4974152458
 30
0.0
 10
5.0859580932
 20
2.4977127275
 30
0.0
 10
5.0879835703
 20
2.4979609487
 30
0.0
 10
5.0889879901
 20
2.4981100428
 30
0.0
 10
5.0896644389
 20
2.4982323443
 30
0.0
 10
5.0900775902
 20
2.498318266
 30
0.0
 10
5.090427864
 20
2.4984042857
 30
0.0
 10
5.0907138272
 20
2.4984888173
 30
0.0
 10
5.0909404266
 20
2.4985757454
 30
0.0
 10
5.091122217
 20
2.4986670474
 30
0.0
 10
5.0912402988
 20
2.498774789
 30
0.0
 10
5.0912402225
 20
2.498846506
 30
0.0
  0
SPLINE
  5
3ED
100
AcDbEntity
  8
ALL_FEATURES
100
AcDbSpline
 62
7
  6
CONTINUOUS
 70
0
 71
3
 72
38
 73
34
 74
0
 42
0.0000001
 43
0.0000001
 44
0.0000000001
 40
0.0
 40
0.0
 40
0.0
 40
0.0
 40
0.0969666138
 40
0.1930581615
 40
0.2873018775
 40
0.3788397526
 40
0.4668103027
 40
0.5503783544
 40
0.6287564884
 40
0.7012084566
 40
0.7670498273
 40
0.7972948766
 40
0.8256592415
 40
0.8520781241
 40
0.8764871965
 40
0.8988287069
 40
0.919052516
 40
0.9371090666
 40
0.9529550574
 40
0.966556321
 40
0.9725047823
 40
0.977879673
 40
0.9826780299
 40
0.986897853
 40
0.9905372531
 40
0.9935944854
 40
0.9960680875
 40
0.9970857576
 40
0.9979573401
 40
0.9986832115
 40
0.9992641685
 40
0.999701801
 40
1.0
 40
1.0
 40
1.0
 40
1.0
 10
4.6583462733
 20
3.1650968186
 30
0.0
 10
4.6852311419
 20
3.1653540392
 30
0.0
 10
4.7387582591
 20
3.1658661557
 30
0.0
 10
4.8184152281
 20
3.1666354557
 30
0.0
 10
4.8965668914
 20
3.1674046461
 30
0.0
 10
4.972466723
 20
3.1681735638
 30
0.0
 10
5.0454063416
 20
3.1689421511
 30
0.0
 10
5.1146969299
 20
3.1697102723
 30
0.0
 10
5.1796843836
 20
3.1704777376
 30
0.0
 10
5.2397563733
 20
3.1712443144
 30
0.0
 10
5.2864827319
 20
3.1718991643
 30
0.0
 10
5.3209853658
 20
3.1724280321
 30
0.0
 10
5.3445581648
 20
3.1728132404
 30
0.0
 10
5.3665125864
 20
3.1731981963
 30
0.0
 10
5.3867967696
 20
3.1735829109
 30
0.0
 10
5.4053629064
 20
3.1739673174
 30
0.0
 10
5.4221672666
 20
3.1743512247
 30
0.0
 10
5.4371701036
 20
3.1747344524
 30
0.0
 10
5.4503360403
 20
3.1751169115
 30
0.0
 10
5.4601447663
 20
3.1754473828
 30
0.0
 10
5.4670504521
 20
3.1757159508
 30
0.0
 10
5.4715164304
 20
3.1759080744
 30
0.0
 10
5.4755026313
 20
3.1760999057
 30
0.0
 10
5.4790070224
 20
3.1762913535
 30
0.0
 10
5.4820278877
 20
3.1764821242
 30
0.0
 10
5.4845634767
 20
3.1766721123
 30
0.0
 10
5.4863717992
 20
3.176837855
 30
0.0
 10
5.4875737929
 20
3.1769744485
 30
0.0
 10
5.4882926937
 20
3.1770697816
 30
0.0
 10
5.4888891915
 20
3.1771646599
 30
0.0
 10
5.4893641537
 20
3.1772584816
 30
0.0
 10
5.4897169494
 20
3.177351284
 30
0.0
 10
5.4899095727
 20
3.1774236009
 30
0.0
 10
5.4899811596
 20
3.1774649731
 30
0.0
  0
SPLINE
  5
3EE
100
AcDbEntity
  8
ALL_FEATURES
100
AcDbSpline
 62
7
  6
CONTINUOUS
 70
0
 71
3
 72
37
 73
33
 74
0
 42
0.0000001
 43
0.0000001
 44
0.0000000001
 40
0.0
 40
0.0
 40
0.0
 40
0.0
 40
0.000488615
 40
0.0009115234
 40
0.0014725624
 40
0.0021766143
 40
0.0030260145
 40
0.0040220045
 40
0.0051652856
 40
0.0078950881
 40
0.0112170524
 40
0.0151313921
 40
0.0196373797
 40
0.0304126778
 40
0.0435160344
 40
0.058918557
 40
0.0765881385
 40
0.0964795867
 40
0.1185436172
 40
0.142730663
 40
0.1689838184
 40
0.1972361292
 40
0.2274198754
 40
0.2932951583
 40
0.3659688041
 40
0.4447480918
 40
0.5288750088
 40
0.6175405796
 40
0.7098792068
 40
0.8050203912
 40
0.902074135
 40
1.0
 40
1.0
 40
1.0
 40
1.0
 10
4.2008462771
 20
2.501592209
 30
0.0
 10
4.2008463078
 20
2.5016667765
 30
0.0
 10
4.200978214
 20
2.5017753459
 30
0.0
 10
4.201172547
 20
2.5018664995
 30
0.0
 10
4.2014188903
 20
2.5019545471
 30
0.0
 10
4.2017288094
 20
2.5020400333
 30
0.0
 10
4.2021085848
 20
2.502127133
 30
0.0
 10
4.2025562134
 20
2.5022141256
 30
0.0
 10
4.2032890087
 20
2.5023379927
 30
0.0
 10
4.2043767842
 20
2.5024889391
 30
0.0
 10
4.2058878847
 20
2.5026623227
 30
0.0
 10
4.2076714725
 20
2.5028363176
 30
0.0
 10
4.2105904861
 20
2.5030839286
 30
0.0
 10
4.2149119582
 20
2.5033854833
 30
0.0
 10
4.2208967002
 20
2.5037319767
 30
0.0
 10
4.227935012
 20
2.5040797437
 30
0.0
 10
4.23601028
 20
2.5044284748
 30
0.0
 10
4.245102967
 20
2.5047778779
 30
0.0
 10
4.2551909179
 20
2.5051277998
 30
0.0
 10
4.2662502458
 20
2.5054780373
 30
0.0
 10
4.2782543922
 20
2.5058284936
 30
0.0
 10
4.2911740473
 20
2.5061791987
 30
0.0
 10
4.310139064
 20
2.5066611855
 30
0.0
 10
4.3358824524
 20
2.5072576173
 30
0.0
 10
4.369041548
 20
2.5079555124
 30
0.0
 10
4.404986573
 20
2.5086541553
 30
0.0
 10
4.4433725361
 20
2.5093535129
 30
0.0
 10
4.4838281041
 20
2.5100532743
 30
0.0
 10
4.5259647912
 20
2.510753384
 30
0.0
 10
4.5693817615
 20
2.5114537853
 30
0.0
 10
4.6136515063
 20
2.5121542551
 30
0.0
 10
4.6434036583
 20
2.5126205286
 30
0.0
 10
4.6583462733
 20
2.5128547089
 30
0.0
  0
SPLINE
  5
3EF
100
AcDbEntity
  8
ALL_FEATURES
100
AcDbSpline
 62
7
  6
CONTINUOUS
 70
0
 71
3
 72
38
 73
34
 74
0
 42
0.0000001
 43
0.0000001
 44
0.0000000001
 40
0.0
 40
0.0
 40
0.0
 40
0.0
 40
0.0969665729
 40
0.1930578624
 40
0.2873014287
 40
0.3788392344
 40
0.4668096497
 40
0.5503776292
 40
0.6287558193
 40
0.701208262
 40
0.7670505623
 40
0.7972959809
 40
0.8256605023
 40
0.8520793805
 40
0.8764883331
 40
0.8988295439
 40
0.9190529856
 40
0.937109255
 40
0.9529551515
 40
0.966556416
 40
0.972504876
 40
0.9778797516
 40
0.9826781019
 40
0.9868979244
 40
0.9905373233
 40
0.9935945476
 40
0.9960681286
 40
0.9970857813
 40
0.9979573457
 40
0.9986832071
 40
0.999264161
 40
0.9997017956
 40
1.0
 40
1.0
 40
1.0
 40
1.0
 10
4.6583462733
 20
3.2262293397
 30
0.0
 10
4.6314614163
 20
3.2259721199
 30
0.0
 10
4.5779343825
 20
3.2254600054
 30
0.0
 10
4.4982775388
 20
3.2246907084
 30
0.0
 10
4.4201260086
 20
3.2239215211
 30
0.0
 10
4.3442262758
 20
3.2231526064
 30
0.0
 10
4.2712867345
 20
3.2223840216
 30
0.0
 10
4.2019961887
 20
3.221615903
 30
0.0
 10
4.1370086086
 20
3.2208484388
 30
0.0
 10
4.0769362146
 20
3.2200818579
 30
0.0
 10
4.0302093648
 20
3.2194270024
 30
0.0
 10
3.9957063277
 20
3.2188981291
 30
0.0
 10
3.9721333844
 20
3.2185129174
 30
0.0
 10
3.9501789541
 20
3.2181279603
 30
0.0
 10
3.9298948886
 20
3.2177432491
 30
0.0
 10
3.9113289701
 20
3.2173588473
 30
0.0
 10
3.8945248729
 20
3.2169749448
 30
0.0
 10
3.879522242
 20
3.2165917203
 30
0.0
 10
3.8663564093
 20
3.2162092642
 30
0.0
 10
3.8565477096
 20
3.2158787948
 30
0.0
 10
3.8496420281
 20
3.2156102275
 30
0.0
 10
3.8451760562
 20
3.2154181038
 30
0.0
 10
3.8411898615
 20
3.2152262731
 30
0.0
 10
3.8376854728
 20
3.2150348261
 30
0.0
 10
3.8346646103
 20
3.2148440562
 30
0.0
 10
3.8321290295
 20
3.2146540691
 30
0.0
 10
3.8303207199
 20
3.2144883273
 30
0.0
 10
3.8291187421
 20
3.2143517338
 30
0.0
 10
3.828399854
 20
3.2142564005
 30
0.0
 10
3.8278033649
 20
3.2141615226
 30
0.0
 10
3.8273284058
 20
3.2140677011
 30
0.0
 10
3.8269756087
 20
3.2139748989
 30
0.0
 10
3.8267829832
 20
3.2139025825
 30
0.0
 10
3.8267113943
 20
3.2138612108
 30
0.0
  0
SPLINE
  5
3F0
100
AcDbEntity
  8
ALL_FEATURES
100
AcDbSpline
 62
7
  6
CONTINUOUS
 70
0
 71
3
 72
41
 73
37
 74
0
 42
0.0000001
 43
0.0000001
 44
0.0000000001
 40
0.0
 40
0.0
 40
0.0
 40
0.0
 40
0.0001394014
 40
0.0002502233
 40
0.0003943255
 40
0.0005734274
 40
0.0007884103
 40
0.0013277824
 40
0.0028501296
 40
0.00496865
 40
0.0076838317
 40
0.0109945172
 40
0.0148990678
 40
0.0193956195
 40
0.0244821887
 40
0.0301564732
 40
0.0364147316
 40
0.0432527085
 40
0.0586506943
 40
0.0763159081
 40
0.0962066887
 40
0.1182724938
 40
0.1424620506
 40
0.1687181099
 40
0.1969749708
 40
0.227166194
 40
0.2592201828
 40
0.2930572915
 40
0.3657552289
 40
0.444559273
 40
0.5287136934
 40
0.6174091335
 40
0.7097855041
 40
0.8049526589
 40
0.9020240554
 40
1.0
 40
1.0
 40
1.0
 40
1.0
 10
3.8265974082
 20
3.2025968563
 30
0.0
 10
3.8265974063
 20
3.2026355166
 30
0.0
 10
3.8266526497
 20
3.2026959463
 30
0.0
 10
3.8267448646
 20
3.2027488585
 30
0.0
 10
3.8268563231
 20
3.202797635
 30
0.0
 10
3.826997466
 20
3.2028452958
 30
0.0
 10
3.8272470171
 20
3.2029151328
 30
0.0
 10
3.8278647954
 20
3.2030469941
 30
0.0
 10
3.8290130736
 20
3.2032127537
 30
0.0
 10
3.8307656383
 20
3.2034017348
 30
0.0
 10
3.8330164892
 20
3.203592284
 30
0.0
 10
3.8357638085
 20
3.2037846209
 30
0.0
 10
3.8390061631
 20
3.2039776631
 30
0.0
 10
3.8427417209
 20
3.2041712918
 30
0.0
 10
3.8469686444
 20
3.2043652697
 30
0.0
 10
3.8516845876
 20
3.2045594851
 30
0.0
 10
3.8568866131
 20
3.2047539047
 30
0.0
 10
3.8647843319
 20
3.2050241477
 30
0.0
 10
3.8758451802
 20
3.2053576916
 30
0.0
 10
3.8905258797
 20
3.2057448185
 30
0.0
 10
3.9070563244
 20
3.2061325762
 30
0.0
 10
3.9253966008
 20
3.2065209349
 30
0.0
 10
3.9455025174
 20
3.2069096471
 30
0.0
 10
3.9673256941
 20
3.2072986159
 30
0.0
 10
3.9908135587
 20
3.2076878455
 30
0.0
 10
4.0159095716
 20
3.2080772381
 30
0.0
 10
4.0425533331
 20
3.2084667528
 30
0.0
 10
4.080984684
 20
3.2089991058
 30
0.0
 10
4.1323807311
 20
3.2096592861
 30
0.0
 10
4.1977309607
 20
3.2104348056
 30
0.0
 10
4.2675180771
 20
3.2112109664
 30
0.0
 10
4.3410694334
 20
3.2119876492
 30
0.0
 10
4.4176751211
 20
3.2127646784
 30
0.0
 10
4.4966038334
 20
3.2135419885
 30
0.0
 10
4.5770855534
 20
3.2143194088
 30
0.0
 10
4.6311757507
 20
3.2148369121
 30
0.0
 10
4.6583462733
 20
3.2150968655
 30
0.0
  0
SPLINE
  5
3F1
100
AcDbEntity
  8
ALL_FEATURES
100
AcDbSpline
 62
7
  6
CONTINUOUS
 70
0
 71
3
 72
41
 73
37
 74
0
 42
0.0000001
 43
0.0000001
 44
0.0000000001
 40
0.0
 40
0.0
 40
0.0
 40
0.0
 40
0.0001394083
 40
0.0002502354
 40
0.0003943431
 40
0.0005734502
 40
0.000788438
 40
0.0013278182
 40
0.0028501712
 40
0.004968735
 40
0.0076840455
 40
0.0109949057
 40
0.0148996366
 40
0.0193963339
 40
0.0244829739
 40
0.0301573029
 40
0.0364157017
 40
0.0432538722
 40
0.0586522164
 40
0.0763175177
 40
0.0962085738
 40
0.1182747109
 40
0.1424643663
 40
0.1687206873
 40
0.1969778697
 40
0.2271691859
 40
0.2592233955
 40
0.2930608203
 40
0.3657592343
 40
0.4445635084
 40
0.5287170995
 40
0.6174104582
 40
0.7097848114
 40
0.8049512585
 40
0.9020234005
 40
1.0
 40
1.0
 40
1.0
 40
1.0
 10
3.8265974095
 20
3.1525968069
 30
0.0
 10
3.8265974116
 20
3.1526354691
 30
0.0
 10
3.8266526613
 20
3.1526958964
 30
0.0
 10
3.8267448812
 20
3.1527488096
 30
0.0
 10
3.8268563445
 20
3.1527975861
 30
0.0
 10
3.8269974917
 20
3.1528452474
 30
0.0
 10
3.8272470481
 20
3.1529150848
 30
0.0
 10
3.8278648315
 20
3.1530469468
 30
0.0
 10
3.8290131249
 20
3.1532127118
 30
0.0
 10
3.8307657389
 20
3.1534016966
 30
0.0
 10
3.8330166862
 20
3.1535922473
 30
0.0
 10
3.8357641397
 20
3.1537845874
 30
0.0
 10
3.8390066331
 20
3.1539776332
 30
0.0
 10
3.8427423009
 20
3.1541712652
 30
0.0
 10
3.8469692966
 20
3.1543652478
 30
0.0
 10
3.8516853105
 20
3.154559468
 30
0.0
 10
3.856887441
 20
3.1547538881
 30
0.0
 10
3.8647853519
 20
3.1550241315
 30
0.0
 10
3.8758463777
 20
3.1553576726
 30
0.0
 10
3.8905272769
 20
3.1557448071
 30
0.0
 10
3.9070579144
 20
3.1561325625
 30
0.0
 10
3.9253983865
 20
3.1565209193
 30
0.0
 10
3.9455044949
 20
3.1569096366
 30
0.0
 10
3.9673278606
 20
3.1572986046
 30
0.0
 10
3.9908159125
 20
3.1576878325
 30
0.0
 10
4.0159121014
 20
3.1580772285
 30
0.0
 10
4.0425560373
 20
3.158466743
 30
0.0
 10
4.080987669
 20
3.1589990953
 30
0.0
 10
4.1323839993
 20
3.1596592786
 30
0.0
 10
4.1977341944
 20
3.1604347944
 30
0.0
 10
4.2675205669
 20
3.1612109445
 30
0.0
 10
4.3410705559
 20
3.1619876134
 30
0.0
 10
4.4176749099
 20
3.1627646282
 30
0.0
 10
4.4966030726
 20
3.1635419336
 30
0.0
 10
4.5770849841
 20
3.1643193562
 30
0.0
 10
4.6311755694
 20
3.1648368634
 30
0.0
 10
4.6583462733
 20
3.1650968186
 30
0.0
  0
SPLINE
  5
3F2
100
AcDbEntity
  8
ALL_FEATURES
100
AcDbSpline
 62
7
  6
CONTINUOUS
 70
0
 71
3
 72
38
 73
34
 74
0
 42
0.0000001
 43
0.0000001
 44
0.0000000001
 40
0.0
 40
0.0
 40
0.0
 40
0.0
 40
0.096965962
 40
0.1930572179
 40
0.2873024076
 40
0.37884226
 40
0.4668143106
 40
0.5503824774
 40
0.6287601347
 40
0.7012116066
 40
0.7670524954
 40
0.7972973899
 40
0.8256613811
 40
0.8520798474
 40
0.8764886706
 40
0.8988298858
 40
0.919053414
 40
0.9371098228
 40
0.952955624
 40
0.9665566882
 40
0.9725050889
 40
0.9778799564
 40
0.9826782826
 40
0.986898065
 40
0.9905374195
 40
0.9935946064
 40
0.9960681685
 40
0.9970858223
 40
0.9979573905
 40
0.9986832479
 40
0.9992641914
 40
0.9997018115
 40
1.0
 40
1.0
 40
1.0
 40
1.0
 10
4.6583462733
 20
3.1762293521
 30
0.0
 10
4.6314615882
 20
3.1759721334
 30
0.0
 10
4.577934738
 20
3.1754600197
 30
0.0
 10
4.4982776303
 20
3.1746907185
 30
0.0
 10
4.4201250991
 20
3.1739215204
 30
0.0
 10
4.3442239024
 20
3.1731525875
 30
0.0
 10
4.2712832951
 20
3.1723839906
 30
0.0
 10
4.2019923982
 20
3.1716158628
 30
0.0
 10
4.137005189
 20
3.1708483983
 30
0.0
 10
4.0769336088
 20
3.1700818257
 30
0.0
 10
4.0302075692
 20
3.1694269738
 30
0.0
 10
3.995705219
 20
3.1688981113
 30
0.0
 10
3.9721326843
 20
3.1685129047
 30
0.0
 10
3.9501785532
 20
3.1681279502
 30
0.0
 10
3.9298946383
 20
3.1677432411
 30
0.0
 10
3.9113287323
 20
3.1673588373
 30
0.0
 10
3.8945245729
 20
3.1669749307
 30
0.0
 10
3.8795219071
 20
3.1665917077
 30
0.0
 10
3.8663561189
 20
3.1662092504
 30
0.0
 10
3.8565475187
 20
3.16587878
 30
0.0
 10
3.849641912
 20
3.1656102144
 30
0.0
 10
3.8451759658
 20
3.1654180941
 30
0.0
 10
3.8411897915
 20
3.1652262655
 30
0.0
 10
3.8376854332
 20
3.1650348204
 30
0.0
 10
3.8346646046
 20
3.1648440519
 30
0.0
 10
3.8321290521
 20
3.1646540656
 30
0.0
 10
3.830320758
 20
3.1644883237
 30
0.0
 10
3.8291187842
 20
3.1643517302
 30
0.0
 10
3.8283998959
 20
3.164256397
 30
0.0
 10
3.8278034101
 20
3.1641615182
 30
0.0
 10
3.8273284592
 20
3.1640676957
 30
0.0
 10
3.8269756743
 20
3.1639748923
 30
0.0
 10
3.826783058
 20
3.1639025743
 30
0.0
 10
3.8267114749
 20
3.1638612013
 30
0.0
  0
SPLINE
  5
3F3
100
AcDbEntity
  8
ALL_FEATURES
100
AcDbSpline
 62
7
  6
CONTINUOUS
 70
0
 71
3
 72
12
 73
8
 74
0
 42
0.0000001
 43
0.0000001
 44
0.0000000001
 40
0.0
 40
0.0
 40
0.0
 40
0.0
 40
0.33941301
 40
0.6197598982
 40
0.8401820537
 40
0.9276856225
 40
1.0
 40
1.0
 40
1.0
 40
1.0
 10
5.089062961
 20
2.4766016909
 30
0.0
 10
5.0917385148
 20
2.4767260722
 30
0.0
 10
5.0966233443
 20
2.4769689183
 30
0.0
 10
5.1032417528
 20
2.4773655688
 30
0.0
 10
5.1078715215
 20
2.4777123175
 30
0.0
 10
5.1108583
 20
2.4780012894
 30
0.0
 10
5.1121111584
 20
2.4781474023
 30
0.0
 10
5.1126768069
 20
2.4782228772
 30
0.0
  0
LINE
  5
3F4
100
AcDbEntity
  8
ALL_FEATURES
100
AcDbLine
 62
7
  6
CONTINUOUS
 10
5.1126768069
 20
2.4782228772
 11
5.1156774953
 21
2.4788726305
  0
SPLINE
  5
3F5
100
AcDbEntity
  8
ALL_FEATURES
100
AcDbSpline
 62
7
  6
CONTINUOUS
 70
0
 71
3
 72
46
 73
42
 74
0
 42
0.0000001
 43
0.0000001
 44
0.0000000001
 40
0.0
 40
0.0
 40
0.0
 40
0.0
 40
0.0001396767
 40
0.0002631449
 40
0.000427703
 40
0.0006346931
 40
0.0008847606
 40
0.0011782543
 40
0.0015153776
 40
0.0023209405
 40
0.0033020076
 40
0.0044587582
 40
0.0057912138
 40
0.0089828944
 40
0.0128747693
 40
0.0174622017
 40
0.0227402298
 40
0.0287038052
 40
0.0353476488
 40
0.0426645004
 40
0.0506458913
 40
0.0592833223
 40
0.0685682838
 40
0.08904233
 40
0.1119787064
 40
0.1372827923
 40
0.1648464924
 40
0.1945533439
 40
0.2262788593
 40
0.2598871484
 40
0.2952382735
 40
0.33218084
 40
0.3705600543
 40
0.4102130194
 40
0.49266537
 40
0.5781450532
 40
0.6652081634
 40
0.7523840278
 40
0.8381999532
 40
0.9212060494
 40
1.0
 40
1.0
 40
1.0
 40
1.0
 10
5.4650962733
 20
3.1531630749
 30
0.0
 10
5.4650962733
 20
3.1531071525
 30
0.0
 10
5.4649923547
 20
3.1530277049
 30
0.0
 10
5.4648437826
 20
3.1529613281
 30
0.0
 10
5.4646529133
 20
3.1528965845
 30
0.0
 10
5.4644131782
 20
3.152833787
 30
0.0
 10
5.464119098
 20
3.1527697515
 30
0.0
 10
5.4637724413
 20
3.1527058026
 30
0.0
 10
5.4632046011
 20
3.1526147103
 30
0.0
 10
5.4623614791
 20
3.1525037241
 30
0.0
 10
5.4611898865
 20
3.1523762517
 30
0.0
 10
5.4598063497
 20
3.1522483237
 30
0.0
 10
5.4575391626
 20
3.1520661183
 30
0.0
 10
5.4541768105
 20
3.1518442364
 30
0.0
 10
5.4495109953
 20
3.1515894763
 30
0.0
 10
5.4440088594
 20
3.1513337582
 30
0.0
 10
5.4376765541
 20
3.1510772451
 30
0.0
 10
5.4305203483
 20
3.1508202578
 30
0.0
 10
5.4225474031
 20
3.1505629534
 30
0.0
 10
5.4137662135
 20
3.150305401
 30
0.0
 10
5.4041865447
 20
3.1500476455
 30
0.0
 10
5.3938186457
 20
3.1497897231
 30
0.0
 10
5.37844997
 20
3.1494339776
 30
0.0
 10
5.3573568819
 20
3.148993669
 30
0.0
 10
5.3298504284
 20
3.14847995
 30
0.0
 10
5.299505053
 20
3.1479656654
 30
0.0
 10
5.2664486373
 20
3.1474508371
 30
0.0
 10
5.2308209913
 20
3.1469356314
 30
0.0
 10
5.1927730409
 20
3.1464201723
 30
0.0
 10
5.1524651009
 20
3.1459044434
 30
0.0
 10
5.1100682494
 20
3.1453885877
 30
0.0
 10
5.0657611296
 20
3.1448725547
 30
0.0
 10
5.0197315706
 20
3.1443564289
 30
0.0
 10
4.9554821458
 20
3.1436590538
 30
0.0
 10
4.8723758186
 20
3.1427937544
 30
0.0
 10
4.7702885406
 20
3.1417677244
 30
0.0
 10
4.6663100187
 20
3.1407413992
 30
0.0
 10
4.5621968695
 20
3.1397150449
 30
0.0
 10
4.4597081037
 20
3.1386889696
 30
0.0
 10
4.3605753721
 20
3.1376634883
 30
0.0
 10
4.2957993021
 20
3.1369583179
 30
0.0
 10
4.2642545752
 20
3.1366017248
 30
0.0
  0
SPLINE
  5
3F6
100
AcDbEntity
  8
ALL_FEATURES
100
AcDbSpline
 62
7
  6
CONTINUOUS
 70
0
 71
3
 72
73
 73
69
 74
0
 42
0.0000001
 43
0.0000001
 44
0.0000000001
 40
0.0
 40
0.0
 40
0.0
 40
0.0
 40
0.0000707593
 40
0.0001262236
 40
0.0001980541
 40
0.0003938341
 40
0.0006613991
 40
0.0010018074
 40
0.0014155215
 40
0.0019027639
 40
0.0024636422
 40
0.0038064383
 40
0.0054439464
 40
0.0073758228
 40
0.009600921
 40
0.0121177214
 40
0.0149246658
 40
0.0180201727
 40
0.0214026458
 40
0.0290213408
 40
0.0377618264
 40
0.0476027157
 40
0.0585221273
 40
0.0704935005
 40
0.0834874851
 40
0.0974744292
 40
0.1124207934
 40
0.1282900074
 40
0.1450452887
 40
0.1810516419
 40
0.2200965682
 40
0.2618075971
 40
0.3057884865
 40
0.3516196209
 40
0.3988645116
 40
0.4470735413
 40
0.4957870566
 40
0.5445413858
 40
0.5928718578
 40
0.640318307
 40
0.6864289115
 40
0.7307638808
 40
0.7729017766
 40
0.8124407434
 40
0.8490038704
 40
0.8822441215
 40
0.8975170506
 40
0.911843732
 40
0.9251892834
 40
0.9375213136
 40
0.9488118905
 40
0.9590335662
 40
0.9681610782
 40
0.9761743305
 40
0.9830540258
 40
0.9860630598
 40
0.9887827432
 40
0.9912117696
 40
0.993348859
 40
0.9951927743
 40
0.9967423551
 40
0.9979967467
 40
0.9985132907
 40
0.9989561951
 40
0.999325662
 40
0.99962207
 40
0.9998462021
 40
1.0
 40
1.0
 40
1.0
 40
1.0
 10
5.4650962733
 20
3.2531630749
 30
0.0
 10
5.4650962733
 20
3.2531250107
 30
0.0
 10
5.4650438459
 20
3.2530650852
 30
0.0
 10
5.4649545692
 20
3.2530120314
 30
0.0
 10
5.4647946485
 20
3.2529399703
 30
0.0
 10
5.4645187493
 20
3.2528579365
 30
0.0
 10
5.4640964648
 20
3.2527632351
 30
0.0
 10
5.463555036
 20
3.2526684431
 30
0.0
 10
5.4628940757
 20
3.2525726625
 30
0.0
 10
5.462113549
 20
3.252476604
 30
0.0
 10
5.4608346364
 20
3.2523397937
 30
0.0
 10
5.4589368577
 20
3.2521731236
 30
0.0
 10
5.4563012925
 20
3.2519817408
 30
0.0
 10
5.4531900845
 20
3.2517897332
 30
0.0
 10
5.4496051437
 20
3.2515971622
 30
0.0
 10
5.4455488918
 20
3.2514042512
 30
0.0
 10
5.4410239563
 20
3.2512110865
 30
0.0
 10
5.4360329681
 20
3.2510177246
 30
0.0
 10
5.4284545731
 20
3.2507489364
 30
0.0
 10
5.4178399059
 20
3.2504172721
 30
0.0
 10
5.4037511064
 20
3.2500322547
 30
0.0
 10
5.3878861556
 20
3.2496465218
 30
0.0
 10
5.3702827394
 20
3.2492603115
 30
0.0
 10
5.3509827889
 20
3.2488737318
 30
0.0
 10
5.3300323971
 20
3.2484868274
 30
0.0
 10
5.3074813934
 20
3.2480997349
 30
0.0
 10
5.2833834827
 20
3.2477124784
 30
0.0
 10
5.2577961985
 20
3.2473250411
 30
0.0
 10
5.2208807915
 20
3.2467955621
 30
0.0
 10
5.1714988269
 20
3.2461388867
 30
0.0
 10
5.1086925716
 20
3.2453675912
 30
0.0
 10
5.0415962104
 20
3.2445956153
 30
0.0
 10
4.9708490627
 20
3.2438231535
 30
0.0
 10
4.8971248703
 20
3.2430503298
 30
0.0
 10
4.8211260792
 20
3.2422772595
 30
0.0
 10
4.7435766666
 20
3.2415040451
 30
0.0
 10
4.6652152296
 20
3.2407307438
 30
0.0
 10
4.5867884609
 20
3.2399574443
 30
0.0
 10
4.5090433289
 20
3.2391842036
 30
0.0
 10
4.4327204289
 20
3.2384111026
 30
0.0
 10
4.3585469754
 20
3.2376382371
 30
0.0
 10
4.2872293555
 20
3.2368656877
 30
0.0
 10
4.2194470861
 20
3.2360936172
 30
0.0
 10
4.15584587
 20
3.2353222266
 30
0.0
 10
4.09703141
 20
3.2345516668
 30
0.0
 10
4.05127027
 20
3.2338935322
 30
0.0
 10
4.0174704412
 20
3.2333619467
 30
0.0
 10
3.9943718092
 20
3.2329747806
 30
0.0
 10
3.9728554341
 20
3.2325878333
 30
0.0
 10
3.9529725771
 20
3.2322010976
 30
0.0
 10
3.9347705101
 20
3.2318147443
 30
0.0
 10
3.9182926919
 20
3.2314288631
 30
0.0
 10
3.9035783893
 20
3.2310435918
 30
0.0
 10
3.8906625397
 20
3.230659192
 30
0.0
 10
3.8810380347
 20
3.2303270553
 30
0.0
 10
3.8742608389
 20
3.2300570769
 30
0.0
 10
3.8698767079
 20
3.229863946
 30
0.0
 10
3.8659621162
 20
3.2296711259
 30
0.0
 10
3.8625192565
 20
3.2294786925
 30
0.0
 10
3.8595502659
 20
3.2292869369
 30
0.0
 10
3.8570572374
 20
3.2290959722
 30
0.0
 10
3.855278601
 20
3.2289293413
 30
0.0
 10
3.8540955935
 20
3.2287920586
 30
0.0
 10
3.8533870804
 20
3.2286962092
 30
0.0
 10
3.8527983091
 20
3.2286008165
 30
0.0
 10
3.8523284958
 20
3.2285064368
 30
0.0
 10
3.8519782391
 20
3.2284130786
 30
0.0
 10
3.8517866052
 20
3.2283403914
 30
0.0
 10
3.8517149389
 20
3.2282990535
 30
0.0
  0
SPLINE
  5
3F7
100
AcDbEntity
  8
ALL_FEATURES
100
AcDbSpline
 62
7
  6
CONTINUOUS
 70
0
 71
3
 72
73
 73
69
 74
0
 42
0.0000001
 43
0.0000001
 44
0.0000000001
 40
0.0
 40
0.0
 40
0.0
 40
0.0
 40
0.0000707515
 40
0.0001261371
 40
0.0001978527
 40
0.0003933388
 40
0.0006605911
 40
0.0010007418
 40
0.0014143248
 40
0.0019016211
 40
0.0024627106
 40
0.0038061309
 40
0.0054440785
 40
0.0073757551
 40
0.009600243
 40
0.012116561
 40
0.0149236307
 40
0.0180197204
 40
0.0214027074
 40
0.0290208083
 40
0.0377607398
 40
0.0476026737
 40
0.0585217273
 40
0.070492408
 40
0.083487319
 40
0.0974741375
 40
0.1124197434
 40
0.1282897127
 40
0.1450450704
 40
0.1810512287
 40
0.2200957209
 40
0.2618074
 40
0.3057879182
 40
0.351619029
 40
0.3988641802
 40
0.4470729775
 40
0.495786645
 40
0.5445408485
 40
0.5928714564
 40
0.6403179201
 40
0.6864282253
 40
0.7307637249
 40
0.7729012494
 40
0.8124400554
 40
0.8490039162
 40
0.8822433504
 40
0.8975171415
 40
0.9118432029
 40
0.9251883851
 40
0.9375214025
 40
0.9488114853
 40
0.9590325579
 40
0.9681611181
 40
0.9761740631
 40
0.9830529397
 40
0.9860623885
 40
0.9887826919
 40
0.9912120073
 40
0.993348729
 40
0.9951920113
 40
0.9967412371
 40
0.997995937
 40
0.9985127905
 40
0.9989560164
 40
0.9993257486
 40
0.999622298
 40
0.999846391
 40
1.0
 40
1.0
 40
1.0
 40
1.0
 10
5.465095163
 20
3.2031631144
 30
0.0
 10
5.465095163
 20
3.2031250544
 30
0.0
 10
5.465042944
 20
3.2030650829
 30
0.0
 10
5.4649538025
 20
3.2030119552
 30
0.0
 10
5.4647942013
 20
3.2029398537
 30
0.0
 10
5.4645187051
 20
3.2028577777
 30
0.0
 10
5.4640969053
 20
3.2027630588
 30
0.0
 10
5.4635558572
 20
3.2026682636
 30
0.0
 10
5.4628950776
 20
3.2025724939
 30
0.0
 10
5.4621144744
 20
3.2024764642
 30
0.0
 10
5.4608350759
 20
3.2023396995
 30
0.0
 10
5.4589366014
 20
3.2021731163
 30
0.0
 10
5.4563005652
 20
3.2019818136
 30
0.0
 10
5.4531895566
 20
3.2017898211
 30
0.0
 10
5.4496053128
 20
3.201597242
 30
0.0
 10
5.445549583
 20
3.2014043144
 30
0.0
 10
5.4410245264
 20
3.2012111486
 30
0.0
 10
5.4360328808
 20
3.2010177859
 30
0.0
 10
5.4284542156
 20
3.2007490083
 30
0.0
 10
5.4178398928
 20
3.2004172778
 30
0.0
 10
5.4037511509
 20
3.2000322351
 30
0.0
 10
5.3878861282
 20
3.1996465897
 30
0.0
 10
5.3702827174
 20
3.1992603487
 30
0.0
 10
5.350982836
 20
3.1988737333
 30
0.0
 10
5.3300323869
 20
3.1984868787
 30
0.0
 10
5.3074813626
 20
3.1980997701
 30
0.0
 10
5.2833835239
 20
3.1977124793
 30
0.0
 10
5.2577962018
 20
3.1973250805
 30
0.0
 10
5.2208804557
 20
3.1967955856
 30
0.0
 10
5.1714987927
 20
3.1961389157
 30
0.0
 10
5.1086925319
 20
3.195367598
 30
0.0
 10
5.0415962598
 20
3.1945956495
 30
0.0
 10
4.9708489812
 20
3.1938231665
 30
0.0
 10
4.8971248676
 20
3.1930503442
 30
0.0
 10
4.8211260807
 20
3.1922772804
 30
0.0
 10
4.7435765782
 20
3.191504054
 30
0.0
 10
4.6652152589
 20
3.1907307598
 30
0.0
 10
4.5867884098
 20
3.1899574519
 30
0.0
 10
4.5090432714
 20
3.1891842136
 30
0.0
 10
4.4327204583
 20
3.1884111148
 30
0.0
 10
4.3585468795
 20
3.1876382329
 30
0.0
 10
4.2872293413
 20
3.1868657027
 30
0.0
 10
4.2194470789
 20
3.1860936206
 30
0.0
 10
4.1558457603
 20
3.1853222107
 30
0.0
 10
4.0970314359
 20
3.1845517008
 30
0.0
 10
4.0512698821
 20
3.1838934928
 30
0.0
 10
4.0174703646
 20
3.1833619694
 30
0.0
 10
3.9943718035
 20
3.1829747767
 30
0.0
 10
3.9728554319
 20
3.1825878015
 30
0.0
 10
3.9529725089
 20
3.1822011231
 30
0.0
 10
3.9347705031
 20
3.1818147482
 30
0.0
 10
3.9182927141
 20
3.1814288126
 30
0.0
 10
3.9035783367
 20
3.1810436191
 30
0.0
 10
3.89066253
 20
3.1806592139
 30
0.0
 10
3.8810384113
 20
3.180327003
 30
0.0
 10
3.8742610985
 20
3.1800570599
 30
0.0
 10
3.8698762543
 20
3.1798639473
 30
0.0
 10
3.8659613703
 20
3.1796711482
 30
0.0
 10
3.862518895
 20
3.179478702
 30
0.0
 10
3.859550637
 20
3.1792869215
 30
0.0
 10
3.8570579785
 20
3.1790959167
 30
0.0
 10
3.8552791996
 20
3.1789293021
 30
0.0
 10
3.8540956812
 20
3.1787920426
 30
0.0
 10
3.8533866804
 20
3.1786961994
 30
0.0
 10
3.8527975122
 20
3.1786008158
 30
0.0
 10
3.8523274899
 20
3.1785064559
 30
0.0
 10
3.8519772827
 20
3.1784131123
 30
0.0
 10
3.8517857713
 20
3.1783404093
 30
0.0
 10
3.8517142385
 20
3.1782990433
 30
0.0
  0
SPLINE
  5
3F8
100
AcDbEntity
  8
ALL_FEATURES
100
AcDbSpline
 62
7
  6
CONTINUOUS
 70
0
 71
3
 72
73
 73
69
 74
0
 42
0.0000001
 43
0.0000001
 44
0.0000000001
 40
0.0
 40
0.0
 40
0.0
 40
0.0
 40
0.0001539284
 40
0.000378279
 40
0.000674954
 40
0.0010447
 40
0.0014878596
 40
0.0020045999
 40
0.0032590677
 40
0.0048082809
 40
0.0066520212
 40
0.0087894044
 40
0.0112189479
 40
0.0139391027
 40
0.0169482934
 40
0.0238273891
 40
0.0318412835
 40
0.0409694834
 40
0.051190575
 40
0.062481602
 40
0.0748143304
 40
0.0881593692
 40
0.1024862993
 40
0.1177598893
 40
0.1509997969
 40
0.1875632284
 40
0.227102559
 40
0.26924009
 40
0.3135753168
 40
0.3596858306
 40
0.4071320232
 40
0.4554624985
 40
0.5042165263
 40
0.552929924
 40
0.6011385795
 40
0.6483832316
 40
0.6942143084
 40
0.7381945039
 40
0.7799055426
 40
0.818950308
 40
0.8549558817
 40
0.8717114936
 40
0.8875806909
 40
0.9025263642
 40
0.9165135799
 40
0.9295077402
 40
0.9414783735
 40
0.9523979522
 40
0.9622392252
 40
0.9709789637
 40
0.9785976911
 40
0.9819806535
 40
0.9850762558
 40
0.9878829061
 40
0.9903992918
 40
0.9926241235
 40
0.9945561488
 40
0.9961941793
 40
0.9975371971
 40
0.9980980025
 40
0.9985850932
 40
0.9989986117
 40
0.9993388157
 40
0.9996062034
 40
0.9998018697
 40
0.9998736786
 40
0.9999291502
 40
1.0
 40
1.0
 40
1.0
 40
1.0
 10
5.4649781967
 20
3.2630271315
 30
0.0
 10
5.4649064406
 20
3.2629858087
 30
0.0
 10
5.4647145925
 20
3.2629131636
 30
0.0
 10
5.4643639861
 20
3.2628198351
 30
0.0
 10
5.4638937511
 20
3.2627254695
 30
0.0
 10
5.4633045438
 20
3.2626300746
 30
0.0
 10
5.4625956362
 20
3.2625342117
 30
0.0
 10
5.461412345
 20
3.2623969129
 30
0.0
 10
5.459633766
 20
3.2622302274
 30
0.0
 10
5.4571409976
 20
3.262039148
 30
0.0
 10
5.4541721441
 20
3.2618473423
 30
0.0
 10
5.4507289421
 20
3.2616549048
 30
0.0
 10
5.4468136595
 20
3.2614620917
 30
0.0
 10
5.4424289112
 20
3.2612689794
 30
0.0
 10
5.4356516989
 20
3.2609990374
 30
0.0
 10
5.4260270883
 20
3.2606668648
 30
0.0
 10
5.4131108441
 20
3.2602825259
 30
0.0
 10
5.3983961403
 20
3.2598972728
 30
0.0
 10
5.3819180261
 20
3.2595113253
 30
0.0
 10
5.3637156554
 20
3.2591249968
 30
0.0
 10
5.3438324565
 20
3.2587382897
 30
0.0
 10
5.322315849
 20
3.2583513083
 30
0.0
 10
5.2992170038
 20
3.2579641566
 30
0.0
 10
5.2654168712
 20
3.2574325981
 30
0.0
 10
5.2196553986
 20
3.2567744307
 30
0.0
 10
5.1608407653
 20
3.2560038911
 30
0.0
 10
5.0972393878
 20
3.2552325112
 30
0.0
 10
5.0294569826
 20
3.2544604273
 30
0.0
 10
4.9581394713
 20
3.2536878946
 30
0.0
 10
4.8839660683
 20
3.2529150291
 30
0.0
 10
4.8076433558
 20
3.2521419272
 30
0.0
 10
4.7298985246
 20
3.2513686967
 30
0.0
 10
4.651471982
 20
3.2505953941
 30
0.0
 10
4.5731109741
 20
3.2498221016
 30
0.0
 10
4.4955619569
 20
3.2490488864
 30
0.0
 10
4.4195635287
 20
3.2482758175
 30
0.0
 10
4.3458398712
 20
3.2475030078
 30
0.0
 10
4.2750931247
 20
3.2467305327
 30
0.0
 10
4.2079972201
 20
3.2459585686
 30
0.0
 10
4.1451914672
 20
3.2451872873
 30
0.0
 10
4.0958098326
 20
3.2445305856
 30
0.0
 10
4.058894677
 20
3.2440011289
 30
0.0
 10
4.0333075961
 20
3.2436137024
 30
0.0
 10
4.0092099212
 20
3.2432264191
 30
0.0
 10
3.986659049
 20
3.2428393421
 30
0.0
 10
3.965708815
 20
3.2424524559
 30
0.0
 10
3.9464090794
 20
3.2420658391
 30
0.0
 10
3.9288057652
 20
3.2416796444
 30
0.0
 10
3.9129409192
 20
3.241293964
 30
0.0
 10
3.8988522994
 20
3.2409089053
 30
0.0
 10
3.8882377547
 20
3.2405772153
 30
0.0
 10
3.8806590272
 20
3.2403084433
 30
0.0
 10
3.8756678833
 20
3.2401150655
 30
0.0
 10
3.871143279
 20
3.2399218819
 30
0.0
 10
3.867087553
 20
3.2397289612
 30
0.0
 10
3.8635028989
 20
3.2395363929
 30
0.0
 10
3.8603914714
 20
3.239344414
 30
0.0
 10
3.8577554172
 20
3.2391531376
 30
0.0
 10
3.8558572694
 20
3.2389865397
 30
0.0
 10
3.8545783558
 20
3.2388497531
 30
0.0
 10
3.8537980542
 20
3.2387537141
 30
0.0
 10
3.8531373924
 20
3.2386579438
 30
0.0
 10
3.8525962783
 20
3.2385631461
 30
0.0
 10
3.8521742727
 20
3.238468429
 30
0.0
 10
3.8518985547
 20
3.2383863498
 30
0.0
 10
3.8517387306
 20
3.2383142659
 30
0.0
 10
3.8516494303
 20
3.2382611299
 30
0.0
 10
3.851597003
 20
3.2382012226
 30
0.0
 10
3.8515968976
 20
3.2381631099
 30
0.0
  0
SPLINE
  5
3F9
100
AcDbEntity
  8
ALL_FEATURES
100
AcDbSpline
 62
7
  6
CONTINUOUS
 70
0
 71
3
 72
20
 73
16
 74
0
 42
0.0000001
 43
0.0000001
 44
0.0000000001
 40
0.0
 40
0.0
 40
0.0
 40
0.0
 40
0.0047613227
 40
0.0111494998
 40
0.028969994
 40
0.0536292445
 40
0.0851741344
 40
0.1236216909
 40
0.1689772075
 40
0.2212404455
 40
0.2804081949
 40
0.4194055633
 40
0.5858003431
 40
0.7793980223
 40
1.0
 40
1.0
 40
1.0
 40
1.0
 10
5.489981763
 20
3.2774649736
 30
0.0
 10
5.489935637
 20
3.277438407
 30
0.0
 10
5.4898205924
 20
3.2773888371
 30
0.0
 10
5.4895116629
 20
3.2772912706
 30
0.0
 10
5.4889761772
 20
3.277177953
 30
0.0
 10
5.4881588842
 20
3.2770485204
 30
0.0
 10
5.4871085283
 20
3.2769182036
 30
0.0
 10
5.4858256933
 20
3.2767866591
 30
0.0
 10
5.4843102077
 20
3.2766546607
 30
0.0
 10
5.4825623859
 20
3.2765222485
 30
0.0
 10
5.4797689257
 20
3.2763352253
 30
0.0
 10
5.4756996244
 20
3.2761064375
 30
0.0
 10
5.4701273093
 20
3.2758429847
 30
0.0
 10
5.4636418504
 20
3.2755787432
 30
0.0
 10
5.4590142262
 20
3.2754129083
 30
0.0
 10
5.4565494151
 20
3.2753290303
 30
0.0
  0
LINE
  5
3FA
100
AcDbEntity
  8
ALL_FEATURES
100
AcDbLine
 62
7
  6
CONTINUOUS
 10
5.4565494151
 20
3.2753290303
 11
5.4542867799
 21
3.2752532638
  0
SPLINE
  5
3FB
100
AcDbEntity
  8
ALL_FEATURES
100
AcDbSpline
 62
7
  6
CONTINUOUS
 70
0
 71
3
 72
54
 73
50
 74
0
 42
0.0000001
 43
0.0000001
 44
0.0000000001
 40
0.0
 40
0.0
 40
0.0
 40
0.0
 40
0.0151172954
 40
0.0339805535
 40
0.0564421675
 40
0.0823247117
 40
0.1114226309
 40
0.1435074329
 40
0.2155975829
 40
0.2963194025
 40
0.3831240849
 40
0.4732703644
 40
0.5187087456
 40
0.5639117243
 40
0.6085217151
 40
0.6521860629
 40
0.6945588773
 40
0.7353057884
 40
0.7741036468
 40
0.8106461327
 40
0.8446443929
 40
0.8758285832
 40
0.8902881814
 40
0.9039536135
 40
0.916797541
 40
0.9287956478
 40
0.9399238707
 40
0.9501592357
 40
0.9594826649
 40
0.9678759673
 40
0.9753213713
 40
0.9818048929
 40
0.9846822409
 40
0.9873146827
 40
0.9897007578
 40
0.9918390979
 40
0.993728876
 40
0.9953695142
 40
0.9967604962
 40
0.9979014202
 40
0.998378058
 40
0.9987921623
 40
0.9991438168
 40
0.9994332176
 40
0.9996608349
 40
0.9998277602
 40
0.9998893039
 40
0.9999371876
 40
1.0
 40
1.0
 40
1.0
 40
1.0
 10
5.4542867799
 20
3.2752532638
 30
0.0
 10
5.4460875431
 20
3.2749830231
 30
0.0
 10
5.4276542921
 20
3.2744696395
 30
0.0
 10
5.3970326642
 20
3.2737765916
 30
0.0
 10
5.3605678676
 20
3.2730798477
 30
0.0
 10
5.3185482435
 20
3.2723802501
 30
0.0
 10
5.2713057998
 20
3.271678891
 30
0.0
 10
5.1989892854
 20
3.2707040335
 30
0.0
 10
5.0986585589
 20
3.2695111455
 30
0.0
 10
4.968633408
 20
3.2681225794
 30
0.0
 10
4.8288092704
 20
3.2667308294
 30
0.0
 10
4.7081310031
 20
3.2655726893
 30
0.0
 10
4.6100276198
 20
3.2646349108
 30
0.0
 10
4.5366342788
 20
3.2639297259
 30
0.0
 10
4.4642036951
 20
3.2632246083
 30
0.0
 10
4.3933090267
 20
3.2625196275
 30
0.0
 10
4.3245108367
 20
3.2618148137
 30
0.0
 10
4.2583536803
 20
3.2611102802
 30
0.0
 10
4.1953606464
 20
3.2604060786
 30
0.0
 10
4.1360301315
 20
3.2597023682
 30
0.0
 10
4.0808316212
 20
3.2589992978
 30
0.0
 10
4.0376164829
 20
3.2584000454
 30
0.0
 10
4.0054348243
 20
3.2579169378
 30
0.0
 10
3.9832050369
 20
3.257563895
 30
0.0
 10
3.9623112013
 20
3.2572109616
 30
0.0
 10
3.9427944365
 20
3.2568582058
 30
0.0
 10
3.9246935014
 20
3.2565056692
 30
0.0
 10
3.9080443233
 20
3.2561533496
 30
0.0
 10
3.8928796558
 20
3.2558013814
 30
0.0
 10
3.8792294461
 20
3.2554499488
 30
0.0
 10
3.8671209223
 20
3.2550990716
 30
0.0
 10
3.8580056463
 20
3.2547967178
 30
0.0
 10
3.8515018484
 20
3.2545517433
 30
0.0
 10
3.8472206205
 20
3.2543755413
 30
0.0
 10
3.8433407922
 20
3.2541995278
 30
0.0
 10
3.8398644296
 20
3.2540237332
 30
0.0
 10
3.8367931545
 20
3.2538482471
 30
0.0
 10
3.8341281522
 20
3.2536732923
 30
0.0
 10
3.8318705125
 20
3.2534989617
 30
0.0
 10
3.8302448012
 20
3.2533471524
 30
0.0
 10
3.8291493049
 20
3.2532225343
 30
0.0
 10
3.8284807576
 20
3.2531350194
 30
0.0
 10
3.8279147715
 20
3.2530477597
 30
0.0
 10
3.8274512639
 20
3.2529613425
 30
0.0
 10
3.8270899765
 20
3.2528750464
 30
0.0
 10
3.8268539392
 20
3.2528000714
 30
0.0
 10
3.8267176743
 20
3.2527345233
 30
0.0
 10
3.8266404659
 20
3.2526853841
 30
0.0
 10
3.8265970128
 20
3.252630952
 30
0.0
 10
3.8265970834
 20
3.2525968658
 30
0.0
  0
SPLINE
  5
3FC
100
AcDbEntity
  8
ALL_FEATURES
100
AcDbSpline
 62
7
  6
CONTINUOUS
 70
0
 71
3
 72
73
 73
69
 74
0
 42
0.0000001
 43
0.0000001
 44
0.0000000001
 40
0.0
 40
0.0
 40
0.0
 40
0.0
 40
0.0001536098
 40
0.0003775732
 40
0.0006738718
 40
0.0010433252
 40
0.001486347
 40
0.0020031358
 40
0.0032580262
 40
0.0048076437
 40
0.0066512464
 40
0.0087879442
 40
0.0112167715
 40
0.0139367081
 40
0.0169462664
 40
0.0238258522
 40
0.0318384688
 40
0.0409666175
 40
0.0511883546
 40
0.0624782947
 40
0.0748107888
 40
0.0881565548
 40
0.1024826399
 40
0.117755852
 40
0.150995914
 40
0.1875595526
 40
0.227098087
 40
0.2692360883
 40
0.3135713021
 40
0.3596816013
 40
0.4071282372
 40
0.4554587015
 40
0.504213015
 40
0.5529265806
 40
0.6011354901
 40
0.6483806367
 40
0.6942115619
 40
0.7381924428
 40
0.7799038135
 40
0.8189482708
 40
0.8549549236
 40
0.871709834
 40
0.8875796031
 40
0.9025258988
 40
0.9165122951
 40
0.92950686
 40
0.941478317
 40
0.9523970219
 40
0.9622384731
 40
0.9709792035
 40
0.9785970761
 40
0.9819796784
 40
0.9850755554
 40
0.9878828436
 40
0.9903996947
 40
0.9926243601
 40
0.9945557908
 40
0.9961933391
 40
0.9975364796
 40
0.9980975587
 40
0.9985849757
 40
0.9989988046
 40
0.9993392349
 40
0.9996066982
 40
0.9998022569
 40
0.9998739636
 40
0.9999293188
 40
1.0
 40
1.0
 40
1.0
 40
1.0
 10
5.4649775568
 20
3.2130271707
 30
0.0
 10
5.4649060138
 20
3.2129858216
 30
0.0
 10
5.4647145809
 20
3.2129131252
 30
0.0
 10
5.4643645855
 20
3.2128197696
 30
0.0
 10
5.4638949297
 20
3.2127253919
 30
0.0
 10
5.4633061618
 20
3.2126300002
 30
0.0
 10
5.4625974585
 20
3.212534155
 30
0.0
 10
5.4614139827
 20
3.2123968916
 30
0.0
 10
5.4596349227
 20
3.2122302911
 30
0.0
 10
5.4571417766
 20
3.2120393015
 30
0.0
 10
5.4541731473
 20
3.211847531
 30
0.0
 10
5.4507307756
 20
3.2116550865
 30
0.0
 10
5.4468163667
 20
3.2114622584
 30
0.0
 10
5.4424319246
 20
3.2112691373
 30
0.0
 10
5.4356543687
 20
3.2109992036
 30
0.0
 10
5.4260299856
 20
3.2106670371
 30
0.0
 10
5.4131141978
 20
3.2102825932
 30
0.0
 10
5.398399863
 20
3.2098973768
 30
0.0
 10
5.3819220151
 20
3.2095114887
 30
0.0
 10
5.3637200122
 20
3.209125098
 30
0.0
 10
5.3438371358
 20
3.208738393
 30
0.0
 10
5.3223207204
 20
3.2083514514
 30
0.0
 10
5.2992221462
 20
3.2079642549
 30
0.0
 10
5.2654225935
 20
3.2074327002
 30
0.0
 10
5.2196611366
 20
3.2067745338
 30
0.0
 10
5.1608467461
 20
3.2060040038
 30
0.0
 10
5.0972454426
 20
3.2052325876
 30
0.0
 10
5.0294632299
 20
3.2044605241
 30
0.0
 10
4.958145599
 20
3.2036879801
 30
0.0
 10
4.8839720915
 20
3.202915101
 30
0.0
 10
4.8076492734
 20
3.2021420073
 30
0.0
 10
4.7299040679
 20
3.2013687622
 30
0.0
 10
4.6514772992
 20
3.2005954604
 30
0.0
 10
4.5731159227
 20
3.1998221608
 30
0.0
 10
4.4955664244
 20
3.1990489378
 30
0.0
 10
4.4195676867
 20
3.1982758757
 30
0.0
 10
4.3458434874
 20
3.1975030434
 30
0.0
 10
4.2750962859
 20
3.1967305755
 30
0.0
 10
4.2080000098
 20
3.1959586168
 30
0.0
 10
4.1451936738
 20
3.1951872906
 30
0.0
 10
4.0958120085
 20
3.1945306455
 30
0.0
 10
4.0588963485
 20
3.1940011342
 30
0.0
 10
4.0333090063
 20
3.1936137207
 30
0.0
 10
4.0092111331
 20
3.1932264644
 30
0.0
 10
3.9866601535
 20
3.1928393381
 30
0.0
 10
3.9657097025
 20
3.1924524579
 30
0.0
 10
3.9464097782
 20
3.1920658894
 30
0.0
 10
3.928806399
 20
3.1916796337
 30
0.0
 10
3.9129413964
 20
3.1912939426
 30
0.0
 10
3.8988526068
 20
3.1909089649
 30
0.0
 10
3.8882381853
 20
3.1905772215
 30
0.0
 10
3.880659966
 20
3.1903084247
 30
0.0
 10
3.8756685252
 20
3.1901150519
 30
0.0
 10
3.871143179
 20
3.1899218838
 30
0.0
 10
3.8670869478
 20
3.1897289858
 30
0.0
 10
3.8635024536
 20
3.1895364141
 30
0.0
 10
3.8603916978
 20
3.1893444122
 30
0.0
 10
3.8577561615
 20
3.1891530968
 30
0.0
 10
3.8558580608
 20
3.1889865001
 30
0.0
 10
3.8545787542
 20
3.1888497372
 30
0.0
 10
3.8537979587
 20
3.1887537026
 30
0.0
 10
3.8531368276
 20
3.188657938
 30
0.0
 10
3.8525953753
 20
3.1885631555
 30
0.0
 10
3.8521732625
 20
3.1884684503
 30
0.0
 10
3.8518976073
 20
3.1883863854
 30
0.0
 10
3.8517379925
 20
3.1883142627
 30
0.0
 10
3.8516489084
 20
3.1882611619
 30
0.0
 10
3.8515967923
 20
3.188201121
 30
0.0
 10
3.8515968974
 20
3.188163099
 30
0.0
  0
SPLINE
  5
3FD
100
AcDbEntity
  8
ALL_FEATURES
100
AcDbSpline
 62
7
  6
CONTINUOUS
 70
0
 71
3
 72
73
 73
69
 74
0
 42
0.0000001
 43
0.0000001
 44
0.0000000001
 40
0.0
 40
0.0
 40
0.0
 40
0.0
 40
0.0001538669
 40
0.0003781462
 40
0.0006747462
 40
0.0010444154
 40
0.0014874976
 40
0.0020041605
 40
0.0032584749
 40
0.0048075377
 40
0.0066511315
 40
0.0087883723
 40
0.0112177774
 40
0.0139377974
 40
0.0169468566
 40
0.0238256988
 40
0.0318393531
 40
0.040967327
 40
0.0511882067
 40
0.0624790368
 40
0.0748115836
 40
0.088156456
 40
0.1024832348
 40
0.1177566892
 40
0.1509963717
 40
0.1875596395
 40
0.2270988663
 40
0.2692363512
 40
0.3135715868
 40
0.3596821605
 40
0.4071284598
 40
0.4554590839
 40
0.5042132972
 40
0.5529269115
 40
0.6011358088
 40
0.6483807215
 40
0.6942120716
 40
0.7381925466
 40
0.7799038652
 40
0.8189489045
 40
0.8549547405
 40
0.8717104774
 40
0.8875797948
 40
0.9025255829
 40
0.9165129073
 40
0.9295071695
 40
0.9414778977
 40
0.9523975639
 40
0.962238916
 40
0.9709787255
 40
0.9785975151
 40
0.9819805052
 40
0.9850761328
 40
0.9878828062
 40
0.9903992127
 40
0.9926240628
 40
0.9945561041
 40
0.9961941481
 40
0.9975371769
 40
0.9980979869
 40
0.9985850816
 40
0.9989986035
 40
0.9993388104
 40
0.9996062003
 40
0.9998018682
 40
0.9998736777
 40
0.9999291498
 40
1.0
 40
1.0
 40
1.0
 40
1.0
 10
5.4649783787
 20
3.1630271303
 30
0.0
 10
5.464906676
 20
3.1629857811
 30
0.0
 10
5.4647149124
 20
3.1629131
 30
0.0
 10
5.4643644293
 20
3.1628197472
 30
0.0
 10
5.4638943173
 20
3.1627253721
 30
0.0
 10
5.4633052345
 20
3.162629981
 30
0.0
 10
5.4625964503
 20
3.1625341327
 30
0.0
 10
5.4614133221
 20
3.1623968656
 30
0.0
 10
5.4596349433
 20
3.1622302365
 30
0.0
 10
5.4571424126
 20
3.1620392241
 30
0.0
 10
5.4541737926
 20
3.1618474654
 30
0.0
 10
5.4507308192
 20
3.1616550487
 30
0.0
 10
5.4468157598
 20
3.1614622385
 30
0.0
 10
5.4424312293
 20
3.1612691156
 30
0.0
 10
5.435654297
 20
3.1609991475
 30
0.0
 10
5.4260300226
 20
3.1606669402
 30
0.0
 10
5.413114164
 20
3.1602825932
 30
0.0
 10
5.3983998229
 20
3.1598973451
 30
0.0
 10
5.3819220478
 20
3.1595114057
 30
0.0
 10
5.3637199924
 20
3.1591250769
 30
0.0
 10
5.343837084
 20
3.1587383654
 30
0.0
 10
5.3223207423
 20
3.1583513783
 30
0.0
 10
5.2992221379
 20
3.1579642231
 30
0.0
 10
5.2654222761
 20
3.1574326611
 30
0.0
 10
5.2196610794
 20
3.1567744901
 30
0.0
 10
5.1608467031
 20
3.1560039446
 30
0.0
 10
5.0972454856
 20
3.1552325595
 30
0.0
 10
5.0294631471
 20
3.1544604705
 30
0.0
 10
4.958145614
 20
3.1536879326
 30
0.0
 10
4.8839721066
 20
3.1529150619
 30
0.0
 10
4.8076492139
 20
3.1521419549
 30
0.0
 10
4.7299041348
 20
3.1513687193
 30
0.0
 10
4.6514772851
 20
3.1505954117
 30
0.0
 10
4.5731159201
 20
3.1498221141
 30
0.0
 10
4.4955665055
 20
3.1490488939
 30
0.0
 10
4.4195676497
 20
3.14827582
 30
0.0
 10
4.3458435444
 20
3.1475030053
 30
0.0
 10
4.2750963404
 20
3.1467305253
 30
0.0
 10
4.2079999784
 20
3.1459585564
 30
0.0
 10
4.1451937779
 20
3.1451872703
 30
0.0
 10
4.0958117808
 20
3.1445305646
 30
0.0
 10
4.0588963471
 20
3.1440011046
 30
0.0
 10
4.0333090691
 20
3.1436136757
 30
0.0
 10
4.0092112061
 20
3.14322639
 30
0.0
 10
3.9866601558
 20
3.1428393107
 30
0.0
 10
3.9657097545
 20
3.1424524221
 30
0.0
 10
3.9464098635
 20
3.142065803
 30
0.0
 10
3.9288064061
 20
3.141679606
 30
0.0
 10
3.9129414302
 20
3.1412939232
 30
0.0
 10
3.8988526942
 20
3.1409088623
 30
0.0
 10
3.8882380615
 20
3.1405771703
 30
0.0
 10
3.8806592711
 20
3.1403083967
 30
0.0
 10
3.8756680856
 20
3.1401150177
 30
0.0
 10
3.8711434434
 20
3.139921833
 30
0.0
 10
3.8670876833
 20
3.1397289111
 30
0.0
 10
3.8635029991
 20
3.1395363417
 30
0.0
 10
3.8603915454
 20
3.1393443617
 30
0.0
 10
3.8577554691
 20
3.1391530841
 30
0.0
 10
3.8558573054
 20
3.1389864853
 30
0.0
 10
3.8545783811
 20
3.1388496978
 30
0.0
 10
3.8537980729
 20
3.1387536584
 30
0.0
 10
3.8531374055
 20
3.1386578875
 30
0.0
 10
3.8525962868
 20
3.1385630892
 30
0.0
 10
3.8521742776
 20
3.1384683716
 30
0.0
 10
3.8518985572
 20
3.1383862919
 30
0.0
 10
3.8517387317
 20
3.1383142076
 30
0.0
 10
3.8516494307
 20
3.1382610713
 30
0.0
 10
3.8515970028
 20
3.1382011637
 30
0.0
 10
3.8515968974
 20
3.1381630507
 30
0.0
  0
ENDSEC
  0
SECTION
  2
OBJECTS
  0
DICTIONARY
  5
C
100
AcDbDictionary
280
0
281
1
  3
ACAD_GROUP
350
D
  3
ACAD_MLINESTYLE
350
17
  3
ACAD_LAYOUT
350
1A
  3
ACAD_PLOTSETTINGS
350
19
  3
ACAD_PLOTSTYLENAME
350
E
  0
DICTIONARY
  5
D
102
{ACAD_REACTORS
330
C
102
}
100
AcDbDictionary
280
0
281
1
  0
ACDBDICTIONARYWDFLT
  5
E
102
{ACAD_REACTORS
330
C
102
}
100
AcDbDictionary
281
1
  3
Normal
350
F
100
AcDbDictionaryWithDefault
340
F
  0
DICTIONARY
  5
17
102
{ACAD_REACTORS
330
C
102
}
100
AcDbDictionary
280
0
281
1
  3
Standard
350
18
  0
DICTIONARY
  5
19
102
{ACAD_REACTORS
330
C
102
}
100
AcDbDictionary
281
1
  0
DICTIONARY
  5
1A
102
{ACAD_REACTORS
330
C
102
}
100
AcDbDictionary
281
1
  3
Model
350
3FE
  3
Layout1
350
3FF
  0
ACDBPLACEHOLDER
  5
F
102
{ACAD_REACTORS
330
E
102
}
  0
MLINESTYLE
  5
18
102
{ACAD_REACTORS
330
17
102
}
100
AcDbMlineStyle
  2
STANDARD
 70
0
  3

 62
256
 51
90.0
 52
90.0
 71
2
 49
0.5
 62
256
  6
BYLAYER
 49
-0.5
 62
256
  6
BYLAYER
  0
LAYOUT
  5
3FE
102
{ACAD_REACTORS
330
1A
102
}
100
AcDbPlotSettings
  1

  2
none_device
  4
ANSI_A_(11.00_x_8.50_Inches)
  6

 40
0.0
 41
0.0
 42
0.0
 43
0.0
 44
279.4
 45
215.9
 46
0.0
 47
0.0
 48
0.0
 49
0.0
140
0.0
141
0.0
142
1.0
143
1.0
 70
1024
 72
0
 73
0
 74
0
  7

 75
0
147
1.0
148
0.0
149
0.0
100
AcDbLayout
  1
Model
 70
0
 71
0
 10
0.0
 20
0.0
 11
11.0
 21
8.5
 12
0.0
 22
0.0
 32
0.0
 14
0.0
 24
0.0
 34
0.0
 15
0.0
 25
0.0
 35
0.0
146
0.0
 13
0.0
 23
0.0
 33
0.0
 16
1.0
 26
0.0
 36
0.0
 17
0.0
 27
1.0
 37
0.0
 76
0
330
215
345
0
346
0
  0
LAYOUT
  5
3FF
102
{ACAD_REACTORS
330
1A
102
}
100
AcDbPlotSettings
  1

  2
none_device
  4
ANSI_A_(11.00_x_8.50_Inches)
  6

 40
0.0
 41
0.0
 42
0.0
 43
0.0
 44
279.4
 45
215.9
 46
0.0
 47
0.0
 48
0.0
 49
0.0
140
0.0
141
0.0
142
1.0
143
1.0
 70
0
 72
0
 73
0
 74
0
  7

 75
0
147
1.0
148
0.0
149
0.0
100
AcDbLayout
  1
Layout1
 70
0
 71
1
 10
0.0
 20
0.0
 11
11.0
 21
8.5
 12
0.0
 22
0.0
 32
0.0
 14
0.0
 24
0.0
 34
0.0
 15
0.0
 25
0.0
 35
0.0
146
0.0
 13
0.0
 23
0.0
 33
0.0
 16
1.0
 26
0.0
 36
0.0
 17
0.0
 27
1.0
 37
0.0
 76
0
330
216
345
0
346
0
  0
ENDSEC
  0
EOF
