999
DXF file: 120_right.dxf
999
Pro/ENGINEER 2018400 by Parametric Technology Corporation
  0
SECTION
  2
HEADER
  9
$ACADVER
  1
AC1027
  9
$DWGCODEPAGE
  3
ANSI_1252
  9
$EXTMAX
 10
11.0
 20
8.5
 30
0.0
  9
$EXTMIN
 10
0.0
 20
0.0
 30
0.0
  9
$LIMMIN
 10
0.0
 20
0.0
  9
$LIMMAX
 10
11.0
 20
8.5
  9
$VIEWCTR
 10
5.5
 20
4.25
  9
$VIEWSIZE
 40
8.5
  9
$CLAYER
  8
0
  9
$LTSCALE
 40
0.605
  9
$CELTYPE
  6
BYLAYER
  9
$DIMSCALE
 40
1.0
  9
$DIMASZ
 40
0.1
  9
$DIMEXO
 40
0.0625
  9
$DIMDLI
 40
0.418
  9
$DIMEXE
 40
0.125
  9
$DIMCEN
 40
0.099
  9
$DIMLFAC
 40
1.0
  9
$DIMBLK
  1
_FILLED
  9
$DIMALT
 70
1
  9
$DIMALTD
 70
1
  9
$DIMALTTD
 70
2
  9
$DIMALTF
 40
25.4
  9
$DIMTXT
 40
0.08
  9
$DIMTOL
 70
1
  9
$DIMLIM
 70
0
  9
$DIMTFAC
 40
1.0
  9
$DIMTP
 40
0.01
  9
$DIMTM
 40
0.01
  9
$DIMGAP
 40
0.09
  9
$DIMDSEP
 70
46
  9
$AUNITS
 70
0
  9
$PDMODE
 70
3
  9
$PDSIZE
 40
0.3125
  9
$HANDSEED
  5
3DD
  9
$TILEMODE
 70
1
  9
$MEASUREMENT
 70
0
  9
$INSUNITS
 70
1
  0
ENDSEC
  0
SECTION
  2
CLASSES
  0
CLASS
  1
ACDBDICTIONARYWDFLT
  2
AcDbDictionaryWithDefault
  3
AutoCAD 2000
 90
0
 91
1
280
0
281
0
  0
CLASS
  1
ACDBPLACEHOLDER
  2
AcDbPlaceHolder
  3
AutoCAD 2000
 90
0
 91
1
280
0
281
0
  0
CLASS
  1
LAYOUT
  2
AcDbLayout
  3
AutoCAD 2000
 90
0
 91
0
280
0
281
0
  0
ENDSEC
  0
SECTION
  2
TABLES
  0
TABLE
  2
VPORT
  5
8
100
AcDbSymbolTable
 70
2
  0
VPORT
  5
1F4
100
AcDbSymbolTableRecord
100
AcDbViewportTableRecord
  2
*ACTIVE
 70
0
 10
0.0
 20
0.0
 11
1.0
 21
1.0
 12
5.5
 22
4.25
 13
0.0
 23
0.0
 14
1.0
 24
1.0
 15
0.0
 25
0.0
 16
0.0
 26
0.0
 36
1.0
 17
0.0
 27
0.0
 37
0.0
 40
8.5
 41
1.2941176471
 42
50.0
 43
0.0
 44
0.0
 50
0.0
 51
0.0
 71
0
 72
100
 73
1
 74
1
 75
0
 76
0
 77
0
 78
0
  0
ENDTAB
  0
TABLE
  2
LTYPE
  5
5
100
AcDbSymbolTable
 70
6
  0
LTYPE
  5
14
100
AcDbSymbolTableRecord
100
AcDbLinetypeTableRecord
  2
BYBLOCK
 70
0
  3

 72
65
 73
0
 40
0.0
  0
LTYPE
  5
15
100
AcDbSymbolTableRecord
100
AcDbLinetypeTableRecord
  2
BYLAYER
 70
0
  3

 72
65
 73
0
 40
0.0
  0
LTYPE
  5
16
100
AcDbSymbolTableRecord
100
AcDbLinetypeTableRecord
  2
CONTINUOUS
 70
64
  3
Solid line
 72
65
 73
0
 40
0.0
  0
LTYPE
  5
1F5
100
AcDbSymbolTableRecord
100
AcDbLinetypeTableRecord
  2
CENTER
 70
64
  3
____ _ ____ _ ____ _ ____ _ ____ _ ____ _ ____
 72
65
 73
4
 40
0.6
 49
0.375
 74
0
 49
-0.075
 74
0
 49
0.075
 74
0
 49
-0.075
 74
0
  0
LTYPE
  5
1F6
100
AcDbSymbolTableRecord
100
AcDbLinetypeTableRecord
  2
HIDDEN
 70
64
  3
- - - - - - - - - - - - - - - - - - - -
 72
65
 73
2
 40
0.2
 49
0.1
 74
0
 49
-0.1
 74
0
  0
LTYPE
  5
1F7
100
AcDbSymbolTableRecord
100
AcDbLinetypeTableRecord
  2
PHANTOM
 70
64
  3
_____ _ _ _____ _ _ _____ _ _ _____
 72
65
 73
6
 40
0.8
 49
0.45
 74
0
 49
-0.05
 74
0
 49
0.1
 74
0
 49
-0.05
 74
0
 49
0.1
 74
0
 49
-0.05
 74
0
  0
LTYPE
  5
1F8
100
AcDbSymbolTableRecord
100
AcDbLinetypeTableRecord
  2
DOT
 70
64
  3
. . . . . . . . . . . . . . . . . . . .
 72
65
 73
2
 40
0.2
 49
0.1
 74
0
 49
-0.1
 74
0
  0
LTYPE
  5
1F9
100
AcDbSymbolTableRecord
100
AcDbLinetypeTableRecord
  2
DASHED
 70
64
  3
- - - - - - - - - - - - - - - - - - - -
 72
65
 73
2
 40
0.2
 49
0.1
 74
0
 49
-0.1
 74
0
  0
ENDTAB
  0
TABLE
  2
LAYER
  5
2
100
AcDbSymbolTable
 70
36
  0
LAYER
  5
10
100
AcDbSymbolTableRecord
100
AcDbLayerTableRecord
  2
0
 70
0
 62
7
  6
CONTINUOUS
370
-3
390
F
  0
LAYER
  5
1FA
100
AcDbSymbolTableRecord
100
AcDbLayerTableRecord
  2
DEFAULT_1
 70
0
 62
7
  6
CENTER
370
-3
390
F
  0
LAYER
  5
1FB
100
AcDbSymbolTableRecord
100
AcDbLayerTableRecord
  2
DEFAULT_2
 70
0
 62
8
  6
HIDDEN
370
-3
390
F
  0
LAYER
  5
1FC
100
AcDbSymbolTableRecord
100
AcDbLayerTableRecord
  2
DEFAULT_3
 70
0
 62
7
  6
PHANTOM
370
-3
390
F
  0
LAYER
  5
1FD
100
AcDbSymbolTableRecord
100
AcDbLayerTableRecord
  2
ALL_ASSEMBLY_MEMBERS
 70
0
 62
7
  6
CONTINUOUS
370
-3
390
F
  0
LAYER
  5
1FE
100
AcDbSymbolTableRecord
100
AcDbLayerTableRecord
  2
ALL_FEATURES
 70
0
 62
7
  6
CONTINUOUS
370
-3
390
F
  0
LAYER
  5
1FF
100
AcDbSymbolTableRecord
100
AcDbLayerTableRecord
  2
AXES_FEATURES
 70
0
 62
7
  6
CONTINUOUS
370
-3
390
F
  0
LAYER
  5
200
100
AcDbSymbolTableRecord
100
AcDbLayerTableRecord
  2
CHAMFER_FEATURES
 70
0
 62
7
  6
CONTINUOUS
370
-3
390
F
  0
LAYER
  5
201
100
AcDbSymbolTableRecord
100
AcDbLayerTableRecord
  2
COSMETIC_SKETCHES
 70
0
 62
7
  6
CONTINUOUS
370
-3
390
F
  0
LAYER
  5
202
100
AcDbSymbolTableRecord
100
AcDbLayerTableRecord
  2
CUT_FEATURES
 70
0
 62
7
  6
CONTINUOUS
370
-3
390
F
  0
LAYER
  5
203
100
AcDbSymbolTableRecord
100
AcDbLayerTableRecord
  2
DATUM_CURVES
 70
0
 62
7
  6
CONTINUOUS
370
-3
390
F
  0
LAYER
  5
204
100
AcDbSymbolTableRecord
100
AcDbLayerTableRecord
  2
DATUM_PLANES
 70
0
 62
7
  6
CONTINUOUS
370
-3
390
F
  0
LAYER
  5
205
100
AcDbSymbolTableRecord
100
AcDbLayerTableRecord
  2
DEFAULT_COORDINATE_SYSTEM
 70
0
 62
7
  6
CONTINUOUS
370
-3
390
F
  0
LAYER
  5
206
100
AcDbSymbolTableRecord
100
AcDbLayerTableRecord
  2
DEFAULT_DATUM_AXES
 70
0
 62
7
  6
CONTINUOUS
370
-3
390
F
  0
LAYER
  5
207
100
AcDbSymbolTableRecord
100
AcDbLayerTableRecord
  2
DEFAULT_DATUM_PLANES
 70
0
 62
7
  6
CONTINUOUS
370
-3
390
F
  0
LAYER
  5
208
100
AcDbSymbolTableRecord
100
AcDbLayerTableRecord
  2
DIMENSIONS
 70
0
 62
7
  6
CONTINUOUS
370
-3
390
F
  0
LAYER
  5
209
100
AcDbSymbolTableRecord
100
AcDbLayerTableRecord
  2
HOLE_FEATURES
 70
0
 62
7
  6
CONTINUOUS
370
-3
390
F
  0
LAYER
  5
20A
100
AcDbSymbolTableRecord
100
AcDbLayerTableRecord
  2
PART_REFERENCE_DIMENSIONS
 70
0
 62
7
  6
CONTINUOUS
370
-3
390
F
  0
LAYER
  5
20B
100
AcDbSymbolTableRecord
100
AcDbLayerTableRecord
  2
PLATED_SURFACE_AREA
 70
0
 62
7
  6
CONTINUOUS
370
-3
390
F
  0
LAYER
  5
20C
100
AcDbSymbolTableRecord
100
AcDbLayerTableRecord
  2
PROTRUSION_FEATURES
 70
0
 62
7
  6
CONTINUOUS
370
-3
390
F
  0
LAYER
  5
20D
100
AcDbSymbolTableRecord
100
AcDbLayerTableRecord
  2
QUILT
 70
0
 62
7
  6
CONTINUOUS
370
-3
390
F
  0
LAYER
  5
20E
100
AcDbSymbolTableRecord
100
AcDbLayerTableRecord
  2
QUILTS
 70
0
 62
7
  6
CONTINUOUS
370
-3
390
F
  0
LAYER
  5
20F
100
AcDbSymbolTableRecord
100
AcDbLayerTableRecord
  2
REFERENCE_DIMENSIONS
 70
0
 62
7
  6
CONTINUOUS
370
-3
390
F
  0
LAYER
  5
210
100
AcDbSymbolTableRecord
100
AcDbLayerTableRecord
  2
ROUND_FEATURES
 70
0
 62
7
  6
CONTINUOUS
370
-3
390
F
  0
LAYER
  5
211
100
AcDbSymbolTableRecord
100
AcDbLayerTableRecord
  2
SHELL_FEATURES
 70
0
 62
7
  6
CONTINUOUS
370
-3
390
F
  0
LAYER
  5
212
100
AcDbSymbolTableRecord
100
AcDbLayerTableRecord
  2
XSEC_DATUMS
 70
0
 62
7
  6
CONTINUOUS
370
-3
390
F
  0
ENDTAB
  0
TABLE
  2
STYLE
  5
3
100
AcDbSymbolTable
 70
1
  0
STYLE
  5
11
100
AcDbSymbolTableRecord
100
AcDbTextStyleTableRecord
  2
STANDARD
 70
0
 40
0.0
 41
0.8
 50
0.0
 71
0
 42
0.2
  3
txt
  4

  0
STYLE
  5
213
100
AcDbSymbolTableRecord
100
AcDbTextStyleTableRecord
  2
TEXTSTYLE_1
 70
0
 40
0.0
 41
0.8
 50
0.0
 71
0
 42
0.2
  3
gdt
  4

  0
ENDTAB
  0
TABLE
  2
VIEW
  5
6
100
AcDbSymbolTable
 70
0
  0
ENDTAB
  0
TABLE
  2
UCS
  5
7
100
AcDbSymbolTable
 70
0
  0
ENDTAB
  0
TABLE
  2
APPID
  5
9
100
AcDbSymbolTable
 70
1
  0
APPID
  5
214
100
AcDbSymbolTableRecord
100
AcDbRegAppTableRecord
  2
ACAD
 70
0
  0
ENDTAB
  0
TABLE
  2
BLOCK_RECORD
  5
1
100
AcDbSymbolTable
 70
0
  0
BLOCK_RECORD
  5
215
100
AcDbSymbolTableRecord
100
AcDbBlockTableRecord
  2
*Model_Space
  0
BLOCK_RECORD
  5
216
100
AcDbSymbolTableRecord
100
AcDbBlockTableRecord
  2
*Paper_Space
  0
BLOCK_RECORD
  5
217
100
AcDbSymbolTableRecord
100
AcDbBlockTableRecord
  2
_FILLED
  0
ENDTAB
  0
TABLE
  2
DIMSTYLE
  5
A
100
AcDbSymbolTable
 70
1
100
AcDbDimStyleTable
 71
0
  0
DIMSTYLE
105
218
100
AcDbSymbolTableRecord
100
AcDbDimStyleTableRecord
  2
STANDARD
 70
0
  3

  4

 40
1.0
 41
0.1
 42
0.0625
 43
0.38
 44
0.125
 45
0.0
 46
0.0
 47
0.01
 48
0.01
140
0.08
141
0.09
142
0.0
143
25.4
144
1.0
145
0.0
146
1.0
147
0.09
 71
1.0
 72
0.0
 73
1
 74
1
 75
0
 76
0
 77
0
 78
4
 79
1
170
1
171
1
172
0
173
0
174
0
175
0
176
0
177
0
178
0
270
2
179
2
271
2
272
2
273
2
274
2
275
0
280
0
281
0
282
0
283
1
284
4
285
0
286
0
287
3
288
0
340
11
278
46
341
217
342
217
343
217
344
217
  0
ENDTAB
  0
ENDSEC
  0
SECTION
  2
BLOCKS
  0
BLOCK
  5
20
100
AcDbEntity
  8
0
100
AcDbBlockBegin
  2
*Model_Space
 70
0
 10
0.0
 20
0.0
 30
0.0
  3
*Model_Space
  1

  0
ENDBLK
  5
21
100
AcDbEntity
  8
0
100
AcDbBlockEnd
  0
BLOCK
  5
1C
100
AcDbEntity
  8
0
100
AcDbBlockBegin
  2
*Paper_Space
 70
0
 10
0.0
 20
0.0
 30
0.0
  3
*Paper_Space
  1

  0
ENDBLK
  5
1D
100
AcDbEntity
  8
0
100
AcDbBlockEnd
  0
BLOCK
  5
219
100
AcDbEntity
  8
0
100
AcDbBlockBegin
  2
_FILLED
 70
64
 10
0.0
 20
0.0
  3
_FILLED
  1

  0
SOLID
  5
21A
100
AcDbEntity
  8
0
  6
BYBLOCK
 62
0
100
AcDbTrace
 10
0.0
 20
0.0
 11
-1.0
 21
0.2
 12
-1.0
 22
-0.2
 13
-1.0
 23
-0.2
  0
ENDBLK
  5
21B
100
AcDbEntity
  8
0
  6
BYBLOCK
 62
0
100
AcDbBlockEnd
  0
ENDSEC
  0
SECTION
  2
ENTITIES
  0
MTEXT
  5
21C
100
AcDbEntity
  8
0
100
AcDbMText
 62
2
  6
CONTINUOUS
  7
STANDARD
 71
3
 72
1
 10
5.0388198758
 20
1.4815395963
 30
0.0
 11
1.0
 21
0.0
 31
0.0
 73
2
 44
0.9
  1
SCALE  .500
 40
0.08
 41
0.704
  0
LINE
  5
21D
100
AcDbEntity
  8
0
100
AcDbLine
 62
7
  6
CONTINUOUS
 10
0.0
 20
0.0
 11
0.0
 21
8.5
  0
LINE
  5
21E
100
AcDbEntity
  8
0
100
AcDbLine
 62
7
  6
CONTINUOUS
 10
0.0
 20
0.0
 11
11.0
 21
0.0
  0
LINE
  5
21F
100
AcDbEntity
  8
0
100
AcDbLine
 62
7
  6
CONTINUOUS
 10
0.0
 20
8.5
 11
11.0
 21
8.5
  0
LINE
  5
220
100
AcDbEntity
  8
0
100
AcDbLine
 62
7
  6
CONTINUOUS
 10
11.0
 20
0.0
 11
11.0
 21
8.5
  0
LINE
  5
221
100
AcDbEntity
  8
ALL_FEATURES
100
AcDbLine
 62
7
  6
CONTINUOUS
 10
4.8003462733
 20
2.1266017081
 11
4.5163462733
 21
2.1266017081
  0
LINE
  5
222
100
AcDbEntity
  8
ALL_ASSEMBLY_MEMBERS
100
AcDbLine
 62
7
  6
CONTINUOUS
 10
4.9970962733
 20
2.1346017081
 11
4.3195962733
 21
2.1346017081
  0
LINE
  5
223
100
AcDbEntity
  8
ALL_FEATURES
100
AcDbLine
 62
7
  6
CONTINUOUS
 10
4.2587993376
 20
2.2104211382
 11
5.0583462733
 21
2.2104211382
  0
LINE
  5
224
100
AcDbEntity
  8
ALL_FEATURES
100
AcDbLine
 62
7
  6
CONTINUOUS
 10
4.1753230175
 20
2.2320731049
 11
5.1413695291
 21
2.2320731049
  0
LINE
  5
225
100
AcDbEntity
  8
ALL_FEATURES
100
AcDbLine
 62
7
  6
CONTINUOUS
 10
5.1508462733
 20
2.286612823
 11
5.0349863132
 21
2.286612823
  0
LINE
  5
226
100
AcDbEntity
  8
ALL_FEATURES
100
AcDbLine
 62
7
  6
CONTINUOUS
 10
4.1658462733
 20
2.286612823
 11
4.2817062334
 21
2.286612823
  0
LINE
  5
227
100
AcDbEntity
  8
ALL_FEATURES
100
AcDbLine
 62
7
  6
CONTINUOUS
 10
4.5424863132
 20
2.286612823
 11
4.7742062334
 21
2.286612823
  0
LINE
  5
228
100
AcDbEntity
  8
ALL_FEATURES
100
AcDbLine
 62
7
  6
CONTINUOUS
 10
5.1508462733
 20
2.3632163168
 11
5.0349863132
 21
2.3632163168
  0
LINE
  5
229
100
AcDbEntity
  8
ALL_FEATURES
100
AcDbLine
 62
7
  6
CONTINUOUS
 10
4.1658462733
 20
2.3632163168
 11
4.2817062334
 21
2.3632163168
  0
LINE
  5
22A
100
AcDbEntity
  8
ALL_FEATURES
100
AcDbLine
 62
7
  6
CONTINUOUS
 10
4.5424863132
 20
2.3632163168
 11
4.7742062334
 21
2.3632163168
  0
LINE
  5
22B
100
AcDbEntity
  8
ALL_FEATURES
100
AcDbLine
 62
7
  6
CONTINUOUS
 10
4.1733462733
 20
2.4166017081
 11
5.1433462733
 21
2.4166017081
  0
LINE
  5
22C
100
AcDbEntity
  8
ALL_FEATURES
100
AcDbLine
 62
7
  6
CONTINUOUS
 10
4.1733462733
 20
2.4766017081
 11
5.1433462733
 21
2.4766017081
  0
LINE
  5
22D
100
AcDbEntity
  8
ALL_FEATURES
100
AcDbLine
 62
7
  6
CONTINUOUS
 10
5.1158462733
 20
2.5325514548
 11
4.2008462733
 21
2.5325514548
  0
LINE
  5
22E
100
AcDbEntity
  8
ALL_FEATURES
100
AcDbLine
 62
7
  6
CONTINUOUS
 10
4.1344444385
 20
2.6205419776
 11
3.9173091624
 21
2.6824770229
  0
LINE
  5
22F
100
AcDbEntity
  8
ALL_FEATURES
100
AcDbLine
 62
7
  6
CONTINUOUS
 10
4.2010147307
 20
2.5126601314
 11
4.225629294
 21
2.4984433745
  0
LINE
  5
230
100
AcDbEntity
  8
ALL_FEATURES
100
AcDbLine
 62
7
  6
CONTINUOUS
 10
5.1822481081
 20
2.6205419776
 11
4.1344444385
 21
2.6205419776
  0
LINE
  5
231
100
AcDbEntity
  8
ALL_FEATURES
100
AcDbLine
 62
7
  6
CONTINUOUS
 10
3.9173091624
 20
2.6824770229
 11
5.3993833842
 21
2.6824770229
  0
LINE
  5
232
100
AcDbEntity
  8
ALL_ASSEMBLY_MEMBERS
100
AcDbLine
 62
7
  6
CONTINUOUS
 10
3.7858462733
 20
2.7096017081
 11
5.5308462733
 21
2.7096017081
  0
LINE
  5
233
100
AcDbEntity
  8
ALL_ASSEMBLY_MEMBERS
100
AcDbLine
 62
7
  6
CONTINUOUS
 10
5.554961423
 20
2.7841017081
 11
5.3945322892
 21
2.7841017081
  0
LINE
  5
234
100
AcDbEntity
  8
ALL_ASSEMBLY_MEMBERS
100
AcDbLine
 62
7
  6
CONTINUOUS
 10
4.6975962733
 20
2.7841017081
 11
4.6190962733
 21
2.7841017081
  0
LINE
  5
235
100
AcDbEntity
  8
ALL_ASSEMBLY_MEMBERS
100
AcDbLine
 62
7
  6
CONTINUOUS
 10
3.9221657496
 20
2.7841017081
 11
3.7617311235
 21
2.7841017081
  0
LINE
  5
236
100
AcDbEntity
  8
ALL_ASSEMBLY_MEMBERS
100
AcDbLine
 62
7
  6
CONTINUOUS
 10
4.6190962733
 20
2.8921017081
 11
3.9221657496
 21
2.8921017081
  0
LINE
  5
237
100
AcDbEntity
  8
ALL_ASSEMBLY_MEMBERS
100
AcDbLine
 62
7
  6
CONTINUOUS
 10
4.6975962733
 20
2.8921017081
 11
5.3945322892
 21
2.8921017081
  0
LINE
  5
238
100
AcDbEntity
  8
ALL_FEATURES
100
AcDbLine
 62
7
  6
CONTINUOUS
 10
3.8267104533
 20
3.1649649598
 11
3.8517139901
 21
3.1505271178
  0
LINE
  5
239
100
AcDbEntity
  8
ALL_ASSEMBLY_MEMBERS
100
AcDbLine
 62
7
  6
CONTINUOUS
 10
3.5653462733
 20
3.0016017081
 11
3.5653462733
 21
3.1366017081
  0
LINE
  5
23A
100
AcDbEntity
  8
ALL_FEATURES
100
AcDbLine
 62
7
  6
CONTINUOUS
 10
3.5658462733
 20
3.4087427044
 11
3.5658462733
 21
3.4146841721
  0
LINE
  5
23B
100
AcDbEntity
  8
ALL_ASSEMBLY_MEMBERS
100
AcDbLine
 62
7
  6
CONTINUOUS
 10
3.5895962733
 20
2.9616017081
 11
3.5895962733
 21
3.0016017081
  0
LINE
  5
23C
100
AcDbEntity
  8
ALL_ASSEMBLY_MEMBERS
100
AcDbLine
 62
7
  6
CONTINUOUS
 10
3.5975962733
 20
2.9616017081
 11
3.5975962733
 21
2.9216017081
  0
LINE
  5
23D
100
AcDbEntity
  8
ALL_ASSEMBLY_MEMBERS
100
AcDbLine
 62
7
  6
CONTINUOUS
 10
4.1876957315
 20
5.3185695494
 11
4.1763462733
 21
5.3021017081
  0
LINE
  5
23E
100
AcDbEntity
  8
ALL_ASSEMBLY_MEMBERS
100
AcDbLine
 62
7
  6
CONTINUOUS
 10
3.597597886
 20
2.9216017081
 11
5.7190946606
 21
2.9216017081
  0
LINE
  5
23F
100
AcDbEntity
  8
ALL_ASSEMBLY_MEMBERS
100
AcDbLine
 62
7
  6
CONTINUOUS
 10
5.7270962733
 20
2.9616017081
 11
3.5895962733
 21
2.9616017081
  0
LINE
  5
240
100
AcDbEntity
  8
ALL_ASSEMBLY_MEMBERS
100
AcDbLine
 62
7
  6
CONTINUOUS
 10
3.5653462733
 20
3.0016017081
 11
5.7513462733
 21
3.0016017081
  0
LINE
  5
241
100
AcDbEntity
  8
ALL_FEATURES
100
AcDbLine
 62
7
  6
CONTINUOUS
 10
3.8267104532
 20
3.2149650068
 11
3.85171399
 21
3.2005271648
  0
LINE
  5
242
100
AcDbEntity
  8
ALL_FEATURES
100
AcDbLine
 62
7
  6
CONTINUOUS
 10
5.1156778159
 20
2.4960978797
 11
5.0910632526
 21
2.5103146367
  0
LINE
  5
243
100
AcDbEntity
  8
ALL_FEATURES
100
AcDbLine
 62
7
  6
CONTINUOUS
 10
3.8267104528
 20
3.264964995
 11
3.8517139895
 21
3.2505271529
  0
LINE
  5
244
100
AcDbEntity
  8
ALL_FEATURES
100
AcDbLine
 62
7
  6
CONTINUOUS
 10
3.8265962733
 20
3.2650968532
 11
3.8267104528
 21
3.264964995
  0
LINE
  5
245
100
AcDbEntity
  8
ALL_ASSEMBLY_MEMBERS
100
AcDbLine
 62
7
  6
CONTINUOUS
 10
3.7617311235
 20
2.9216017081
 11
3.7617311235
 21
2.7841017081
  0
LINE
  5
246
100
AcDbEntity
  8
ALL_FEATURES
100
AcDbLine
 62
7
  6
CONTINUOUS
 10
4.6583259172
 20
3.1387291234
 11
4.4386057157
 21
3.1366016934
  0
LINE
  5
247
100
AcDbEntity
  8
ALL_ASSEMBLY_MEMBERS
100
AcDbLine
 62
7
  6
CONTINUOUS
 10
3.5653462733
 20
3.1366017081
 11
5.7513462733
 21
3.1366017081
  0
LINE
  5
248
100
AcDbEntity
  8
ALL_ASSEMBLY_MEMBERS
100
AcDbLine
 62
7
  6
CONTINUOUS
 10
3.7858462733
 20
2.7841017081
 11
3.7858462733
 21
2.7096017081
  0
LINE
  5
249
100
AcDbEntity
  8
ALL_ASSEMBLY_MEMBERS
100
AcDbLine
 62
7
  6
CONTINUOUS
 10
3.8183462733
 20
5.7886017081
 11
3.8183462733
 21
5.7721017081
  0
LINE
  5
24A
100
AcDbEntity
  8
ALL_ASSEMBLY_MEMBERS
100
AcDbLine
 62
7
  6
CONTINUOUS
 10
3.8206061235
 20
2.9216017081
 11
3.8206061235
 21
2.7841017081
  0
LINE
  5
24B
100
AcDbEntity
  8
ALL_FEATURES
100
AcDbLine
 62
7
  6
CONTINUOUS
 10
3.8265962733
 20
3.2775968316
 11
3.8265962733
 21
3.2650968532
  0
LINE
  5
24C
100
AcDbEntity
  8
ALL_FEATURES
100
AcDbLine
 62
7
  6
CONTINUOUS
 10
3.8265962733
 20
3.1650968186
 11
3.8265962733
 21
3.1762293521
  0
LINE
  5
24D
100
AcDbEntity
  8
ALL_FEATURES
100
AcDbLine
 62
7
  6
CONTINUOUS
 10
3.8265962733
 20
3.2150968655
 11
3.8265962733
 21
3.2262293397
  0
LINE
  5
24E
100
AcDbEntity
  8
ALL_ASSEMBLY_MEMBERS
100
AcDbLine
 62
7
  6
CONTINUOUS
 10
3.8290680187
 20
2.9216017081
 11
3.8290680187
 21
2.7841017081
  0
LINE
  5
24F
100
AcDbEntity
  8
ALL_FEATURES
100
AcDbLine
 62
7
  6
CONTINUOUS
 10
3.8515962733
 20
3.2506630965
 11
3.8515962733
 21
3.2406630965
  0
LINE
  5
250
100
AcDbEntity
  8
ALL_FEATURES
100
AcDbLine
 62
7
  6
CONTINUOUS
 10
3.8515962733
 20
3.2006631088
 11
3.8515962733
 21
3.1906631088
  0
LINE
  5
251
100
AcDbEntity
  8
ALL_FEATURES
100
AcDbLine
 62
7
  6
CONTINUOUS
 10
3.8515962733
 20
3.1506630619
 11
3.8515962733
 21
3.1406630619
  0
LINE
  5
252
100
AcDbEntity
  8
ALL_ASSEMBLY_MEMBERS
100
AcDbLine
 62
7
  6
CONTINUOUS
 10
3.9221657496
 20
2.8921017081
 11
3.9221657496
 21
2.7841017081
  0
LINE
  5
253
100
AcDbEntity
  8
ALL_ASSEMBLY_MEMBERS
100
AcDbLine
 62
7
  6
CONTINUOUS
 10
3.9320962733
 20
5.5101017084
 11
3.9321355296
 21
5.510694971
  0
LINE
  5
254
100
AcDbEntity
  8
ALL_FEATURES
100
AcDbLine
 62
7
  6
CONTINUOUS
 10
5.565707465
 20
3.367706741
 11
5.7425827551
 21
3.3988946269
  0
LINE
  5
255
100
AcDbEntity
  8
ALL_FEATURES
100
AcDbLine
 62
7
  6
CONTINUOUS
 10
5.4900962733
 20
3.2775968316
 11
3.8265962733
 21
3.2775968316
  0
LINE
  5
256
100
AcDbEntity
  8
ALL_FEATURES
100
AcDbLine
 62
7
  6
CONTINUOUS
 10
3.7509850815
 20
3.367706741
 11
3.5741097915
 21
3.3988946269
  0
LINE
  5
257
100
AcDbEntity
  8
ALL_ASSEMBLY_MEMBERS
100
AcDbLine
 62
7
  6
CONTINUOUS
 10
3.9320962733
 20
5.5101017081
 11
3.9320962733
 21
5.4766017081
  0
LINE
  5
258
100
AcDbEntity
  8
ALL_ASSEMBLY_MEMBERS
100
AcDbLine
 62
7
  6
CONTINUOUS
 10
3.9337343082
 20
5.6688517081
 11
3.9337343082
 21
5.5588517081
  0
LINE
  5
259
100
AcDbEntity
  8
ALL_ASSEMBLY_MEMBERS
100
AcDbLine
 62
7
  6
CONTINUOUS
 10
3.9607602747
 20
5.6688517081
 11
3.9607602747
 21
5.5588517081
  0
LINE
  5
25A
100
AcDbEntity
  8
ALL_ASSEMBLY_MEMBERS
100
AcDbLine
 62
7
  6
CONTINUOUS
 10
3.970178741
 20
5.5588517081
 11
3.970178741
 21
5.6688517081
  0
LINE
  5
25B
100
AcDbEntity
  8
ALL_ASSEMBLY_MEMBERS
100
AcDbLine
 62
7
  6
CONTINUOUS
 10
3.9941072387
 20
5.6688517081
 11
3.9941072387
 21
5.5588517081
  0
LINE
  5
25C
100
AcDbEntity
  8
ALL_ASSEMBLY_MEMBERS
100
AcDbLine
 62
7
  6
CONTINUOUS
 10
4.071925408
 20
5.6688517081
 11
4.071925408
 21
5.5588517081
  0
LINE
  5
25D
100
AcDbEntity
  8
ALL_ASSEMBLY_MEMBERS
100
AcDbLine
 62
7
  6
CONTINUOUS
 10
4.7808462733
 20
5.1986017081
 11
4.7508462733
 21
5.1686017081
  0
LINE
  5
25E
100
AcDbEntity
  8
ALL_ASSEMBLY_MEMBERS
100
AcDbLine
 62
7
  6
CONTINUOUS
 10
5.1403462733
 20
5.3021017081
 11
5.1129558226
 21
5.2832245056
  0
LINE
  5
25F
100
AcDbEntity
  8
ALL_FEATURES
100
AcDbLine
 62
7
  6
CONTINUOUS
 10
5.565707465
 20
3.367706741
 11
3.7509850815
 21
3.367706741
  0
LINE
  5
260
100
AcDbEntity
  8
ALL_FEATURES
100
AcDbLine
 62
7
  6
CONTINUOUS
 10
3.5741097915
 20
3.3988946269
 11
5.7425827551
 21
3.3988946269
  0
LINE
  5
261
100
AcDbEntity
  8
ALL_FEATURES
100
AcDbLine
 62
7
  6
CONTINUOUS
 10
3.5658462733
 20
3.4087427044
 11
5.7508462733
 21
3.4087427044
  0
LINE
  5
262
100
AcDbEntity
  8
ALL_FEATURES
100
AcDbLine
 62
7
  6
CONTINUOUS
 10
3.5658462733
 20
3.4146841721
 11
5.7508462733
 21
3.4146841721
  0
LINE
  5
263
100
AcDbEntity
  8
ALL_FEATURES
100
AcDbLine
 62
7
  6
CONTINUOUS
 10
5.7408462733
 20
3.4246841721
 11
3.5758462733
 21
3.4246841721
  0
LINE
  5
264
100
AcDbEntity
  8
ALL_ASSEMBLY_MEMBERS
100
AcDbLine
 62
7
  6
CONTINUOUS
 10
4.079603412
 20
5.5588517081
 11
4.079603412
 21
5.6688517081
  0
LINE
  5
265
100
AcDbEntity
  8
ALL_ASSEMBLY_MEMBERS
100
AcDbLine
 62
7
  6
CONTINUOUS
 10
4.1345972
 20
5.6688517081
 11
4.1345972
 21
5.5588517081
  0
LINE
  5
266
100
AcDbEntity
  8
ALL_FEATURES
100
AcDbLine
 62
7
  6
CONTINUOUS
 10
4.1658462733
 20
2.2385896622
 11
4.1658462733
 21
2.4112393249
  0
LINE
  5
267
100
AcDbEntity
  8
ALL_FEATURES
100
AcDbLine
 62
7
  6
CONTINUOUS
 10
4.1733462733
 20
2.4166017081
 11
4.1733462733
 21
2.4766017081
  0
LINE
  5
268
100
AcDbEntity
  8
ALL_FEATURES
100
AcDbLine
 62
7
  6
CONTINUOUS
 10
4.2008462733
 20
2.5128547089
 11
4.2008462733
 21
2.5325514548
  0
LINE
  5
269
100
AcDbEntity
  8
ALL_FEATURES
100
AcDbLine
 62
7
  6
CONTINUOUS
 10
4.2254512733
 20
2.4986490056
 11
4.2254512733
 21
2.4875840056
  0
LINE
  5
26A
100
AcDbEntity
  8
ALL_ASSEMBLY_MEMBERS
100
AcDbLine
 62
7
  6
CONTINUOUS
 10
4.7752907161
 20
4.9510461509
 11
4.7508462733
 21
4.9266017081
  0
LINE
  5
26B
100
AcDbEntity
  8
ALL_ASSEMBLY_MEMBERS
100
AcDbLine
 62
7
  6
CONTINUOUS
 10
4.2538215523
 20
5.6688517081
 11
4.2538215523
 21
5.5588517081
  0
LINE
  5
26C
100
AcDbEntity
  8
ALL_ASSEMBLY_MEMBERS
100
AcDbLine
 62
7
  6
CONTINUOUS
 10
4.2588330135
 20
5.5588517081
 11
4.2588330135
 21
5.6688517081
  0
LINE
  5
26D
100
AcDbEntity
  8
ALL_FEATURES
100
AcDbLine
 62
7
  6
CONTINUOUS
 10
4.2817062334
 20
2.286612823
 11
4.2817062334
 21
2.3632163168
  0
LINE
  5
26E
100
AcDbEntity
  8
ALL_ASSEMBLY_MEMBERS
100
AcDbLine
 62
7
  6
CONTINUOUS
 10
4.3195962733
 20
2.1346017081
 11
4.3195962733
 21
2.2104211382
  0
LINE
  5
26F
100
AcDbEntity
  8
ALL_ASSEMBLY_MEMBERS
100
AcDbLine
 62
7
  6
CONTINUOUS
 10
4.3382590292
 20
5.6688517081
 11
4.3382590292
 21
5.5588517081
  0
LINE
  5
270
100
AcDbEntity
  8
ALL_ASSEMBLY_MEMBERS
100
AcDbLine
 62
7
  6
CONTINUOUS
 10
4.7308462733
 20
4.7516017081
 11
4.7558462733
 21
4.7766017081
  0
LINE
  5
271
100
AcDbEntity
  8
ALL_FEATURES
100
AcDbLine
 62
7
  6
CONTINUOUS
 10
5.4899820933
 20
3.1513611899
 11
5.4649785565
 21
3.165799032
  0
LINE
  5
272
100
AcDbEntity
  8
ALL_FEATURES
100
AcDbLine
 62
7
  6
CONTINUOUS
 10
5.4899820935
 20
3.2013612168
 11
5.4649785568
 21
3.2157990588
  0
LINE
  5
273
100
AcDbEntity
  8
ALL_ASSEMBLY_MEMBERS
100
AcDbLine
 62
7
  6
CONTINUOUS
 10
4.4845093481
 20
5.6688517081
 11
4.4845093481
 21
5.5588517081
  0
LINE
  5
274
100
AcDbEntity
  8
ALL_ASSEMBLY_MEMBERS
100
AcDbLine
 62
7
  6
CONTINUOUS
 10
4.4862498103
 20
5.5588517081
 11
4.4862498103
 21
5.6688517081
  0
LINE
  5
275
100
AcDbEntity
  8
ALL_FEATURES
100
AcDbLine
 62
7
  6
CONTINUOUS
 10
4.5163462733
 20
2.1346017081
 11
4.5163462733
 21
2.1266017081
  0
LINE
  5
276
100
AcDbEntity
  8
ALL_ASSEMBLY_MEMBERS
100
AcDbLine
 62
7
  6
CONTINUOUS
 10
4.5358462733
 20
5.8971017081
 11
4.5410843887
 21
6.0471017081
  0
LINE
  5
277
100
AcDbEntity
  8
ALL_ASSEMBLY_MEMBERS
100
AcDbLine
 62
7
  6
CONTINUOUS
 10
4.5302212733
 20
5.3185695494
 11
4.5302212733
 21
5.3666484044
  0
LINE
  5
278
100
AcDbEntity
  8
ALL_ASSEMBLY_MEMBERS
100
AcDbLine
 62
7
  6
CONTINUOUS
 10
4.5358462733
 20
5.2766017081
 11
4.5358462733
 21
5.1986017081
  0
LINE
  5
279
100
AcDbEntity
  8
ALL_ASSEMBLY_MEMBERS
100
AcDbLine
 62
7
  6
CONTINUOUS
 10
4.5358462733
 20
5.0909767115
 11
4.5358462733
 21
5.0697267013
  0
LINE
  5
27A
100
AcDbEntity
  8
ALL_ASSEMBLY_MEMBERS
100
AcDbLine
 62
7
  6
CONTINUOUS
 10
4.5358462733
 20
5.0347267013
 11
4.5358462733
 21
5.0134767143
  0
LINE
  5
27B
100
AcDbEntity
  8
ALL_ASSEMBLY_MEMBERS
100
AcDbLine
 62
7
  6
CONTINUOUS
 10
4.5358462733
 20
4.9572267005
 11
4.5358462733
 21
4.9784767143
  0
LINE
  5
27C
100
AcDbEntity
  8
ALL_FEATURES
100
AcDbLine
 62
7
  6
CONTINUOUS
 10
4.5424863132
 20
2.286612823
 11
4.5424863132
 21
2.3632163168
  0
LINE
  5
27D
100
AcDbEntity
  8
ALL_ASSEMBLY_MEMBERS
100
AcDbLine
 62
7
  6
CONTINUOUS
 10
4.5508462733
 20
5.5416017081
 11
4.5508462733
 21
5.5139507888
  0
LINE
  5
27E
100
AcDbEntity
  8
ALL_ASSEMBLY_MEMBERS
100
AcDbLine
 62
7
  6
CONTINUOUS
 10
4.5558462734
 20
5.1016017081
 11
4.5558462734
 21
5.0961856628
  0
LINE
  5
27F
100
AcDbEntity
  8
ALL_ASSEMBLY_MEMBERS
100
AcDbLine
 62
7
  6
CONTINUOUS
 10
4.5558462733
 20
5.0672267013
 11
4.5558462733
 21
5.0399356506
  0
LINE
  5
280
100
AcDbEntity
  8
ALL_ASSEMBLY_MEMBERS
100
AcDbLine
 62
7
  6
CONTINUOUS
 10
4.5558462734
 20
5.0109767143
 11
4.5558462734
 21
4.983685665
  0
LINE
  5
281
100
AcDbEntity
  8
ALL_ASSEMBLY_MEMBERS
100
AcDbLine
 62
7
  6
CONTINUOUS
 10
4.5558462733
 20
4.9547267005
 11
4.5558462733
 21
4.936601708
  0
LINE
  5
282
100
AcDbEntity
  8
ALL_ASSEMBLY_MEMBERS
100
AcDbLine
 62
7
  6
CONTINUOUS
 10
4.5600962733
 20
5.3766017081
 11
4.5600962733
 21
5.3691017081
  0
LINE
  5
283
100
AcDbEntity
  8
ALL_ASSEMBLY_MEMBERS
100
AcDbLine
 62
7
  6
CONTINUOUS
 10
4.5608462733
 20
4.8616017081
 11
4.5608462733
 21
4.7766017081
  0
LINE
  5
284
100
AcDbEntity
  8
ALL_ASSEMBLY_MEMBERS
100
AcDbLine
 62
7
  6
CONTINUOUS
 10
4.5658462733
 20
5.1686017081
 11
4.5658462733
 21
5.1016017081
  0
LINE
  5
285
100
AcDbEntity
  8
ALL_ASSEMBLY_MEMBERS
100
AcDbLine
 62
7
  6
CONTINUOUS
 10
4.5658462733
 20
4.9266017081
 11
4.5658462733
 21
4.8616017081
  0
LINE
  5
286
100
AcDbEntity
  8
ALL_ASSEMBLY_MEMBERS
100
AcDbLine
 62
7
  6
CONTINUOUS
 10
4.580528104
 20
5.6688517081
 11
4.580528104
 21
5.5588517081
  0
LINE
  5
287
100
AcDbEntity
  8
ALL_ASSEMBLY_MEMBERS
100
AcDbLine
 62
7
  6
CONTINUOUS
 10
4.5868462733
 20
5.8971017081
 11
4.5868462733
 21
5.7966017081
  0
LINE
  5
288
100
AcDbEntity
  8
ALL_ASSEMBLY_MEMBERS
100
AcDbLine
 62
7
  6
CONTINUOUS
 10
4.6190962733
 20
2.9216017081
 11
4.6190962733
 21
2.7841017081
  0
LINE
  5
289
100
AcDbEntity
  8
ALL_FEATURES
100
AcDbLine
 62
7
  6
CONTINUOUS
 10
4.6583462733
 20
3.2775968316
 11
4.6583462733
 21
3.2387293181
  0
LINE
  5
28A
100
AcDbEntity
  8
ALL_ASSEMBLY_MEMBERS
100
AcDbLine
 62
7
  6
CONTINUOUS
 10
4.6583462733
 20
5.3185695494
 11
4.6583462733
 21
5.3491017081
  0
LINE
  5
28B
100
AcDbEntity
  8
ALL_ASSEMBLY_MEMBERS
100
AcDbLine
 62
7
  6
CONTINUOUS
 10
4.5958462733
 20
5.8971017081
 11
4.5995677964
 21
6.0036721854
  0
LINE
  5
28C
100
AcDbEntity
  8
ALL_FEATURES
100
AcDbLine
 62
7
  6
CONTINUOUS
 10
3.8267104528
 20
3.2263611979
 11
3.8265962733
 21
3.2262293397
  0
LINE
  5
28D
100
AcDbEntity
  8
ALL_FEATURES
100
AcDbLine
 62
7
  6
CONTINUOUS
 10
3.8267104532
 20
3.1763612108
 11
3.8265962733
 21
3.1762293521
  0
LINE
  5
28E
100
AcDbEntity
  8
ALL_ASSEMBLY_MEMBERS
100
AcDbLine
 62
7
  6
CONTINUOUS
 10
3.9281726341
 20
5.7172711082
 11
3.9280352616
 21
5.7176008206
  0
LINE
  5
28F
100
AcDbEntity
  8
ALL_ASSEMBLY_MEMBERS
100
AcDbLine
 62
7
  6
CONTINUOUS
 10
3.9281727333
 20
5.7172708951
 11
3.9280427168
 21
5.7176017081
  0
LINE
  5
290
100
AcDbEntity
  8
ALL_ASSEMBLY_MEMBERS
100
AcDbLine
 62
7
  6
CONTINUOUS
 10
4.741829975
 20
5.8971017081
 11
4.7381084519
 21
6.0036721854
  0
LINE
  5
291
100
AcDbEntity
  8
ALL_ASSEMBLY_MEMBERS
100
AcDbLine
 62
7
  6
CONTINUOUS
 10
4.7166495329
 20
5.8971017081
 11
4.7131779021
 21
6.0036721854
  0
LINE
  5
292
100
AcDbEntity
  8
ALL_ASSEMBLY_MEMBERS
100
AcDbLine
 62
7
  6
CONTINUOUS
 10
4.6975962733
 20
2.9216017081
 11
4.6975962733
 21
2.7841017081
  0
LINE
  5
293
100
AcDbEntity
  8
ALL_ASSEMBLY_MEMBERS
100
AcDbLine
 62
7
  6
CONTINUOUS
 10
4.7298462733
 20
5.8971017081
 11
4.7298462733
 21
5.7966017081
  0
LINE
  5
294
100
AcDbEntity
  8
ALL_ASSEMBLY_MEMBERS
100
AcDbLine
 62
7
  6
CONTINUOUS
 10
4.7361644426
 20
5.6688517081
 11
4.7361644426
 21
5.5588517081
  0
LINE
  5
295
100
AcDbEntity
  8
ALL_ASSEMBLY_MEMBERS
100
AcDbLine
 62
7
  6
CONTINUOUS
 10
4.7508462733
 20
5.1686017081
 11
4.7508462733
 21
5.1016017081
  0
LINE
  5
296
100
AcDbEntity
  8
ALL_ASSEMBLY_MEMBERS
100
AcDbLine
 62
7
  6
CONTINUOUS
 10
4.7508462733
 20
4.9266017081
 11
4.7508462733
 21
4.8616017081
  0
LINE
  5
297
100
AcDbEntity
  8
ALL_ASSEMBLY_MEMBERS
100
AcDbLine
 62
7
  6
CONTINUOUS
 10
4.7558462733
 20
4.8616017081
 11
4.7558462733
 21
4.7766017081
  0
LINE
  5
298
100
AcDbEntity
  8
ALL_ASSEMBLY_MEMBERS
100
AcDbLine
 62
7
  6
CONTINUOUS
 10
4.7565962733
 20
5.3766017081
 11
4.7565962733
 21
5.3691017081
  0
LINE
  5
299
100
AcDbEntity
  8
ALL_ASSEMBLY_MEMBERS
100
AcDbLine
 62
7
  6
CONTINUOUS
 10
4.7608462732
 20
4.9528517063
 11
4.7608462732
 21
4.9801426992
  0
LINE
  5
29A
100
AcDbEntity
  8
ALL_ASSEMBLY_MEMBERS
100
AcDbLine
 62
7
  6
CONTINUOUS
 10
4.7608462732
 20
5.0091017134
 11
4.7608462732
 21
5.0363927091
  0
LINE
  5
29B
100
AcDbEntity
  8
ALL_ASSEMBLY_MEMBERS
100
AcDbLine
 62
7
  6
CONTINUOUS
 10
4.7608462732
 20
5.0653517031
 11
4.7608462732
 21
5.0926426964
  0
LINE
  5
29C
100
AcDbEntity
  8
ALL_ASSEMBLY_MEMBERS
100
AcDbLine
 62
7
  6
CONTINUOUS
 10
4.7658462733
 20
5.5416017081
 11
4.7658462733
 21
5.5139507622
  0
LINE
  5
29D
100
AcDbEntity
  8
ALL_FEATURES
100
AcDbLine
 62
7
  6
CONTINUOUS
 10
4.7742062334
 20
2.286612823
 11
4.7742062334
 21
2.3632163168
  0
LINE
  5
29E
100
AcDbEntity
  8
ALL_ASSEMBLY_MEMBERS
100
AcDbLine
 62
7
  6
CONTINUOUS
 10
4.7808462733
 20
5.2766017081
 11
4.7808462733
 21
5.1986017081
  0
LINE
  5
29F
100
AcDbEntity
  8
ALL_ASSEMBLY_MEMBERS
100
AcDbLine
 62
7
  6
CONTINUOUS
 10
4.7808462733
 20
5.0628517031
 11
4.7808462733
 21
5.0416017134
  0
LINE
  5
2A0
100
AcDbEntity
  8
ALL_ASSEMBLY_MEMBERS
100
AcDbLine
 62
7
  6
CONTINUOUS
 10
4.7808462733
 20
5.0066017134
 11
4.7808462733
 21
4.9853517063
  0
LINE
  5
2A1
100
AcDbEntity
  8
ALL_ASSEMBLY_MEMBERS
100
AcDbLine
 62
7
  6
CONTINUOUS
 10
4.7808462733
 20
5.0978517031
 11
4.7808462733
 21
5.1016017081
  0
LINE
  5
2A2
100
AcDbEntity
  8
ALL_ASSEMBLY_MEMBERS
100
AcDbLine
 62
7
  6
CONTINUOUS
 10
4.7864712733
 20
5.3185695494
 11
4.7864712733
 21
5.3666484044
  0
LINE
  5
2A3
100
AcDbEntity
  8
ALL_FEATURES
100
AcDbLine
 62
7
  6
CONTINUOUS
 10
4.8003462733
 20
2.1346017081
 11
4.8003462733
 21
2.1266017081
  0
LINE
  5
2A4
100
AcDbEntity
  8
ALL_ASSEMBLY_MEMBERS
100
AcDbLine
 62
7
  6
CONTINUOUS
 10
5.3886498298
 20
5.7176017081
 11
5.3885198133
 21
5.7172708951
  0
LINE
  5
2A5
100
AcDbEntity
  8
ALL_ASSEMBLY_MEMBERS
100
AcDbLine
 62
7
  6
CONTINUOUS
 10
5.388657285
 20
5.7176008206
 11
5.3885205274
 21
5.7172725762
  0
LINE
  5
2A6
100
AcDbEntity
  8
ALL_ASSEMBLY_MEMBERS
100
AcDbLine
 62
7
  6
CONTINUOUS
 10
4.7808462733
 20
5.8971017081
 11
4.7756081579
 21
6.0471017081
  0
LINE
  5
2A7
100
AcDbEntity
  8
ALL_ASSEMBLY_MEMBERS
100
AcDbLine
 62
7
  6
CONTINUOUS
 10
4.8304427363
 20
5.5588517081
 11
4.8304427363
 21
5.6688517081
  0
LINE
  5
2A8
100
AcDbEntity
  8
ALL_ASSEMBLY_MEMBERS
100
AcDbLine
 62
7
  6
CONTINUOUS
 10
4.8321831985
 20
5.6688517081
 11
4.8321831985
 21
5.5588517081
  0
LINE
  5
2A9
100
AcDbEntity
  8
ALL_ASSEMBLY_MEMBERS
100
AcDbLine
 62
7
  6
CONTINUOUS
 10
4.9784335174
 20
5.6688517081
 11
4.9784335174
 21
5.5588517081
  0
LINE
  5
2AA
100
AcDbEntity
  8
ALL_ASSEMBLY_MEMBERS
100
AcDbLine
 62
7
  6
CONTINUOUS
 10
4.9970962733
 20
2.1346017081
 11
4.9970962733
 21
2.2104211382
  0
LINE
  5
2AB
100
AcDbEntity
  8
ALL_FEATURES
100
AcDbLine
 62
7
  6
CONTINUOUS
 10
5.0349863132
 20
2.286612823
 11
5.0349863132
 21
2.3632163168
  0
LINE
  5
2AC
100
AcDbEntity
  8
ALL_ASSEMBLY_MEMBERS
100
AcDbLine
 62
7
  6
CONTINUOUS
 10
5.0578595331
 20
5.5588517081
 11
5.0578595331
 21
5.6688517081
  0
LINE
  5
2AD
100
AcDbEntity
  8
ALL_ASSEMBLY_MEMBERS
100
AcDbLine
 62
7
  6
CONTINUOUS
 10
5.0628709943
 20
5.6688517081
 11
5.0628709943
 21
5.5588517081
  0
LINE
  5
2AE
100
AcDbEntity
  8
ALL_FEATURES
100
AcDbLine
 62
7
  6
CONTINUOUS
 10
5.0912412733
 20
2.5101090056
 11
5.0912412733
 21
2.5211740056
  0
LINE
  5
2AF
100
AcDbEntity
  8
ALL_FEATURES
100
AcDbLine
 62
7
  6
CONTINUOUS
 10
5.1158462733
 20
2.4903297089
 11
5.1158462733
 21
2.4959033022
  0
LINE
  5
2B0
100
AcDbEntity
  8
ALL_FEATURES
100
AcDbLine
 62
7
  6
CONTINUOUS
 10
3.8517139895
 20
3.24079904
 11
3.8267104528
 21
3.2263611979
  0
LINE
  5
2B1
100
AcDbEntity
  8
ALL_FEATURES
100
AcDbLine
 62
7
  6
CONTINUOUS
 10
3.85171399
 20
3.1907990528
 11
3.8267104532
 21
3.1763612108
  0
LINE
  5
2B2
100
AcDbEntity
  8
ALL_FEATURES
100
AcDbLine
 62
7
  6
CONTINUOUS
 10
3.8517139901
 20
3.1407990061
 11
3.8444451076
 21
3.1366017081
  0
LINE
  5
2B3
100
AcDbEntity
  8
ALL_ASSEMBLY_MEMBERS
100
AcDbLine
 62
7
  6
CONTINUOUS
 10
4.5858462733
 20
4.7516017081
 11
4.5608462733
 21
4.7766017081
  0
LINE
  5
2B4
100
AcDbEntity
  8
ALL_FEATURES
100
AcDbLine
 62
7
  6
CONTINUOUS
 10
5.1433462733
 20
2.4166017081
 11
5.1433462733
 21
2.4766017081
  0
LINE
  5
2B5
100
AcDbEntity
  8
ALL_FEATURES
100
AcDbLine
 62
7
  6
CONTINUOUS
 10
5.1508462733
 20
2.2385896622
 11
5.1508462733
 21
2.4112393249
  0
LINE
  5
2B6
100
AcDbEntity
  8
ALL_ASSEMBLY_MEMBERS
100
AcDbLine
 62
7
  6
CONTINUOUS
 10
5.1820953466
 20
5.6688517081
 11
5.1820953466
 21
5.5588517081
  0
LINE
  5
2B7
100
AcDbEntity
  8
ALL_ASSEMBLY_MEMBERS
100
AcDbLine
 62
7
  6
CONTINUOUS
 10
5.2370891346
 20
5.5588517081
 11
5.2370891346
 21
5.6688517081
  0
LINE
  5
2B8
100
AcDbEntity
  8
ALL_ASSEMBLY_MEMBERS
100
AcDbLine
 62
7
  6
CONTINUOUS
 10
5.2447671386
 20
5.6688517081
 11
5.2447671386
 21
5.5588517081
  0
LINE
  5
2B9
100
AcDbEntity
  8
ALL_ASSEMBLY_MEMBERS
100
AcDbLine
 62
7
  6
CONTINUOUS
 10
4.5558462733
 20
4.936601708
 11
4.5658462733
 21
4.9266017081
  0
LINE
  5
2BA
100
AcDbEntity
  8
ALL_ASSEMBLY_MEMBERS
100
AcDbLine
 62
7
  6
CONTINUOUS
 10
5.3225853079
 20
5.6688517081
 11
5.3225853079
 21
5.5588517081
  0
LINE
  5
2BB
100
AcDbEntity
  8
ALL_ASSEMBLY_MEMBERS
100
AcDbLine
 62
7
  6
CONTINUOUS
 10
5.3465138056
 20
5.5588517081
 11
5.3465138056
 21
5.6688517081
  0
LINE
  5
2BC
100
AcDbEntity
  8
ALL_ASSEMBLY_MEMBERS
100
AcDbLine
 62
7
  6
CONTINUOUS
 10
5.3559322718
 20
5.6688517081
 11
5.3559322718
 21
5.5588517081
  0
LINE
  5
2BD
100
AcDbEntity
  8
ALL_ASSEMBLY_MEMBERS
100
AcDbLine
 62
7
  6
CONTINUOUS
 10
5.3829582384
 20
5.6688517081
 11
5.3829582384
 21
5.5588517081
  0
LINE
  5
2BE
100
AcDbEntity
  8
ALL_ASSEMBLY_MEMBERS
100
AcDbLine
 62
7
  6
CONTINUOUS
 10
5.3845962733
 20
5.5101017081
 11
5.3845962733
 21
5.4766017081
  0
LINE
  5
2BF
100
AcDbEntity
  8
ALL_ASSEMBLY_MEMBERS
100
AcDbLine
 62
7
  6
CONTINUOUS
 10
5.3945322892
 20
2.8921017081
 11
5.3945322892
 21
2.7841017081
  0
LINE
  5
2C0
100
AcDbEntity
  8
ALL_ASSEMBLY_MEMBERS
100
AcDbLine
 62
7
  6
CONTINUOUS
 10
4.5858462733
 20
4.7516017081
 11
4.7308462733
 21
4.7516017081
  0
LINE
  5
2C1
100
AcDbEntity
  8
ALL_ASSEMBLY_MEMBERS
100
AcDbLine
 62
7
  6
CONTINUOUS
 10
4.5608462733
 20
4.7766017081
 11
4.7558462733
 21
4.7766017081
  0
LINE
  5
2C2
100
AcDbEntity
  8
ALL_ASSEMBLY_MEMBERS
100
AcDbLine
 62
7
  6
CONTINUOUS
 10
4.5608462733
 20
4.8616017081
 11
4.7558462733
 21
4.8616017081
  0
LINE
  5
2C3
100
AcDbEntity
  8
ALL_ASSEMBLY_MEMBERS
100
AcDbLine
 62
7
  6
CONTINUOUS
 10
4.1763462733
 20
5.3021017081
 11
4.203736724
 21
5.2832245056
  0
LINE
  5
2C4
100
AcDbEntity
  8
ALL_ASSEMBLY_MEMBERS
100
AcDbLine
 62
7
  6
CONTINUOUS
 10
4.5358462733
 20
5.1986017081
 11
4.5658462733
 21
5.1686017081
  0
LINE
  5
2C5
100
AcDbEntity
  8
ALL_ASSEMBLY_MEMBERS
100
AcDbLine
 62
7
  6
CONTINUOUS
 10
5.3845570169
 20
5.510694971
 11
5.3845962733
 21
5.5101017084
  0
LINE
  5
2C6
100
AcDbEntity
  8
ALL_FEATURES
100
AcDbLine
 62
7
  6
CONTINUOUS
 10
5.4650962733
 20
3.1656630878
 11
5.4650962733
 21
3.1756630878
  0
LINE
  5
2C7
100
AcDbEntity
  8
ALL_FEATURES
100
AcDbLine
 62
7
  6
CONTINUOUS
 10
5.4650962733
 20
3.215663115
 11
5.4650962733
 21
3.225663115
  0
LINE
  5
2C8
100
AcDbEntity
  8
ALL_ASSEMBLY_MEMBERS
100
AcDbLine
 62
7
  6
CONTINUOUS
 10
5.4876300201
 20
2.9216017081
 11
5.4876300201
 21
2.7841017081
  0
LINE
  5
2C9
100
AcDbEntity
  8
ALL_FEATURES
100
AcDbLine
 62
7
  6
CONTINUOUS
 10
5.4900962733
 20
3.1400967977
 11
5.4900962733
 21
3.1512293311
  0
LINE
  5
2CA
100
AcDbEntity
  8
ALL_FEATURES
100
AcDbLine
 62
7
  6
CONTINUOUS
 10
5.4900962733
 20
3.1900968446
 11
5.4900962733
 21
3.2012293582
  0
LINE
  5
2CB
100
AcDbEntity
  8
ALL_FEATURES
100
AcDbLine
 62
7
  6
CONTINUOUS
 10
5.4900962733
 20
3.2400968717
 11
5.4900962733
 21
3.2775968316
  0
LINE
  5
2CC
100
AcDbEntity
  8
ALL_ASSEMBLY_MEMBERS
100
AcDbLine
 62
7
  6
CONTINUOUS
 10
5.496086423
 20
2.9216017081
 11
5.496086423
 21
2.7841017081
  0
LINE
  5
2CD
100
AcDbEntity
  8
ALL_ASSEMBLY_MEMBERS
100
AcDbLine
 62
7
  6
CONTINUOUS
 10
5.4983462733
 20
5.7886017081
 11
5.4983462733
 21
5.7721017081
  0
LINE
  5
2CE
100
AcDbEntity
  8
ALL_ASSEMBLY_MEMBERS
100
AcDbLine
 62
7
  6
CONTINUOUS
 10
5.5308462733
 20
2.7841017081
 11
5.5308462733
 21
2.7096017081
  0
LINE
  5
2CF
100
AcDbEntity
  8
ALL_ASSEMBLY_MEMBERS
100
AcDbLine
 62
7
  6
CONTINUOUS
 10
5.554961423
 20
2.9216017081
 11
5.554961423
 21
2.7841017081
  0
LINE
  5
2D0
100
AcDbEntity
  8
ALL_ASSEMBLY_MEMBERS
100
AcDbLine
 62
7
  6
CONTINUOUS
 10
4.7423675533
 20
4.9773918226
 11
4.7484181594
 21
4.9783066562
  0
LINE
  5
2D1
100
AcDbEntity
  8
ALL_ASSEMBLY_MEMBERS
100
AcDbLine
 62
7
  6
CONTINUOUS
 10
4.7423675665
 20
5.0336418348
 11
4.7484181724
 21
5.0345566682
  0
LINE
  5
2D2
100
AcDbEntity
  8
ALL_ASSEMBLY_MEMBERS
100
AcDbLine
 62
7
  6
CONTINUOUS
 10
4.5743249804
 20
4.9864365952
 11
4.5680770237
 21
4.9854921741
  0
LINE
  5
2D3
100
AcDbEntity
  8
ALL_ASSEMBLY_MEMBERS
100
AcDbLine
 62
7
  6
CONTINUOUS
 10
4.7484181594
 20
4.9783066562
 11
4.7571904807
 21
4.9796081297
  0
LINE
  5
2D4
100
AcDbEntity
  8
ALL_ASSEMBLY_MEMBERS
100
AcDbLine
 62
7
  6
CONTINUOUS
 10
4.5680770237
 20
4.9854921741
 11
4.559305108
 21
4.9841913712
  0
LINE
  5
2D5
100
AcDbEntity
  8
ALL_ASSEMBLY_MEMBERS
100
AcDbLine
 62
7
  6
CONTINUOUS
 10
4.7484181724
 20
5.0345566682
 11
4.7571904938
 21
5.0358581415
  0
LINE
  5
2D6
100
AcDbEntity
  8
ALL_ASSEMBLY_MEMBERS
100
AcDbLine
 62
7
  6
CONTINUOUS
 10
4.7571904807
 20
4.9796081297
 11
4.7640987049
 21
4.9806153714
  0
LINE
  5
2D7
100
AcDbEntity
  8
ALL_ASSEMBLY_MEMBERS
100
AcDbLine
 62
7
  6
CONTINUOUS
 10
4.559305108
 20
4.9841913712
 11
4.5525938308
 21
4.983213047
  0
LINE
  5
2D8
100
AcDbEntity
  8
ALL_ASSEMBLY_MEMBERS
100
AcDbLine
 62
7
  6
CONTINUOUS
 10
4.7571904938
 20
5.0358581415
 11
4.7640987184
 21
5.0368653831
  0
LINE
  5
2D9
100
AcDbEntity
  8
ALL_ASSEMBLY_MEMBERS
100
AcDbLine
 62
7
  6
CONTINUOUS
 10
4.5658462733
 20
4.9266017081
 11
4.7508462733
 21
4.9266017081
  0
LINE
  5
2DA
100
AcDbEntity
  8
ALL_ASSEMBLY_MEMBERS
100
AcDbLine
 62
7
  6
CONTINUOUS
 10
4.633549346
 20
4.936601708
 11
4.5558462733
 21
4.936601708
  0
LINE
  5
2DB
100
AcDbEntity
  8
ALL_ASSEMBLY_MEMBERS
100
AcDbLine
 62
7
  6
CONTINUOUS
 10
4.5525938402
 20
5.00874038
 11
4.5558462734
 21
5.0082677076
  0
LINE
  5
2DC
100
AcDbEntity
  8
ALL_ASSEMBLY_MEMBERS
100
AcDbLine
 62
7
  6
CONTINUOUS
 10
4.7626813833
 20
4.9552935456
 11
4.7608462732
 21
4.9555606087
  0
LINE
  5
2DD
100
AcDbEntity
  8
ALL_ASSEMBLY_MEMBERS
100
AcDbLine
 62
7
  6
CONTINUOUS
 10
5.7190962733
 20
2.9616017081
 11
5.7190962733
 21
2.9216017081
  0
LINE
  5
2DE
100
AcDbEntity
  8
ALL_ASSEMBLY_MEMBERS
100
AcDbLine
 62
7
  6
CONTINUOUS
 10
5.7270962733
 20
2.9616017081
 11
5.7270962733
 21
3.0016017081
  0
LINE
  5
2DF
100
AcDbEntity
  8
ALL_ASSEMBLY_MEMBERS
100
AcDbLine
 62
7
  6
CONTINUOUS
 10
4.7423675559
 20
5.0898918203
 11
4.7484181618
 21
5.0908066538
  0
LINE
  5
2E0
100
AcDbEntity
  8
ALL_ASSEMBLY_MEMBERS
100
AcDbLine
 62
7
  6
CONTINUOUS
 10
4.5743249749
 20
5.0426865799
 11
4.5680770181
 21
5.0417421588
  0
LINE
  5
2E1
100
AcDbEntity
  8
ALL_ASSEMBLY_MEMBERS
100
AcDbLine
 62
7
  6
CONTINUOUS
 10
4.5743249839
 20
5.0989365936
 11
4.568077027
 21
5.0979921724
  0
LINE
  5
2E2
100
AcDbEntity
  8
ALL_ASSEMBLY_MEMBERS
100
AcDbLine
 62
7
  6
CONTINUOUS
 10
4.5680770181
 20
5.0417421588
 11
4.5593051022
 21
5.0404413559
  0
LINE
  5
2E3
100
AcDbEntity
  8
ALL_ASSEMBLY_MEMBERS
100
AcDbLine
 62
7
  6
CONTINUOUS
 10
4.7484181618
 20
5.0908066538
 11
4.7571904831
 21
5.0921081272
  0
LINE
  5
2E4
100
AcDbEntity
  8
ALL_ASSEMBLY_MEMBERS
100
AcDbLine
 62
7
  6
CONTINUOUS
 10
4.568077027
 20
5.0979921724
 11
4.5593051112
 21
5.0966913694
  0
LINE
  5
2E5
100
AcDbEntity
  8
ALL_ASSEMBLY_MEMBERS
100
AcDbLine
 62
7
  6
CONTINUOUS
 10
4.5593051022
 20
5.0404413559
 11
4.5525938249
 21
5.0394630317
  0
LINE
  5
2E6
100
AcDbEntity
  8
ALL_ASSEMBLY_MEMBERS
100
AcDbLine
 62
7
  6
CONTINUOUS
 10
4.7571904831
 20
5.0921081272
 11
4.7640987073
 21
5.0931153689
  0
LINE
  5
2E7
100
AcDbEntity
  8
ALL_ASSEMBLY_MEMBERS
100
AcDbLine
 62
7
  6
CONTINUOUS
 10
4.5593051112
 20
5.0966913694
 11
4.552593834
 21
5.0957130452
  0
LINE
  5
2E8
100
AcDbEntity
  8
ALL_ASSEMBLY_MEMBERS
100
AcDbLine
 62
7
  6
CONTINUOUS
 10
4.5558456856
 20
5.1016017081
 11
4.7808438719
 21
5.1016017081
  0
LINE
  5
2E9
100
AcDbEntity
  8
ALL_ASSEMBLY_MEMBERS
100
AcDbLine
 62
7
  6
CONTINUOUS
 10
4.7640986248
 20
5.0113380567
 11
4.7608462732
 21
5.0118106661
  0
LINE
  5
2EA
100
AcDbEntity
  8
ALL_ASSEMBLY_MEMBERS
100
AcDbLine
 62
7
  6
CONTINUOUS
 10
4.5525938258
 20
5.0649903713
 11
4.5558462733
 21
5.0645176969
  0
LINE
  5
2EB
100
AcDbEntity
  8
ALL_ASSEMBLY_MEMBERS
100
AcDbLine
 62
7
  6
CONTINUOUS
 10
4.7640987118
 20
5.0675880368
 11
4.7608462732
 21
5.0680606543
  0
LINE
  5
2EC
100
AcDbEntity
  8
ALL_FEATURES
100
AcDbLine
 62
7
  6
CONTINUOUS
 10
5.7508462733
 20
3.4087427044
 11
5.7508462733
 21
3.4146841721
  0
LINE
  5
2ED
100
AcDbEntity
  8
ALL_ASSEMBLY_MEMBERS
100
AcDbLine
 62
7
  6
CONTINUOUS
 10
5.7513462733
 20
3.0016017081
 11
5.7513462733
 21
3.1366017081
  0
LINE
  5
2EE
100
AcDbEntity
  8
ALL_FEATURES
100
AcDbLine
 62
7
  6
CONTINUOUS
 10
5.4899820935
 20
3.2399650132
 11
5.4900962733
 21
3.2400968717
  0
LINE
  5
2EF
100
AcDbEntity
  8
ALL_FEATURES
100
AcDbLine
 62
7
  6
CONTINUOUS
 10
4.225629294
 20
2.4877896367
 11
4.2062588583
 21
2.4766017081
  0
LINE
  5
2F0
100
AcDbEntity
  8
ALL_FEATURES
100
AcDbLine
 62
7
  6
CONTINUOUS
 10
5.4649785568
 20
3.2255271711
 11
5.4899820935
 21
3.2399650132
  0
LINE
  5
2F1
100
AcDbEntity
  8
ALL_FEATURES
100
AcDbLine
 62
7
  6
CONTINUOUS
 10
5.4649785565
 20
3.1755271437
 11
5.4899820933
 21
3.1899649857
  0
LINE
  5
2F2
100
AcDbEntity
  8
ALL_ASSEMBLY_MEMBERS
100
AcDbLine
 62
7
  6
CONTINUOUS
 10
4.5658462733
 20
5.1686017081
 11
4.7508462733
 21
5.1686017081
  0
LINE
  5
2F3
100
AcDbEntity
  8
ALL_ASSEMBLY_MEMBERS
100
AcDbLine
 62
7
  6
CONTINUOUS
 10
4.5358462733
 20
5.1986017081
 11
4.7808462733
 21
5.1986017081
  0
LINE
  5
2F4
100
AcDbEntity
  8
ALL_ASSEMBLY_MEMBERS
100
AcDbLine
 62
7
  6
CONTINUOUS
 10
5.0916755884
 20
5.2766017081
 11
4.2250169581
 21
5.2766017081
  0
LINE
  5
2F5
100
AcDbEntity
  8
ALL_ASSEMBLY_MEMBERS
100
AcDbLine
 62
7
  6
CONTINUOUS
 10
4.203736724
 20
5.2832245055
 11
5.1129558226
 21
5.2832245055
  0
LINE
  5
2F6
100
AcDbEntity
  8
ALL_ASSEMBLY_MEMBERS
100
AcDbLine
 62
7
  6
CONTINUOUS
 10
4.1763462733
 20
5.3021017081
 11
5.1403462733
 21
5.3021017081
  0
LINE
  5
2F7
100
AcDbEntity
  8
ALL_ASSEMBLY_MEMBERS
100
AcDbLine
 62
7
  6
CONTINUOUS
 10
5.1289968151
 20
5.3185695494
 11
5.1403462733
 21
5.3021017081
  0
LINE
  5
2F8
100
AcDbEntity
  8
ALL_FEATURES
100
AcDbLine
 62
7
  6
CONTINUOUS
 10
5.4899820933
 20
3.1899649857
 11
5.4900962733
 21
3.1900968446
  0
LINE
  5
2F9
100
AcDbEntity
  8
ALL_FEATURES
100
AcDbLine
 62
7
  6
CONTINUOUS
 10
5.4899820934
 20
3.139964939
 11
5.4900962733
 21
3.1400967977
  0
LINE
  5
2FA
100
AcDbEntity
  8
ALL_FEATURES
100
AcDbLine
 62
7
  6
CONTINUOUS
 10
5.4841576124
 20
3.1366017081
 11
5.4899820934
 21
3.139964939
  0
LINE
  5
2FB
100
AcDbEntity
  8
ALL_ASSEMBLY_MEMBERS
100
AcDbLine
 62
7
  6
CONTINUOUS
 10
4.1876957315
 20
5.3185695494
 11
5.1289968151
 21
5.3185695494
  0
LINE
  5
2FC
100
AcDbEntity
  8
ALL_ASSEMBLY_MEMBERS
100
AcDbLine
 62
7
  6
CONTINUOUS
 10
4.5435665147
 20
5.3691017081
 11
4.7731260319
 21
5.3691017081
  0
LINE
  5
2FD
100
AcDbEntity
  8
ALL_ASSEMBLY_MEMBERS
100
AcDbLine
 62
7
  6
CONTINUOUS
 10
4.0320962733
 20
5.3766017081
 11
5.2845962733
 21
5.3766017081
  0
LINE
  5
2FE
100
AcDbEntity
  8
ALL_FEATURES
100
AcDbLine
 62
7
  6
CONTINUOUS
 10
5.1156778159
 20
2.4901351314
 11
5.1158462733
 21
2.4903297089
  0
LINE
  5
2FF
100
AcDbEntity
  8
ALL_ASSEMBLY_MEMBERS
100
AcDbLine
 62
7
  6
CONTINUOUS
 10
3.9320962733
 20
5.4766017081
 11
5.3845962733
 21
5.4766017081
  0
LINE
  5
300
100
AcDbEntity
  8
ALL_ASSEMBLY_MEMBERS
100
AcDbLine
 62
7
  6
CONTINUOUS
 10
4.577352222
 20
5.5416017081
 11
4.5508548246
 21
5.5416017081
  0
LINE
  5
301
100
AcDbEntity
  8
ALL_ASSEMBLY_MEMBERS
100
AcDbLine
 62
7
  6
CONTINUOUS
 10
4.7393404575
 20
5.5416017081
 11
4.765837722
 21
5.5416017081
  0
LINE
  5
302
100
AcDbEntity
  8
ALL_ASSEMBLY_MEMBERS
100
AcDbLine
 62
7
  6
CONTINUOUS
 10
4.4862498103
 20
5.5588517081
 11
4.4845093481
 21
5.5588517081
  0
LINE
  5
303
100
AcDbEntity
  8
ALL_ASSEMBLY_MEMBERS
100
AcDbLine
 62
7
  6
CONTINUOUS
 10
4.2588330135
 20
5.5588517081
 11
4.2538215523
 21
5.5588517081
  0
LINE
  5
304
100
AcDbEntity
  8
ALL_ASSEMBLY_MEMBERS
100
AcDbLine
 62
7
  6
CONTINUOUS
 10
4.079603412
 20
5.5588517081
 11
4.071925408
 21
5.5588517081
  0
LINE
  5
305
100
AcDbEntity
  8
ALL_ASSEMBLY_MEMBERS
100
AcDbLine
 62
7
  6
CONTINUOUS
 10
3.970178741
 20
5.5588517081
 11
3.9607602747
 21
5.5588517081
  0
LINE
  5
306
100
AcDbEntity
  8
ALL_ASSEMBLY_MEMBERS
100
AcDbLine
 62
7
  6
CONTINUOUS
 10
4.8304427363
 20
5.5588517081
 11
4.8321831985
 21
5.5588517081
  0
LINE
  5
307
100
AcDbEntity
  8
ALL_ASSEMBLY_MEMBERS
100
AcDbLine
 62
7
  6
CONTINUOUS
 10
5.0578595331
 20
5.5588517081
 11
5.0628709943
 21
5.5588517081
  0
LINE
  5
308
100
AcDbEntity
  8
ALL_ASSEMBLY_MEMBERS
100
AcDbLine
 62
7
  6
CONTINUOUS
 10
5.2370891346
 20
5.5588517081
 11
5.2447671386
 21
5.5588517081
  0
LINE
  5
309
100
AcDbEntity
  8
ALL_ASSEMBLY_MEMBERS
100
AcDbLine
 62
7
  6
CONTINUOUS
 10
5.3465138056
 20
5.5588517081
 11
5.3559322718
 21
5.5588517081
  0
LINE
  5
30A
100
AcDbEntity
  8
ALL_FEATURES
100
AcDbLine
 62
7
  6
CONTINUOUS
 10
5.0910632526
 20
2.5209683745
 11
5.1111178533
 21
2.5325514548
  0
LINE
  5
30B
100
AcDbEntity
  8
ALL_FEATURES
100
AcDbLine
 62
7
  6
CONTINUOUS
 10
5.0922463372
 20
2.4766017081
 11
5.1156778159
 21
2.4901351314
  0
LINE
  5
30C
100
AcDbEntity
  8
ALL_FEATURES
100
AcDbLine
 62
7
  6
CONTINUOUS
 10
5.1822481081
 20
2.6205419776
 11
5.3993833842
 21
2.6824770229
  0
LINE
  5
30D
100
AcDbEntity
  8
ALL_ASSEMBLY_MEMBERS
100
AcDbLine
 62
7
  6
CONTINUOUS
 10
4.4862498103
 20
5.6688517081
 11
4.4845093481
 21
5.6688517081
  0
LINE
  5
30E
100
AcDbEntity
  8
ALL_ASSEMBLY_MEMBERS
100
AcDbLine
 62
7
  6
CONTINUOUS
 10
4.2588330135
 20
5.6688517081
 11
4.2538215523
 21
5.6688517081
  0
LINE
  5
30F
100
AcDbEntity
  8
ALL_ASSEMBLY_MEMBERS
100
AcDbLine
 62
7
  6
CONTINUOUS
 10
4.079603412
 20
5.6688517081
 11
4.071925408
 21
5.6688517081
  0
LINE
  5
310
100
AcDbEntity
  8
ALL_ASSEMBLY_MEMBERS
100
AcDbLine
 62
7
  6
CONTINUOUS
 10
3.970178741
 20
5.6688517081
 11
3.9607602747
 21
5.6688517081
  0
LINE
  5
311
100
AcDbEntity
  8
ALL_ASSEMBLY_MEMBERS
100
AcDbLine
 62
7
  6
CONTINUOUS
 10
4.8304427363
 20
5.6688517081
 11
4.8321831985
 21
5.6688517081
  0
LINE
  5
312
100
AcDbEntity
  8
ALL_ASSEMBLY_MEMBERS
100
AcDbLine
 62
7
  6
CONTINUOUS
 10
5.0578595331
 20
5.6688517081
 11
5.0628709943
 21
5.6688517081
  0
LINE
  5
313
100
AcDbEntity
  8
ALL_ASSEMBLY_MEMBERS
100
AcDbLine
 62
7
  6
CONTINUOUS
 10
5.2370891346
 20
5.6688517081
 11
5.2447671386
 21
5.6688517081
  0
LINE
  5
314
100
AcDbEntity
  8
ALL_ASSEMBLY_MEMBERS
100
AcDbLine
 62
7
  6
CONTINUOUS
 10
5.3465138056
 20
5.6688517081
 11
5.3559322718
 21
5.6688517081
  0
LINE
  5
315
100
AcDbEntity
  8
ALL_ASSEMBLY_MEMBERS
100
AcDbLine
 62
7
  6
CONTINUOUS
 10
5.3833980387
 20
5.6941017081
 11
5.353934758
 21
5.6941017081
  0
LINE
  5
316
100
AcDbEntity
  8
ALL_ASSEMBLY_MEMBERS
100
AcDbLine
 62
7
  6
CONTINUOUS
 10
5.3254093758
 20
5.6941017081
 11
5.2405732403
 21
5.6941017081
  0
LINE
  5
317
100
AcDbEntity
  8
ALL_ASSEMBLY_MEMBERS
100
AcDbLine
 62
7
  6
CONTINUOUS
 10
5.186963058
 20
5.6941017081
 11
5.0569865575
 21
5.6941017081
  0
LINE
  5
318
100
AcDbEntity
  8
ALL_ASSEMBLY_MEMBERS
100
AcDbLine
 62
7
  6
CONTINUOUS
 10
4.9847577544
 20
5.6941017081
 11
4.8253179733
 21
5.6941017081
  0
LINE
  5
319
100
AcDbEntity
  8
ALL_ASSEMBLY_MEMBERS
100
AcDbLine
 62
7
  6
CONTINUOUS
 10
4.7431824089
 20
5.6941017081
 11
4.5735101377
 21
5.6941017081
  0
LINE
  5
31A
100
AcDbEntity
  8
ALL_ASSEMBLY_MEMBERS
100
AcDbLine
 62
7
  6
CONTINUOUS
 10
4.4913745733
 20
5.6941017081
 11
4.3319347922
 21
5.6941017081
  0
LINE
  5
31B
100
AcDbEntity
  8
ALL_ASSEMBLY_MEMBERS
100
AcDbLine
 62
7
  6
CONTINUOUS
 10
4.259705989
 20
5.6941017081
 11
4.1297294886
 21
5.6941017081
  0
LINE
  5
31C
100
AcDbEntity
  8
ALL_ASSEMBLY_MEMBERS
100
AcDbLine
 62
7
  6
CONTINUOUS
 10
4.0761193063
 20
5.6941017081
 11
3.9912831707
 21
5.6941017081
  0
LINE
  5
31D
100
AcDbEntity
  8
ALL_ASSEMBLY_MEMBERS
100
AcDbLine
 62
7
  6
CONTINUOUS
 10
3.9627577886
 20
5.6941017081
 11
3.9332945079
 21
5.6941017081
  0
LINE
  5
31E
100
AcDbEntity
  8
ALL_ASSEMBLY_MEMBERS
100
AcDbLine
 62
7
  6
CONTINUOUS
 10
5.4903462733
 20
5.7641017081
 11
3.8263462733
 21
5.7641017081
  0
LINE
  5
31F
100
AcDbEntity
  8
ALL_ASSEMBLY_MEMBERS
100
AcDbLine
 62
7
  6
CONTINUOUS
 10
3.8183462733
 20
5.7721017081
 11
5.4983462733
 21
5.7721017081
  0
LINE
  5
320
100
AcDbEntity
  8
ALL_ASSEMBLY_MEMBERS
100
AcDbLine
 62
7
  6
CONTINUOUS
 10
3.8183462733
 20
5.7886017081
 11
5.4983462733
 21
5.7886017081
  0
LINE
  5
321
100
AcDbEntity
  8
ALL_ASSEMBLY_MEMBERS
100
AcDbLine
 62
7
  6
CONTINUOUS
 10
5.4903462733
 20
5.7966017081
 11
3.8263462733
 21
5.7966017081
  0
LINE
  5
322
100
AcDbEntity
  8
ALL_ASSEMBLY_MEMBERS
100
AcDbLine
 62
7
  6
CONTINUOUS
 10
4.5358476114
 20
5.8971017081
 11
4.7808449352
 21
5.8971017081
  0
LINE
  5
323
100
AcDbEntity
  8
ALL_ASSEMBLY_MEMBERS
100
AcDbLine
 62
7
  6
CONTINUOUS
 10
4.5995677964
 20
6.0036721854
 11
4.7381084519
 21
6.0036721854
  0
LINE
  5
324
100
AcDbEntity
  8
ALL_ASSEMBLY_MEMBERS
100
AcDbLine
 62
7
  6
CONTINUOUS
 10
4.5408487524
 20
6.0471017081
 11
4.7758421977
 21
6.0471017081
  0
LINE
  5
325
100
AcDbEntity
  8
ALL_ASSEMBLY_MEMBERS
100
AcDbLine
 62
7
  6
CONTINUOUS
 10
4.5602118123
 20
6.0621017081
 11
4.7564791188
 21
6.0621017081
  0
ARC
  5
326
100
AcDbEntity
  8
ALL_FEATURES
100
AcDbCircle
 62
7
  6
CONTINUOUS
 10
4.2583462733
 20
2.3804211382
 40
0.17
100
AcDbArc
 50
240.7663599774
 51
270.0
  0
ARC
  5
327
100
AcDbEntity
  8
ALL_FEATURES
100
AcDbCircle
 62
7
  6
CONTINUOUS
 10
3.9515962733
 20
2.8026826552
 40
0.125
100
AcDbArc
 50
228.1828700596
 51
254.0798823907
  0
ARC
  5
328
100
AcDbEntity
  8
ALL_FEATURES
100
AcDbCircle
 62
7
  6
CONTINUOUS
 10
4.1093462733
 20
2.5325514548
 40
0.0915
100
AcDbArc
 50
0.0
 51
74.0798823907
  0
ARC
  5
329
100
AcDbEntity
  8
ALL_FEATURES
100
AcDbCircle
 62
7
  6
CONTINUOUS
 10
3.7350962733
 20
3.2775968316
 40
0.0915
100
AcDbArc
 50
0.0
 51
80.0
  0
ARC
  5
32A
100
AcDbEntity
  8
ALL_FEATURES
100
AcDbCircle
 62
7
  6
CONTINUOUS
 10
4.2058462733
 20
2.286612823
 40
0.0625
100
AcDbArc
 50
230.2081805004
 51
240.7663599774
  0
ARC
  5
32B
100
AcDbEntity
  8
ALL_FEATURES
100
AcDbCircle
 62
7
  6
CONTINUOUS
 10
4.2058462733
 20
2.3632163168
 40
0.0625
100
AcDbArc
 50
121.3322514976
 51
129.7918194996
  0
ARC
  5
32C
100
AcDbEntity
  8
ALL_FEATURES
100
AcDbCircle
 62
7
  6
CONTINUOUS
 10
3.5758462733
 20
3.4146841721
 40
0.01
100
AcDbArc
 50
90.0
 51
180.0
  0
ARC
  5
32D
100
AcDbEntity
  8
ALL_FEATURES
100
AcDbCircle
 62
7
  6
CONTINUOUS
 10
3.5758462733
 20
3.4087427044
 40
0.01
100
AcDbArc
 50
180.0
 51
260.0000000011
  0
ARC
  5
32E
100
AcDbEntity
  8
ALL_ASSEMBLY_MEMBERS
100
AcDbCircle
 62
7
  6
CONTINUOUS
 10
3.2079044469
 20
5.6688381553
 40
0.7258298614
100
AcDbArc
 50
0.0010698306
 51
1.994664941
  0
ARC
  5
32F
100
AcDbEntity
  8
ALL_ASSEMBLY_MEMBERS
100
AcDbCircle
 62
7
  6
CONTINUOUS
 10
4.0320962733
 20
5.4766017081
 40
0.1
100
AcDbArc
 50
180.0
 51
270.0
  0
ARC
  5
330
100
AcDbEntity
  8
ALL_ASSEMBLY_MEMBERS
100
AcDbCircle
 62
7
  6
CONTINUOUS
 10
3.8620962733
 20
5.6941017081
 40
0.07
100
AcDbArc
 50
19.6159791354
 51
90.0
  0
ARC
  5
331
100
AcDbEntity
  8
ALL_ASSEMBLY_MEMBERS
100
AcDbCircle
 62
7
  6
CONTINUOUS
 10
4.5345306027
 20
5.6688496137
 40
0.0500212547
100
AcDbArc
 50
176.6120253709
 51
179.9976010047
  0
ARC
  5
332
100
AcDbEntity
  8
ALL_ASSEMBLY_MEMBERS
100
AcDbCircle
 62
7
  6
CONTINUOUS
 10
4.53452013
 20
5.5588595526
 40
0.0500107825
100
AcDbArc
 50
180.0089872317
 51
184.9051745565
  0
ARC
  5
333
100
AcDbEntity
  8
ALL_ASSEMBLY_MEMBERS
100
AcDbCircle
 62
7
  6
CONTINUOUS
 10
4.5341434491
 20
5.6689256924
 40
0.0496294942
100
AcDbArc
 50
149.5166892064
 51
176.6732877087
  0
ARC
  5
334
100
AcDbEntity
  8
ALL_ASSEMBLY_MEMBERS
100
AcDbCircle
 62
7
  6
CONTINUOUS
 10
4.5315917639
 20
5.6688505262
 40
0.0489362454
100
AcDbArc
 50
0.0013837508
 51
31.0643118733
  0
ARC
  5
335
100
AcDbEntity
  8
ALL_ASSEMBLY_MEMBERS
100
AcDbCircle
 62
7
  6
CONTINUOUS
 10
4.6445403836
 20
6.0021017081
 40
0.045
100
AcDbArc
 50
90.0
 51
178.0
  0
ARC
  5
336
100
AcDbEntity
  8
ALL_ASSEMBLY_MEMBERS
100
AcDbCircle
 62
7
  6
CONTINUOUS
 10
4.5435665147
 20
5.3316017081
 40
0.0375
100
AcDbArc
 50
90.0
 51
110.846964431
  0
ARC
  5
337
100
AcDbEntity
  8
ALL_ASSEMBLY_MEMBERS
100
AcDbCircle
 62
7
  6
CONTINUOUS
 10
4.2250169581
 20
5.3141017081
 40
0.0375
100
AcDbArc
 50
235.4258085259
 51
270.0
  0
ARC
  5
338
100
AcDbEntity
  8
ALL_ASSEMBLY_MEMBERS
100
AcDbCircle
 62
7
  6
CONTINUOUS
 10
3.9616753295
 20
5.6929062361
 40
0.0277395068
100
AcDbArc
 50
46.561704839
 51
47.1843141444
  0
ARC
  5
339
100
AcDbEntity
  8
ALL_ASSEMBLY_MEMBERS
100
AcDbCircle
 62
7
  6
CONTINUOUS
 10
4.109842856
 20
5.6968027659
 40
0.0208196037
100
AcDbArc
 50
105.1657975317
 51
109.8877796891
  0
ARC
  5
33A
100
AcDbEntity
  8
ALL_ASSEMBLY_MEMBERS
100
AcDbCircle
 62
7
  6
CONTINUOUS
 10
4.56021119
 20
6.0421017081
 40
0.02
100
AcDbArc
 50
90.0
 51
165.5224878141
  0
ARC
  5
33B
100
AcDbEntity
  8
ALL_ASSEMBLY_MEMBERS
100
AcDbCircle
 62
7
  6
CONTINUOUS
 10
3.8263462733
 20
5.7721017081
 40
0.008
100
AcDbArc
 50
180.0
 51
270.0
  0
ARC
  5
33C
100
AcDbEntity
  8
ALL_ASSEMBLY_MEMBERS
100
AcDbCircle
 62
7
  6
CONTINUOUS
 10
3.8263462733
 20
5.7886017081
 40
0.008
100
AcDbArc
 50
90.0
 51
180.0
  0
ARC
  5
33D
100
AcDbEntity
  8
ALL_ASSEMBLY_MEMBERS
100
AcDbCircle
 62
7
  6
CONTINUOUS
 10
4.8355657476
 20
2.2662854284
 40
2.8440808654
100
AcDbArc
 50
94.4992896152
 51
94.8452771878
  0
ARC
  5
33E
100
AcDbEntity
  8
ALL_FEATURES
100
AcDbCircle
 62
7
  6
CONTINUOUS
 10
5.0583462733
 20
2.3804211382
 40
0.17
100
AcDbArc
 50
270.0
 51
299.2336400226
  0
ARC
  5
33F
100
AcDbEntity
  8
ALL_FEATURES
100
AcDbCircle
 62
7
  6
CONTINUOUS
 10
5.3650962733
 20
2.8026826552
 40
0.125
100
AcDbArc
 50
285.9201176093
 51
311.8619614693
  0
ARC
  5
340
100
AcDbEntity
  8
ALL_FEATURES
100
AcDbCircle
 62
7
  6
CONTINUOUS
 10
5.2073462733
 20
2.5325514548
 40
0.0915
100
AcDbArc
 50
105.9201176093
 51
180.0
  0
ARC
  5
341
100
AcDbEntity
  8
ALL_FEATURES
100
AcDbCircle
 62
7
  6
CONTINUOUS
 10
5.5815962733
 20
3.2775968316
 40
0.0915
100
AcDbArc
 50
100.0
 51
180.0
  0
ARC
  5
342
100
AcDbEntity
  8
ALL_FEATURES
100
AcDbCircle
 62
7
  6
CONTINUOUS
 10
5.1108462733
 20
2.286612823
 40
0.0625
100
AcDbArc
 50
299.2336400226
 51
309.7918194996
  0
ARC
  5
343
100
AcDbEntity
  8
ALL_FEATURES
100
AcDbCircle
 62
7
  6
CONTINUOUS
 10
5.1108462733
 20
2.3632163168
 40
0.0625
100
AcDbArc
 50
50.2081805004
 51
58.6677485024
  0
ARC
  5
344
100
AcDbEntity
  8
ALL_FEATURES
100
AcDbCircle
 62
7
  6
CONTINUOUS
 10
5.7408462733
 20
3.4146841721
 40
0.01
100
AcDbArc
 50
0.0
 51
90.0
  0
ARC
  5
345
100
AcDbEntity
  8
ALL_FEATURES
100
AcDbCircle
 62
7
  6
CONTINUOUS
 10
5.7408462733
 20
3.4087427044
 40
0.01
100
AcDbArc
 50
279.9999999989
 51
360.0
  0
ARC
  5
346
100
AcDbEntity
  8
ALL_FEATURES
100
AcDbCircle
 62
7
  6
CONTINUOUS
 10
4.9877646491
 20
4.8265343418
 40
2.295865135
100
AcDbArc
 50
272.0501599609
 51
272.320238066
  0
ARC
  5
347
100
AcDbEntity
  8
ALL_ASSEMBLY_MEMBERS
100
AcDbCircle
 62
7
  6
CONTINUOUS
 10
6.108435589
 20
5.6688442953
 40
0.7254773506
100
AcDbArc
 50
178.0048506643
 51
179.9994145641
  0
ARC
  5
348
100
AcDbEntity
  8
ALL_ASSEMBLY_MEMBERS
100
AcDbCircle
 62
7
  6
CONTINUOUS
 10
5.2845962733
 20
5.4766017081
 40
0.1
100
AcDbArc
 50
270.0
 51
360.0
  0
ARC
  5
349
100
AcDbEntity
  8
ALL_ASSEMBLY_MEMBERS
100
AcDbCircle
 62
7
  6
CONTINUOUS
 10
5.4545962733
 20
5.6941017081
 40
0.07
100
AcDbArc
 50
90.0
 51
160.3840208646
  0
ARC
  5
34A
100
AcDbEntity
  8
ALL_ASSEMBLY_MEMBERS
100
AcDbCircle
 62
7
  6
CONTINUOUS
 10
4.782161692
 20
5.6688496264
 40
0.0500215065
100
AcDbArc
 50
0.0023844305
 51
3.3818978094
  0
ARC
  5
34B
100
AcDbEntity
  8
ALL_ASSEMBLY_MEMBERS
100
AcDbCircle
 62
7
  6
CONTINUOUS
 10
4.7822869397
 20
5.558854645
 40
0.0498962589
100
AcDbArc
 50
355.0879694078
 51
359.9966275226
  0
ARC
  5
34C
100
AcDbEntity
  8
ALL_ASSEMBLY_MEMBERS
100
AcDbCircle
 62
7
  6
CONTINUOUS
 10
4.7825488934
 20
5.6689256182
 40
0.049629709
100
AcDbArc
 50
3.3206912972
 51
30.4832651439
  0
ARC
  5
34D
100
AcDbEntity
  8
ALL_ASSEMBLY_MEMBERS
100
AcDbCircle
 62
7
  6
CONTINUOUS
 10
4.7851007301
 20
5.6688505407
 40
0.048936192
100
AcDbArc
 50
148.9356709043
 51
179.9986332009
  0
ARC
  5
34E
100
AcDbEntity
  8
ALL_ASSEMBLY_MEMBERS
100
AcDbCircle
 62
7
  6
CONTINUOUS
 10
4.6931358647
 20
6.0021017081
 40
0.045
100
AcDbArc
 50
2.0
 51
90.0
  0
ARC
  5
34F
100
AcDbEntity
  8
ALL_ASSEMBLY_MEMBERS
100
AcDbCircle
 62
7
  6
CONTINUOUS
 10
4.7731260319
 20
5.3316017081
 40
0.0375
100
AcDbArc
 50
69.153035569
 51
90.0
  0
ARC
  5
350
100
AcDbEntity
  8
ALL_ASSEMBLY_MEMBERS
100
AcDbCircle
 62
7
  6
CONTINUOUS
 10
5.0916755884
 20
5.3141017081
 40
0.0375
100
AcDbArc
 50
270.0
 51
304.5741914741
  0
ARC
  5
351
100
AcDbEntity
  8
ALL_ASSEMBLY_MEMBERS
100
AcDbCircle
 62
7
  6
CONTINUOUS
 10
5.355023986
 20
5.6928990266
 40
0.0277493972
100
AcDbArc
 50
132.8371724881
 51
133.4371630324
  0
ARC
  5
352
100
AcDbEntity
  8
ALL_ASSEMBLY_MEMBERS
100
AcDbCircle
 62
7
  6
CONTINUOUS
 10
5.2068863368
 20
5.696932571
 40
0.0206847965
100
AcDbArc
 50
72.4062801847
 51
74.8934588119
  0
ARC
  5
353
100
AcDbEntity
  8
ALL_ASSEMBLY_MEMBERS
100
AcDbCircle
 62
7
  6
CONTINUOUS
 10
4.7564813566
 20
6.0421017081
 40
0.02
100
AcDbArc
 50
14.4775121859
 51
90.0
  0
ARC
  5
354
100
AcDbEntity
  8
ALL_ASSEMBLY_MEMBERS
100
AcDbCircle
 62
7
  6
CONTINUOUS
 10
5.4903462733
 20
5.7721017081
 40
0.008
100
AcDbArc
 50
270.0
 51
360.0
  0
ARC
  5
355
100
AcDbEntity
  8
ALL_ASSEMBLY_MEMBERS
100
AcDbCircle
 62
7
  6
CONTINUOUS
 10
5.4903462733
 20
5.7886017081
 40
0.008
100
AcDbArc
 50
0.0
 51
90.0
  0
SPLINE
  5
356
100
AcDbEntity
  8
ALL_ASSEMBLY_MEMBERS
100
AcDbSpline
 62
7
  6
CONTINUOUS
 70
0
 71
3
 72
18
 73
14
 74
0
 42
0.0000001
 43
0.0000001
 44
0.0000000001
 40
0.0
 40
0.0
 40
0.0
 40
0.0
 40
0.0651285569
 40
0.1297327836
 40
0.1938275638
 40
0.2574109209
 40
0.3205691584
 40
0.3833736454
 40
0.5080665583
 40
0.6318732986
 40
0.7550079883
 40
0.8776749592
 40
1.0
 40
1.0
 40
1.0
 40
1.0
 10
4.7864712733
 20
5.3491017081
 30
0.0
 10
4.785963665
 20
5.3496571342
 30
0.0
 10
4.7849137857
 20
5.3507287095
 30
0.0
 10
4.7832452936
 20
5.3522242889
 30
0.0
 10
4.7815044773
 20
5.3536063065
 30
0.0
 10
4.7797039991
 20
5.3548805739
 30
0.0
 10
4.7778531292
 20
5.3560526461
 30
0.0
 10
4.7753351437
 20
5.3574846974
 30
0.0
 10
4.7720963622
 20
5.3590584489
 30
0.0
 10
4.7681022693
 20
5.3606425399
 30
0.0
 10
4.7640388106
 20
5.3619630364
 30
0.0
 10
4.7599265762
 20
5.3630549781
 30
0.0
 10
4.7571592492
 20
5.363654081
 30
0.0
 10
4.7557722715
 20
5.3639252514
 30
0.0
  0
SPLINE
  5
357
100
AcDbEntity
  8
ALL_ASSEMBLY_MEMBERS
100
AcDbSpline
 62
7
  6
CONTINUOUS
 70
0
 71
3
 72
32
 73
28
 74
0
 42
0.0000001
 43
0.0000001
 44
0.0000000001
 40
0.0
 40
0.0
 40
0.0
 40
0.0
 40
0.0310708409
 40
0.0621055908
 40
0.1241004381
 40
0.1550742765
 40
0.1860374776
 40
0.2169928984
 40
0.2479423874
 40
0.2788882611
 40
0.3098320364
 40
0.3407748252
 40
0.3717180033
 40
0.4336096595
 40
0.464562598
 40
0.4955227653
 40
0.5264924983
 40
0.5574759867
 40
0.6194983261
 40
0.6816462422
 40
0.7440077991
 40
0.806725475
 40
0.8700262129
 40
0.9020152935
 40
0.9342937318
 40
0.9669381334
 40
1.0
 40
1.0
 40
1.0
 40
1.0
 10
4.7557722715
 20
5.3639252514
 30
0.0
 10
4.7547385581
 20
5.3641273544
 30
0.0
 10
4.7526661956
 20
5.3645004901
 30
0.0
 10
4.7485072775
 20
5.3651366617
 30
0.0
 10
4.7443304007
 20
5.3656238281
 30
0.0
 10
4.7401452804
 20
5.3659926421
 30
0.0
 10
4.7370039439
 20
5.3662146266
 30
0.0
 10
4.7338604055
 20
5.3663874975
 30
0.0
 10
4.7307153119
 20
5.3665154426
 30
0.0
 10
4.7275691717
 20
5.3666004668
 30
0.0
 10
4.724422441
 20
5.3666452594
 30
0.0
 10
4.7212754777
 20
5.3666509574
 30
0.0
 10
4.7170796557
 20
5.366605575
 30
0.0
 10
4.7128845655
 20
5.3664811224
 30
0.0
 10
4.7086929585
 20
5.3662676681
 30
0.0
 10
4.7055510071
 20
5.3660599118
 30
0.0
 10
4.702411923
 20
5.3657992032
 30
0.0
 10
4.698230565
 20
5.365374383
 30
0.0
 10
4.6930148145
 20
5.3646815753
 30
0.0
 10
4.6867940836
 20
5.3635285505
 30
0.0
 10
4.6806356522
 20
5.3619701468
 30
0.0
 10
4.674585035
 20
5.3599023583
 30
0.0
 10
4.6697088386
 20
5.3576530436
 30
0.0
 10
4.6659740567
 20
5.3554668331
 30
0.0
 10
4.6632651617
 20
5.3536020205
 30
0.0
 10
4.6606912155
 20
5.3514962694
 30
0.0
 10
4.6591023705
 20
5.3499290314
 30
0.0
 10
4.6583462733
 20
5.3491017081
 30
0.0
  0
SPLINE
  5
358
100
AcDbEntity
  8
ALL_ASSEMBLY_MEMBERS
100
AcDbSpline
 62
7
  6
CONTINUOUS
 70
0
 71
3
 72
30
 73
26
 74
0
 42
0.0000001
 43
0.0000001
 44
0.0000000001
 40
0.0
 40
0.0
 40
0.0
 40
0.0
 40
0.0330619462
 40
0.0657074439
 40
0.0979908664
 40
0.1299866261
 40
0.1933004313
 40
0.2560299346
 40
0.3184001488
 40
0.3805536362
 40
0.4115804778
 40
0.4425832804
 40
0.5045350272
 40
0.566446063
 40
0.6283365582
 40
0.6592789451
 40
0.6902206831
 40
0.7521059982
 40
0.7830536371
 40
0.8140061376
 40
0.8449661991
 40
0.8759362915
 40
0.9069195458
 40
0.9379217588
 40
1.0
 40
1.0
 40
1.0
 40
1.0
 10
4.6583462733
 20
5.3491017081
 30
0.0
 10
4.6575968513
 20
5.3499217274
 30
0.0
 10
4.6560227782
 20
5.3514758311
 30
0.0
 10
4.6534739108
 20
5.3535660906
 30
0.0
 10
4.6507918936
 20
5.3554194023
 30
0.0
 10
4.6470941068
 20
5.3575947249
 30
0.0
 10
4.6422660157
 20
5.3598373454
 30
0.0
 10
4.6362737121
 20
5.3619045711
 30
0.0
 10
4.6301734486
 20
5.3634673804
 30
0.0
 10
4.625034272
 20
5.3644351212
 30
0.0
 10
4.6209067499
 20
5.3650485621
 30
0.0
 10
4.61677283
 20
5.3655655143
 30
0.0
 10
4.6115907644
 20
5.3660518279
 30
0.0
 10
4.6053598259
 20
5.3664268937
 30
0.0
 10
4.6001624179
 20
5.3665933284
 30
0.0
 10
4.5960038392
 20
5.3666472556
 30
0.0
 10
4.5918450933
 20
5.3666501623
 30
0.0
 10
4.5876863863
 20
5.3665755779
 30
0.0
 10
4.5835300006
 20
5.3664197663
 30
0.0
 10
4.5804139384
 20
5.3662585641
 30
0.0
 10
4.5772999054
 20
5.3660502019
 30
0.0
 10
4.5741886968
 20
5.3657902387
 30
0.0
 10
4.5710813509
 20
5.3654725041
 30
0.0
 10
4.5669437348
 20
5.3649644891
 30
0.0
 10
4.5638526244
 20
5.3644770096
 30
0.0
 10
4.5618023007
 20
5.3640937583
 30
0.0
  0
SPLINE
  5
359
100
AcDbEntity
  8
ALL_ASSEMBLY_MEMBERS
100
AcDbSpline
 62
7
  6
CONTINUOUS
 70
0
 71
3
 72
18
 73
14
 74
0
 42
0.0000001
 43
0.0000001
 44
0.0000000001
 40
0.0
 40
0.0
 40
0.0
 40
0.0
 40
0.2449701666
 40
0.3681110822
 40
0.4299172112
 40
0.4919220306
 40
0.5541475608
 40
0.6166297266
 40
0.7425433879
 40
0.8061188125
 40
0.8702099218
 40
0.934834015
 40
1.0
 40
1.0
 40
1.0
 40
1.0
 10
4.5618023007
 20
5.3640937583
 30
0.0
 10
4.5589484221
 20
5.3635603046
 30
0.0
 10
4.5546867042
 20
5.3625884319
 30
0.0
 10
4.5498246128
 20
5.3610553515
 30
0.0
 10
4.5470784085
 20
5.3600416391
 30
0.0
 10
4.545037108
 20
5.3592071024
 30
0.0
 10
4.5430212309
 20
5.3582928719
 30
0.0
 10
4.5403681123
 20
5.3569562068
 30
0.0
 10
4.5377908667
 20
5.3554367609
 30
0.0
 10
4.535328094
 20
5.353712127
 30
0.0
 10
4.5335368057
 20
5.3523010185
 30
0.0
 10
4.5318208492
 20
5.3507706259
 30
0.0
 10
4.5307422979
 20
5.3496718145
 30
0.0
 10
4.5302212733
 20
5.3491017081
 30
0.0
  0
SPLINE
  5
35A
100
AcDbEntity
  8
ALL_ASSEMBLY_MEMBERS
100
AcDbSpline
 62
7
  6
CONTINUOUS
 70
0
 71
3
 72
23
 73
19
 74
0
 42
0.0000001
 43
0.0000001
 44
0.0000000001
 40
0.0
 40
0.0
 40
0.0
 40
0.0
 40
0.0603222141
 40
0.1208076138
 40
0.1814410969
 40
0.2422810191
 40
0.3034143044
 40
0.364904508
 40
0.426781171
 40
0.4890652221
 40
0.5517652972
 40
0.6148766364
 40
0.6783727089
 40
0.742209784
 40
0.8063527335
 40
0.8707686069
 40
0.9353757058
 40
1.0
 40
1.0
 40
1.0
 40
1.0
 10
4.6712251273
 20
6.0471017081
 30
0.0
 10
4.6725670257
 20
6.0471017081
 30
0.0
 10
4.6752564347
 20
6.0469623065
 30
0.0
 10
4.6792515229
 20
6.0463419729
 30
0.0
 10
4.6831736343
 20
6.0453126316
 30
0.0
 10
4.6869841097
 20
6.0438850903
 30
0.0
 10
4.6906485217
 20
6.0420727122
 30
0.0
 10
4.6941335477
 20
6.0398921362
 30
0.0
 10
4.6974079872
 20
6.037364521
 30
0.0
 10
4.7004399642
 20
6.0345114363
 30
0.0
 10
4.7032035104
 20
6.0313611774
 30
0.0
 10
4.7056713127
 20
6.02794108
 30
0.0
 10
4.7078226664
 20
6.0242843856
 30
0.0
 10
4.7096369372
 20
6.0204239486
 30
0.0
 10
4.7110977989
 20
6.0163947658
 30
0.0
 10
4.7121918561
 20
6.0122331371
 30
0.0
 10
4.7129079275
 20
6.0079797156
 30
0.0
 10
4.7131310958
 20
6.0051090237
 30
0.0
 10
4.7131779021
 20
6.0036721854
 30
0.0
  0
SPLINE
  5
35B
100
AcDbEntity
  8
ALL_ASSEMBLY_MEMBERS
100
AcDbSpline
 62
7
  6
CONTINUOUS
 70
0
 71
3
 72
22
 73
18
 74
0
 42
0.0000001
 43
0.0000001
 44
0.0000000001
 40
0.0
 40
0.0
 40
0.0
 40
0.0
 40
0.0083625403
 40
0.0171429598
 40
0.0266996219
 40
0.0373109819
 40
0.0624205112
 40
0.0935318649
 40
0.1311557852
 40
0.1755669454
 40
0.2269065853
 40
0.2852250187
 40
0.3505312889
 40
0.4228108256
 40
0.5881533862
 40
0.7808011863
 40
1.0
 40
1.0
 40
1.0
 40
1.0
 10
4.7808462733
 20
4.9853517063
 30
0.0
 10
4.7808462733
 20
4.9853021151
 30
0.0
 10
4.7808343897
 20
4.9852001187
 30
0.0
 10
4.7807819177
 20
4.9850496234
 30
0.0
 10
4.7806956429
 20
4.9849002286
 30
0.0
 10
4.7805266674
 20
4.9846904956
 30
0.0
 10
4.7802218575
 20
4.9844325005
 30
0.0
 10
4.7797471462
 20
4.9841401537
 30
0.0
 10
4.7791424044
 20
4.9838474149
 30
0.0
 10
4.7784073213
 20
4.9835542969
 30
0.0
 10
4.7775417664
 20
4.9832607492
 30
0.0
 10
4.7765464999
 20
4.9829667903
 30
0.0
 10
4.7754225008
 20
4.9826724746
 30
0.0
 10
4.7736736902
 20
4.9822610322
 30
0.0
 10
4.7711722182
 20
4.9817549779
 30
0.0
 10
4.7677995584
 20
4.981169633
 30
0.0
 10
4.765384954
 20
4.9808016755
 30
0.0
 10
4.7640984902
 20
4.9806153747
 30
0.0
  0
LINE
  5
35C
100
AcDbEntity
  8
ALL_ASSEMBLY_MEMBERS
100
AcDbLine
 62
7
  6
CONTINUOUS
 10
4.5358470319
 20
4.9572266987
 11
4.5361446699
 21
4.9566017081
  0
SPLINE
  5
35D
100
AcDbEntity
  8
ALL_ASSEMBLY_MEMBERS
100
AcDbSpline
 62
7
  6
CONTINUOUS
 70
0
 71
3
 72
22
 73
18
 74
0
 42
0.0000001
 43
0.0000001
 44
0.0000000001
 40
0.0
 40
0.0
 40
0.0
 40
0.0
 40
0.0083733731
 40
0.0171607341
 40
0.0267202411
 40
0.0373310001
 40
0.062433269
 40
0.0935371194
 40
0.1311617744
 40
0.1755810111
 40
0.2269198457
 40
0.2852313173
 40
0.3505302534
 40
0.4228081683
 40
0.5881697926
 40
0.7808072577
 40
1.0
 40
1.0
 40
1.0
 40
1.0
 10
4.5358463466
 20
4.9784767155
 30
0.0
 10
4.5358463767
 20
4.9785263706
 30
0.0
 10
4.5358582901
 20
4.9786284642
 30
0.0
 10
4.5359107553
 20
4.9787790884
 30
0.0
 10
4.535996992
 20
4.9789285672
 30
0.0
 10
4.5361658717
 20
4.9791383393
 30
0.0
 10
4.5364705831
 20
4.9793963189
 30
0.0
 10
4.5369452688
 20
4.9796885512
 30
0.0
 10
4.5375501053
 20
4.9799811072
 30
0.0
 10
4.5382853088
 20
4.9802740327
 30
0.0
 10
4.5391508687
 20
4.9805675478
 30
0.0
 10
4.5401460359
 20
4.9808615072
 30
0.0
 10
4.5412699216
 20
4.981155858
 30
0.0
 10
4.5430187656
 20
4.9815673808
 30
0.0
 10
4.5455202757
 20
4.9820733941
 30
0.0
 10
4.5488929161
 20
4.9826588298
 30
0.0
 10
4.5513074125
 20
4.98302677
 30
0.0
 10
4.5525938364
 20
4.9832130466
 30
0.0
  0
SPLINE
  5
35E
100
AcDbEntity
  8
ALL_ASSEMBLY_MEMBERS
100
AcDbSpline
 62
7
  6
CONTINUOUS
 70
0
 71
3
 72
22
 73
18
 74
0
 42
0.0000001
 43
0.0000001
 44
0.0000000001
 40
0.0
 40
0.0
 40
0.0
 40
0.0
 40
0.0083733651
 40
0.0171602882
 40
0.0267183537
 40
0.0373267259
 40
0.0624234383
 40
0.0935257531
 40
0.1311573527
 40
0.1755794766
 40
0.2269154921
 40
0.2852224232
 40
0.350519259
 40
0.4228017556
 40
0.5881735582
 40
0.7808027435
 40
1.0
 40
1.0
 40
1.0
 40
1.0
 10
4.7808459214
 20
5.0978517038
 30
0.0
 10
4.7808458751
 20
5.0978020492
 30
0.0
 10
4.7808339502
 20
5.097699964
 30
0.0
 10
4.780781518
 20
5.097549344
 30
0.0
 10
4.7806953432
 20
5.0973998614
 30
0.0
 10
4.7805265699
 20
5.097190078
 30
0.0
 10
4.7802219614
 20
5.0969320634
 30
0.0
 10
4.7797472897
 20
5.0966398106
 30
0.0
 10
4.7791423762
 20
5.0963473138
 30
0.0
 10
4.7784071433
 20
5.0960543758
 30
0.0
 10
4.7775416235
 20
5.0957608497
 30
0.0
 10
4.7765465267
 20
5.0954668842
 30
0.0
 10
4.7754226653
 20
5.0951725291
 30
0.0
 10
4.7736737548
 20
5.094761032
 30
0.0
 10
4.7711722227
 20
5.094255056
 30
0.0
 10
4.7677995869
 20
5.093669557
 30
0.0
 10
4.7653851326
 20
5.0933016338
 30
0.0
 10
4.7640986921
 20
5.0931153682
 30
0.0
  0
SPLINE
  5
35F
100
AcDbEntity
  8
ALL_ASSEMBLY_MEMBERS
100
AcDbSpline
 62
7
  6
CONTINUOUS
 70
0
 71
3
 72
22
 73
18
 74
0
 42
0.0000001
 43
0.0000001
 44
0.0000000001
 40
0.0
 40
0.0
 40
0.0
 40
0.0
 40
0.2192044717
 40
0.4118577221
 40
0.577202846
 40
0.6494812605
 40
0.7147855928
 40
0.7731019527
 40
0.8244400421
 40
0.8688502492
 40
0.9064726732
 40
0.9375822888
 40
0.9626902617
 40
0.9733010412
 40
0.9828573054
 40
0.9916375174
 40
1.0
 40
1.0
 40
1.0
 40
1.0
 10
4.5525940543
 20
5.0649903748
 30
0.0
 10
4.5513075566
 20
5.0651766815
 30
0.0
 10
4.548892886
 20
5.0655446517
 30
0.0
 10
4.5455201447
 20
5.0661300131
 30
0.0
 10
4.5430186308
 20
5.0666360751
 30
0.0
 10
4.5412698244
 20
5.0670475272
 30
0.0
 10
4.5401458562
 20
5.0673418437
 30
0.0
 10
4.5391506227
 20
5.0676358002
 30
0.0
 10
4.5382850941
 20
5.0679293419
 30
0.0
 10
4.5375500294
 20
5.0682224434
 30
0.0
 10
4.5369453097
 20
5.0685151721
 30
0.0
 10
4.5364706257
 20
5.0688075104
 30
0.0
 10
4.5361658408
 20
5.0690655003
 30
0.0
 10
4.5359968838
 20
5.0692752292
 30
0.0
 10
4.5359106194
 20
5.069424622
 30
0.0
 10
4.5358581548
 20
5.0695751156
 30
0.0
 10
4.5358462733
 20
5.0696771105
 30
0.0
 10
4.5358462733
 20
5.0697267013
 30
0.0
  0
SPLINE
  5
360
100
AcDbEntity
  8
ALL_ASSEMBLY_MEMBERS
100
AcDbSpline
 62
7
  6
CONTINUOUS
 70
0
 71
3
 72
26
 73
22
 74
0
 42
0.0000001
 43
0.0000001
 44
0.0000000001
 40
0.0
 40
0.0
 40
0.0
 40
0.0
 40
0.237097737
 40
0.3431868964
 40
0.4408357599
 40
0.5299535201
 40
0.6104605744
 40
0.6823096156
 40
0.7454961454
 40
0.8000568757
 40
0.8460993352
 40
0.8838657785
 40
0.9138905105
 40
0.9263576958
 40
0.937423677
 40
0.9474463833
 40
0.9569050782
 40
0.9663672608
 40
0.9764018413
 40
0.9874917861
 40
1.0
 40
1.0
 40
1.0
 40
1.0
 10
4.7626813419
 20
4.9552935464
 30
0.0
 10
4.7638020255
 20
4.9551308438
 30
0.0
 10
4.7654222448
 20
4.9548812777
 30
0.0
 10
4.7674964905
 20
4.9545193072
 30
0.0
 10
4.7688706095
 20
4.9542576295
 30
0.0
 10
4.7701200833
 20
4.953995631
 30
0.0
 10
4.7712433181
 20
4.9537333176
 30
0.0
 10
4.7722389261
 20
4.9534707493
 30
0.0
 10
4.7731058221
 20
4.9532080455
 30
0.0
 10
4.7738430683
 20
4.9529453529
 30
0.0
 10
4.774450375
 20
4.9526826919
 30
0.0
 10
4.7749273514
 20
4.9524200606
 30
0.0
 10
4.7752353267
 20
4.9521870569
 30
0.0
 10
4.7754067988
 20
4.9519961207
 30
0.0
 10
4.7754940359
 20
4.9518606576
 30
0.0
 10
4.7755474161
 20
4.9517235928
 30
0.0
 10
4.7755656599
 20
4.9515850769
 30
0.0
 10
4.7755480128
 20
4.9514464266
 30
0.0
 10
4.7754951305
 20
4.9513089553
 30
0.0
 10
4.7754082041
 20
4.9511728806
 30
0.0
 10
4.7753329602
 20
4.951088395
 30
0.0
 10
4.7752907161
 20
4.9510461509
 30
0.0
  0
SPLINE
  5
361
100
AcDbEntity
  8
ALL_ASSEMBLY_MEMBERS
100
AcDbSpline
 62
7
  6
CONTINUOUS
 70
0
 71
3
 72
22
 73
18
 74
0
 42
0.0000001
 43
0.0000001
 44
0.0000000001
 40
0.0
 40
0.0
 40
0.0
 40
0.0
 40
0.2191934867
 40
0.4118323872
 40
0.5771876498
 40
0.6494671352
 40
0.7147704297
 40
0.7730860871
 40
0.824426174
 40
0.8688418355
 40
0.9064676597
 40
0.9375787033
 40
0.96268727
 40
0.9732984133
 40
0.9828552602
 40
0.991636354
 40
1.0
 40
1.0
 40
1.0
 40
1.0
 10
4.7640986004
 20
5.0113380561
 30
0.0
 10
4.7653850314
 20
5.0111517724
 30
0.0
 10
4.7677995457
 20
5.0107838201
 30
0.0
 10
4.7711721742
 20
5.0101984039
 30
0.0
 10
4.7736736717
 20
5.0096923965
 30
0.0
 10
4.7754225323
 20
5.0092809352
 30
0.0
 10
4.7765464921
 20
5.0089866172
 30
0.0
 10
4.7775417245
 20
5.0086926629
 30
0.0
 10
4.7784072925
 20
5.0083991243
 30
0.0
 10
4.7791424394
 20
5.0081060629
 30
0.0
 10
4.7797472289
 20
5.0078133412
 30
0.0
 10
4.780221945
 20
5.0075209954
 30
0.0
 10
4.7805267327
 20
5.0072629864
 30
0.0
 10
4.7806956802
 20
5.0070532389
 30
0.0
 10
4.7807819369
 20
5.0069038296
 30
0.0
 10
4.7808343944
 20
5.0067533176
 30
0.0
 10
4.7808462733
 20
5.006651311
 30
0.0
 10
4.7808462733
 20
5.0066017134
 30
0.0
  0
SPLINE
  5
362
100
AcDbEntity
  8
ALL_ASSEMBLY_MEMBERS
100
AcDbSpline
 62
7
  6
CONTINUOUS
 70
0
 71
3
 72
22
 73
18
 74
0
 42
0.0000001
 43
0.0000001
 44
0.0000000001
 40
0.0
 40
0.0
 40
0.0
 40
0.0
 40
0.2191995375
 40
0.4118269803
 40
0.5771903209
 40
0.6494716103
 40
0.7147719909
 40
0.7730834778
 40
0.8244215061
 40
0.8688399062
 40
0.9064676535
 40
0.9375783185
 40
0.9626857982
 40
0.9732966527
 40
0.9828536115
 40
0.9916353103
 40
1.0
 40
1.0
 40
1.0
 40
1.0
 10
4.5525938488
 20
5.0957130461
 30
0.0
 10
4.5513073824
 20
5.095526776
 30
0.0
 10
4.5488929001
 20
5.0951588586
 30
0.0
 10
4.545520278
 20
5.0945733577
 30
0.0
 10
4.5430187917
 20
5.0940673739
 30
0.0
 10
4.5412698928
 20
5.0936559112
 30
0.0
 10
4.5401459693
 20
5.0933615883
 30
0.0
 10
4.5391507943
 20
5.0930676386
 30
0.0
 10
4.5382852502
 20
5.092774103
 30
0.0
 10
4.537550069
 20
5.0924810928
 30
0.0
 10
4.5369452369
 20
5.0921884022
 30
0.0
 10
4.5364705148
 20
5.0918960609
 30
0.0
 10
4.5361657484
 20
5.0916380412
 30
0.0
 10
4.5359968287
 20
5.0914282812
 30
0.0
 10
4.5359105903
 20
5.0912788588
 30
0.0
 10
4.5358581475
 20
5.0911283313
 30
0.0
 10
4.5358462733
 20
5.0910263152
 30
0.0
 10
4.5358462733
 20
5.0909767115
 30
0.0
  0
SPLINE
  5
363
100
AcDbEntity
  8
ALL_ASSEMBLY_MEMBERS
100
AcDbSpline
 62
7
  6
CONTINUOUS
 70
0
 71
3
 72
22
 73
18
 74
0
 42
0.0000001
 43
0.0000001
 44
0.0000000001
 40
0.0
 40
0.0
 40
0.0
 40
0.0
 40
0.2191974114
 40
0.4118473506
 40
0.5771954935
 40
0.6494749897
 40
0.7147802672
 40
0.7730977474
 40
0.8244374254
 40
0.8688494915
 40
0.9064727018
 40
0.9375823268
 40
0.9626900099
 40
0.9733006869
 40
0.9828569465
 40
0.9916372807
 40
1.0
 40
1.0
 40
1.0
 40
1.0
 10
4.5525939966
 20
5.039463029
 30
0.0
 10
4.5513075432
 20
5.0392767305
 30
0.0
 10
4.5488929393
 20
5.0389087681
 30
0.0
 10
4.5455202511
 20
5.038323404
 30
0.0
 10
4.5430187369
 20
5.0378173499
 30
0.0
 10
4.5412699057
 20
5.0374058905
 30
0.0
 10
4.5401459223
 20
5.0371115694
 30
0.0
 10
4.5391506698
 20
5.0368176094
 30
0.0
 10
4.5382851155
 20
5.0365240665
 30
0.0
 10
4.5375500223
 20
5.0362309738
 30
0.0
 10
4.5369452858
 20
5.0359382465
 30
0.0
 10
4.5364705998
 20
5.0356459078
 30
0.0
 10
4.5361658212
 20
5.0353879145
 30
0.0
 10
4.5359968725
 20
5.0351781828
 30
0.0
 10
4.5359106136
 20
5.0350287871
 30
0.0
 10
4.5358581534
 20
5.0348782902
 30
0.0
 10
4.5358462733
 20
5.0347762935
 30
0.0
 10
4.5358462733
 20
5.0347267013
 30
0.0
  0
SPLINE
  5
364
100
AcDbEntity
  8
ALL_ASSEMBLY_MEMBERS
100
AcDbSpline
 62
7
  6
CONTINUOUS
 70
0
 71
3
 72
22
 73
18
 74
0
 42
0.0000001
 43
0.0000001
 44
0.0000000001
 40
0.0
 40
0.0
 40
0.0
 40
0.0
 40
0.2192019651
 40
0.4118526471
 40
0.5772030834
 40
0.6494812581
 40
0.7147842537
 40
0.7730993854
 40
0.8244375227
 40
0.8688493202
 40
0.9064723866
 40
0.9375818859
 40
0.9626895364
 40
0.9733002578
 40
0.9828566121
 40
0.9916370926
 40
1.0
 40
1.0
 40
1.0
 40
1.0
 10
4.7640985738
 20
5.0675880343
 30
0.0
 10
4.765385053
 20
5.0674017327
 30
0.0
 10
4.7677996854
 20
5.0670337612
 30
0.0
 10
4.771172412
 20
5.0664483728
 30
0.0
 10
4.7736739367
 20
5.0659423299
 30
0.0
 10
4.7754227583
 20
5.0655308699
 30
0.0
 10
4.7765467055
 20
5.0652365535
 30
0.0
 10
4.7775419207
 20
5.0649425993
 30
0.0
 10
4.77840745
 20
5.0646490621
 30
0.0
 10
4.7791425351
 20
5.0643559823
 30
0.0
 10
4.7797472698
 20
5.0640632597
 30
0.0
 10
4.7802219539
 20
5.0637709219
 30
0.0
 10
4.7805267299
 20
5.0635129269
 30
0.0
 10
4.7806956765
 20
5.0633031928
 30
0.0
 10
4.7807819342
 20
5.0631537947
 30
0.0
 10
4.7808343935
 20
5.0630032949
 30
0.0
 10
4.7808462733
 20
5.0629012963
 30
0.0
 10
4.7808462733
 20
5.0628517031
 30
0.0
  0
SPLINE
  5
365
100
AcDbEntity
  8
ALL_ASSEMBLY_MEMBERS
100
AcDbSpline
 62
7
  6
CONTINUOUS
 70
0
 71
3
 72
22
 73
18
 74
0
 42
0.0000001
 43
0.0000001
 44
0.0000000001
 40
0.0
 40
0.0
 40
0.0
 40
0.0
 40
0.2191937778
 40
0.4118361854
 40
0.5771845925
 40
0.6494643784
 40
0.7147699787
 40
0.7730881185
 40
0.8244290871
 40
0.8688431224
 40
0.9064681476
 40
0.9375793095
 40
0.9626882402
 40
0.9732994373
 40
0.9828561552
 40
0.991636899
 40
1.0
 40
1.0
 40
1.0
 40
1.0
 10
4.7640986228
 20
5.0368653852
 30
0.0
 10
4.7653850506
 20
5.037051676
 30
0.0
 10
4.7677995798
 20
5.0374196284
 30
0.0
 10
4.7711721875
 20
5.0380050007
 30
0.0
 10
4.7736736542
 20
5.0385110312
 30
0.0
 10
4.7754224851
 20
5.0389224844
 30
0.0
 10
4.7765464725
 20
5.0392168026
 30
0.0
 10
4.7775417354
 20
5.0395107609
 30
0.0
 10
4.7784073104
 20
5.039804304
 30
0.0
 10
4.7791424336
 20
5.0400973945
 30
0.0
 10
4.7797472003
 20
5.040390126
 30
0.0
 10
4.7802219114
 20
5.0406824721
 30
0.0
 10
4.7805267068
 20
5.0409404738
 30
0.0
 10
4.7806956652
 20
5.0411502135
 30
0.0
 10
4.7807819291
 20
5.041299615
 30
0.0
 10
4.7808343924
 20
5.0414501182
 30
0.0
 10
4.7808462733
 20
5.0415521192
 30
0.0
 10
4.7808462733
 20
5.0416017134
 30
0.0
  0
LINE
  5
366
100
AcDbEntity
  8
ALL_ASSEMBLY_MEMBERS
100
AcDbLine
 62
7
  6
CONTINUOUS
 10
4.5558090989
 20
4.9520301595
 11
4.5553987386
 21
4.9520929545
  0
SPLINE
  5
367
100
AcDbEntity
  8
ALL_ASSEMBLY_MEMBERS
100
AcDbSpline
 62
7
  6
CONTINUOUS
 70
0
 71
3
 72
16
 73
12
 74
0
 42
0.0000001
 43
0.0000001
 44
0.0000000001
 40
0.0
 40
0.0
 40
0.0
 40
0.0
 40
0.1827718363
 40
0.3495767163
 40
0.5000181805
 40
0.6338242142
 40
0.7507632409
 40
0.8506993328
 40
0.9336827054
 40
0.9688962844
 40
1.0
 40
1.0
 40
1.0
 40
1.0
 10
4.5553987386
 20
4.9520929545
 30
0.0
 10
4.5542043656
 20
4.9522765025
 30
0.0
 10
4.5519218748
 20
4.9526402747
 30
0.0
 10
4.5486648407
 20
4.9532071508
 30
0.0
 10
4.5457362567
 20
4.9537708024
 30
0.0
 10
4.5431433612
 20
4.954330934
 30
0.0
 10
4.5408920538
 20
4.9548872709
 30
0.0
 10
4.53898755
 20
4.9554398615
 30
0.0
 10
4.5376255775
 20
4.9559185175
 30
0.0
 10
4.5367181979
 20
4.9563079971
 30
0.0
 10
4.5363251888
 20
4.9565032117
 30
0.0
 10
4.5361446699
 20
4.9566017081
 30
0.0
  0
SPLINE
  5
368
100
AcDbEntity
  8
ALL_ASSEMBLY_MEMBERS
100
AcDbSpline
 62
7
  6
CONTINUOUS
 70
0
 71
3
 72
22
 73
18
 74
0
 42
0.0000001
 43
0.0000001
 44
0.0000000001
 40
0.0
 40
0.0
 40
0.0
 40
0.0
 40
0.2191958313
 40
0.4118391569
 40
0.5771884961
 40
0.6494676458
 40
0.7147721526
 40
0.7730891151
 40
0.82442919
 40
0.868842867
 40
0.9064677727
 40
0.9375789521
 40
0.9626879831
 40
0.973299245
 40
0.9828560295
 40
0.9916368377
 40
1.0
 40
1.0
 40
1.0
 40
1.0
 10
4.5525939299
 20
5.008740382
 30
0.0
 10
4.5513074895
 20
5.0089266746
 30
0.0
 10
4.548892942
 20
5.0092946318
 30
0.0
 10
4.5455203109
 20
5.009880014
 30
0.0
 10
4.543018835
 20
5.0103860409
 30
0.0
 10
4.5412700079
 20
5.0107974936
 30
0.0
 10
4.5401460371
 20
5.0110918091
 30
0.0
 10
4.5391507924
 20
5.0113857646
 30
0.0
 10
4.5382852313
 20
5.0116793052
 30
0.0
 10
4.5375501149
 20
5.0119723916
 30
0.0
 10
4.5369453502
 20
5.0122651218
 30
0.0
 10
4.5364706388
 20
5.0125574679
 30
0.0
 10
4.5361658425
 20
5.0128154704
 30
0.0
 10
4.5359968829
 20
5.0130252111
 30
0.0
 10
4.5359106182
 20
5.0131746136
 30
0.0
 10
4.5358581543
 20
5.0133251179
 30
0.0
 10
4.5358462733
 20
5.0134271197
 30
0.0
 10
4.5358462733
 20
5.0134767143
 30
0.0
  0
SPLINE
  5
369
100
AcDbEntity
  8
ALL_ASSEMBLY_MEMBERS
100
AcDbSpline
 62
7
  6
CONTINUOUS
 70
0
 71
3
 72
31
 73
27
 74
0
 42
0.0000001
 43
0.0000001
 44
0.0000000001
 40
0.0
 40
0.0
 40
0.0
 40
0.0
 40
0.1789496339
 40
0.3585891643
 40
0.4458152859
 40
0.5298135902
 40
0.6095175546
 40
0.6839125082
 40
0.7520642722
 40
0.7835242795
 40
0.8131117011
 40
0.8663016189
 40
0.8897448034
 40
0.9109971318
 40
0.9299962835
 40
0.9466956435
 40
0.9610690548
 40
0.973103977
 40
0.9782487002
 40
0.9828204176
 40
0.9868333313
 40
0.9903097151
 40
0.9932853427
 40
0.9958189775
 40
0.9980072635
 40
1.0
 40
1.0
 40
1.0
 40
1.0
 10
4.633549346
 20
4.936601708
 30
0.0
 10
4.6412178494
 20
4.937291988
 30
0.0
 10
4.6565878407
 20
4.9386369047
 30
0.0
 10
4.6756970922
 20
4.9403026054
 30
0.0
 10
4.6907322076
 20
4.941660789
 30
0.0
 10
4.7014815288
 20
4.9426690507
 30
0.0
 10
4.7116763461
 20
4.9436763641
 30
0.0
 10
4.7211859226
 20
4.9446827213
 30
0.0
 10
4.72862357
 20
4.9455410571
 30
0.0
 10
4.7341391439
 20
4.9462345715
 30
0.0
 10
4.7390108873
 20
4.9468866884
 30
0.0
 10
4.7435327697
 20
4.9475533372
 30
0.0
 10
4.7476854212
 20
4.9482566353
 30
0.0
 10
4.7503793245
 20
4.9487609932
 30
0.0
 10
4.7527776275
 20
4.9492645982
 30
0.0
 10
4.7548730109
 20
4.9497672213
 30
0.0
 10
4.7566592462
 20
4.9502684491
 30
0.0
 10
4.7579463695
 20
4.9507039174
 30
0.0
 10
4.7588124301
 20
4.9510594458
 30
0.0
 10
4.759346881
 20
4.9513118382
 30
0.0
 10
4.7598009437
 20
4.9515640741
 30
0.0
 10
4.7601747448
 20
4.9518164245
 30
0.0
 10
4.7604685926
 20
4.9520694818
 30
0.0
 10
4.760682611
 20
4.9523248652
 30
0.0
 10
4.7608153663
 20
4.9525850409
 30
0.0
 10
4.7608462506
 20
4.9527659682
 30
0.0
 10
4.7608461985
 20
4.9528517079
 30
0.0
  0
SPLINE
  5
36A
100
AcDbEntity
  8
ALL_ASSEMBLY_MEMBERS
100
AcDbSpline
 62
7
  6
CONTINUOUS
 70
0
 71
3
 72
41
 73
37
 74
0
 42
0.0000001
 43
0.0000001
 44
0.0000000001
 40
0.0
 40
0.0
 40
0.0
 40
0.0
 40
0.0008007652
 40
0.0016612079
 40
0.002629428
 40
0.0037393587
 40
0.0050134494
 40
0.0064663743
 40
0.0099430208
 40
0.0142176613
 40
0.0193096793
 40
0.0252245697
 40
0.031961957
 40
0.0395182545
 40
0.0478871112
 40
0.0570567706
 40
0.0670133456
 40
0.0892286858
 40
0.1144017026
 40
0.1423674335
 40
0.1729497986
 40
0.2059463728
 40
0.2411436407
 40
0.3171988372
 40
0.3991123
 40
0.4847166212
 40
0.5717446022
 40
0.657895834
 40
0.740893838
 40
0.818545407
 40
0.8547193501
 40
0.8888004557
 40
0.9205681172
 40
0.9498131313
 40
0.9763468393
 40
1.0
 40
1.0
 40
1.0
 40
1.0
 10
4.5358462733
 20
5.0134767143
 30
0.0
 10
4.5358462733
 20
5.0135381456
 30
0.0
 10
4.5358649323
 20
5.013666172
 30
0.0
 10
4.5359461019
 20
5.0138528296
 30
0.0
 10
4.5360782651
 20
5.0140370629
 30
0.0
 10
4.5362603771
 20
5.0142197925
 30
0.0
 10
4.5364922921
 20
5.0144019469
 30
0.0
 10
4.5368926843
 20
5.014660156
 30
0.0
 10
4.5375265537
 20
5.0149754172
 30
0.0
 10
4.5384443416
 20
5.0153355003
 30
0.0
 10
4.5395603178
 20
5.0156965136
 30
0.0
 10
4.5408728755
 20
5.0160584897
 30
0.0
 10
4.5423804086
 20
5.016421135
 30
0.0
 10
4.544080777
 20
5.0167843025
 30
0.0
 10
4.5459714259
 20
5.0171477959
 30
0.0
 10
4.5480491928
 20
5.0175116444
 30
0.0
 10
4.5511805048
 20
5.0180157305
 30
0.0
 10
4.5555358327
 20
5.0186381802
 30
0.0
 10
4.5612713363
 20
5.0193620853
 30
0.0
 10
4.5676531133
 20
5.0200873391
 30
0.0
 10
4.5746384807
 20
5.0208133372
 30
0.0
 10
4.5821812877
 20
5.0215401299
 30
0.0
 10
4.5932026382
 20
5.0225355914
 30
0.0
 10
4.6079707784
 20
5.0237625741
 30
0.0
 10
4.6266010942
 20
5.0252029285
 30
0.0
 10
4.6460754565
 20
5.0266448566
 30
0.0
 10
4.6658757289
 20
5.0280874304
 30
0.0
 10
4.6854755673
 20
5.0295295695
 30
0.0
 10
4.7043541899
 20
5.0309703981
 30
0.0
 10
4.7194039691
 20
5.0321958177
 30
0.0
 10
4.7307071946
 20
5.0331892731
 30
0.0
 10
4.7385001413
 20
5.0339163336
 30
0.0
 10
4.7457591398
 20
5.0346427128
 30
0.0
 10
4.7524361166
 20
5.0353683502
 30
0.0
 10
4.7584866822
 20
5.036092974
 30
0.0
 10
4.7623027865
 20
5.0366053257
 30
0.0
 10
4.7640986228
 20
5.0368653852
 30
0.0
  0
SPLINE
  5
36B
100
AcDbEntity
  8
ALL_ASSEMBLY_MEMBERS
100
AcDbSpline
 62
7
  6
CONTINUOUS
 70
0
 71
3
 72
40
 73
36
 74
0
 42
0.0000001
 43
0.0000001
 44
0.0000000001
 40
0.0
 40
0.0
 40
0.0
 40
0.0
 40
0.0008007762
 40
0.0016612453
 40
0.0026295117
 40
0.0037395077
 40
0.0050136788
 40
0.0064666951
 40
0.0099435391
 40
0.0142183946
 40
0.0193107731
 40
0.0252261097
 40
0.0319639282
 40
0.0395205392
 40
0.0478896733
 40
0.0570597323
 40
0.0670167003
 40
0.0892322933
 40
0.1144052054
 40
0.1423709669
 40
0.1729537062
 40
0.205951078
 40
0.2411492987
 40
0.3172045793
 40
0.3991143768
 40
0.4847166928
 40
0.5717446146
 40
0.6578978181
 40
0.7408955237
 40
0.818545178
 40
0.8887990848
 40
0.9205670644
 40
0.9498119839
 40
0.9763463981
 40
1.0
 40
1.0
 40
1.0
 40
1.0
 10
4.7808462733
 20
5.0628517031
 30
0.0
 10
4.7808462733
 20
5.062790271
 30
0.0
 10
4.7808276115
 20
5.0626622417
 30
0.0
 10
4.7807464325
 20
5.0624755812
 30
0.0
 10
4.780614256
 20
5.0622913445
 30
0.0
 10
4.7804321278
 20
5.0621086106
 30
0.0
 10
4.7802001942
 20
5.0619264508
 30
0.0
 10
4.7797997742
 20
5.0616682333
 30
0.0
 10
4.7791658692
 20
5.0613529585
 30
0.0
 10
4.7782480281
 20
5.0609928499
 30
0.0
 10
4.7771319737
 20
5.060631825
 30
0.0
 10
4.7758193215
 20
5.0602698378
 30
0.0
 10
4.7743116973
 20
5.0599071848
 30
0.0
 10
4.7726112519
 20
5.0595440076
 30
0.0
 10
4.7707205283
 20
5.0591805066
 30
0.0
 10
4.7686426792
 20
5.0588166586
 30
0.0
 10
4.765511287
 20
5.0583125792
 30
0.0
 10
4.7611559201
 20
5.0576901287
 30
0.0
 10
4.7554204052
 20
5.0569662317
 30
0.0
 10
4.7490386077
 20
5.0562409895
 30
0.0
 10
4.7420531522
 20
5.0555149889
 30
0.0
 10
4.734510187
 20
5.0547881878
 30
0.0
 10
4.7234887025
 20
5.0537927211
 30
0.0
 10
4.7087207718
 20
5.0525657627
 30
0.0
 10
4.6900908942
 20
5.0511254482
 30
0.0
 10
4.6706169831
 20
5.0496835487
 30
0.0
 10
4.6508167274
 20
5.0482409894
 30
0.0
 10
4.631216787
 20
5.0467987973
 30
0.0
 10
4.6123381617
 20
5.0453581249
 30
0.0
 10
4.5946828056
 20
5.0439200213
 30
0.0
 10
4.5809540239
 20
5.0426882292
 30
0.0
 10
4.5709337358
 20
5.0416857755
 30
0.0
 10
4.5642566974
 20
5.0409600791
 30
0.0
 10
4.5582060508
 20
5.0402354851
 30
0.0
 10
4.5543898645
 20
5.0397230988
 30
0.0
 10
4.5525939966
 20
5.039463029
 30
0.0
  0
SPLINE
  5
36C
100
AcDbEntity
  8
ALL_ASSEMBLY_MEMBERS
100
AcDbSpline
 62
7
  6
CONTINUOUS
 70
0
 71
3
 72
12
 73
8
 74
0
 42
0.0000001
 43
0.0000001
 44
0.0000000001
 40
0.0
 40
0.0
 40
0.0
 40
0.0
 40
0.295289157
 40
0.5630113496
 40
0.7991269852
 40
0.9041664775
 40
1.0
 40
1.0
 40
1.0
 40
1.0
 10
4.5953396562
 20
5.1002027514
 30
0.0
 10
4.5911238283
 20
5.0998435034
 30
0.0
 10
4.5830877324
 20
5.0991345226
 30
0.0
 10
4.5716908112
 20
5.0980270617
 30
0.0
 10
4.5630181146
 20
5.0970745816
 30
0.0
 10
4.5568046534
 20
5.096299833
 30
0.0
 10
4.553952846
 20
5.0959098181
 30
0.0
 10
4.5525938488
 20
5.0957130461
 30
0.0
  0
SPLINE
  5
36D
100
AcDbEntity
  8
ALL_ASSEMBLY_MEMBERS
100
AcDbSpline
 62
7
  6
CONTINUOUS
 70
0
 71
3
 72
31
 73
27
 74
0
 42
0.0000001
 43
0.0000001
 44
0.0000000001
 40
0.0
 40
0.0
 40
0.0
 40
0.0
 40
0.0023137436
 40
0.0051030197
 40
0.0084014616
 40
0.0122285644
 40
0.0165961034
 40
0.0215113985
 40
0.0329999804
 40
0.0467023624
 40
0.0626035918
 40
0.080681267
 40
0.1008994788
 40
0.1232066413
 40
0.1475486271
 40
0.2020819395
 40
0.2638951706
 40
0.3322806754
 40
0.4064245592
 40
0.4854072812
 40
0.5682297345
 40
0.6538119101
 40
0.7409954527
 40
0.8285781783
 40
0.9153621487
 40
1.0
 40
1.0
 40
1.0
 40
1.0
 10
4.7752907161
 20
4.9510461509
 30
0.0
 10
4.7752128674
 20
4.9509683021
 30
0.0
 10
4.7750232074
 20
4.9508146353
 30
0.0
 10
4.7746825168
 20
4.9506044032
 30
0.0
 10
4.7742599478
 20
4.9503934837
 30
0.0
 10
4.7737553595
 20
4.9501819155
 30
0.0
 10
4.7731685684
 20
4.9499696172
 30
0.0
 10
4.7722265291
 20
4.9496699388
 30
0.0
 10
4.7708413348
 20
4.9493017987
 30
0.0
 10
4.7689325672
 20
4.948876451
 30
0.0
 10
4.766704236
 20
4.9484483441
 30
0.0
 10
4.7641614294
 20
4.9480177346
 30
0.0
 10
4.7613103108
 20
4.94758491
 30
0.0
 10
4.7581583735
 20
4.9471498261
 30
0.0
 10
4.7533820216
 20
4.9465438492
 30
0.0
 10
4.7467296071
 20
4.9457928628
 30
0.0
 10
4.737983549
 20
4.9449127765
 30
0.0
 10
4.728300912
 20
4.9440241824
 30
0.0
 10
4.7177988922
 20
4.9431272554
 30
0.0
 10
4.7066082521
 20
4.9422221399
 30
0.0
 10
4.6948722853
 20
4.9413090131
 30
0.0
 10
4.6827455738
 20
4.9403878424
 30
0.0
 10
4.6703923187
 20
4.9394586423
 30
0.0
 10
4.6579823251
 20
4.9385213377
 30
0.0
 10
4.6456944287
 20
4.9375759256
 30
0.0
 10
4.6375633275
 20
4.9369292195
 30
0.0
 10
4.633549346
 20
4.936601708
 30
0.0
  0
SPLINE
  5
36E
100
AcDbEntity
  8
ALL_ASSEMBLY_MEMBERS
100
AcDbSpline
 62
7
  6
CONTINUOUS
 70
0
 71
3
 72
41
 73
37
 74
0
 42
0.0000001
 43
0.0000001
 44
0.0000000001
 40
0.0
 40
0.0
 40
0.0
 40
0.0
 40
0.0236543101
 40
0.0501874733
 40
0.0794344145
 40
0.1112019074
 40
0.145284113
 40
0.1814572155
 40
0.2591082823
 40
0.3421073684
 40
0.4282611017
 40
0.5152906026
 40
0.6008930956
 40
0.6828040661
 40
0.7588592145
 40
0.7940569246
 40
0.8270545138
 40
0.8576371565
 40
0.8856024374
 40
0.9107744835
 40
0.932988538
 40
0.9429446375
 40
0.9521138058
 40
0.9604820618
 40
0.9680379553
 40
0.9747752356
 40
0.9806901454
 40
0.9857821436
 40
0.990056656
 40
0.9935333542
 40
0.9949863524
 40
0.9962605255
 40
0.9973705301
 40
0.9983387993
 40
0.9991992553
 40
1.0
 40
1.0
 40
1.0
 40
1.0
 10
4.7640986921
 20
5.0931153682
 30
0.0
 10
4.7623027629
 20
5.0928553329
 30
0.0
 10
4.7584866117
 20
5.0923429822
 30
0.0
 10
4.7524358597
 20
5.0916182704
 30
0.0
 10
4.7457587809
 20
5.090892699
 30
0.0
 10
4.7384995695
 20
5.0901662358
 30
0.0
 10
4.7307066094
 20
5.089439228
 30
0.0
 10
4.719403404
 20
5.0884457374
 30
0.0
 10
4.7043536396
 20
5.0872203508
 30
0.0
 10
4.6854747789
 20
5.0857794968
 30
0.0
 10
4.6658745468
 20
5.0843373299
 30
0.0
 10
4.6460741036
 20
5.0828947408
 30
0.0
 10
4.6265999526
 20
5.0814528261
 30
0.0
 10
4.6079699682
 20
5.080012494
 30
0.0
 10
4.5932019854
 20
5.0787855311
 30
0.0
 10
4.5821805277
 20
5.0777900354
 30
0.0
 10
4.5746375866
 20
5.0770632342
 30
0.0
 10
4.5676521549
 20
5.0763372187
 30
0.0
 10
4.561270465
 20
5.0756119659
 30
0.0
 10
4.5555351674
 20
5.0748880789
 30
0.0
 10
4.551180049
 20
5.0742656401
 30
0.0
 10
4.5480489068
 20
5.0737615838
 30
0.0
 10
4.5459712575
 20
5.0733977585
 30
0.0
 10
4.5440807224
 20
5.0730342793
 30
0.0
 10
4.5423804377
 20
5.0726711272
 30
0.0
 10
4.5408729389
 20
5.0723084997
 30
0.0
 10
4.5395603869
 20
5.0719465336
 30
0.0
 10
4.5384444187
 20
5.071585525
 30
0.0
 10
4.5375266504
 20
5.0712254104
 30
0.0
 10
4.5368927866
 20
5.0709101407
 30
0.0
 10
4.5364923774
 20
5.0706519289
 30
0.0
 10
4.5362604422
 20
5.070469772
 30
0.0
 10
4.5360783084
 20
5.0702870422
 30
0.0
 10
4.5359461245
 20
5.070102811
 30
0.0
 10
4.535864938
 20
5.069916157
 30
0.0
 10
4.5358462733
 20
5.069788131
 30
0.0
 10
4.5358462733
 20
5.0697267013
 30
0.0
  0
SPLINE
  5
36F
100
AcDbEntity
  8
ALL_ASSEMBLY_MEMBERS
100
AcDbSpline
 62
7
  6
CONTINUOUS
 70
0
 71
3
 72
38
 73
34
 74
0
 42
0.0000001
 43
0.0000001
 44
0.0000000001
 40
0.0
 40
0.0
 40
0.0
 40
0.0
 40
0.0009445487
 40
0.001935608
 40
0.0030137414
 40
0.0042107137
 40
0.0070441249
 40
0.0105552805
 40
0.0147988661
 40
0.0198024566
 40
0.0255800434
 40
0.0321378489
 40
0.0394740643
 40
0.0475822916
 40
0.0660803893
 40
0.087550796
 40
0.1118710332
 40
0.1389021632
 40
0.1684854512
 40
0.2004378706
 40
0.2345695043
 40
0.3085100346
 40
0.3884873224
 40
0.4725234819
 40
0.5585357293
 40
0.6443919307
 40
0.7279642594
 40
0.8071824619
 40
0.8800873958
 40
0.9136047548
 40
0.9448860198
 40
0.9737441052
 40
1.0
 40
1.0
 40
1.0
 40
1.0
 10
4.5558466748
 20
5.0672267007
 30
0.0
 10
4.5558466641
 20
5.0672860993
 30
0.0
 10
4.5558607941
 20
5.067408226
 30
0.0
 10
4.555923382
 20
5.0675884423
 30
0.0
 10
4.5560264344
 20
5.0677672922
 30
0.0
 10
4.5562285027
 20
5.0680183256
 30
0.0
 10
4.5565934415
 20
5.0683268628
 30
0.0
 10
4.5571615988
 20
5.0686763067
 30
0.0
 10
4.5578847567
 20
5.0690262408
 30
0.0
 10
4.5587627279
 20
5.0693767511
 30
0.0
 10
4.5597953997
 20
5.0697279429
 30
0.0
 10
4.5609816939
 20
5.07007955
 30
0.0
 10
4.5623199618
 20
5.0704316102
 30
0.0
 10
4.5643972191
 20
5.070923354
 30
0.0
 10
4.5673600906
 20
5.0715283216
 30
0.0
 10
4.5713421729
 20
5.0722283336
 30
0.0
 10
4.5758677869
 20
5.0729300572
 30
0.0
 10
4.5809087882
 20
5.0736329846
 30
0.0
 10
4.5864338479
 20
5.0743366379
 30
0.0
 10
4.5924086331
 20
5.0750411058
 30
0.0
 10
4.6011611289
 20
5.0760067376
 30
0.0
 10
4.6129268697
 20
5.0771973331
 30
0.0
 10
4.6278255152
 20
5.0785938721
 30
0.0
 10
4.6434862825
 20
5.0799920798
 30
0.0
 10
4.6595180825
 20
5.0813911294
 30
0.0
 10
4.6755206095
 20
5.0827901227
 30
0.0
 10
4.691094337
 20
5.0841881376
 30
0.0
 10
4.7058503685
 20
5.0855843222
 30
0.0
 10
4.7174637786
 20
5.0867757575
 30
0.0
 10
4.7260692816
 20
5.0877426234
 30
0.0
 10
4.7319167672
 20
5.0884469084
 30
0.0
 10
4.7373041598
 20
5.089150329
 30
0.0
 10
4.7407350117
 20
5.0896429063
 30
0.0
 10
4.7423672605
 20
5.0898918219
 30
0.0
  0
SPLINE
  5
370
100
AcDbEntity
  8
ALL_ASSEMBLY_MEMBERS
100
AcDbSpline
 62
7
  6
CONTINUOUS
 70
0
 71
3
 72
38
 73
34
 74
0
 42
0.0000001
 43
0.0000001
 44
0.0000000001
 40
0.0
 40
0.0
 40
0.0
 40
0.0
 40
0.0262588189
 40
0.0551149544
 40
0.0863964698
 40
0.1199148038
 40
0.1928196285
 40
0.2720366926
 40
0.3556088391
 40
0.4414654546
 40
0.5274774216
 40
0.6115129009
 40
0.6914905878
 40
0.7654320586
 40
0.7995616419
 40
0.8315156726
 40
0.8610984478
 40
0.8881287313
 40
0.9124509988
 40
0.9339187291
 40
0.9524187285
 40
0.9605277758
 40
0.9678628479
 40
0.9744190485
 40
0.9801970854
 40
0.9852020613
 40
0.9894464706
 40
0.9929566557
 40
0.9957887663
 40
0.9969857284
 40
0.9980640796
 40
0.9990553654
 40
1.0
 40
1.0
 40
1.0
 40
1.0
 10
4.5743249861
 20
4.9864365947
 30
0.0
 10
4.575957419
 20
4.9866855343
 30
0.0
 10
4.5793883538
 20
4.9871779906
 30
0.0
 10
4.5847758104
 20
4.9878815567
 30
0.0
 10
4.590623263
 20
4.9885857928
 30
0.0
 10
4.5992288478
 20
4.9895526416
 30
0.0
 10
4.6108422525
 20
4.9907440853
 30
0.0
 10
4.6255982081
 20
4.9921402882
 30
0.0
 10
4.6411718959
 20
4.9935382977
 30
0.0
 10
4.6571744385
 20
4.9949372785
 30
0.0
 10
4.6732062212
 20
4.9963363319
 30
0.0
 10
4.6888669696
 20
4.9977345474
 30
0.0
 10
4.7037656708
 20
4.9991311059
 30
0.0
 10
4.7155313896
 20
5.0003216092
 30
0.0
 10
4.7242839134
 20
5.001287361
 30
0.0
 10
4.7302586543
 20
5.0019917458
 30
0.0
 10
4.7357837353
 20
5.0026954124
 30
0.0
 10
4.7408247713
 20
5.0033984267
 30
0.0
 10
4.7453503252
 20
5.0040999672
 30
0.0
 10
4.7493324541
 20
5.0048001954
 30
0.0
 10
4.7522953487
 20
5.0054050689
 30
0.0
 10
4.754372725
 20
5.0058967534
 30
0.0
 10
4.7557108641
 20
5.0062488383
 30
0.0
 10
4.7568969819
 20
5.0066005342
 30
0.0
 10
4.7579296774
 20
5.0069516974
 30
0.0
 10
4.758807846
 20
5.0073021656
 30
0.0
 10
4.7595311283
 20
5.00765202
 30
0.0
 10
4.7600991858
 20
5.0080014936
 30
0.0
 10
4.7604638159
 20
5.0083101596
 30
0.0
 10
4.7606658301
 20
5.0085611394
 30
0.0
 10
4.7607689578
 20
5.0087399729
 30
0.0
 10
4.760831683
 20
5.0089201733
 30
0.0
 10
4.7608459216
 20
5.0090423075
 30
0.0
 10
4.7608459579
 20
5.0091017115
 30
0.0
  0
SPLINE
  5
371
100
AcDbEntity
  8
ALL_ASSEMBLY_MEMBERS
100
AcDbSpline
 62
7
  6
CONTINUOUS
 70
0
 71
3
 72
41
 73
37
 74
0
 42
0.0000001
 43
0.0000001
 44
0.0000000001
 40
0.0
 40
0.0
 40
0.0
 40
0.0
 40
0.0236541677
 40
0.0501877693
 40
0.0794341136
 40
0.1112021445
 40
0.1452838518
 40
0.1814572699
 40
0.259108201
 40
0.3421072648
 40
0.4282610586
 40
0.515290626
 40
0.6008930995
 40
0.6828039878
 40
0.7588591111
 40
0.7940570345
 40
0.8270544542
 40
0.8576372161
 40
0.8856024522
 40
0.9107744318
 40
0.9329885993
 40
0.9429446126
 40
0.9521137275
 40
0.9604820587
 40
0.9680380077
 40
0.9747752551
 40
0.9806901073
 40
0.9857820855
 40
0.9900566422
 40
0.9935333519
 40
0.9949863458
 40
0.9962605123
 40
0.9973705116
 40
0.99833878
 40
0.9991992423
 40
1.0
 40
1.0
 40
1.0
 40
1.0
 10
4.5525938364
 20
4.9832130466
 30
0.0
 10
4.5543897523
 20
4.9834730987
 30
0.0
 10
4.5582059291
 20
4.9839854359
 30
0.0
 10
4.5642566606
 20
4.9847101268
 30
0.0
 10
4.5709337653
 20
4.9854357374
 30
0.0
 10
4.5781929387
 20
4.9861621605
 30
0.0
 10
4.585985924
 20
4.9868892007
 30
0.0
 10
4.5972891085
 20
4.9878826649
 30
0.0
 10
4.6123388852
 20
4.9891080694
 30
0.0
 10
4.631217741
 20
4.9905489182
 30
0.0
 10
4.6508179834
 20
4.9919910861
 30
0.0
 10
4.6706184371
 20
4.9934336737
 30
0.0
 10
4.6900925876
 20
4.994875589
 30
0.0
 10
4.7087225645
 20
4.9963159203
 30
0.0
 10
4.7234905564
 20
4.9975428911
 30
0.0
 10
4.734512018
 20
4.9985383742
 30
0.0
 10
4.7420549715
 20
4.9992651863
 30
0.0
 10
4.7490403974
 20
4.9999911948
 30
0.0
 10
4.7554220885
 20
5.0007164494
 30
0.0
 10
4.7611573862
 20
5.0014403411
 30
0.0
 10
4.7655125036
 20
5.0020627688
 30
0.0
 10
4.7686436432
 20
5.0025668312
 30
0.0
 10
4.770721287
 20
5.0029306604
 30
0.0
 10
4.7726118286
 20
5.0032941384
 30
0.0
 10
4.7743121214
 20
5.0036572895
 30
0.0
 10
4.7758196174
 20
5.0040199182
 30
0.0
 10
4.7771321609
 20
5.0043818838
 30
0.0
 10
4.7782481266
 20
5.0047428918
 30
0.0
 10
4.7791659018
 20
5.005102996
 30
0.0
 10
4.7797997714
 20
5.005418264
 30
0.0
 10
4.7802001804
 20
5.0056764763
 30
0.0
 10
4.7804321136
 20
5.0058586339
 30
0.0
 10
4.7806142447
 20
5.0060413652
 30
0.0
 10
4.7807464257
 20
5.0062255986
 30
0.0
 10
4.7808276096
 20
5.0064122552
 30
0.0
 10
4.7808462733
 20
5.0065402827
 30
0.0
 10
4.7808462733
 20
5.0066017134
 30
0.0
  0
SPLINE
  5
372
100
AcDbEntity
  8
ALL_ASSEMBLY_MEMBERS
100
AcDbSpline
 62
7
  6
CONTINUOUS
 70
0
 71
3
 72
10
 73
6
 74
0
 42
0.0000001
 43
0.0000001
 44
0.0000000001
 40
0.0
 40
0.0
 40
0.0
 40
0.0
 40
0.2203271605
 40
0.4614410039
 40
1.0
 40
1.0
 40
1.0
 40
1.0
 10
4.5743249917
 20
5.0989365879
 30
0.0
 10
4.5758559195
 20
5.099170041
 30
0.0
 10
4.5790662378
 20
5.099632701
 30
0.0
 10
4.5860349887
 20
5.1005499771
 30
0.0
 10
4.5914785633
 20
5.1011846974
 30
0.0
 10
4.5952409219
 20
5.1016017081
 30
0.0
  0
SPLINE
  5
373
100
AcDbEntity
  8
ALL_ASSEMBLY_MEMBERS
100
AcDbSpline
 62
7
  6
CONTINUOUS
 70
0
 71
3
 72
39
 73
35
 74
0
 42
0.0000001
 43
0.0000001
 44
0.0000000001
 40
0.0
 40
0.0
 40
0.0
 40
0.0
 40
0.0009446578
 40
0.0019360562
 40
0.0030146032
 40
0.0042117814
 40
0.0070440138
 40
0.0105533433
 40
0.0147973658
 40
0.0198028083
 40
0.0255815153
 40
0.0321378928
 40
0.0394720695
 40
0.0475806795
 40
0.0564546059
 40
0.0660823957
 40
0.0875495333
 40
0.111871705
 40
0.1389027429
 40
0.1684844581
 40
0.2004391912
 40
0.234568471
 40
0.3085102354
 40
0.3884875856
 40
0.4725228234
 40
0.5585348512
 40
0.6443914712
 40
0.7279632856
 40
0.8071802781
 40
0.8800853897
 40
0.9136031953
 40
0.9448854916
 40
0.973740956
 40
1.0
 40
1.0
 40
1.0
 40
1.0
 10
4.5558464418
 20
4.9547267027
 30
0.0
 10
4.5558464848
 20
4.9547861082
 30
0.0
 10
4.5558607548
 20
4.9549082496
 30
0.0
 10
4.5559235526
 20
4.9550884474
 30
0.0
 10
4.5560267563
 20
4.9552672744
 30
0.0
 10
4.5562288482
 20
4.9555182331
 30
0.0
 10
4.5565934535
 20
4.9558268623
 30
0.0
 10
4.557161367
 20
4.9561764356
 30
0.0
 10
4.5578846077
 20
4.9565262785
 30
0.0
 10
4.5587628379
 20
4.9568767191
 30
0.0
 10
4.5597956279
 20
4.9572278633
 30
0.0
 10
4.5609817455
 20
4.9575795501
 30
0.0
 10
4.5623198027
 20
4.9579316587
 30
0.0
 10
4.5638079591
 20
4.9582840089
 30
0.0
 10
4.5654438866
 20
4.9586366554
 30
0.0
 10
4.5679095464
 20
4.9591250561
 30
0.0
 10
4.5713422663
 20
4.959728374
 30
0.0
 10
4.5758677591
 20
4.9604300299
 30
0.0
 10
4.5809088009
 20
4.9611329621
 30
0.0
 10
4.5864338961
 20
4.9618367037
 30
0.0
 10
4.5924086073
 20
4.9625410347
 30
0.0
 10
4.6011611762
 20
4.9635068236
 30
0.0
 10
4.6129268847
 20
4.9646972972
 30
0.0
 10
4.6278255764
 20
4.9660938719
 30
0.0
 10
4.6434863031
 20
4.9674920863
 30
0.0
 10
4.6595180859
 20
4.9688911372
 30
0.0
 10
4.6755206228
 20
4.9702901155
 30
0.0
 10
4.6910942959
 20
4.9716881287
 30
0.0
 10
4.7058502531
 20
4.9730843415
 30
0.0
 10
4.7174636496
 20
4.9742757535
 30
0.0
 10
4.7260692695
 20
4.9752426452
 30
0.0
 10
4.7319167051
 20
4.9759468366
 30
0.0
 10
4.7373041825
 20
4.9766504357
 30
0.0
 10
4.7407350904
 20
4.9771428967
 30
0.0
 10
4.742367541
 20
4.9773918219
 30
0.0
  0
SPLINE
  5
374
100
AcDbEntity
  8
ALL_ASSEMBLY_MEMBERS
100
AcDbSpline
 62
7
  6
CONTINUOUS
 70
0
 71
3
 72
38
 73
34
 74
0
 42
0.0000001
 43
0.0000001
 44
0.0000000001
 40
0.0
 40
0.0
 40
0.0
 40
0.0
 40
0.0009445282
 40
0.0019357618
 40
0.0030144501
 40
0.0042121352
 40
0.0070459052
 40
0.0105557952
 40
0.0147979779
 40
0.0198018343
 40
0.0255814825
 40
0.0321397631
 40
0.0394746426
 40
0.0475814288
 40
0.0660816867
 40
0.0875513805
 40
0.111870413
 40
0.1389037344
 40
0.1684848781
 40
0.2004387545
 40
0.2345700459
 40
0.3085110382
 40
0.3884877119
 40
0.4725233813
 40
0.5585359981
 40
0.6443922289
 40
0.7279639649
 40
0.8071819684
 40
0.8800879895
 40
0.9136039428
 40
0.9448869498
 40
0.9737433584
 40
1.0
 40
1.0
 40
1.0
 40
1.0
 10
4.5558463868
 20
5.0109767124
 30
0.0
 10
4.5558463465
 20
5.0110361097
 30
0.0
 10
4.5558604493
 20
5.0111582572
 30
0.0
 10
4.555923164
 20
5.0113384867
 30
0.0
 10
4.5560264462
 20
5.0115173103
 30
0.0
 10
4.5562287723
 20
5.0117682579
 30
0.0
 10
4.5565936615
 20
5.0120767933
 30
0.0
 10
4.5571615962
 20
5.0124263333
 30
0.0
 10
4.5578845612
 20
5.0127763256
 30
0.0
 10
4.5587626063
 20
5.0131268212
 30
0.0
 10
4.5597955056
 20
5.0134778904
 30
0.0
 10
4.5609818697
 20
5.0138295203
 30
0.0
 10
4.5623199768
 20
5.0141816249
 30
0.0
 10
4.5643971726
 20
5.0146734684
 30
0.0
 10
4.5673600874
 20
5.0152782417
 30
0.0
 10
4.5713421659
 20
5.0159783536
 30
0.0
 10
4.5758677932
 20
5.0166801304
 30
0.0
 10
4.5809087422
 20
5.0173829171
 30
0.0
 10
4.5864338805
 20
5.0180867187
 30
0.0
 10
4.5924086156
 20
5.0187910833
 30
0.0
 10
4.6011612076
 20
5.0197567781
 30
0.0
 10
4.6129269274
 20
5.0209473262
 30
0.0
 10
4.6278255361
 20
5.0223438908
 30
0.0
 10
4.6434862634
 20
5.0237421014
 30
0.0
 10
4.6595180655
 20
5.0251411394
 30
0.0
 10
4.6755205871
 20
5.026540132
 30
0.0
 10
4.6910942732
 20
5.0279381482
 30
0.0
 10
4.7058503257
 20
5.0293343676
 30
0.0
 10
4.7174637182
 20
5.0305257114
 30
0.0
 10
4.7260693022
 20
5.0314926887
 30
0.0
 10
4.7319167188
 20
5.0321968623
 30
0.0
 10
4.7373041532
 20
5.032900378
 30
0.0
 10
4.7407349498
 20
5.0333929352
 30
0.0
 10
4.7423672494
 20
5.0336418335
 30
0.0
  0
SPLINE
  5
375
100
AcDbEntity
  8
ALL_ASSEMBLY_MEMBERS
100
AcDbSpline
 62
7
  6
CONTINUOUS
 70
0
 71
3
 72
38
 73
34
 74
0
 42
0.0000001
 43
0.0000001
 44
0.0000000001
 40
0.0
 40
0.0
 40
0.0
 40
0.0
 40
0.026255977
 40
0.0551140691
 40
0.0863952003
 40
0.1199127164
 40
0.1928175713
 40
0.2720357078
 40
0.3556080766
 40
0.4414642998
 40
0.527476513
 40
0.611512658
 40
0.6914900413
 40
0.765430601
 40
0.7995621006
 40
0.831514576
 40
0.8610979785
 40
0.888128891
 40
0.9124493604
 40
0.9339195809
 40
0.9524177426
 40
0.9605261106
 40
0.9678623425
 40
0.9744199321
 40
0.9801974601
 40
0.9852011707
 40
0.9894448969
 40
0.9929560691
 40
0.9957893008
 40
0.9969862305
 40
0.9980643653
 40
0.9990554418
 40
1.0
 40
1.0
 40
1.0
 40
1.0
 10
4.5743252558
 20
5.0426865782
 30
0.0
 10
4.5759575096
 20
5.0429354963
 30
0.0
 10
4.5793883682
 20
5.0434280685
 30
0.0
 10
4.5847757585
 20
5.0441314894
 30
0.0
 10
4.5906232457
 20
5.0448357804
 30
0.0
 10
4.5992287472
 20
5.0458026368
 30
0.0
 10
4.6108421584
 20
5.0469940789
 30
0.0
 10
4.6255981848
 20
5.0483902625
 30
0.0
 10
4.6411719136
 20
5.0497882766
 30
0.0
 10
4.6571744439
 20
5.0511872697
 30
0.0
 10
4.6732062437
 20
5.0525863202
 30
0.0
 10
4.6888670153
 20
5.053984529
 30
0.0
 10
4.7037656693
 20
5.0553810673
 30
0.0
 10
4.715531411
 20
5.0565716597
 30
0.0
 10
4.724283904
 20
5.0575372972
 30
0.0
 10
4.7302586919
 20
5.0582417652
 30
0.0
 10
4.7357837504
 20
5.0589454097
 30
0.0
 10
4.740824758
 20
5.0596483541
 30
0.0
 10
4.7453503645
 20
5.0603500589
 30
0.0
 10
4.7493324517
 20
5.0610500853
 30
0.0
 10
4.7522953245
 20
5.0616550531
 30
0.0
 10
4.7543725978
 20
5.0621467903
 30
0.0
 10
4.7557108636
 20
5.0624988449
 30
0.0
 10
4.7568971374
 20
5.0628504644
 30
0.0
 10
4.7579297979
 20
5.0632016585
 30
0.0
 10
4.758807785
 20
5.0635521639
 30
0.0
 10
4.7595309633
 20
5.0639020939
 30
0.0
 10
4.7600991294
 20
5.064251525
 30
0.0
 10
4.7604640359
 20
5.0645600822
 30
0.0
 10
4.7606660815
 20
5.0648111152
 30
0.0
 10
4.7607691329
 20
5.0649899631
 30
0.0
 10
4.7608317304
 20
5.0651701774
 30
0.0
 10
4.7608458716
 20
5.0652923042
 30
0.0
 10
4.7608458665
 20
5.0653517034
 30
0.0
  0
SPLINE
  5
376
100
AcDbEntity
  8
ALL_ASSEMBLY_MEMBERS
100
AcDbSpline
 62
7
  6
CONTINUOUS
 70
0
 71
3
 72
40
 73
36
 74
0
 42
0.0000001
 43
0.0000001
 44
0.0000000001
 40
0.0
 40
0.0
 40
0.0
 40
0.0
 40
0.0236526194
 40
0.0501870431
 40
0.0794315017
 40
0.1111998959
 40
0.1814528698
 40
0.2591019291
 40
0.3420994157
 40
0.4282519381
 40
0.515280228
 40
0.6008813356
 40
0.68279129
 40
0.7588464136
 40
0.7940453202
 40
0.8270428536
 40
0.8576254754
 40
0.8855928711
 40
0.9107636655
 40
0.9329813266
 40
0.9429370425
 40
0.9521052543
 40
0.9604741478
 40
0.9680327307
 40
0.9747714267
 40
0.9806857672
 40
0.985777284
 40
0.9900532602
 40
0.9935319561
 40
0.9949851479
 40
0.9962590768
 40
0.9973688061
 40
0.9983371307
 40
0.9991981924
 40
1.0
 40
1.0
 40
1.0
 40
1.0
 10
4.7640984902
 20
4.9806153747
 30
0.0
 10
4.7623027
 20
4.9803553153
 30
0.0
 10
4.7584865957
 20
4.979842925
 30
0.0
 10
4.7524360656
 20
4.9791183661
 30
0.0
 10
4.7457590441
 20
4.9783926409
 30
0.0
 10
4.735738844
 20
4.9773902233
 30
0.0
 10
4.7220101724
 20
4.9761584113
 30
0.0
 10
4.7043549778
 20
4.9747203247
 30
0.0
 10
4.6854764979
 20
4.973279657
 30
0.0
 10
4.6658766293
 20
4.9718374749
 30
0.0
 10
4.6460765218
 20
4.970394927
 30
0.0
 10
4.6266026947
 20
4.9689530287
 30
0.0
 10
4.6079729394
 20
4.9675127246
 30
0.0
 10
4.5932049805
 20
4.9662857591
 30
0.0
 10
4.5821834579
 20
4.9652903248
 30
0.0
 10
4.5746404476
 20
4.9645635307
 30
0.0
 10
4.5676548815
 20
4.9638374658
 30
0.0
 10
4.5612731249
 20
4.9631123539
 30
0.0
 10
4.5555375196
 20
4.9623882864
 30
0.0
 10
4.5511822269
 20
4.9617660726
 30
0.0
 10
4.5480509243
 20
4.961261962
 30
0.0
 10
4.5459733446
 20
4.9608980797
 30
0.0
 10
4.5440826407
 20
4.9605345444
 30
0.0
 10
4.5423819775
 20
4.9601714458
 30
0.0
 10
4.5408741951
 20
4.959808849
 30
0.0
 10
4.5395616186
 20
4.959446877
 30
0.0
 10
4.5384456191
 20
4.9590858724
 30
0.0
 10
4.537527558
 20
4.9587259222
 30
0.0
 10
4.5368932445
 20
4.9584109154
 30
0.0
 10
4.5364926731
 20
4.9581526702
 30
0.0
 10
4.5362608185
 20
4.9579704444
 30
0.0
 10
4.5360788531
 20
4.9577875911
 30
0.0
 10
4.5359468561
 20
4.9576031871
 30
0.0
 10
4.5358658013
 20
4.9574163398
 30
0.0
 10
4.535847102
 20
4.9572882097
 30
0.0
 10
4.5358470319
 20
4.9572266987
 30
0.0
  0
SPLINE
  5
377
100
AcDbEntity
  8
ALL_FEATURES
100
AcDbSpline
 62
7
  6
CONTINUOUS
 70
0
 71
3
 72
55
 73
51
 74
0
 42
0.0000001
 43
0.0000001
 44
0.0000000001
 40
0.0
 40
0.0
 40
0.0
 40
0.0
 40
0.0088067586
 40
0.0176012093
 40
0.0263083828
 40
0.03491139
 40
0.0434191093
 40
0.0518181526
 40
0.0601218726
 40
0.0683472554
 40
0.0845791842
 40
0.1005971
 40
0.1164502025
 40
0.1321808224
 40
0.1633663005
 40
0.1943153602
 40
0.2251113147
 40
0.2558046018
 40
0.2864275383
 40
0.3170016092
 40
0.3475411115
 40
0.3780563855
 40
0.4085549511
 40
0.4390421326
 40
0.4695224973
 40
0.4999995121
 40
0.5304765828
 40
0.5609569503
 40
0.5914442582
 40
0.6219428612
 40
0.6524583278
 40
0.682997908
 40
0.7135721597
 40
0.7441952576
 40
0.7748886599
 40
0.805684732
 40
0.8366338857
 40
0.8678194283
 40
0.8835500656
 40
0.8994031824
 40
0.9154210932
 40
0.9316529595
 40
0.9398783135
 40
0.948182009
 40
0.9565809538
 40
0.9650885457
 40
0.9736914909
 40
0.9823987217
 40
0.9911932274
 40
1.0
 40
1.0
 40
1.0
 40
1.0
 10
4.2817062334
 20
2.3632163168
 30
0.0
 10
4.2817062334
 20
2.3640900926
 30
0.0
 10
4.2818194901
 20
2.3658380758
 30
0.0
 10
4.2822977358
 20
2.3684098303
 30
0.0
 10
4.2830633019
 20
2.370889985
 30
0.0
 10
4.284080598
 20
2.3732456961
 30
0.0
 10
4.2853023537
 20
2.3754661186
 30
0.0
 10
4.2866899798
 20
2.3775503992
 30
0.0
 10
4.2882144254
 20
2.3795007805
 30
0.0
 10
4.2903859102
 20
2.3819220263
 30
0.0
 10
4.2933242642
 20
2.3846717506
 30
0.0
 10
4.2971092598
 20
2.3875878143
 30
0.0
 10
4.3010636548
 20
2.390177348
 30
0.0
 10
4.3064868718
 20
2.3932457772
 30
0.0
 10
4.3135079682
 20
2.3964995238
 30
0.0
 10
4.322166737
 20
2.3996883682
 30
0.0
 10
4.3309616782
 20
2.4023068345
 30
0.0
 10
4.3398462724
 20
2.4044621454
 30
0.0
 10
4.348792212
 20
2.4062321616
 30
0.0
 10
4.3577807395
 20
2.4076742691
 30
0.0
 10
4.3667990378
 20
2.4088326471
 30
0.0
 10
4.3758381686
 20
2.4097408076
 30
0.0
 10
4.3848917889
 20
2.4104226885
 30
0.0
 10
4.3939550093
 20
2.4108981666
 30
0.0
 10
4.4030241727
 20
2.4111778678
 30
0.0
 10
4.412096134
 20
2.4112709183
 30
0.0
 10
4.4211680971
 20
2.4111779068
 30
0.0
 10
4.4302372753
 20
2.4108981323
 30
0.0
 10
4.4393005217
 20
2.4104228091
 30
0.0
 10
4.4483541616
 20
2.4097407309
 30
0.0
 10
4.4573933472
 20
2.4088328062
 30
0.0
 10
4.4664116623
 20
2.4076741992
 30
0.0
 10
4.4754002507
 20
2.4062322242
 30
0.0
 10
4.4843462345
 20
2.4044621842
 30
0.0
 10
4.493230857
 20
2.4023068282
 30
0.0
 10
4.5020258319
 20
2.3996883615
 30
0.0
 10
4.5106846251
 20
2.3964995049
 30
0.0
 10
4.5177057403
 20
2.393245755
 30
0.0
 10
4.5231289548
 20
2.3901773028
 30
0.0
 10
4.527083357
 20
2.3875877749
 30
0.0
 10
4.5308683367
 20
2.3846716993
 30
0.0
 10
4.5338066832
 20
2.3819219803
 30
0.0
 10
4.5359781417
 20
2.3795007264
 30
0.0
 10
4.5375025833
 20
2.3775503618
 30
0.0
 10
4.5388902033
 20
2.3754661068
 30
0.0
 10
4.5401119516
 20
2.3732457129
 30
0.0
 10
4.5411292421
 20
2.370890013
 30
0.0
 10
4.5418947921
 20
2.3684098482
 30
0.0
 10
4.5423730494
 20
2.3658380841
 30
0.0
 10
4.5424863132
 20
2.364090094
 30
0.0
 10
4.5424863132
 20
2.3632163168
 30
0.0
  0
SPLINE
  5
378
100
AcDbEntity
  8
ALL_FEATURES
100
AcDbSpline
 62
7
  6
CONTINUOUS
 70
0
 71
3
 72
55
 73
51
 74
0
 42
0.0000001
 43
0.0000001
 44
0.0000000001
 40
0.0
 40
0.0
 40
0.0
 40
0.0
 40
0.0088067798
 40
0.0176013583
 40
0.0263087013
 40
0.0349116699
 40
0.0434193467
 40
0.051818428
 40
0.0601221186
 40
0.0683474731
 40
0.0845794085
 40
0.1005973352
 40
0.1164504399
 40
0.1321810841
 40
0.163366591
 40
0.1943156721
 40
0.2251116303
 40
0.2558049077
 40
0.2864278447
 40
0.3170019069
 40
0.3475413715
 40
0.37805663
 40
0.408555151
 40
0.4390423027
 40
0.4695226271
 40
0.4999996104
 40
0.530476642
 40
0.560956977
 40
0.5914442417
 40
0.6219428069
 40
0.6524582196
 40
0.6829977473
 40
0.7135719421
 40
0.7441949987
 40
0.7748883603
 40
0.8056844025
 40
0.8366335521
 40
0.8678191077
 40
0.8835497658
 40
0.8994028813
 40
0.9154208044
 40
0.9316526914
 40
0.9398780241
 40
0.9481816956
 40
0.9565807007
 40
0.9650882793
 40
0.9736912003
 40
0.9823985883
 40
0.9911932094
 40
1.0
 40
1.0
 40
1.0
 40
1.0
 10
4.7742062334
 20
2.3632163168
 30
0.0
 10
4.7742062334
 20
2.3640900947
 30
0.0
 10
4.7743195065
 20
2.3658380928
 30
0.0
 10
4.7747977804
 20
2.3684098719
 30
0.0
 10
4.7755633119
 20
2.3708900637
 30
0.0
 10
4.7765806146
 20
2.3732457836
 30
0.0
 10
4.777802397
 20
2.3754661866
 30
0.0
 10
4.7791900365
 20
2.3775504532
 30
0.0
 10
4.7807144729
 20
2.379500839
 30
0.0
 10
4.7828859577
 20
2.3819220783
 30
0.0
 10
4.7858243135
 20
2.3846717994
 30
0.0
 10
4.789609322
 20
2.3875878486
 30
0.0
 10
4.793563712
 20
2.3901773967
 30
0.0
 10
4.7989869483
 20
2.3932458035
 30
0.0
 10
4.8060080486
 20
2.3964995563
 30
0.0
 10
4.8146668272
 20
2.3996883909
 30
0.0
 10
4.8234617701
 20
2.4023068548
 30
0.0
 10
4.8323463602
 20
2.4044621797
 30
0.0
 10
4.8412923008
 20
2.4062321844
 30
0.0
 10
4.8502808283
 20
2.4076742574
 30
0.0
 10
4.8592991143
 20
2.4088326841
 30
0.0
 10
4.8683382405
 20
2.4097407938
 30
0.0
 10
4.8773918492
 20
2.4104227028
 30
0.0
 10
4.8864550593
 20
2.4108981641
 30
0.0
 10
4.8955242122
 20
2.4111778639
 30
0.0
 10
4.9045961624
 20
2.4112709225
 30
0.0
 10
4.9136681149
 20
2.4111778965
 30
0.0
 10
4.9227372822
 20
2.4108981385
 30
0.0
 10
4.9318005163
 20
2.4104227987
 30
0.0
 10
4.9408541438
 20
2.4097407376
 30
0.0
 10
4.9498933138
 20
2.4088328015
 30
0.0
 10
4.9589116139
 20
2.4076742067
 30
0.0
 10
4.9679001864
 20
2.4062322278
 30
0.0
 10
4.9768461599
 20
2.4044622081
 30
0.0
 10
4.9857307709
 20
2.4023068507
 30
0.0
 10
4.9945257376
 20
2.3996883849
 30
0.0
 10
5.0031845341
 20
2.3964995416
 30
0.0
 10
5.0102056484
 20
2.3932457864
 30
0.0
 10
5.0156288829
 20
2.3901773622
 30
0.0
 10
5.0195832784
 20
2.3875878183
 30
0.0
 10
5.0233682748
 20
2.3846717602
 30
0.0
 10
5.0263066247
 20
2.3819220429
 30
0.0
 10
5.0284780894
 20
2.3795007975
 30
0.0
 10
5.0300025227
 20
2.3775504246
 30
0.0
 10
5.0313901574
 20
2.3754661778
 30
0.0
 10
5.0326119342
 20
2.3732457969
 30
0.0
 10
5.0336292326
 20
2.3708900854
 30
0.0
 10
5.0343947517
 20
2.3684098859
 30
0.0
 10
5.0348730345
 20
2.3658380992
 30
0.0
 10
5.0349863132
 20
2.3640900958
 30
0.0
 10
5.0349863132
 20
2.3632163168
 30
0.0
  0
SPLINE
  5
379
100
AcDbEntity
  8
ALL_FEATURES
100
AcDbSpline
 62
7
  6
CONTINUOUS
 70
0
 71
3
 72
47
 73
43
 74
0
 42
0.0000001
 43
0.0000001
 44
0.0000000001
 40
0.0
 40
0.0
 40
0.0
 40
0.0
 40
0.0175556406
 40
0.0348184889
 40
0.0516853262
 40
0.0681943736
 40
0.0844227576
 40
0.1004390277
 40
0.1162951099
 40
0.1320287958
 40
0.1476678643
 40
0.1632328165
 40
0.1941928777
 40
0.225000508
 40
0.2557059389
 40
0.2863412668
 40
0.316927741
 40
0.3474798913
 40
0.3780079626
 40
0.4085193274
 40
0.4390194395
 40
0.4999993967
 40
0.5609794081
 40
0.5914795792
 40
0.6219910018
 40
0.6525192119
 40
0.6830714914
 40
0.7136580718
 40
0.7442935053
 40
0.7749990326
 40
0.8058067281
 40
0.8367668146
 40
0.8523317705
 40
0.8679708403
 40
0.8837045217
 40
0.8995605953
 40
0.9155768555
 40
0.9318052314
 40
0.9483142923
 40
0.9651811815
 40
0.9824441928
 40
1.0
 40
1.0
 40
1.0
 40
1.0
 10
5.0349863132
 20
2.286612823
 30
0.0
 10
5.0349863132
 20
2.2848712773
 30
0.0
 10
5.0345492241
 20
2.2814032835
 30
0.0
 10
5.0327391562
 20
2.2765669358
 30
0.0
 10
5.0301043783
 20
2.2722612113
 30
0.0
 10
5.0269253184
 20
2.2684864406
 30
0.0
 10
5.0233875061
 20
2.2651756279
 30
0.0
 10
5.0196056454
 20
2.2622565303
 30
0.0
 10
5.0156518653
 20
2.2596667259
 30
0.0
 10
5.0115731111
 20
2.2573559023
 30
0.0
 10
5.0074008877
 20
2.2552841289
 30
0.0
 10
5.0017532876
 20
2.2528030598
 30
0.0
 10
4.9945478635
 20
2.2501480516
 30
0.0
 10
4.9857518103
 20
2.2475278625
 30
0.0
 10
4.9768651374
 20
2.2453711302
 30
0.0
 10
4.9679170937
 20
2.2436001578
 30
0.0
 10
4.9589263602
 20
2.2421569955
 30
0.0
 10
4.9499057619
 20
2.2409978076
 30
0.0
 10
4.9408642347
 20
2.2400893799
 30
0.0
 10
4.9318081884
 20
2.2394067297
 30
0.0
 10
4.9197221898
 20
2.2387732719
 30
0.0
 10
4.904596448
 20
2.2384668265
 30
0.0
 10
4.8894706952
 20
2.2387731713
 30
0.0
 10
4.8773846842
 20
2.239406725
 30
0.0
 10
4.8683286151
 20
2.2400893966
 30
0.0
 10
4.859287046
 20
2.2409977306
 30
0.0
 10
4.8502664113
 20
2.2421569343
 30
0.0
 10
4.8412756474
 20
2.2436001186
 30
0.0
 10
4.8323275733
 20
2.2453710932
 30
0.0
 10
4.8234408717
 20
2.2475278198
 30
0.0
 10
4.8146447991
 20
2.2501480094
 30
0.0
 10
4.8074393657
 20
2.252803019
 30
0.0
 10
4.8017917596
 20
2.2552840819
 30
0.0
 10
4.7976195326
 20
2.2573558482
 30
0.0
 10
4.7935407775
 20
2.2596666678
 30
0.0
 10
4.7895869958
 20
2.2622564655
 30
0.0
 10
4.7858051313
 20
2.2651755537
 30
0.0
 10
4.7822673103
 20
2.2684863564
 30
0.0
 10
4.7790882363
 20
2.2722611223
 30
0.0
 10
4.7764534282
 20
2.2765668552
 30
0.0
 10
4.7746433361
 20
2.2814032347
 30
0.0
 10
4.7742062334
 20
2.2848712608
 30
0.0
 10
4.7742062334
 20
2.286612823
 30
0.0
  0
SPLINE
  5
37A
100
AcDbEntity
  8
ALL_FEATURES
100
AcDbSpline
 62
7
  6
CONTINUOUS
 70
0
 71
3
 72
17
 73
13
 74
0
 42
0.0000001
 43
0.0000001
 44
0.0000000001
 40
0.0
 40
0.0
 40
0.0
 40
0.0
 40
0.067118541
 40
0.1339103533
 40
0.1998968782
 40
0.2649999223
 40
0.3924977694
 40
0.5171753759
 40
0.6397716926
 40
0.7608590064
 40
0.8808412046
 40
1.0
 40
1.0
 40
1.0
 40
1.0
 10
4.5424863132
 20
2.286612823
 30
0.0
 10
4.5424863132
 20
2.2856133582
 30
0.0
 10
4.5423411366
 20
2.2836167167
 30
0.0
 10
4.541720362
 20
2.2806967855
 30
0.0
 10
4.5407332369
 20
2.2779120802
 30
0.0
 10
4.5390335052
 20
2.2744491684
 30
0.0
 10
4.5363146807
 20
2.2705501909
 30
0.0
 10
4.5324420297
 20
2.2665103387
 30
0.0
 10
4.5281958021
 20
2.2630217752
 30
0.0
 10
4.5237036206
 20
2.2599863833
 30
0.0
 10
4.5190418267
 20
2.2573245724
 30
0.0
 10
4.5158434668
 20
2.2557537637
 30
0.0
 10
4.5142307419
 20
2.2550137585
 30
0.0
  0
SPLINE
  5
37B
100
AcDbEntity
  8
ALL_FEATURES
100
AcDbSpline
 62
7
  6
CONTINUOUS
 70
0
 71
3
 72
39
 73
35
 74
0
 42
0.0000001
 43
0.0000001
 44
0.0000000001
 40
0.0
 40
0.0
 40
0.0
 40
0.0
 40
0.0313191863
 40
0.0624707411
 40
0.093505392
 40
0.1244566724
 40
0.1553474853
 40
0.186193959
 40
0.2477924995
 40
0.309319657
 40
0.3708105061
 40
0.4322884542
 40
0.4937728779
 40
0.5552851137
 40
0.6168552524
 40
0.6476792126
 40
0.6785394468
 40
0.7094488676
 40
0.7404256213
 40
0.7714957221
 40
0.8026975778
 40
0.8340900172
 40
0.8657666356
 40
0.8817634891
 40
0.8978990341
 40
0.9142109395
 40
0.9307477853
 40
0.947568299
 40
0.9561067643
 40
0.9647355399
 40
0.9734524234
 40
0.9822517454
 40
0.9911194436
 40
1.0
 40
1.0
 40
1.0
 40
1.0
 10
4.5142307419
 20
2.2550137585
 30
0.0
 10
4.5118304929
 20
2.2539123948
 30
0.0
 10
4.5069560177
 20
2.2519018227
 30
0.0
 10
4.499490458
 20
2.2493545143
 30
0.0
 10
4.4919350358
 20
2.2472007579
 30
0.0
 10
4.4843165652
 20
2.2453781153
 30
0.0
 10
4.4766525176
 20
2.2438385949
 30
0.0
 10
4.4663950832
 20
2.2421151987
 30
0.0
 10
4.4535067262
 20
2.2404997162
 30
0.0
 10
4.4379850714
 20
2.2392587064
 30
0.0
 10
4.4224377969
 20
2.2386183731
 30
0.0
 10
4.4068816424
 20
2.2385292601
 30
0.0
 10
4.3913298275
 20
2.2389846079
 30
0.0
 10
4.375797605
 20
2.240019369
 30
0.0
 10
4.362891732
 20
2.2414312374
 30
0.0
 10
4.3526107007
 20
2.2429603257
 30
0.0
 10
4.3449235859
 20
2.2443339689
 30
0.0
 10
4.337273463
 20
2.2459653283
 30
0.0
 10
4.3296741391
 20
2.2478948352
 30
0.0
 10
4.3221458081
 20
2.2501747671
 30
0.0
 10
4.3147184514
 20
2.2528744629
 30
0.0
 10
4.3074405564
 20
2.256088064
 30
0.0
 10
4.3015822264
 20
2.2592959481
 30
0.0
 10
4.2970951223
 20
2.2622705903
 30
0.0
 10
4.2938450568
 20
2.264750996
 30
0.0
 10
4.2907658405
 20
2.2675117426
 30
0.0
 10
4.287922574
 20
2.2705967576
 30
0.0
 10
4.2858407594
 20
2.2734646269
 30
0.0
 10
4.2844130422
 20
2.2759524032
 30
0.0
 10
4.2834794794
 20
2.277928087
 30
0.0
 10
4.2827126778
 20
2.2799982114
 30
0.0
 10
4.2821408768
 20
2.2821520426
 30
0.0
 10
4.2817882504
 20
2.2843663674
 30
0.0
 10
4.2817062334
 20
2.2858640041
 30
0.0
 10
4.2817062334
 20
2.286612823
 30
0.0
  0
LINE
  5
37C
100
AcDbEntity
  8
ALL_ASSEMBLY_MEMBERS
100
AcDbLine
 62
7
  6
CONTINUOUS
 10
3.9221657496
 20
2.8921017081
 11
3.9058395914
 21
2.9216017081
  0
LINE
  5
37D
100
AcDbEntity
  8
ALL_ASSEMBLY_MEMBERS
100
AcDbLine
 62
7
  6
CONTINUOUS
 10
5.4108584394
 20
2.9216017081
 11
5.3945322892
 21
2.8921017081
  0
SPLINE
  5
37E
100
AcDbEntity
  8
ALL_ASSEMBLY_MEMBERS
100
AcDbSpline
 62
7
  6
CONTINUOUS
 70
0
 71
3
 72
31
 73
27
 74
0
 42
0.0000001
 43
0.0000001
 44
0.0000000001
 40
0.0
 40
0.0
 40
0.0
 40
0.0
 40
0.1949310487
 40
0.3825218071
 40
0.4711797386
 40
0.5553053468
 40
0.6341119488
 40
0.7068371263
 40
0.7727497439
 40
0.8312422568
 40
0.8817380601
 40
0.9038241756
 40
0.9237371392
 40
0.9414304773
 40
0.9568576945
 40
0.9699724637
 40
0.9807397598
 40
0.9852375531
 40
0.9891421176
 40
0.9924514589
 40
0.9951635824
 40
0.9972764934
 40
0.9987881968
 40
0.9993179722
 40
0.9996966974
 40
1.0
 40
1.0
 40
1.0
 40
1.0
 10
3.9337343082
 20
5.5588517081
 30
0.0
 10
3.9337343082
 20
5.5556817072
 30
0.0
 10
3.9336932894
 20
5.5494610018
 30
0.0
 10
3.9335444419
 20
5.5417998369
 30
0.0
 10
3.9333762983
 20
5.5359417538
 30
0.0
 10
3.9332350962
 20
5.5318527678
 30
0.0
 10
3.9330818426
 20
5.5280235166
 30
0.0
 10
3.9329227095
 20
5.5244909687
 30
0.0
 10
3.932763528
 20
5.521289147
 30
0.0
 10
3.9326104092
 20
5.5184489965
 30
0.0
 10
3.9324879682
 20
5.5163209579
 30
0.0
 10
3.932398012
 20
5.5148194827
 30
0.0
 10
3.9323385678
 20
5.5138505763
 30
0.0
 10
3.9322846338
 20
5.5129898243
 30
0.0
 10
3.9322367528
 20
5.5122394638
 30
0.0
 10
3.9321954785
 20
5.5116015435
 30
0.0
 10
3.932165391
 20
5.5111410076
 30
0.0
 10
3.9321449109
 20
5.5108299406
 30
0.0
 10
3.9321323278
 20
5.5106398999
 30
0.0
 10
3.9321216399
 20
5.5104788332
 30
0.0
 10
3.9321127596
 20
5.5103468552
 30
0.0
 10
3.9321060145
 20
5.5102440112
 30
0.0
 10
3.9321011407
 20
5.5101766597
 30
0.0
 10
3.9320989225
 20
5.5101373181
 30
0.0
 10
3.9320968143
 20
5.5101177864
 30
0.0
 10
3.9320975585
 20
5.5101064701
 30
0.0
 10
3.9320962733
 20
5.5101017081
 30
0.0
  0
SPLINE
  5
37F
100
AcDbEntity
  8
ALL_ASSEMBLY_MEMBERS
100
AcDbSpline
 62
7
  6
CONTINUOUS
 70
0
 71
3
 72
15
 73
11
 74
0
 42
0.0000001
 43
0.0000001
 44
0.0000000001
 40
0.0
 40
0.0
 40
0.0
 40
0.0
 40
0.1492033372
 40
0.2961378045
 40
0.4379810784
 40
0.572487266
 40
0.6975978784
 40
0.8114374345
 40
0.9125370827
 40
1.0
 40
1.0
 40
1.0
 40
1.0
 10
3.9941072387
 20
5.5588517081
 30
0.0
 10
3.9941072387
 20
5.5565549648
 30
0.0
 10
3.9939757951
 20
5.5519953534
 30
0.0
 10
3.9933956456
 20
5.5452746487
 30
0.0
 10
3.9924441597
 20
5.5388244804
 30
0.0
 10
3.991153401
 20
5.532776241
 30
0.0
 10
3.9895592241
 20
5.5272475092
 30
0.0
 10
3.9877070029
 20
5.5223440723
 30
0.0
 10
3.9856462541
 20
5.518161687
 30
0.0
 10
3.9840491462
 20
5.5157232211
 30
0.0
 10
3.9832138517
 20
5.5146673136
 30
0.0
  0
SPLINE
  5
380
100
AcDbEntity
  8
ALL_ASSEMBLY_MEMBERS
100
AcDbSpline
 62
7
  6
CONTINUOUS
 70
0
 71
3
 72
9
 73
5
 74
0
 42
0.0000001
 43
0.0000001
 44
0.0000000001
 40
0.0
 40
0.0
 40
0.0
 40
0.0
 40
0.5277529201
 40
1.0
 40
1.0
 40
1.0
 40
1.0
 10
3.9832138517
 20
5.5146673136
 30
0.0
 10
3.9827633402
 20
5.5140978156
 30
0.0
 10
3.9818561501
 20
5.5130592748
 30
0.0
 10
3.9808223631
 20
5.5121427589
 30
0.0
 10
3.9803014981
 20
5.5117542917
 30
0.0
  0
SPLINE
  5
381
100
AcDbEntity
  8
ALL_ASSEMBLY_MEMBERS
100
AcDbSpline
 62
7
  6
CONTINUOUS
 70
0
 71
3
 72
11
 73
7
 74
0
 42
0.0000001
 43
0.0000001
 44
0.0000000001
 40
0.0
 40
0.0
 40
0.0
 40
0.0
 40
0.2755579788
 40
0.5307153278
 40
0.7702169518
 40
1.0
 40
1.0
 40
1.0
 40
1.0
 10
3.9803014981
 20
5.5117542917
 30
0.0
 10
3.9799492522
 20
5.5114915827
 30
0.0
 10
3.9792405641
 20
5.5110239526
 30
0.0
 10
3.9781264206
 20
5.5104960836
 30
0.0
 10
3.9770109491
 20
5.5101752155
 30
0.0
 10
3.9762609353
 20
5.5101017147
 30
0.0
 10
3.9758945075
 20
5.5101017082
 30
0.0
  0
SPLINE
  5
382
100
AcDbEntity
  8
ALL_ASSEMBLY_MEMBERS
100
AcDbSpline
 62
7
  6
CONTINUOUS
 70
0
 71
3
 72
11
 73
7
 74
0
 42
0.0000001
 43
0.0000001
 44
0.0000000001
 40
0.0
 40
0.0
 40
0.0
 40
0.0
 40
0.2361689334
 40
0.4841335599
 40
0.7400867013
 40
1.0
 40
1.0
 40
1.0
 40
1.0
 10
3.9912831707
 20
5.6941017081
 30
0.0
 10
3.9917505979
 20
5.6921526077
 30
0.0
 10
3.9925715456
 20
5.6881232329
 30
0.0
 10
3.9934503475
 20
5.6819004368
 30
0.0
 10
3.9939868864
 20
5.6754367005
 30
0.0
 10
3.9941072387
 20
5.6710575918
 30
0.0
 10
3.9941072387
 20
5.6688517081
 30
0.0
  0
SPLINE
  5
383
100
AcDbEntity
  8
ALL_ASSEMBLY_MEMBERS
100
AcDbSpline
 62
7
  6
CONTINUOUS
 70
0
 71
3
 72
21
 73
17
 74
0
 42
0.0000001
 43
0.0000001
 44
0.0000000001
 40
0.0
 40
0.0
 40
0.0
 40
0.0
 40
0.0742812014
 40
0.148333064
 40
0.2937403359
 40
0.433358106
 40
0.5003569397
 40
0.5651278454
 40
0.6274869749
 40
0.687342818
 40
0.7446683956
 40
0.7995387577
 40
0.8521465317
 40
0.9027849148
 40
0.9518898123
 40
1.0
 40
1.0
 40
1.0
 40
1.0
 10
4.1345972
 20
5.5588517081
 30
0.0
 10
4.1345972
 20
5.5572596558
 30
0.0
 10
4.1344878072
 20
5.5540792864
 30
0.0
 10
4.1338453787
 20
5.5478127128
 30
0.0
 10
4.1322735002
 20
5.5402517418
 30
0.0
 10
4.1296814353
 20
5.5331330719
 30
0.0
 10
4.1270526351
 20
5.5279381689
 30
0.0
 10
4.1248708364
 20
5.524389229
 30
0.0
 10
4.1224733257
 20
5.5211708475
 30
0.0
 10
4.1198883855
 20
5.5183119125
 30
0.0
 10
4.1171422667
 20
5.515840214
 30
0.0
 10
4.1142623899
 20
5.5137812876
 30
0.0
 10
4.1112799289
 20
5.5121532725
 30
0.0
 10
4.1082229055
 20
5.5109764861
 30
0.0
 10
4.1051243966
 20
5.5102636575
 30
0.0
 10
4.1030376313
 20
5.5101017106
 30
0.0
 10
4.1020064965
 20
5.5101017081
 30
0.0
  0
SPLINE
  5
384
100
AcDbEntity
  8
ALL_ASSEMBLY_MEMBERS
100
AcDbSpline
 62
7
  6
CONTINUOUS
 70
0
 71
3
 72
9
 73
5
 74
0
 42
0.0000001
 43
0.0000001
 44
0.0000000001
 40
0.0
 40
0.0
 40
0.0
 40
0.0
 40
0.2421980891
 40
1.0
 40
1.0
 40
1.0
 40
1.0
 10
4.1297294886
 20
5.6941017081
 30
0.0
 10
4.1305295862
 20
5.6921778563
 30
0.0
 10
4.1334003904
 20
5.6840585904
 30
0.0
 10
4.1345972
 20
5.6753709633
 30
0.0
 10
4.1345972
 20
5.6688517081
 30
0.0
  0
SPLINE
  5
385
100
AcDbEntity
  8
ALL_ASSEMBLY_MEMBERS
100
AcDbSpline
 62
7
  6
CONTINUOUS
 70
0
 71
3
 72
21
 73
17
 74
0
 42
0.0000001
 43
0.0000001
 44
0.0000000001
 40
0.0
 40
0.0
 40
0.0
 40
0.0
 40
0.13258699
 40
0.1987095723
 40
0.2644233546
 40
0.3296417355
 40
0.3942871261
 40
0.4582805955
 40
0.5215402205
 40
0.6455037984
 40
0.7063237443
 40
0.7663433943
 40
0.8256195566
 40
0.884234267
 40
0.9423123298
 40
1.0
 40
1.0
 40
1.0
 40
1.0
 10
4.3382590292
 20
5.5588517081
 30
0.0
 10
4.3382590292
 20
5.5556693414
 30
0.0
 10
4.3378346836
 20
5.5508858801
 30
0.0
 10
4.3364424965
 20
5.5446879077
 30
0.0
 10
4.3349939882
 20
5.5401781987
 30
0.0
 10
4.3331607287
 20
5.5358498421
 30
0.0
 10
4.3309590578
 20
5.5317433524
 30
0.0
 10
4.3284130018
 20
5.5278964573
 30
0.0
 10
4.3246250134
 20
5.5231968473
 30
0.0
 10
4.3202295042
 20
5.5191132869
 30
0.0
 10
4.3153632518
 20
5.5158057343
 30
0.0
 10
4.3115486506
 20
5.5137539025
 30
0.0
 10
4.3075887644
 20
5.5121344792
 30
0.0
 10
4.3035208304
 20
5.5109665888
 30
0.0
 10
4.2993869742
 20
5.5102608297
 30
0.0
 10
4.2966058987
 20
5.5101017105
 30
0.0
 10
4.2952212733
 20
5.5101017081
 30
0.0
  0
SPLINE
  5
386
100
AcDbEntity
  8
ALL_ASSEMBLY_MEMBERS
100
AcDbSpline
 62
7
  6
CONTINUOUS
 70
0
 71
3
 72
9
 73
5
 74
0
 42
0.0000001
 43
0.0000001
 44
0.0000000001
 40
0.0
 40
0.0
 40
0.0
 40
0.0
 40
0.4964540669
 40
1.0
 40
1.0
 40
1.0
 40
1.0
 10
4.3319347922
 20
5.6941017081
 30
0.0
 10
4.3340025831
 20
5.6902851018
 30
0.0
 10
4.3371889167
 20
5.6820314619
 30
0.0
 10
4.3382590292
 20
5.6732544813
 30
0.0
 10
4.3382590292
 20
5.6688517081
 30
0.0
  0
SPLINE
  5
387
100
AcDbEntity
  8
ALL_ASSEMBLY_MEMBERS
100
AcDbSpline
 62
7
  6
CONTINUOUS
 70
0
 71
3
 72
19
 73
15
 74
0
 42
0.0000001
 43
0.0000001
 44
0.0000000001
 40
0.0
 40
0.0
 40
0.0
 40
0.0
 40
0.1255532221
 40
0.1884562542
 40
0.2512959993
 40
0.3140859022
 40
0.3768399706
 40
0.5020668266
 40
0.6270173885
 40
0.6894405294
 40
0.7517729855
 40
0.8140092092
 40
0.8761466351
 40
1.0
 40
1.0
 40
1.0
 40
1.0
 10
4.580528104
 20
5.5588517081
 30
0.0
 10
4.580528104
 20
5.555666521
 30
0.0
 10
4.5800550835
 20
5.5508686396
 30
0.0
 10
4.5785115956
 20
5.5446760442
 30
0.0
 10
4.5769024608
 20
5.5401631963
 30
0.0
 10
4.574863698
 20
5.5358321514
 30
0.0
 10
4.5716000265
 20
5.5303613445
 30
0.0
 10
4.5665513803
 20
5.5241650585
 30
0.0
 10
4.5603981454
 20
5.5190766779
 30
0.0
 10
4.554971157
 20
5.5157923226
 30
0.0
 10
4.5506837191
 20
5.5137439349
 30
0.0
 10
4.5462225919
 20
5.5121277628
 30
0.0
 10
4.5401120183
 20
5.5105771241
 30
0.0
 10
4.5353763473
 20
5.510101713
 30
0.0
 10
4.5322342843
 20
5.5101017081
 30
0.0
  0
SPLINE
  5
388
100
AcDbEntity
  8
ALL_ASSEMBLY_MEMBERS
100
AcDbSpline
 62
7
  6
CONTINUOUS
 70
0
 71
3
 72
9
 73
5
 74
0
 42
0.0000001
 43
0.0000001
 44
0.0000000001
 40
0.0
 40
0.0
 40
0.0
 40
0.0
 40
0.5035466749
 40
1.0
 40
1.0
 40
1.0
 40
1.0
 10
4.9784335174
 20
5.6688517081
 30
0.0
 10
4.9784335174
 20
5.6732544879
 30
0.0
 10
4.9795036278
 20
5.6820314695
 30
0.0
 10
4.9826899666
 20
5.6902851074
 30
0.0
 10
4.9847577544
 20
5.6941017081
 30
0.0
  0
SPLINE
  5
389
100
AcDbEntity
  8
ALL_ASSEMBLY_MEMBERS
100
AcDbSpline
 62
7
  6
CONTINUOUS
 70
0
 71
3
 72
10
 73
6
 74
0
 42
0.0000001
 43
0.0000001
 44
0.0000000001
 40
0.0
 40
0.0
 40
0.0
 40
0.0
 40
0.2561003514
 40
0.6347774903
 40
1.0
 40
1.0
 40
1.0
 40
1.0
 10
5.1820953466
 20
5.6688517081
 30
0.0
 10
5.1820953466
 20
5.671059226
 30
0.0
 10
5.1823537337
 20
5.6765335225
 30
0.0
 10
5.1837738021
 20
5.6850648485
 30
0.0
 10
5.1857541825
 20
5.691194941
 30
0.0
 10
5.186963058
 20
5.6941017081
 30
0.0
  0
SPLINE
  5
38A
100
AcDbEntity
  8
ALL_ASSEMBLY_MEMBERS
100
AcDbSpline
 62
7
  6
CONTINUOUS
 70
0
 71
3
 72
11
 73
7
 74
0
 42
0.0000001
 43
0.0000001
 44
0.0000000001
 40
0.0
 40
0.0
 40
0.0
 40
0.0
 40
0.2599139755
 40
0.5158672042
 40
0.763831047
 40
1.0
 40
1.0
 40
1.0
 40
1.0
 10
5.3225853079
 20
5.6688517081
 30
0.0
 10
5.3225853079
 20
5.6710575975
 30
0.0
 10
5.3227056636
 20
5.6754367126
 30
0.0
 10
5.323242198
 20
5.6819004491
 30
0.0
 10
5.3241210033
 20
5.688123239
 30
0.0
 10
5.3249419487
 20
5.6921526075
 30
0.0
 10
5.3254093758
 20
5.6941017081
 30
0.0
  0
SPLINE
  5
38B
100
AcDbEntity
  8
ALL_ASSEMBLY_MEMBERS
100
AcDbSpline
 62
7
  6
CONTINUOUS
 70
0
 71
3
 72
32
 73
28
 74
0
 42
0.0000001
 43
0.0000001
 44
0.0000000001
 40
0.0
 40
0.0
 40
0.0
 40
0.0
 40
0.2131335616
 40
0.4066125002
 40
0.4949672297
 40
0.5773497876
 40
0.6534721878
 40
0.723012758
 40
0.7856235897
 40
0.8409342195
 40
0.8885551873
 40
0.9093673902
 40
0.9281288897
 40
0.9448011283
 40
0.9593450858
 40
0.9717213078
 40
0.9818899485
 40
0.9861338949
 40
0.9898123984
 40
0.992925055
 40
0.9954718465
 40
0.9974527549
 40
0.998867762
 40
0.9993630469
 40
0.9997168497
 40
0.9999291682
 40
1.0
 40
1.0
 40
1.0
 40
1.0
 10
5.3833980387
 20
5.6941017081
 30
0.0
 10
5.383457907
 20
5.6958208225
 30
0.0
 10
5.3837061727
 20
5.6990972793
 30
0.0
 10
5.384308002
 20
5.7030499555
 30
0.0
 10
5.3849021045
 20
5.7059292673
 30
0.0
 10
5.3853659924
 20
5.7078671892
 30
0.0
 10
5.3858460773
 20
5.7096442167
 30
0.0
 10
5.3863265949
 20
5.7112551871
 30
0.0
 10
5.3867933914
 20
5.7126944796
 30
0.0
 10
5.387232539
 20
5.7139563939
 30
0.0
 10
5.3875775629
 20
5.7148936631
 30
0.0
 10
5.3878282505
 20
5.7155512333
 30
0.0
 10
5.3879929977
 20
5.7159742366
 30
0.0
 10
5.3881418853
 20
5.7163491147
 30
0.0
 10
5.3882737382
 20
5.7166753006
 30
0.0
 10
5.3883873721
 20
5.7169522303
 30
0.0
 10
5.3884702542
 20
5.7171519208
 30
0.0
 10
5.3885264092
 20
5.7172866989
 30
0.0
 10
5.3885606528
 20
5.7173689165
 30
0.0
 10
5.3885896471
 20
5.7174384752
 30
0.0
 10
5.3886133307
 20
5.7174954243
 30
0.0
 10
5.3886318582
 20
5.7175396255
 30
0.0
 10
5.3886437709
 20
5.7175687632
 30
0.0
 10
5.388651025
 20
5.71758543
 30
0.0
 10
5.3886539518
 20
5.7175936657
 30
0.0
 10
5.388656582
 20
5.7175978298
 30
0.0
 10
5.3886567866
 20
5.7176005405
 30
0.0
 10
5.388657285
 20
5.7176008206
 30
0.0
  0
SPLINE
  5
38C
100
AcDbEntity
  8
ALL_ASSEMBLY_MEMBERS
100
AcDbSpline
 62
7
  6
CONTINUOUS
 70
0
 71
3
 72
10
 73
6
 74
0
 42
0.0000001
 43
0.0000001
 44
0.0000000001
 40
0.0
 40
0.0
 40
0.0
 40
0.0
 40
0.5440725696
 40
0.7849157649
 40
1.0
 40
1.0
 40
1.0
 40
1.0
 10
5.3254093758
 20
5.6941017081
 30
0.0
 10
5.3263364171
 20
5.6979673297
 30
0.0
 10
5.3284864836
 20
5.7034006723
 30
0.0
 10
5.3325711983
 20
5.7094751723
 30
0.0
 10
5.3348035185
 20
5.711968189
 30
0.0
 10
5.3359446483
 20
5.7130486648
 30
0.0
  0
SPLINE
  5
38D
100
AcDbEntity
  8
ALL_ASSEMBLY_MEMBERS
100
AcDbSpline
 62
7
  6
CONTINUOUS
 70
0
 71
3
 72
12
 73
8
 74
0
 42
0.0000001
 43
0.0000001
 44
0.0000000001
 40
0.0
 40
0.0
 40
0.0
 40
0.0
 40
0.3049509241
 40
0.5727465004
 40
0.6926537723
 40
0.8033897694
 40
1.0
 40
1.0
 40
1.0
 40
1.0
 10
5.3361566938
 20
5.7132473516
 30
0.0
 10
5.3368799399
 20
5.713917932
 30
0.0
 10
5.3383068353
 20
5.7151067217
 30
0.0
 10
5.3402088267
 20
5.7163074689
 30
0.0
 10
5.3416755315
 20
5.716983123
 30
0.0
 10
5.3429820268
 20
5.7174348904
 30
0.0
 10
5.3439782534
 20
5.7176008164
 30
0.0
 10
5.34461414
 20
5.7176008192
 30
0.0
  0
SPLINE
  5
38E
100
AcDbEntity
  8
ALL_ASSEMBLY_MEMBERS
100
AcDbSpline
 62
7
  6
CONTINUOUS
 70
0
 71
3
 72
14
 73
10
 74
0
 42
0.0000001
 43
0.0000001
 44
0.0000000001
 40
0.0
 40
0.0
 40
0.0
 40
0.0
 40
0.2794957622
 40
0.4143658856
 40
0.5446213469
 40
0.6692281311
 40
0.7870783479
 40
0.8973745142
 40
1.0
 40
1.0
 40
1.0
 40
1.0
 10
5.186963058
 20
5.6941017081
 30
0.0
 10
5.1884212463
 20
5.697607953
 30
0.0
 10
5.191380331
 20
5.7025162057
 30
0.0
 10
5.1964167721
 20
5.70795467
 30
0.0
 10
5.2004989442
 20
5.7113527204
 30
0.0
 10
5.2047896976
 20
5.7140688518
 30
0.0
 10
5.2091657488
 20
5.716063673
 30
0.0
 10
5.2135049586
 20
5.7173003706
 30
0.0
 10
5.2164026403
 20
5.7176008159
 30
0.0
 10
5.2177969641
 20
5.7176008192
 30
0.0
  0
SPLINE
  5
38F
100
AcDbEntity
  8
ALL_ASSEMBLY_MEMBERS
100
AcDbSpline
 62
7
  6
CONTINUOUS
 70
0
 71
3
 72
15
 73
11
 74
0
 42
0.0000001
 43
0.0000001
 44
0.0000000001
 40
0.0
 40
0.0
 40
0.0
 40
0.0
 40
0.1290170262
 40
0.2580661955
 40
0.3864393703
 40
0.5137691212
 40
0.6394785489
 40
0.7628679363
 40
0.8832181696
 40
1.0
 40
1.0
 40
1.0
 40
1.0
 10
4.9847577544
 20
5.6941017081
 30
0.0
 10
4.9857286243
 20
5.6958936824
 30
0.0
 10
4.9879460627
 20
5.6993350189
 30
0.0
 10
4.9919496904
 20
5.7039670843
 30
0.0
 10
4.9965152476
 20
5.7080056977
 30
0.0
 10
5.0015116056
 20
5.711401037
 30
0.0
 10
5.006820867
 20
5.7141132494
 30
0.0
 10
5.0123265764
 20
5.7160975051
 30
0.0
 10
5.0179061352
 20
5.7173178401
 30
0.0
 10
5.0216569753
 20
5.7176007907
 30
0.0
 10
5.023501774
 20
5.7176008117
 30
0.0
  0
SPLINE
  5
390
100
AcDbEntity
  8
ALL_ASSEMBLY_MEMBERS
100
AcDbSpline
 62
7
  6
CONTINUOUS
 70
0
 71
3
 72
15
 73
11
 74
0
 42
0.0000001
 43
0.0000001
 44
0.0000000001
 40
0.0
 40
0.0
 40
0.0
 40
0.0
 40
0.1250918485
 40
0.2504587901
 40
0.3756994434
 40
0.5009356352
 40
0.6261794809
 40
0.7513268371
 40
0.8760633143
 40
1.0
 40
1.0
 40
1.0
 40
1.0
 10
4.7431824089
 20
5.6941017081
 30
0.0
 10
4.7442627101
 20
5.6958952009
 30
0.0
 10
4.7466790807
 20
5.6993394342
 30
0.0
 10
4.7509519108
 20
5.7039763386
 30
0.0
 10
4.7557928279
 20
5.708021014
 30
0.0
 10
4.7611024729
 20
5.711421014
 30
0.0
 10
4.7667917431
 20
5.7141346887
 30
0.0
 10
4.772767379
 20
5.7161151805
 30
0.0
 10
4.7789219344
 20
5.7173276792
 30
0.0
 10
4.7830890629
 20
5.717600816
 30
0.0
 10
4.7851634494
 20
5.7176008192
 30
0.0
  0
SPLINE
  5
391
100
AcDbEntity
  8
ALL_ASSEMBLY_MEMBERS
100
AcDbSpline
 62
7
  6
CONTINUOUS
 70
0
 71
3
 72
9
 73
5
 74
0
 42
0.0000001
 43
0.0000001
 44
0.0000000001
 40
0.0
 40
0.0
 40
0.0
 40
0.0
 40
0.4754863372
 40
1.0
 40
1.0
 40
1.0
 40
1.0
 10
5.3359800178
 20
5.512081213
 30
0.0
 10
5.3363796356
 20
5.5124440145
 30
0.0
 10
5.3371623559
 20
5.5132714818
 30
0.0
 10
5.3378411703
 20
5.5141840406
 30
0.0
 10
5.3381742758
 20
5.5146775313
 30
0.0
  0
SPLINE
  5
392
100
AcDbEntity
  8
ALL_ASSEMBLY_MEMBERS
100
AcDbSpline
 62
7
  6
CONTINUOUS
 70
0
 71
3
 72
17
 73
13
 74
0
 42
0.0000001
 43
0.0000001
 44
0.0000000001
 40
0.0
 40
0.0
 40
0.0
 40
0.0
 40
0.0405423835
 40
0.0846697201
 40
0.1323878326
 40
0.1836309106
 40
0.2962123953
 40
0.4210497918
 40
0.5562200754
 40
0.6995167588
 40
0.8484775122
 40
1.0
 40
1.0
 40
1.0
 40
1.0
 10
5.3381742758
 20
5.5146775313
 30
0.0
 10
5.338517868
 20
5.5151865579
 30
0.0
 10
5.3391851713
 20
5.5162839919
 30
0.0
 10
5.3400941569
 20
5.5180732101
 30
0.0
 10
5.3409511781
 20
5.5200654962
 30
0.0
 10
5.3420562651
 20
5.5230747155
 30
0.0
 10
5.343266122
 20
5.5272825384
 30
0.0
 10
5.3444382786
 20
5.5328069227
 30
0.0
 10
5.3453605727
 20
5.5388491184
 30
0.0
 10
5.3460248137
 20
5.5452918821
 30
0.0
 10
5.3464244638
 20
5.5520042096
 30
0.0
 10
5.3465138056
 20
5.5565564434
 30
0.0
 10
5.3465138056
 20
5.5588517081
 30
0.0
  0
SPLINE
  5
393
100
AcDbEntity
  8
ALL_ASSEMBLY_MEMBERS
100
AcDbSpline
 62
7
  6
CONTINUOUS
 70
0
 71
3
 72
11
 73
7
 74
0
 42
0.0000001
 43
0.0000001
 44
0.0000000001
 40
0.0
 40
0.0
 40
0.0
 40
0.0
 40
0.2296426684
 40
0.4690726858
 40
0.7242687806
 40
1.0
 40
1.0
 40
1.0
 40
1.0
 10
5.3407980391
 20
5.5101017081
 30
0.0
 10
5.3404299059
 20
5.5101017056
 30
0.0
 10
5.3396762663
 20
5.5101759082
 30
0.0
 10
5.3385555496
 20
5.5104998012
 30
0.0
 10
5.3374362641
 20
5.5110325729
 30
0.0
 10
5.336724554
 20
5.5115043791
 30
0.0
 10
5.3363708129
 20
5.5117694181
 30
0.0
  0
SPLINE
  5
394
100
AcDbEntity
  8
ALL_ASSEMBLY_MEMBERS
100
AcDbSpline
 62
7
  6
CONTINUOUS
 70
0
 71
3
 72
9
 73
5
 74
0
 42
0.0000001
 43
0.0000001
 44
0.0000000001
 40
0.0
 40
0.0
 40
0.0
 40
0.0
 40
0.4722908979
 40
1.0
 40
1.0
 40
1.0
 40
1.0
 10
5.3363708129
 20
5.5117694181
 30
0.0
 10
5.3358506318
 20
5.5121591615
 30
0.0
 10
5.3348183249
 20
5.5130777741
 30
0.0
 10
5.3339123363
 20
5.5141177735
 30
0.0
 10
5.3334624336
 20
5.5146878977
 30
0.0
  0
SPLINE
  5
395
100
AcDbEntity
  8
ALL_ASSEMBLY_MEMBERS
100
AcDbSpline
 62
7
  6
CONTINUOUS
 70
0
 71
3
 72
15
 73
11
 74
0
 42
0.0000001
 43
0.0000001
 44
0.0000000001
 40
0.0
 40
0.0
 40
0.0
 40
0.0
 40
0.0875267655
 40
0.1886708433
 40
0.3025332981
 40
0.4276460243
 40
0.5621362074
 40
0.7039488918
 40
0.8508423875
 40
1.0
 40
1.0
 40
1.0
 40
1.0
 10
5.3334624336
 20
5.5146878977
 30
0.0
 10
5.3326282631
 20
5.5157449725
 30
0.0
 10
5.3310333826
 20
5.5181848355
 30
0.0
 10
5.3289754355
 20
5.5223678754
 30
0.0
 10
5.3271259292
 20
5.5272702772
 30
0.0
 10
5.3255342279
 20
5.532796458
 30
0.0
 10
5.3242455677
 20
5.5388408491
 30
0.0
 10
5.32329568
 20
5.545286146
 30
0.0
 10
5.3227165226
 20
5.5520012794
 30
0.0
 10
5.3225853079
 20
5.5565569702
 30
0.0
 10
5.3225853079
 20
5.5588517081
 30
0.0
  0
SPLINE
  5
396
100
AcDbEntity
  8
ALL_ASSEMBLY_MEMBERS
100
AcDbSpline
 62
7
  6
CONTINUOUS
 70
0
 71
3
 72
18
 73
14
 74
0
 42
0.0000001
 43
0.0000001
 44
0.0000000001
 40
0.0
 40
0.0
 40
0.0
 40
0.0
 40
0.0483253148
 40
0.0976114326
 40
0.1483529559
 40
0.200953942
 40
0.3127402554
 40
0.4344281124
 40
0.4990176494
 40
0.5658836812
 40
0.7055141164
 40
0.8512597701
 40
1.0
 40
1.0
 40
1.0
 40
1.0
 10
5.2108400676
 20
5.510468521
 30
0.0
 10
5.2117743962
 20
5.5106495298
 30
0.0
 10
5.2136382608
 20
5.511149188
 30
0.0
 10
5.2163376874
 20
5.5122882893
 30
0.0
 10
5.2189386288
 20
5.513811103
 30
0.0
 10
5.2223175312
 20
5.5163816128
 30
0.0
 10
5.2261851257
 20
5.5205383771
 30
0.0
 10
5.2293400441
 20
5.5255211201
 30
0.0
 10
5.2315130109
 20
5.5300117701
 30
0.0
 10
5.2334914658
 20
5.5349746779
 30
0.0
 10
5.2354042
 20
5.5416636543
 30
0.0
 10
5.2367806219
 20
5.5501179341
 30
0.0
 10
5.2370891346
 20
5.5559224736
 30
0.0
 10
5.2370891346
 20
5.5588517081
 30
0.0
  0
SPLINE
  5
397
100
AcDbEntity
  8
ALL_ASSEMBLY_MEMBERS
100
AcDbSpline
 62
7
  6
CONTINUOUS
 70
0
 71
3
 72
21
 73
17
 74
0
 42
0.0000001
 43
0.0000001
 44
0.0000000001
 40
0.0
 40
0.0
 40
0.0
 40
0.0
 40
0.0481102348
 40
0.0972152005
 40
0.1478535619
 40
0.2004613126
 40
0.2553316682
 40
0.3126571808
 40
0.3725129983
 40
0.4348720925
 40
0.4996429496
 40
0.5666417832
 40
0.7062595759
 40
0.8516668007
 40
0.9257186955
 40
1.0
 40
1.0
 40
1.0
 40
1.0
 10
5.2146860501
 20
5.5101017081
 30
0.0
 10
5.2136549142
 20
5.5101017056
 30
0.0
 10
5.2115681455
 20
5.5102636539
 30
0.0
 10
5.208469638
 20
5.5109764942
 30
0.0
 10
5.2054126101
 20
5.5121532698
 30
0.0
 10
5.2024301519
 20
5.5137812893
 30
0.0
 10
5.1995502803
 20
5.5158402185
 30
0.0
 10
5.1968041578
 20
5.51831191
 30
0.0
 10
5.1942192236
 20
5.5211708472
 30
0.0
 10
5.1918217124
 20
5.5243892251
 30
0.0
 10
5.1896399121
 20
5.5279381621
 30
0.0
 10
5.187011116
 20
5.5331330667
 30
0.0
 10
5.1844190482
 20
5.5402517346
 30
0.0
 10
5.1828471674
 20
5.5478127056
 30
0.0
 10
5.1822047389
 20
5.5540792812
 30
0.0
 10
5.1820953466
 20
5.5572596535
 30
0.0
 10
5.1820953466
 20
5.5588517081
 30
0.0
  0
SPLINE
  5
398
100
AcDbEntity
  8
ALL_ASSEMBLY_MEMBERS
100
AcDbSpline
 62
7
  6
CONTINUOUS
 70
0
 71
3
 72
17
 73
13
 74
0
 42
0.0000001
 43
0.0000001
 44
0.0000000001
 40
0.0
 40
0.0
 40
0.0
 40
0.0
 40
0.0579054925
 40
0.1160741789
 40
0.233647708
 40
0.3538615428
 40
0.415229597
 40
0.4774548868
 40
0.6043256407
 40
0.734247101
 40
0.8665800638
 40
1.0
 40
1.0
 40
1.0
 40
1.0
 10
5.0237838982
 20
5.5108441584
 30
0.0
 10
5.0249864131
 20
5.5110907385
 30
0.0
 10
5.027373865
 20
5.5117074225
 30
0.0
 10
5.0320265625
 20
5.5134254049
 30
0.0
 10
5.0375624864
 20
5.5164683806
 30
0.0
 10
5.0424660361
 20
5.5205497454
 30
0.0
 10
5.0459669923
 20
5.524359475
 30
0.0
 10
5.0492075245
 20
5.5285730367
 30
0.0
 10
5.0526351211
 20
5.5344411828
 30
0.0
 10
5.0556266137
 20
5.5421635556
 30
0.0
 10
5.0574496616
 20
5.5503811962
 30
0.0
 10
5.0578595331
 20
5.5560233454
 30
0.0
 10
5.0578595331
 20
5.5588517081
 30
0.0
  0
SPLINE
  5
399
100
AcDbEntity
  8
ALL_ASSEMBLY_MEMBERS
100
AcDbSpline
 62
7
  6
CONTINUOUS
 70
0
 71
3
 72
21
 73
17
 74
0
 42
0.0000001
 43
0.0000001
 44
0.0000000001
 40
0.0
 40
0.0
 40
0.0
 40
0.0
 40
0.0576877338
 40
0.1157658541
 40
0.174380562
 40
0.2336566887
 40
0.2936763126
 40
0.3544962076
 40
0.4784597191
 40
0.541719305
 40
0.6057127684
 40
0.6703581775
 40
0.7355765651
 40
0.8012903341
 40
0.8674128897
 40
1.0
 40
1.0
 40
1.0
 40
1.0
 10
5.0214712733
 20
5.5101017081
 30
0.0
 10
5.0200866463
 20
5.5101017056
 30
0.0
 10
5.0173055671
 20
5.5102608257
 30
0.0
 10
5.0131717107
 20
5.5109665974
 30
0.0
 10
5.0091037731
 20
5.5121344762
 30
0.0
 10
5.0051438896
 20
5.5137539038
 30
0.0
 10
5.0013292942
 20
5.5158057396
 30
0.0
 10
4.9964630386
 20
5.5191132819
 30
0.0
 10
4.9920675378
 20
5.5231968463
 30
0.0
 10
4.9882795455
 20
5.5278964497
 30
0.0
 10
4.9857334941
 20
5.5317433472
 30
0.0
 10
4.9835318203
 20
5.5358498358
 30
0.0
 10
4.9816985607
 20
5.5401781929
 30
0.0
 10
4.9802500527
 20
5.544687901
 30
0.0
 10
4.9788578604
 20
5.5508858744
 30
0.0
 10
4.9784335174
 20
5.5556693385
 30
0.0
 10
4.9784335174
 20
5.5588517081
 30
0.0
  0
SPLINE
  5
39A
100
AcDbEntity
  8
ALL_ASSEMBLY_MEMBERS
100
AcDbSpline
 62
7
  6
CONTINUOUS
 70
0
 71
3
 72
19
 73
15
 74
0
 42
0.0000001
 43
0.0000001
 44
0.0000000001
 40
0.0
 40
0.0
 40
0.0
 40
0.0
 40
0.1241421753
 40
0.2481913045
 40
0.3103208804
 40
0.3725058487
 40
0.4970016533
 40
0.5594966443
 40
0.6221180018
 40
0.6848598319
 40
0.7477266109
 40
0.8107264182
 40
0.8738587774
 40
1.0
 40
1.0
 40
1.0
 40
1.0
 10
4.784456907
 20
5.5101337128
 30
0.0
 10
4.7875169105
 20
5.5102465763
 30
0.0
 10
4.7936288267
 20
5.5110695239
 30
0.0
 10
4.8009174002
 20
5.5135680768
 30
0.0
 10
4.8063699934
 20
5.516379963
 30
0.0
 10
4.8115308492
 20
5.5197153665
 30
0.0
 10
4.816189415
 20
5.5237943188
 30
0.0
 10
4.8201923164
 20
5.5284817298
 30
0.0
 10
4.8228575555
 20
5.5322812802
 30
0.0
 10
4.8251537205
 20
5.5363245944
 30
0.0
 10
4.827060334
 20
5.5405755798
 30
0.0
 10
4.8285628722
 20
5.5449965562
 30
0.0
 10
4.8300026811
 20
5.5510565691
 30
0.0
 10
4.8304427363
 20
5.5557403155
 30
0.0
 10
4.8304427363
 20
5.5588517081
 30
0.0
  0
SPLINE
  5
39B
100
AcDbEntity
  8
ALL_ASSEMBLY_MEMBERS
100
AcDbSpline
 62
7
  6
CONTINUOUS
 70
0
 71
3
 72
19
 73
15
 74
0
 42
0.0000001
 43
0.0000001
 44
0.0000000001
 40
0.0
 40
0.0
 40
0.0
 40
0.0
 40
0.1238534824
 40
0.1859909171
 40
0.2482271004
 40
0.3105595209
 40
0.3729826189
 40
0.497933111
 40
0.6231599224
 40
0.6859140101
 40
0.7487039207
 40
0.8115436543
 40
0.874446663
 40
1.0
 40
1.0
 40
1.0
 40
1.0
 10
4.7844582623
 20
5.5101017081
 30
0.0
 10
4.7813161963
 20
5.5101017032
 30
0.0
 10
4.7765805236
 20
5.5105771359
 30
0.0
 10
4.7704699448
 20
5.5121277597
 30
0.0
 10
4.7660088202
 20
5.5137439361
 30
0.0
 10
4.7617213884
 20
5.5157923284
 30
0.0
 10
4.7562943978
 20
5.5190766728
 30
0.0
 10
4.7501411699
 20
5.524165057
 30
0.0
 10
4.7450925247
 20
5.5303613396
 30
0.0
 10
4.7418288517
 20
5.5358321452
 30
0.0
 10
4.7397900883
 20
5.5401631903
 30
0.0
 10
4.7381809538
 20
5.5446760376
 30
0.0
 10
4.7366374604
 20
5.5508686337
 30
0.0
 10
4.7361644426
 20
5.5556665181
 30
0.0
 10
4.7361644426
 20
5.5588517081
 30
0.0
  0
SPLINE
  5
39C
100
AcDbEntity
  8
ALL_ASSEMBLY_MEMBERS
100
AcDbSpline
 62
7
  6
CONTINUOUS
 70
0
 71
3
 72
17
 73
13
 74
0
 42
0.0000001
 43
0.0000001
 44
0.0000000001
 40
0.0
 40
0.0
 40
0.0
 40
0.0
 40
0.1240835067
 40
0.2481181136
 40
0.3723029356
 40
0.4968414
 40
0.621870402
 40
0.6846401561
 40
0.7475354409
 40
0.810570484
 40
0.873749553
 40
1.0
 40
1.0
 40
1.0
 40
1.0
 10
4.5299586569
 20
5.7174308224
 30
0.0
 10
4.5270036557
 20
5.7171786274
 30
0.0
 10
4.5211272786
 20
5.7161126617
 30
0.0
 10
4.5127809555
 20
5.712883153
 30
0.0
 10
4.5051783837
 20
5.7081355885
 30
0.0
 10
4.498580823
 20
5.7020373975
 30
0.0
 10
4.4941054179
 20
5.6960044372
 30
0.0
 10
4.4912267462
 20
5.6907414882
 30
0.0
 10
4.489431511
 20
5.686596985
 30
0.0
 10
4.4880179602
 20
5.6822966481
 30
0.0
 10
4.4866638798
 20
5.6764105862
 30
0.0
 10
4.4862498103
 20
5.671869244
 30
0.0
 10
4.4862498103
 20
5.6688517081
 30
0.0
  0
SPLINE
  5
39D
100
AcDbEntity
  8
ALL_ASSEMBLY_MEMBERS
100
AcDbSpline
 62
7
  6
CONTINUOUS
 70
0
 71
3
 72
15
 73
11
 74
0
 42
0.0000001
 43
0.0000001
 44
0.0000000001
 40
0.0
 40
0.0
 40
0.0
 40
0.0
 40
0.1239360721
 40
0.2486723364
 40
0.3738201284
 40
0.4990655577
 40
0.624302401
 40
0.7495422286
 40
0.8749084475
 40
1.0
 40
1.0
 40
1.0
 40
1.0
 10
4.5315290975
 20
5.7176008192
 30
0.0
 10
4.5336034736
 20
5.7176008225
 30
0.0
 10
4.5377705879
 20
5.717327677
 30
0.0
 10
4.5439251388
 20
5.7161151934
 30
0.0
 10
4.5499008031
 20
5.7141346878
 30
0.0
 10
4.5555901088
 20
5.711420985
 30
0.0
 10
4.5608997786
 20
5.7080209797
 30
0.0
 10
4.5657406747
 20
5.7039763017
 30
0.0
 10
4.5700134771
 20
5.699339415
 30
0.0
 10
4.572429839
 20
5.6958951967
 30
0.0
 10
4.5735101377
 20
5.6941017081
 30
0.0
  0
SPLINE
  5
39E
100
AcDbEntity
  8
ALL_ASSEMBLY_MEMBERS
100
AcDbSpline
 62
7
  6
CONTINUOUS
 70
0
 71
3
 72
18
 73
14
 74
0
 42
0.0000001
 43
0.0000001
 44
0.0000000001
 40
0.0
 40
0.0
 40
0.0
 40
0.0
 40
0.0580481046
 40
0.1162145615
 40
0.174677918
 40
0.2336038268
 40
0.3532720368
 40
0.476268484
 40
0.5392086303
 40
0.6030550874
 40
0.7331046229
 40
0.8658882058
 40
1.0
 40
1.0
 40
1.0
 40
1.0
 10
4.2966971298
 20
5.7174308224
 30
0.0
 10
4.2953986053
 20
5.71730451
 30
0.0
 10
4.2928103273
 20
5.71691139
 30
0.0
 10
4.2890080118
 20
5.7159055551
 30
0.0
 10
4.2853158365
 20
5.7144922357
 30
0.0
 10
4.2805598108
 20
5.712072245
 30
0.0
 10
4.2750286828
 20
5.7080684755
 30
0.0
 10
4.2703256559
 20
5.70300403
 30
0.0
 10
4.2670954741
 20
5.6984048062
 30
0.0
 10
4.2642038048
 20
5.6934012482
 30
0.0
 10
4.2613637804
 20
5.686589638
 30
0.0
 10
4.2592981273
 20
5.6778750489
 30
0.0
 10
4.2588330135
 20
5.6718659224
 30
0.0
 10
4.2588330135
 20
5.6688517081
 30
0.0
  0
SPLINE
  5
39F
100
AcDbEntity
  8
ALL_ASSEMBLY_MEMBERS
100
AcDbSpline
 62
7
  6
CONTINUOUS
 70
0
 71
3
 72
15
 73
11
 74
0
 42
0.0000001
 43
0.0000001
 44
0.0000000001
 40
0.0
 40
0.0
 40
0.0
 40
0.0
 40
0.1167812431
 40
0.237132308
 40
0.3605227424
 40
0.4862335503
 40
0.6135634272
 40
0.7419354073
 40
0.8709836334
 40
1.0
 40
1.0
 40
1.0
 40
1.0
 10
4.2931907759
 20
5.7176008081
 30
0.0
 10
4.2950355651
 20
5.7176008019
 30
0.0
 10
4.2987864096
 20
5.7173178376
 30
0.0
 10
4.3043659856
 20
5.7160974956
 30
0.0
 10
4.3098717453
 20
5.7141132262
 30
0.0
 10
4.3151810324
 20
5.7114009761
 30
0.0
 10
4.3201773918
 20
5.7080056316
 30
0.0
 10
4.3247429132
 20
5.7039670259
 30
0.0
 10
4.3287465013
 20
5.6993349866
 30
0.0
 10
4.3309639273
 20
5.6958936731
 30
0.0
 10
4.3319347922
 20
5.6941017081
 30
0.0
  0
SPLINE
  5
3A0
100
AcDbEntity
  8
ALL_ASSEMBLY_MEMBERS
100
AcDbSpline
 62
7
  6
CONTINUOUS
 70
0
 71
3
 72
9
 73
5
 74
0
 42
0.0000001
 43
0.0000001
 44
0.0000000001
 40
0.0
 40
0.0
 40
0.0
 40
0.0
 40
0.4909754703
 40
1.0
 40
1.0
 40
1.0
 40
1.0
 10
4.1027604641
 20
5.7163807031
 30
0.0
 10
4.1016988976
 20
5.7159970328
 30
0.0
 10
4.0995967678
 20
5.7150409815
 30
0.0
 10
4.0976597426
 20
5.7137870132
 30
0.0
 10
4.0967217238
 20
5.7130872653
 30
0.0
  0
SPLINE
  5
3A1
100
AcDbEntity
  8
ALL_ASSEMBLY_MEMBERS
100
AcDbSpline
 62
7
  6
CONTINUOUS
 70
0
 71
3
 72
15
 73
11
 74
0
 42
0.0000001
 43
0.0000001
 44
0.0000000001
 40
0.0
 40
0.0
 40
0.0
 40
0.0
 40
0.102468527
 40
0.2119986964
 40
0.3289757317
 40
0.4531401117
 40
0.5836593108
 40
0.7193773452
 40
0.8588648924
 40
1.0
 40
1.0
 40
1.0
 40
1.0
 10
4.0967217238
 20
5.7130872653
 30
0.0
 10
4.0953806801
 20
5.7120868668
 30
0.0
 10
4.0927990755
 20
5.7097503127
 30
0.0
 10
4.0894304494
 20
5.7055431404
 30
0.0
 10
4.0864915187
 20
5.7006104851
 30
0.0
 10
4.0840278354
 20
5.6950508572
 30
0.0
 10
4.0820719793
 20
5.6889727477
 30
0.0
 10
4.0806534244
 20
5.682492116
 30
0.0
 10
4.0797961933
 20
5.6757403529
 30
0.0
 10
4.079603412
 20
5.6711561256
 30
0.0
 10
4.079603412
 20
5.6688517081
 30
0.0
  0
SPLINE
  5
3A2
100
AcDbEntity
  8
ALL_ASSEMBLY_MEMBERS
100
AcDbSpline
 62
7
  6
CONTINUOUS
 70
0
 71
3
 72
14
 73
10
 74
0
 42
0.0000001
 43
0.0000001
 44
0.0000000001
 40
0.0
 40
0.0
 40
0.0
 40
0.0
 40
0.1026250011
 40
0.212920875
 40
0.3307715436
 40
0.4553799695
 40
0.5856360076
 40
0.7205053235
 40
1.0
 40
1.0
 40
1.0
 40
1.0
 10
4.0988955827
 20
5.7176008192
 30
0.0
 10
4.1002898998
 20
5.7176008226
 30
0.0
 10
4.1031875708
 20
5.7173003691
 30
0.0
 10
4.1075267787
 20
5.716063685
 30
0.0
 10
4.1119028516
 20
5.7140688496
 30
0.0
 10
4.1161936322
 20
5.7113526938
 30
0.0
 10
4.1202758202
 20
5.7079546321
 30
0.0
 10
4.1253122383
 20
5.7025161703
 30
0.0
 10
4.1282713059
 20
5.6976079394
 30
0.0
 10
4.1297294886
 20
5.6941017081
 30
0.0
  0
LINE
  5
3A3
100
AcDbEntity
  8
ALL_ASSEMBLY_MEMBERS
100
AcDbLine
 62
7
  6
CONTINUOUS
 10
3.9794084932
 20
5.714231641
 11
3.9784591331
 21
5.71293775
  0
SPLINE
  5
3A4
100
AcDbEntity
  8
ALL_ASSEMBLY_MEMBERS
100
AcDbSpline
 62
7
  6
CONTINUOUS
 70
0
 71
3
 72
17
 73
13
 74
0
 42
0.0000001
 43
0.0000001
 44
0.0000000001
 40
0.0
 40
0.0
 40
0.0
 40
0.0
 40
0.0406919716
 40
0.0849525074
 40
0.1327835435
 40
0.1841169092
 40
0.2968071443
 40
0.4216592004
 40
0.55675949
 40
0.6999168518
 40
0.8486886923
 40
1.0
 40
1.0
 40
1.0
 40
1.0
 10
3.9784591331
 20
5.71293775
 30
0.0
 10
3.9781178818
 20
5.7124261556
 30
0.0
 10
3.9774551961
 20
5.7113244897
 30
0.0
 10
3.9765523282
 20
5.7095307601
 30
0.0
 10
3.975701188
 20
5.7075359576
 30
0.0
 10
3.974604111
 20
5.7045267784
 30
0.0
 10
3.9734029615
 20
5.7003238302
 30
0.0
 10
3.9722391651
 20
5.6948103628
 30
0.0
 10
3.9713235366
 20
5.6887845895
 30
0.0
 10
3.9706641462
 20
5.6823625905
 30
0.0
 10
3.9702674229
 20
5.6756739885
 30
0.0
 10
3.970178741
 20
5.6711384262
 30
0.0
 10
3.970178741
 20
5.6688517081
 30
0.0
  0
SPLINE
  5
3A5
100
AcDbEntity
  8
ALL_ASSEMBLY_MEMBERS
100
AcDbSpline
 62
7
  6
CONTINUOUS
 70
0
 71
3
 72
17
 73
13
 74
0
 42
0.0000001
 43
0.0000001
 44
0.0000000001
 40
0.0
 40
0.0
 40
0.0
 40
0.0
 40
0.1262392458
 40
0.1894123137
 40
0.2524551455
 40
0.3153666174
 40
0.3781523357
 40
0.5031954492
 40
0.6277250121
 40
0.7518767448
 40
0.8758892662
 40
1.0
 40
1.0
 40
1.0
 40
1.0
 10
4.8304427363
 20
5.6688517081
 30
0.0
 10
4.8304427363
 20
5.6719351001
 30
0.0
 10
4.8300109475
 20
5.6765762583
 30
0.0
 10
4.8285965589
 20
5.6825842419
 30
0.0
 10
4.8271209123
 20
5.6869692349
 30
0.0
 10
4.8252478037
 20
5.6911890751
 30
0.0
 10
4.8222452945
 20
5.6965353654
 30
0.0
 10
4.817582358
 20
5.7026366181
 30
0.0
 10
4.8107234228
 20
5.7087423937
 30
0.0
 10
4.802843839
 20
5.7134143725
 30
0.0
 10
4.7942262807
 20
5.7164816538
 30
0.0
 10
4.7881878393
 20
5.7173817785
 30
0.0
 10
4.7851604906
 20
5.7175385122
 30
0.0
  0
SPLINE
  5
3A6
100
AcDbEntity
  8
ALL_ASSEMBLY_MEMBERS
100
AcDbSpline
 62
7
  6
CONTINUOUS
 70
0
 71
3
 72
12
 73
8
 74
0
 42
0.0000001
 43
0.0000001
 44
0.0000000001
 40
0.0
 40
0.0
 40
0.0
 40
0.0
 40
0.1966434131
 40
0.3073883085
 40
0.4272966416
 40
0.6950771043
 40
1.0
 40
1.0
 40
1.0
 40
1.0
 10
3.9720784067
 20
5.7176008192
 30
0.0
 10
3.9727137243
 20
5.7176008221
 30
0.0
 10
3.9737090304
 20
5.7174351947
 30
0.0
 10
3.9750143712
 20
5.7169841574
 30
0.0
 10
3.9764796833
 20
5.7163096308
 30
0.0
 10
3.9783799139
 20
5.7151108406
 30
0.0
 10
3.9798056049
 20
5.7139239139
 30
0.0
 10
3.9805282676
 20
5.7132543801
 30
0.0
  0
SPLINE
  5
3A7
100
AcDbEntity
  8
ALL_ASSEMBLY_MEMBERS
100
AcDbSpline
 62
7
  6
CONTINUOUS
 70
0
 71
3
 72
10
 73
6
 74
0
 42
0.0000001
 43
0.0000001
 44
0.0000000001
 40
0.0
 40
0.0
 40
0.0
 40
0.0
 40
0.2150881277
 40
0.4559311473
 40
1.0
 40
1.0
 40
1.0
 40
1.0
 10
3.980748265
 20
5.7130483157
 30
0.0
 10
3.9818893695
 20
5.7119678242
 30
0.0
 10
3.9841216204
 20
5.709474813
 30
0.0
 10
3.988206177
 20
5.7034004094
 30
0.0
 10
3.990356157
 20
5.6979672148
 30
0.0
 10
3.9912831707
 20
5.6941017081
 30
0.0
  0
SPLINE
  5
3A8
100
AcDbEntity
  8
ALL_ASSEMBLY_MEMBERS
100
AcDbSpline
 62
7
  6
CONTINUOUS
 70
0
 71
3
 72
19
 73
15
 74
0
 42
0.0000001
 43
0.0000001
 44
0.0000000001
 40
0.0
 40
0.0
 40
0.0
 40
0.0
 40
0.1340675387
 40
0.266831376
 40
0.3969018842
 40
0.4607578099
 40
0.5237060842
 40
0.6466980663
 40
0.7069624163
 40
0.7664784882
 40
0.8253774861
 40
0.8838156616
 40
0.9419631514
 40
1.0
 40
1.0
 40
1.0
 40
1.0
 10
5.0578595331
 20
5.6688517081
 30
0.0
 10
5.0578595331
 20
5.6718673348
 30
0.0
 10
5.0573944328
 20
5.6778798997
 30
0.0
 10
5.0553253196
 20
5.6866000738
 30
0.0
 10
5.0524817992
 20
5.6934168755
 30
0.0
 10
5.0495846038
 20
5.6984238186
 30
0.0
 10
5.0463505101
 20
5.7030251605
 30
0.0
 10
5.042550971
 20
5.7071084819
 30
0.0
 10
5.0382778985
 20
5.7105202312
 30
0.0
 10
5.034894975
 20
5.7127037481
 30
0.0
 10
5.0313417684
 20
5.7145082369
 30
0.0
 10
5.0276466562
 20
5.7159176368
 30
0.0
 10
5.0238414354
 20
5.7169201088
 30
0.0
 10
5.0212512561
 20
5.7173101495
 30
0.0
 10
5.0199517896
 20
5.717434917
 30
0.0
  0
SPLINE
  5
3A9
100
AcDbEntity
  8
ALL_ASSEMBLY_MEMBERS
100
AcDbSpline
 62
7
  6
CONTINUOUS
 70
0
 71
3
 72
16
 73
12
 74
0
 42
0.0000001
 43
0.0000001
 44
0.0000000001
 40
0.0
 40
0.0
 40
0.0
 40
0.0
 40
0.1470463392
 40
0.2914382727
 40
0.4303407678
 40
0.5617596533
 40
0.6842675992
 40
0.7973894215
 40
0.9018688331
 40
0.9515648325
 40
1.0
 40
1.0
 40
1.0
 40
1.0
 10
5.2370891346
 20
5.6688517081
 30
0.0
 10
5.2370891346
 20
5.6716310542
 30
0.0
 10
5.2368109841
 20
5.6771437125
 30
0.0
 10
5.2355695348
 20
5.6851970013
 30
0.0
 10
5.2335258898
 20
5.692782767
 30
0.0
 10
5.2307253543
 20
5.6996819666
 30
0.0
 10
5.227222851
 20
5.7057024178
 30
0.0
 10
5.2230904825
 20
5.7106708394
 30
0.0
 10
5.2191164188
 20
5.7138629683
 30
0.0
 10
5.2157441666
 20
5.7156947749
 30
0.0
 10
5.2140113054
 20
5.7163731315
 30
0.0
 10
5.2131386353
 20
5.7166498115
 30
0.0
  0
SPLINE
  5
3AA
100
AcDbEntity
  8
ALL_ASSEMBLY_MEMBERS
100
AcDbSpline
 62
7
  6
CONTINUOUS
 70
0
 71
3
 72
17
 73
13
 74
0
 42
0.0000001
 43
0.0000001
 44
0.0000000001
 40
0.0
 40
0.0
 40
0.0
 40
0.0
 40
0.1513056504
 40
0.3000735851
 40
0.443228128
 40
0.5783270401
 40
0.7031798943
 40
0.815874103
 40
0.8672098407
 40
0.9150433229
 40
0.9593062662
 40
1.0
 40
1.0
 40
1.0
 40
1.0
 10
5.3465138056
 20
5.6688517081
 30
0.0
 10
5.3465138056
 20
5.6711381867
 30
0.0
 10
5.346425139
 20
5.6756732987
 30
0.0
 10
5.3460284981
 20
5.6823612654
 30
0.0
 10
5.3453692349
 20
5.6887827165
 30
0.0
 10
5.3444537918
 20
5.69480805
 30
0.0
 10
5.3432902047
 20
5.7003212243
 30
0.0
 10
5.3420893015
 20
5.7045240465
 30
0.0
 10
5.3409924285
 20
5.7075332113
 30
0.0
 10
5.3401414549
 20
5.7095280435
 30
0.0
 10
5.3392388033
 20
5.711321841
 30
0.0
 10
5.3385762839
 20
5.712423578
 30
0.0
 10
5.3382351214
 20
5.7129352138
 30
0.0
  0
LINE
  5
3AB
100
AcDbEntity
  8
ALL_ASSEMBLY_MEMBERS
100
AcDbLine
 62
7
  6
CONTINUOUS
 10
5.3382351214
 20
5.7129352138
 11
5.3372852187
 21
5.7142302229
  0
SPLINE
  5
3AC
100
AcDbEntity
  8
ALL_ASSEMBLY_MEMBERS
100
AcDbSpline
 62
7
  6
CONTINUOUS
 70
0
 71
3
 72
17
 73
13
 74
0
 42
0.0000001
 43
0.0000001
 44
0.0000000001
 40
0.0
 40
0.0
 40
0.0
 40
0.0
 40
0.1515082376
 40
0.300456479
 40
0.443743953
 40
0.5789096532
 40
0.7037481548
 40
0.8163370925
 40
0.8675861684
 40
0.9153117318
 40
0.9594478438
 40
1.0
 40
1.0
 40
1.0
 40
1.0
 10
3.970178741
 20
5.5588517081
 30
0.0
 10
3.970178741
 20
5.5565570214
 30
0.0
 10
3.9702680387
 20
5.5520059113
 30
0.0
 10
3.9706674904
 20
5.5452951817
 30
0.0
 10
3.9713314047
 20
5.5388538136
 30
0.0
 10
3.9722532478
 20
5.5328127214
 30
0.0
 10
3.9734248427
 20
5.5272890703
 30
0.0
 10
3.9746341092
 20
5.5230815738
 30
0.0
 10
3.9757386574
 20
5.5200723601
 30
0.0
 10
3.976595279
 20
5.5180799104
 30
0.0
 10
3.97750384
 20
5.5162903927
 30
0.0
 10
3.9781708202
 20
5.5151926744
 30
0.0
 10
3.9785142487
 20
5.5146834756
 30
0.0
  0
SPLINE
  5
3AD
100
AcDbEntity
  8
ALL_ASSEMBLY_MEMBERS
100
AcDbSpline
 62
7
  6
CONTINUOUS
 70
0
 71
3
 72
9
 73
5
 74
0
 42
0.0000001
 43
0.0000001
 44
0.0000000001
 40
0.0
 40
0.0
 40
0.0
 40
0.0
 40
0.5245476761
 40
1.0
 40
1.0
 40
1.0
 40
1.0
 10
3.9785142487
 20
5.5146834756
 30
0.0
 10
3.9788477386
 20
5.5141890129
 30
0.0
 10
3.9795273533
 20
5.5132747074
 30
0.0
 10
3.9803111732
 20
5.5124456815
 30
0.0
 10
3.9807113725
 20
5.5120822535
 30
0.0
  0
SPLINE
  5
3AE
100
AcDbEntity
  8
ALL_ASSEMBLY_MEMBERS
100
AcDbSpline
 62
7
  6
CONTINUOUS
 70
0
 71
3
 72
18
 73
14
 74
0
 42
0.0000001
 43
0.0000001
 44
0.0000000001
 40
0.0
 40
0.0
 40
0.0
 40
0.0
 40
0.1487394658
 40
0.2944843564
 40
0.434114428
 40
0.5009804398
 40
0.5655700405
 40
0.6872582863
 40
0.7990452485
 40
0.8516465788
 40
0.9023883761
 40
0.9516746653
 40
1.0
 40
1.0
 40
1.0
 40
1.0
 10
4.079603412
 20
5.5588517081
 30
0.0
 10
4.079603412
 20
5.5559225503
 30
0.0
 10
4.0799119072
 20
5.5501181631
 30
0.0
 10
4.0812882586
 20
5.5416640929
 30
0.0
 10
4.0832008925
 20
5.5349752651
 30
0.0
 10
4.0851792417
 20
5.5300124433
 30
0.0
 10
4.0873520973
 20
5.5255218469
 30
0.0
 10
4.0905068601
 20
5.520539129
 30
0.0
 10
4.0943742671
 20
5.5163823231
 30
0.0
 10
4.0977530114
 20
5.5138117143
 30
0.0
 10
4.1003538378
 20
5.512288799
 30
0.0
 10
4.1030531597
 20
5.5111495867
 30
0.0
 10
4.1049169564
 20
5.5106498219
 30
0.0
 10
4.1058512542
 20
5.5104687572
 30
0.0
  0
SPLINE
  5
3AF
100
AcDbEntity
  8
ALL_ASSEMBLY_MEMBERS
100
AcDbSpline
 62
7
  6
CONTINUOUS
 70
0
 71
3
 72
17
 73
13
 74
0
 42
0.0000001
 43
0.0000001
 44
0.0000000001
 40
0.0
 40
0.0
 40
0.0
 40
0.0
 40
0.1334166788
 40
0.2657471966
 40
0.3956677143
 40
0.522539157
 40
0.5847652938
 40
0.6461344526
 40
0.7663508499
 40
0.8839261861
 40
0.9420950237
 40
1.0
 40
1.0
 40
1.0
 40
1.0
 10
4.2588330135
 20
5.5588517081
 30
0.0
 10
4.2588330135
 20
5.5560243152
 30
0.0
 10
4.2592426047
 20
5.5503840896
 30
0.0
 10
4.2610644147
 20
5.5421690867
 30
0.0
 10
4.2640539071
 20
5.5344488557
 30
0.0
 10
4.2674792552
 20
5.5285819202
 30
0.0
 10
4.2707177293
 20
5.5243688475
 30
0.0
 10
4.2742165272
 20
5.5205592492
 30
0.0
 10
4.2791171509
 20
5.5164774177
 30
0.0
 10
4.2846500311
 20
5.5134329603
 30
0.0
 10
4.289300412
 20
5.5117131928
 30
0.0
 10
4.2916867589
 20
5.5110954192
 30
0.0
 10
4.2928887423
 20
5.5108482485
 30
0.0
  0
SPLINE
  5
3B0
100
AcDbEntity
  8
ALL_ASSEMBLY_MEMBERS
100
AcDbSpline
 62
7
  6
CONTINUOUS
 70
0
 71
3
 72
19
 73
15
 74
0
 42
0.0000001
 43
0.0000001
 44
0.0000000001
 40
0.0
 40
0.0
 40
0.0
 40
0.0
 40
0.1261413469
 40
0.1892736867
 40
0.2522734832
 40
0.3151402701
 40
0.3778821208
 40
0.4405034777
 40
0.5029984396
 40
0.6274941798
 40
0.689679106
 40
0.7518086484
 40
0.8758577241
 40
1.0
 40
1.0
 40
1.0
 40
1.0
 10
4.4862498103
 20
5.5588517081
 30
0.0
 10
4.4862498103
 20
5.5557403117
 30
0.0
 10
4.4866898634
 20
5.5510565612
 30
0.0
 10
4.4881296779
 20
5.5449965456
 30
0.0
 10
4.4896322171
 20
5.5405755692
 30
0.0
 10
4.4915388314
 20
5.5363245823
 30
0.0
 10
4.4938350008
 20
5.5322812687
 30
0.0
 10
4.4965002373
 20
5.5284817154
 30
0.0
 10
4.5005031421
 20
5.5237943085
 30
0.0
 10
4.5051617045
 20
5.5197153549
 30
0.0
 10
4.5103225633
 20
5.5163799601
 30
0.0
 10
4.5157751535
 20
5.5135680715
 30
0.0
 10
4.5230637323
 20
5.5110695301
 30
0.0
 10
4.5291756493
 20
5.5102465682
 30
0.0
 10
4.5322356562
 20
5.5101337087
 30
0.0
  0
SPLINE
  5
3B1
100
AcDbEntity
  8
ALL_ASSEMBLY_MEMBERS
100
AcDbSpline
 62
7
  6
CONTINUOUS
 70
0
 71
3
 72
33
 73
29
 74
0
 42
0.0000001
 43
0.0000001
 44
0.0000000001
 40
0.0
 40
0.0
 40
0.0
 40
0.0
 40
0.0000706541
 40
0.0002827932
 40
0.0006364197
 40
0.0011315358
 40
0.0025462458
 40
0.0045269415
 40
0.0070736408
 40
0.0101863619
 40
0.0138651228
 40
0.0181094228
 40
0.0282783573
 40
0.0406544174
 40
0.0551978947
 40
0.0718694716
 40
0.0906302624
 40
0.1114418415
 40
0.1590620983
 40
0.2143720669
 40
0.2769819098
 40
0.3465208706
 40
0.4226408401
 40
0.5050202993
 40
0.5933714995
 40
0.687439599
 40
0.7868742145
 40
1.0
 40
1.0
 40
1.0
 40
1.0
 10
3.9280352616
 20
5.7176008206
 30
0.0
 10
3.9280347645
 20
5.7176011
 30
0.0
 10
3.9280373842
 20
5.7175970286
 30
0.0
 10
3.9280376746
 20
5.717594184
 30
0.0
 10
3.9280419201
 20
5.7175852049
 30
0.0
 10
3.9280483637
 20
5.7175689948
 30
0.0
 10
3.9280608705
 20
5.717539522
 30
0.0
 10
3.9280791059
 20
5.7174954862
 30
0.0
 10
3.928102903
 20
5.7174384738
 30
0.0
 10
3.9281318622
 20
5.7173689359
 30
0.0
 10
3.9281661312
 20
5.7172867064
 30
0.0
 10
3.9282223002
 20
5.7171519271
 30
0.0
 10
3.9283051976
 20
5.7169522278
 30
0.0
 10
3.9284188344
 20
5.7166752937
 30
0.0
 10
3.9285506835
 20
5.7163491052
 30
0.0
 10
3.9286995626
 20
5.7159742265
 30
0.0
 10
3.9288643014
 20
5.7155512219
 30
0.0
 10
3.9291149835
 20
5.7148936438
 30
0.0
 10
3.9294600204
 20
5.7139563634
 30
0.0
 10
3.9298991749
 20
5.7126944274
 30
0.0
 10
3.9303659765
 20
5.7112551144
 30
0.0
 10
3.9308464929
 20
5.7096441319
 30
0.0
 10
3.9313265747
 20
5.7078671013
 30
0.0
 10
3.9317904564
 20
5.7059291991
 30
0.0
 10
3.9322224113
 20
5.703835727
 30
0.0
 10
3.9326063789
 20
5.7015929848
 30
0.0
 10
3.9330437368
 20
5.6983398906
 30
0.0
 10
3.9332346399
 20
5.6958208134
 30
0.0
 10
3.9332945079
 20
5.6941017081
 30
0.0
  0
SPLINE
  5
3B2
100
AcDbEntity
  8
ALL_ASSEMBLY_MEMBERS
100
AcDbSpline
 62
7
  6
CONTINUOUS
 70
0
 71
3
 72
31
 73
27
 74
0
 42
0.0000001
 43
0.0000001
 44
0.0000000001
 40
0.0
 40
0.0
 40
0.0
 40
0.0
 40
0.0003032462
 40
0.0006819572
 40
0.0012117261
 40
0.0027234363
 40
0.0048363738
 40
0.0075485358
 40
0.0108579195
 40
0.0147625227
 40
0.0192603428
 40
0.030027626
 40
0.0431423046
 40
0.0585695095
 40
0.0762628857
 40
0.0961758938
 40
0.1182620162
 40
0.1687577129
 40
0.2272502315
 40
0.2931627991
 40
0.3658879024
 40
0.4446945203
 40
0.5288201425
 40
0.6174780806
 40
0.8050687706
 40
1.0
 40
1.0
 40
1.0
 40
1.0
 10
5.3845962733
 20
5.5101017081
 30
0.0
 10
5.3845975582
 20
5.510096947
 30
0.0
 10
5.3845942502
 20
5.5101232793
 30
0.0
 10
5.3845942369
 20
5.5101350475
 30
0.0
 10
5.3845908259
 20
5.5101788098
 30
0.0
 10
5.3845868383
 20
5.5102428769
 30
0.0
 10
5.3845796661
 20
5.5103473038
 30
0.0
 10
5.3845709515
 20
5.5104786681
 30
0.0
 10
5.3845602032
 20
5.5106399587
 30
0.0
 10
5.3845476401
 20
5.5108299255
 30
0.0
 10
5.3845271509
 20
5.5111410256
 30
0.0
 10
5.3844970689
 20
5.5116015406
 30
0.0
 10
5.3844557938
 20
5.5122394672
 30
0.0
 10
5.3844079136
 20
5.5129898238
 30
0.0
 10
5.384353979
 20
5.5138505778
 30
0.0
 10
5.3842945343
 20
5.5148194854
 30
0.0
 10
5.3842045778
 20
5.5163209598
 30
0.0
 10
5.3840821378
 20
5.5184489969
 30
0.0
 10
5.3839290189
 20
5.5212891449
 30
0.0
 10
5.383769837
 20
5.5244909646
 30
0.0
 10
5.383610704
 20
5.5280235108
 30
0.0
 10
5.383457451
 20
5.5318527613
 30
0.0
 10
5.3833162482
 20
5.5359417479
 30
0.0
 10
5.383148105
 20
5.5417998302
 30
0.0
 10
5.3829992567
 20
5.549460997
 30
0.0
 10
5.3829582384
 20
5.5556817043
 30
0.0
 10
5.3829582384
 20
5.5588517081
 30
0.0
  0
SPLINE
  5
3B3
100
AcDbEntity
  8
ALL_ASSEMBLY_MEMBERS
100
AcDbSpline
 62
7
  6
CONTINUOUS
 70
0
 71
3
 72
16
 73
12
 74
0
 42
0.0000001
 43
0.0000001
 44
0.0000000001
 40
0.0
 40
0.0
 40
0.0
 40
0.0
 40
0.1368253762
 40
0.2032767914
 40
0.2682989383
 40
0.3942856701
 40
0.5161384128
 40
0.635648114
 40
0.7549138264
 40
0.8758428892
 40
1.0
 40
1.0
 40
1.0
 40
1.0
 10
4.259705989
 20
5.6941017081
 30
0.0
 10
4.2605973421
 20
5.6958599301
 30
0.0
 10
4.2620362341
 20
5.6984173996
 30
0.0
 10
4.2641855662
 20
5.7016320208
 30
0.0
 10
4.2664150267
 20
5.7045984394
 30
0.0
 10
4.2694385231
 20
5.707958706
 30
0.0
 10
4.273489643
 20
5.7113916875
 30
0.0
 10
4.2779268453
 20
5.7141347038
 30
0.0
 10
4.2827341271
 20
5.7161305799
 30
0.0
 10
4.287864021
 20
5.7173422713
 30
0.0
 10
4.2914020317
 20
5.7176008142
 30
0.0
 10
4.2931907759
 20
5.7176008081
 30
0.0
  0
SPLINE
  5
3B4
100
AcDbEntity
  8
ALL_ASSEMBLY_MEMBERS
100
AcDbSpline
 62
7
  6
CONTINUOUS
 70
0
 71
3
 72
17
 73
13
 74
0
 42
0.0000001
 43
0.0000001
 44
0.0000000001
 40
0.0
 40
0.0
 40
0.0
 40
0.0
 40
0.1575046034
 40
0.3032300889
 40
0.4365016811
 40
0.5585423885
 40
0.6717852986
 40
0.7263138505
 40
0.7801531572
 40
0.8338712727
 40
0.8880709187
 40
1.0
 40
1.0
 40
1.0
 40
1.0
 10
4.0761193063
 20
5.6941017081
 30
0.0
 10
4.076746928
 20
5.6958329443
 30
0.0
 10
4.0780240772
 20
5.6991420829
 30
0.0
 10
4.0801588668
 20
5.7037826429
 30
0.0
 10
4.0825007773
 20
5.7078551008
 30
0.0
 10
4.0851063432
 20
5.7113046624
 30
0.0
 10
4.0875826648
 20
5.7136494418
 30
0.0
 10
4.0897208377
 20
5.7151207997
 30
0.0
 10
4.0913927747
 20
5.7160211414
 30
0.0
 10
4.0931518372
 20
5.7167271486
 30
0.0
 10
4.0956342846
 20
5.7174099556
 30
0.0
 10
4.0975869456
 20
5.7176008161
 30
0.0
 10
4.0988955827
 20
5.7176008192
 30
0.0
  0
SPLINE
  5
3B5
100
AcDbEntity
  8
ALL_ASSEMBLY_MEMBERS
100
AcDbSpline
 62
7
  6
CONTINUOUS
 70
0
 71
3
 72
18
 73
14
 74
0
 42
0.0000001
 43
0.0000001
 44
0.0000000001
 40
0.0
 40
0.0
 40
0.0
 40
0.0
 40
0.058321383
 40
0.1166158315
 40
0.1750783815
 40
0.2339079256
 40
0.2932860456
 40
0.3533699645
 40
0.4759704781
 40
0.6024125548
 40
0.7324942804
 40
0.8655181633
 40
1.0
 40
1.0
 40
1.0
 40
1.0
 10
4.2952212733
 20
5.5101017081
 30
0.0
 10
4.2938419288
 20
5.5101017056
 30
0.0
 10
4.2910813135
 20
5.5102590853
 30
0.0
 10
4.2869923476
 20
5.5109635708
 30
0.0
 10
4.2829975733
 20
5.5121309069
 30
0.0
 10
4.2791367299
 20
5.5137509175
 30
0.0
 10
4.2754436338
 20
5.5158040014
 30
0.0
 10
4.2707622688
 20
5.5191157378
 30
0.0
 10
4.2654940962
 20
5.5242650357
 30
0.0
 10
4.2604004012
 20
5.531707137
 30
0.0
 10
4.2566394399
 20
5.5401711872
 30
0.0
 10
4.2543388896
 20
5.5493321615
 30
0.0
 10
4.2538215523
 20
5.5556711116
 30
0.0
 10
4.2538215523
 20
5.5588517081
 30
0.0
  0
SPLINE
  5
3B6
100
AcDbEntity
  8
ALL_ASSEMBLY_MEMBERS
100
AcDbSpline
 62
7
  6
CONTINUOUS
 70
0
 71
3
 72
21
 73
17
 74
0
 42
0.0000001
 43
0.0000001
 44
0.0000000001
 40
0.0
 40
0.0
 40
0.0
 40
0.0
 40
0.1938418827
 40
0.3682886544
 40
0.4474147183
 40
0.5209664851
 40
0.5888895888
 40
0.6511855022
 40
0.7079272933
 40
0.7593215125
 40
0.8057863917
 40
0.8480129453
 40
0.8870146816
 40
0.9242039818
 40
0.9613164089
 40
1.0
 40
1.0
 40
1.0
 40
1.0
 10
3.9627577886
 20
5.6941017081
 30
0.0
 10
3.9630565493
 20
5.6958151091
 30
0.0
 10
3.9635942721
 20
5.699075591
 30
0.0
 10
3.9642402116
 20
5.7030378254
 30
0.0
 10
3.9647633654
 20
5.7059260868
 30
0.0
 10
3.9651551081
 20
5.7078664799
 30
0.0
 10
3.9655707309
 20
5.7096473542
 30
0.0
 10
3.9660222368
 20
5.7112636903
 30
0.0
 10
3.9665200622
 20
5.7127108294
 30
0.0
 10
3.9670748413
 20
5.7139843352
 30
0.0
 10
3.9676986186
 20
5.7150791471
 30
0.0
 10
3.9684015867
 20
5.7159897383
 30
0.0
 10
3.9691912625
 20
5.7167101464
 30
0.0
 10
3.9700742631
 20
5.7172304096
 30
0.0
 10
3.9710486725
 20
5.7175385297
 30
0.0
 10
3.9717313168
 20
5.7176008177
 30
0.0
 10
3.9720784067
 20
5.7176008192
 30
0.0
  0
SPLINE
  5
3B7
100
AcDbEntity
  8
ALL_ASSEMBLY_MEMBERS
100
AcDbSpline
 62
7
  6
CONTINUOUS
 70
0
 71
3
 72
11
 73
7
 74
0
 42
0.0000001
 43
0.0000001
 44
0.0000000001
 40
0.0
 40
0.0
 40
0.0
 40
0.0
 40
0.2574649809
 40
0.5119085885
 40
0.7603121343
 40
1.0
 40
1.0
 40
1.0
 40
1.0
 10
4.071925408
 20
5.6688517081
 30
0.0
 10
4.071925408
 20
5.6710585499
 30
0.0
 10
4.0721014773
 20
5.6754483679
 30
0.0
 10
4.0728898931
 20
5.6819247558
 30
0.0
 10
4.0741937064
 20
5.6881621907
 30
0.0
 10
4.0754190976
 20
5.6921702472
 30
0.0
 10
4.0761193063
 20
5.6941017081
 30
0.0
  0
SPLINE
  5
3B8
100
AcDbEntity
  8
ALL_ASSEMBLY_MEMBERS
100
AcDbSpline
 62
7
  6
CONTINUOUS
 70
0
 71
3
 72
18
 73
14
 74
0
 42
0.0000001
 43
0.0000001
 44
0.0000000001
 40
0.0
 40
0.0
 40
0.0
 40
0.0
 40
0.1344817142
 40
0.2675056375
 40
0.3975873401
 40
0.5240294622
 40
0.6466300448
 40
0.7067140077
 40
0.7660921628
 40
0.824921744
 40
0.8833842794
 40
0.9416786921
 40
1.0
 40
1.0
 40
1.0
 40
1.0
 10
5.0628709943
 20
5.5588517081
 30
0.0
 10
5.0628709943
 20
5.5556711145
 30
0.0
 10
5.0623536553
 20
5.5493321668
 30
0.0
 10
5.0600531098
 20
5.5401711939
 30
0.0
 10
5.0562921485
 20
5.5317071425
 30
0.0
 10
5.0511984542
 20
5.5242650371
 30
0.0
 10
5.045930274
 20
5.5191157429
 30
0.0
 10
5.0412489124
 20
5.5158039957
 30
0.0
 10
5.0375558101
 20
5.5137509163
 30
0.0
 10
5.0336949642
 20
5.5121309102
 30
0.0
 10
5.0297001936
 20
5.5109635618
 30
0.0
 10
5.0256112278
 20
5.5102590896
 30
0.0
 10
5.022850616
 20
5.5101017105
 30
0.0
 10
5.0214712733
 20
5.5101017081
 30
0.0
  0
SPLINE
  5
3B9
100
AcDbEntity
  8
ALL_ASSEMBLY_MEMBERS
100
AcDbSpline
 62
7
  6
CONTINUOUS
 70
0
 71
3
 72
20
 73
16
 74
0
 42
0.0000001
 43
0.0000001
 44
0.0000000001
 40
0.0
 40
0.0
 40
0.0
 40
0.0
 40
0.0487687252
 40
0.0978351474
 40
0.14785836
 40
0.1994404312
 40
0.2530710732
 40
0.3091219089
 40
0.3678282278
 40
0.4292920035
 40
0.4935119518
 40
0.5603545744
 40
0.7008992018
 40
0.8486330568
 40
1.0
 40
1.0
 40
1.0
 40
1.0
 10
4.1020064965
 20
5.5101017081
 30
0.0
 10
4.1009834432
 20
5.5101017056
 30
0.0
 10
4.0989276039
 20
5.5102600969
 30
0.0
 10
4.0958967542
 20
5.5109708921
 30
0.0
 10
4.0929509145
 20
5.5121478232
 30
0.0
 10
4.0901203131
 20
5.5137782867
 30
0.0
 10
4.0874274475
 20
5.5158405963
 30
0.0
 10
4.0848966664
 20
5.5183160701
 30
0.0
 10
4.0825469207
 20
5.5211784027
 30
0.0
 10
4.0803948479
 20
5.5243993317
 30
0.0
 10
4.0784590973
 20
5.5279496739
 30
0.0
 10
4.076143915
 20
5.533161374
 30
0.0
 10
4.073901181
 20
5.540293808
 30
0.0
 10
4.0722871047
 20
5.5493954186
 30
0.0
 10
4.071925408
 20
5.5556763851
 30
0.0
 10
4.071925408
 20
5.5588517081
 30
0.0
  0
SPLINE
  5
3BA
100
AcDbEntity
  8
ALL_ASSEMBLY_MEMBERS
100
AcDbSpline
 62
7
  6
CONTINUOUS
 70
0
 71
3
 72
9
 73
5
 74
0
 42
0.0000001
 43
0.0000001
 44
0.0000000001
 40
0.0
 40
0.0
 40
0.0
 40
0.0
 40
0.4945457219
 40
1.0
 40
1.0
 40
1.0
 40
1.0
 10
5.0569865575
 20
5.6941017081
 30
0.0
 10
5.0589323558
 20
5.6902635597
 30
0.0
 10
5.0618920081
 20
5.6819797581
 30
0.0
 10
5.0628709943
 20
5.6732498249
 30
0.0
 10
5.0628709943
 20
5.6688517081
 30
0.0
  0
SPLINE
  5
3BB
100
AcDbEntity
  8
ALL_ASSEMBLY_MEMBERS
100
AcDbSpline
 62
7
  6
CONTINUOUS
 70
0
 71
3
 72
20
 73
16
 74
0
 42
0.0000001
 43
0.0000001
 44
0.0000000001
 40
0.0
 40
0.0
 40
0.0
 40
0.0
 40
0.151366805
 40
0.2991007101
 40
0.4396453173
 40
0.5064879368
 40
0.5707079341
 40
0.6321717499
 40
0.6908780935
 40
0.7469289848
 40
0.8005596466
 40
0.8521417432
 40
0.9021649498
 40
0.9512313411
 40
1.0
 40
1.0
 40
1.0
 40
1.0
 10
5.2447671386
 20
5.5588517081
 30
0.0
 10
5.2447671386
 20
5.555676388
 30
0.0
 10
5.2444054409
 20
5.5493954236
 30
0.0
 10
5.2427913672
 20
5.5402938151
 30
0.0
 10
5.2405486358
 20
5.5331613794
 30
0.0
 10
5.2382334496
 20
5.5279496805
 30
0.0
 10
5.236297701
 20
5.5243993356
 30
0.0
 10
5.2341456284
 20
5.5211784031
 30
0.0
 10
5.2317958764
 20
5.5183160728
 30
0.0
 10
5.2292651002
 20
5.5158405911
 30
0.0
 10
5.2265722283
 20
5.5137782853
 30
0.0
 10
5.2237416245
 20
5.5121478264
 30
0.0
 10
5.2207957895
 20
5.5109708832
 30
0.0
 10
5.2177649382
 20
5.5102601011
 30
0.0
 10
5.215709102
 20
5.5101017105
 30
0.0
 10
5.2146860501
 20
5.5101017081
 30
0.0
  0
SPLINE
  5
3BC
100
AcDbEntity
  8
ALL_ASSEMBLY_MEMBERS
100
AcDbSpline
 62
7
  6
CONTINUOUS
 70
0
 71
3
 72
22
 73
18
 74
0
 42
0.0000001
 43
0.0000001
 44
0.0000000001
 40
0.0
 40
0.0
 40
0.0
 40
0.0
 40
0.0151380339
 40
0.0304169807
 40
0.0623832169
 40
0.097800661
 40
0.137932008
 40
0.1834828756
 40
0.2347888644
 40
0.2918801955
 40
0.3545796877
 40
0.4225866744
 40
0.4954353337
 40
0.5725864236
 40
0.6534486251
 40
0.8236671866
 40
1.0
 40
1.0
 40
1.0
 40
1.0
 10
3.9758945075
 20
5.5101017082
 30
0.0
 10
3.9756222665
 20
5.5101017034
 30
0.0
 10
3.9750743822
 20
5.5101414836
 30
0.0
 10
3.9739755163
 20
5.5103835822
 30
0.0
 10
3.9726070249
 20
5.5110105575
 30
0.0
 10
3.9710774494
 20
5.5122152982
 30
0.0
 10
3.9696355925
 20
5.5138599006
 30
0.0
 10
3.9682821563
 20
5.5159256619
 30
0.0
 10
3.9670240096
 20
5.5183966589
 30
0.0
 10
3.9658662126
 20
5.5212506942
 30
0.0
 10
3.9648142548
 20
5.5244623352
 30
0.0
 10
3.9638755379
 20
5.5280023698
 30
0.0
 10
3.9630530991
 20
5.531837052
 30
0.0
 10
3.962351251
 20
5.53593018
 30
0.0
 10
3.9615677467
 20
5.5417819428
 30
0.0
 10
3.9609285801
 20
5.5494470084
 30
0.0
 10
3.9607602747
 20
5.5556805547
 30
0.0
 10
3.9607602747
 20
5.5588517081
 30
0.0
  0
SPLINE
  5
3BD
100
AcDbEntity
  8
ALL_ASSEMBLY_MEMBERS
100
AcDbSpline
 62
7
  6
CONTINUOUS
 70
0
 71
3
 72
11
 73
7
 74
0
 42
0.0000001
 43
0.0000001
 44
0.0000000001
 40
0.0
 40
0.0
 40
0.0
 40
0.0
 40
0.2396878471
 40
0.4880921701
 40
0.7425356912
 40
1.0
 40
1.0
 40
1.0
 40
1.0
 10
5.2405732403
 20
5.6941017081
 30
0.0
 10
5.2412734489
 20
5.6921702474
 30
0.0
 10
5.2424988433
 20
5.6881621849
 30
0.0
 10
5.243802653
 20
5.6819247434
 30
0.0
 10
5.2445910732
 20
5.6754483559
 30
0.0
 10
5.2447671386
 20
5.6710585442
 30
0.0
 10
5.2447671386
 20
5.6688517081
 30
0.0
  0
SPLINE
  5
3BE
100
AcDbEntity
  8
ALL_ASSEMBLY_MEMBERS
100
AcDbSpline
 62
7
  6
CONTINUOUS
 70
0
 71
3
 72
9
 73
5
 74
0
 42
0.0000001
 43
0.0000001
 44
0.0000000001
 40
0.0
 40
0.0
 40
0.0
 40
0.0
 40
0.505455025
 40
1.0
 40
1.0
 40
1.0
 40
1.0
 10
4.2538215523
 20
5.6688517081
 30
0.0
 10
4.2538215523
 20
5.6732498315
 30
0.0
 10
4.2548005369
 20
5.6819797655
 30
0.0
 10
4.2577601937
 20
5.6902635655
 30
0.0
 10
4.259705989
 20
5.6941017081
 30
0.0
  0
SPLINE
  5
3BF
100
AcDbEntity
  8
ALL_ASSEMBLY_MEMBERS
100
AcDbSpline
 62
7
  6
CONTINUOUS
 70
0
 71
3
 72
22
 73
18
 74
0
 42
0.0000001
 43
0.0000001
 44
0.0000000001
 40
0.0
 40
0.0
 40
0.0
 40
0.0
 40
0.1763317002
 40
0.3465492553
 40
0.4274111603
 40
0.5045619962
 40
0.5774104331
 40
0.6454172114
 40
0.7081165884
 40
0.7652080484
 40
0.8165145353
 40
0.8620663193
 40
0.9021987361
 40
0.9376168229
 40
0.9695831344
 40
0.9848620646
 40
1.0
 40
1.0
 40
1.0
 40
1.0
 10
5.3559322718
 20
5.5588517081
 30
0.0
 10
5.3559322718
 20
5.5556805749
 30
0.0
 10
5.3557639694
 20
5.5494470673
 30
0.0
 10
5.3551248097
 20
5.5417820456
 30
0.0
 10
5.3543413155
 20
5.5359303101
 30
0.0
 10
5.3536394738
 20
5.5318371956
 30
0.0
 10
5.352817044
 20
5.5280025244
 30
0.0
 10
5.3518783382
 20
5.5244624975
 30
0.0
 10
5.3508263968
 20
5.5212508553
 30
0.0
 10
5.349668612
 20
5.5183968052
 30
0.0
 10
5.3484104567
 20
5.5159257812
 30
0.0
 10
5.3470569926
 20
5.5138599845
 30
0.0
 10
5.3456151179
 20
5.5122153391
 30
0.0
 10
5.3440855423
 20
5.5110105414
 30
0.0
 10
5.3427170255
 20
5.510383585
 30
0.0
 10
5.3416181594
 20
5.5101414958
 30
0.0
 10
5.3410702784
 20
5.51010171
 30
0.0
 10
5.3407980391
 20
5.5101017081
 30
0.0
  0
SPLINE
  5
3C0
100
AcDbEntity
  8
ALL_ASSEMBLY_MEMBERS
100
AcDbSpline
 62
7
  6
CONTINUOUS
 70
0
 71
3
 72
11
 73
7
 74
0
 42
0.0000001
 43
0.0000001
 44
0.0000000001
 40
0.0
 40
0.0
 40
0.0
 40
0.0
 40
0.2348029118
 40
0.4825355542
 40
0.73907445
 40
1.0
 40
1.0
 40
1.0
 40
1.0
 10
5.353934758
 20
5.6941017081
 30
0.0
 10
5.3542756708
 20
5.6921465639
 30
0.0
 10
5.3548639405
 20
5.6881085662
 30
0.0
 10
5.3554793553
 20
5.6818901977
 30
0.0
 10
5.3558497904
 20
5.6754314083
 30
0.0
 10
5.3559322718
 20
5.6710571502
 30
0.0
 10
5.3559322718
 20
5.6688517081
 30
0.0
  0
SPLINE
  5
3C1
100
AcDbEntity
  8
ALL_ASSEMBLY_MEMBERS
100
AcDbSpline
 62
7
  6
CONTINUOUS
 70
0
 71
3
 72
21
 73
17
 74
0
 42
0.0000001
 43
0.0000001
 44
0.0000000001
 40
0.0
 40
0.0
 40
0.0
 40
0.0
 40
0.0386838697
 40
0.0757956389
 40
0.1129846473
 40
0.1519864992
 40
0.1942131637
 40
0.2406782716
 40
0.2920731713
 40
0.3488157713
 40
0.4111122869
 40
0.4790355283
 40
0.5525870408
 40
0.6317126336
 40
0.8061585715
 40
1.0
 40
1.0
 40
1.0
 40
1.0
 10
5.34461414
 20
5.7176008192
 30
0.0
 10
5.3449612324
 20
5.7176008208
 30
0.0
 10
5.3456438755
 20
5.7175385448
 30
0.0
 10
5.3466182749
 20
5.7172304096
 30
0.0
 10
5.3475012641
 20
5.7167101458
 30
0.0
 10
5.3482909518
 20
5.7159897527
 30
0.0
 10
5.3489939334
 20
5.7150791648
 30
0.0
 10
5.3496176976
 20
5.7139843344
 30
0.0
 10
5.3501724788
 20
5.7127108133
 30
0.0
 10
5.3506703121
 20
5.7112636571
 30
0.0
 10
5.3511218279
 20
5.7096473094
 30
0.0
 10
5.3515374541
 20
5.7078664313
 30
0.0
 10
5.3519291937
 20
5.705926043
 30
0.0
 10
5.3524523397
 20
5.7030377944
 30
0.0
 10
5.3530982752
 20
5.6990755753
 30
0.0
 10
5.353635998
 20
5.695815105
 30
0.0
 10
5.353934758
 20
5.6941017081
 30
0.0
  0
SPLINE
  5
3C2
100
AcDbEntity
  8
ALL_ASSEMBLY_MEMBERS
100
AcDbSpline
 62
7
  6
CONTINUOUS
 70
0
 71
3
 72
17
 73
13
 74
0
 42
0.0000001
 43
0.0000001
 44
0.0000000001
 40
0.0
 40
0.0
 40
0.0
 40
0.0
 40
0.111928483
 40
0.1661278296
 40
0.2198461248
 40
0.2736856412
 40
0.3282143457
 40
0.4414587121
 40
0.5635001717
 40
0.6967710178
 40
0.8424957553
 40
1.0
 40
1.0
 40
1.0
 40
1.0
 10
5.2177969641
 20
5.7176008192
 30
0.0
 10
5.2191055941
 20
5.7176008224
 30
0.0
 10
5.2210582458
 20
5.7174099609
 30
0.0
 10
5.223540682
 20
5.716727148
 30
0.0
 10
5.2252997505
 20
5.7160211547
 30
0.0
 10
5.2269716994
 20
5.7151208199
 30
0.0
 10
5.2291098773
 20
5.7136494311
 30
0.0
 10
5.2315862166
 20
5.7113046334
 30
0.0
 10
5.2341918044
 20
5.7078550658
 30
0.0
 10
5.2365336973
 20
5.7037826074
 30
0.0
 10
5.2386684735
 20
5.699142066
 30
0.0
 10
5.23994562
 20
5.6958329403
 30
0.0
 10
5.2405732403
 20
5.6941017081
 30
0.0
  0
SPLINE
  5
3C3
100
AcDbEntity
  8
ALL_ASSEMBLY_MEMBERS
100
AcDbSpline
 62
7
  6
CONTINUOUS
 70
0
 71
3
 72
16
 73
12
 74
0
 42
0.0000001
 43
0.0000001
 44
0.0000000001
 40
0.0
 40
0.0
 40
0.0
 40
0.0
 40
0.1241560236
 40
0.2450860548
 40
0.3643534369
 40
0.4838645969
 40
0.605717595
 40
0.7317029945
 40
0.7967244379
 40
0.8631753643
 40
1.0
 40
1.0
 40
1.0
 40
1.0
 10
5.023501774
 20
5.7176008117
 30
0.0
 10
5.0252905022
 20
5.7176008321
 30
0.0
 10
5.0288285114
 20
5.717342266
 30
0.0
 10
5.0339584212
 20
5.7161305625
 30
0.0
 10
5.0387657671
 20
5.7141346834
 30
0.0
 10
5.0432029929
 20
5.7113916115
 30
0.0
 10
5.0472541141
 20
5.7079586257
 30
0.0
 10
5.0502775811
 20
5.7045983674
 30
0.0
 10
5.0525070126
 20
5.7016319733
 30
0.0
 10
5.0546563255
 20
5.6984173735
 30
0.0
 10
5.0560952094
 20
5.6958599203
 30
0.0
 10
5.0569865575
 20
5.6941017081
 30
0.0
  0
SPLINE
  5
3C4
100
AcDbEntity
  8
ALL_ASSEMBLY_MEMBERS
100
AcDbSpline
 62
7
  6
CONTINUOUS
 70
0
 71
3
 72
11
 73
7
 74
0
 42
0.0000001
 43
0.0000001
 44
0.0000000001
 40
0.0
 40
0.0
 40
0.0
 40
0.0
 40
0.2609262281
 40
0.5174652148
 40
0.7651970675
 40
1.0
 40
1.0
 40
1.0
 40
1.0
 10
3.9607602747
 20
5.6688517081
 30
0.0
 10
3.9607602747
 20
5.6710571559
 30
0.0
 10
3.9608427578
 20
5.6754314204
 30
0.0
 10
3.9612131913
 20
5.6818902098
 30
0.0
 10
3.9618286074
 20
5.6881085724
 30
0.0
 10
3.9624168758
 20
5.6921465637
 30
0.0
 10
3.9627577886
 20
5.6941017081
 30
0.0
  0
SPLINE
  5
3C5
100
AcDbEntity
  8
ALL_ASSEMBLY_MEMBERS
100
AcDbSpline
 62
7
  6
CONTINUOUS
 70
0
 71
3
 72
19
 73
15
 74
0
 42
0.0000001
 43
0.0000001
 44
0.0000000001
 40
0.0
 40
0.0
 40
0.0
 40
0.0
 40
0.1262713781
 40
0.1893308689
 40
0.2522614069
 40
0.3776303467
 40
0.502520248
 40
0.5648649866
 40
0.6271207501
 40
0.6893101315
 40
0.7514605637
 40
0.8135939348
 40
0.8757362586
 40
1.0
 40
1.0
 40
1.0
 40
1.0
 10
4.8319999465
 20
5.5545822216
 30
0.0
 10
4.8317427824
 20
5.5515850892
 30
0.0
 10
4.8309514828
 20
5.5471117537
 30
0.0
 10
4.8291055665
 20
5.5413863622
 30
0.0
 10
4.8267569348
 20
5.5358698954
 30
0.0
 10
4.822900218
 20
5.5294312483
 30
0.0
 10
4.8179364074
 20
5.5238182478
 30
0.0
 10
4.8134091905
 20
5.5199559933
 30
0.0
 10
4.8097644307
 20
5.5173913624
 30
0.0
 10
4.805898439
 20
5.5151838906
 30
0.0
 10
4.8018447179
 20
5.5133512566
 30
0.0
 10
4.7976371269
 20
5.5119075399
 30
0.0
 10
4.7918741532
 20
5.5105232878
 30
0.0
 10
4.7874185797
 20
5.5101017127
 30
0.0
 10
4.7844582623
 20
5.5101017081
 30
0.0
  0
SPLINE
  5
3C6
100
AcDbEntity
  8
ALL_ASSEMBLY_MEMBERS
100
AcDbSpline
 62
7
  6
CONTINUOUS
 70
0
 71
3
 72
14
 73
10
 74
0
 42
0.0000001
 43
0.0000001
 44
0.0000000001
 40
0.0
 40
0.0
 40
0.0
 40
0.0
 40
0.1266273703
 40
0.2518588414
 40
0.3759184638
 40
0.499283416
 40
0.6227311948
 40
0.7470663785
 40
1.0
 40
1.0
 40
1.0
 40
1.0
 10
4.7851634494
 20
5.7176008192
 30
0.0
 10
4.7872183459
 20
5.7176008224
 30
0.0
 10
4.7913110309
 20
5.717335171
 30
0.0
 10
4.7973082096
 20
5.7161259395
 30
0.0
 10
4.803040878
 20
5.7141428187
 30
0.0
 10
4.8084282954
 20
5.7114205185
 30
0.0
 10
4.8134129451
 20
5.7080071021
 30
0.0
 10
4.8194788247
 20
5.70257586
 30
0.0
 10
4.8232315784
 20
5.6976364712
 30
0.0
 10
4.8253179733
 20
5.6941017081
 30
0.0
  0
SPLINE
  5
3C7
100
AcDbEntity
  8
ALL_ASSEMBLY_MEMBERS
100
AcDbSpline
 62
7
  6
CONTINUOUS
 70
0
 71
3
 72
14
 73
10
 74
0
 42
0.0000001
 43
0.0000001
 44
0.0000000001
 40
0.0
 40
0.0
 40
0.0
 40
0.0
 40
0.2529346299
 40
0.3772706315
 40
0.5007177233
 40
0.6240811299
 40
0.7481403384
 40
0.8733719894
 40
1.0
 40
1.0
 40
1.0
 40
1.0
 10
4.4913745733
 20
5.6941017081
 30
0.0
 10
4.4934609765
 20
5.6976364853
 30
0.0
 10
4.4972137506
 20
5.7025758987
 30
0.0
 10
4.5032796588
 20
5.7080071355
 30
0.0
 10
4.5082642826
 20
5.7114205484
 30
0.0
 10
4.5136516675
 20
5.7141428194
 30
0.0
 10
4.5193843088
 20
5.7161259262
 30
0.0
 10
4.5253814919
 20
5.7173351734
 30
0.0
 10
4.5294741905
 20
5.717600816
 30
0.0
 10
4.5315290975
 20
5.7176008192
 30
0.0
  0
SPLINE
  5
3C8
100
AcDbEntity
  8
ALL_ASSEMBLY_MEMBERS
100
AcDbSpline
 62
7
  6
CONTINUOUS
 70
0
 71
3
 72
19
 73
15
 74
0
 42
0.0000001
 43
0.0000001
 44
0.0000000001
 40
0.0
 40
0.0
 40
0.0
 40
0.0
 40
0.124263846
 40
0.1864061885
 40
0.2485395211
 40
0.3106899097
 40
0.3728792561
 40
0.4351349788
 40
0.497479691
 40
0.6223695522
 40
0.7477385457
 40
0.8106691064
 40
0.8737286025
 40
1.0
 40
1.0
 40
1.0
 40
1.0
 10
4.5322342843
 20
5.5101017081
 30
0.0
 10
4.5292739203
 20
5.5101017035
 30
0.0
 10
4.5248182779
 20
5.5105233099
 30
0.0
 10
4.5190552194
 20
5.5119075927
 30
0.0
 10
4.5148475733
 20
5.5133513508
 30
0.0
 10
4.5107938101
 20
5.5151840458
 30
0.0
 10
4.5069277761
 20
5.5173915716
 30
0.0
 10
4.5032829883
 20
5.5199562748
 30
0.0
 10
4.4987557486
 20
5.5238186351
 30
0.0
 10
4.493791928
 20
5.5294317771
 30
0.0
 10
4.4899352507
 20
5.5358705811
 30
0.0
 10
4.4875866763
 20
5.5413871718
 30
0.0
 10
4.4857408351
 20
5.5471126829
 30
0.0
 10
4.4849496116
 20
5.5515861022
 30
0.0
 10
4.4846925081
 20
5.5545832853
 30
0.0
  0
SPLINE
  5
3C9
100
AcDbEntity
  8
ALL_FEATURES
100
AcDbSpline
 62
7
  6
CONTINUOUS
 70
0
 71
3
 72
41
 73
37
 74
0
 42
0.0000001
 43
0.0000001
 44
0.0000000001
 40
0.0
 40
0.0
 40
0.0
 40
0.0
 40
0.0001394243
 40
0.0002504057
 40
0.0003947372
 40
0.0005741153
 40
0.0007894006
 40
0.0013293795
 40
0.002852437
 40
0.0049703779
 40
0.0076843656
 40
0.0109943355
 40
0.0148994755
 40
0.0193973099
 40
0.0244847656
 40
0.030158699
 40
0.0364159232
 40
0.0432532228
 40
0.0586530139
 40
0.0763189148
 40
0.0962079439
 40
0.1182753555
 40
0.1424659751
 40
0.1687206577
 40
0.1969789536
 40
0.2271712133
 40
0.2592237562
 40
0.2930619008
 40
0.3657599696
 40
0.4445661031
 40
0.5287199129
 40
0.6174124791
 40
0.7097887725
 40
0.8049590145
 40
0.9020081506
 40
1.0
 40
1.0
 40
1.0
 40
1.0
 10
5.4900962733
 20
3.1512293311
 30
0.0
 10
5.4900962733
 20
3.1511906634
 30
0.0
 10
5.490040812
 20
3.1511302833
 30
0.0
 10
5.4899484592
 20
3.1510774414
 30
0.0
 10
5.4898367743
 20
3.1510286891
 30
0.0
 10
5.4896953885
 20
3.15098105
 30
0.0
 10
5.4894454797
 20
3.1509112414
 30
0.0
 10
5.4888272166
 20
3.1507794437
 30
0.0
 10
5.4876787076
 20
3.1506136711
 30
0.0
 10
5.4859264059
 20
3.1504245786
 30
0.0
 10
5.4836761985
 20
3.150233926
 30
0.0
 10
5.4809291809
 20
3.1500415089
 30
0.0
 10
5.4776864224
 20
3.1498484541
 30
0.0
 10
5.4739500026
 20
3.1496548291
 30
0.0
 10
5.4697224658
 20
3.1494608613
 30
0.0
 10
5.4650065408
 20
3.1492666377
 30
0.0
 10
5.4598049547
 20
3.1490722145
 30
0.0
 10
5.4519070084
 20
3.1488019568
 30
0.0
 10
5.4408453716
 20
3.14846848
 30
0.0
 10
5.4261640918
 20
3.1480813416
 30
0.0
 10
5.4096330762
 20
3.1476934969
 30
0.0
 10
5.3912920757
 20
3.1473051806
 30
0.0
 10
5.3711852867
 20
3.1469164723
 30
0.0
 10
5.3493612424
 20
3.1465274462
 30
0.0
 10
5.3258724737
 20
3.1461382423
 30
0.0
 10
5.300775535
 20
3.1457488556
 30
0.0
 10
5.2741309197
 20
3.145359294
 30
0.0
 10
5.2356986639
 20
3.1448269716
 30
0.0
 10
5.1843004011
 20
3.1441667395
 30
0.0
 10
5.1189480552
 20
3.1433912406
 30
0.0
 10
5.0491595433
 20
3.1426150524
 30
0.0
 10
4.975607296
 20
3.1418383669
 30
0.0
 10
4.8989996137
 20
3.1410613354
 30
0.0
 10
4.820074224
 20
3.1402840518
 30
0.0
 10
4.7395913546
 20
3.1395066262
 30
0.0
 10
4.6855015383
 20
3.1389891254
 30
0.0
 10
4.6583259109
 20
3.1387291233
 30
0.0
  0
SPLINE
  5
3CA
100
AcDbEntity
  8
ALL_FEATURES
100
AcDbSpline
 62
7
  6
CONTINUOUS
 70
0
 71
3
 72
24
 73
20
 74
0
 42
0.0000001
 43
0.0000001
 44
0.0000000001
 40
0.0
 40
0.0
 40
0.0
 40
0.0
 40
0.2232958658
 40
0.4193896157
 40
0.5070596113
 40
0.5877193782
 40
0.6613163273
 40
0.7278080363
 40
0.7871525772
 40
0.8393085647
 40
0.8842355124
 40
0.9218996895
 40
0.952289551
 40
0.964756446
 40
0.9754059155
 40
0.9842412189
 40
0.9912695558
 40
0.9965074849
 40
1.0
 40
1.0
 40
1.0
 40
1.0
 10
5.4111538648
 20
3.1366016931
 30
0.0
 10
5.4170288459
 20
3.1367338865
 30
0.0
 10
5.4280628276
 20
3.1369951295
 30
0.0
 10
5.4414023117
 20
3.1373537253
 30
0.0
 10
5.4509884469
 20
3.1376439504
 30
0.0
 10
5.4573517886
 20
3.137853281
 30
0.0
 10
5.4631574612
 20
3.1380624336
 30
0.0
 10
5.4684017915
 20
3.1382713611
 30
0.0
 10
5.4730813818
 20
3.1384799677
 30
0.0
 10
5.4771928376
 20
3.138688155
 30
0.0
 10
5.4807329606
 20
3.1388955986
 30
0.0
 10
5.4836991364
 20
3.1391022502
 30
0.0
 10
5.4858107137
 20
3.1392826044
 30
0.0
 10
5.487210987
 20
3.1394313374
 30
0.0
 10
5.4880455596
 20
3.1395349822
 30
0.0
 10
5.4887355867
 20
3.1396381112
 30
0.0
 10
5.4892820933
 20
3.1397398811
 30
0.0
 10
5.4896838806
 20
3.1398405554
 30
0.0
 10
5.4899021041
 20
3.1399190689
 30
0.0
 10
5.4899817523
 20
3.1399649389
 30
0.0
  0
SPLINE
  5
3CB
100
AcDbEntity
  8
ALL_FEATURES
100
AcDbSpline
 62
7
  6
CONTINUOUS
 70
0
 71
3
 72
41
 73
37
 74
0
 42
0.0000001
 43
0.0000001
 44
0.0000000001
 40
0.0
 40
0.0
 40
0.0
 40
0.0
 40
0.0979778575
 40
0.1950480638
 40
0.2902134914
 40
0.3825886005
 40
0.4712822824
 40
0.5554364862
 40
0.6342414361
 40
0.7069397114
 40
0.7407774461
 40
0.77283151
 40
0.8030225957
 40
0.8312803499
 40
0.8575366582
 40
0.8817259212
 40
0.9037925204
 40
0.9236833458
 40
0.9413480247
 40
0.9567469744
 40
0.963585303
 40
0.9698434182
 40
0.9755171139
 40
0.9806036186
 40
0.9851005521
 40
0.9890056032
 40
0.9923165808
 40
0.9950315198
 40
0.9971493021
 40
0.998671483
 40
0.9992109918
 40
0.9994260766
 40
0.9996052939
 40
0.9997495173
 40
0.9998604557
 40
1.0
 40
1.0
 40
1.0
 40
1.0
 10
4.6583462733
 20
3.2775968316
 30
0.0
 10
4.6311752141
 20
3.2773368737
 30
0.0
 10
4.577084804
 20
3.2768193697
 30
0.0
 10
4.4966033442
 20
3.2760419543
 30
0.0
 10
4.4176757729
 20
3.2752646561
 30
0.0
 10
4.3410713841
 20
3.2744876458
 30
0.0
 10
4.2675209086
 20
3.273710972
 30
0.0
 10
4.1977340728
 20
3.2729348189
 30
0.0
 10
4.1323835433
 20
3.2721593062
 30
0.0
 10
4.0809869662
 20
3.2714991113
 30
0.0
 10
4.0425553182
 20
3.2709667689
 30
0.0
 10
4.0159113944
 20
3.2705772534
 30
0.0
 10
3.9908151455
 20
3.2701878476
 30
0.0
 10
3.9673269968
 20
3.2697986296
 30
0.0
 10
3.9455035797
 20
3.2694096599
 30
0.0
 10
3.9253974511
 20
3.2690209279
 30
0.0
 10
3.9070570189
 20
3.2686325892
 30
0.0
 10
3.890526486
 20
3.268244836
 30
0.0
 10
3.8758456527
 20
3.2678576739
 30
0.0
 10
3.8647845846
 20
3.267524152
 30
0.0
 10
3.8568865385
 20
3.267253912
 30
0.0
 10
3.8516846173
 20
3.267059494
 30
0.0
 10
3.846968895
 20
3.2668652562
 30
0.0
 10
3.8427420461
 20
3.266671277
 30
0.0
 10
3.8390062602
 20
3.2664776516
 30
0.0
 10
3.8357635781
 20
3.2662846165
 30
0.0
 10
3.8330161048
 20
3.2660922885
 30
0.0
 10
3.830765443
 20
3.2659017585
 30
0.0
 10
3.8290132026
 20
3.265712726
 30
0.0
 10
3.8278651421
 20
3.2655469568
 30
0.0
 10
3.8272473401
 20
3.2654151168
 30
0.0
 10
3.8269976849
 20
3.2653452865
 30
0.0
 10
3.8268564446
 20
3.2652976236
 30
0.0
 10
3.8267448758
 20
3.2652488523
 30
0.0
 10
3.8266525506
 20
3.2651959294
 30
0.0
 10
3.826597161
 20
3.2651355534
 30
0.0
 10
3.8265970805
 20
3.2650968536
 30
0.0
  0
SPLINE
  5
3CC
100
AcDbEntity
  8
ALL_FEATURES
100
AcDbSpline
 62
7
  6
CONTINUOUS
 70
0
 71
3
 72
63
 73
59
 74
0
 42
0.0000001
 43
0.0000001
 44
0.0000000001
 40
0.0
 40
0.0
 40
0.0
 40
0.0
 40
0.0002495781
 40
0.0004597261
 40
0.000736932
 40
0.0010839522
 40
0.001502167
 40
0.0019923573
 40
0.0025549712
 40
0.0038980338
 40
0.0055317682
 40
0.0096692242
 40
0.014961165
 40
0.0213988491
 40
0.0289672929
 40
0.0376474071
 40
0.0474198469
 40
0.0582635545
 40
0.0701512799
 40
0.0830542707
 40
0.0969436647
 40
0.1117872129
 40
0.1441892443
 40
0.1799571855
 40
0.2187501064
 40
0.2602043953
 40
0.3039257154
 40
0.3495028041
 40
0.3965034715
 40
0.4444843221
 40
0.4929912312
 40
0.5415661406
 40
0.5897492739
 40
0.6370860298
 40
0.6831277304
 40
0.7274406384
 40
0.7696043807
 40
0.8092217996
 40
0.8459177043
 40
0.8793454453
 40
0.9091902953
 40
0.9226791959
 40
0.9351685815
 40
0.9466308323
 40
0.9570385878
 40
0.9663654214
 40
0.974590958
 40
0.9816974287
 40
0.9876673184
 40
0.9902212359
 40
0.9924863738
 40
0.9944619866
 40
0.9961474879
 40
0.9975425831
 40
0.9986475795
 40
0.9994642463
 40
0.9997663306
 40
1.0
 40
1.0
 40
1.0
 40
1.0
 10
4.2254523717
 20
2.4986490054
 30
0.0
 10
4.2254523465
 20
2.4987210674
 30
0.0
 10
4.2255714196
 20
2.4988291195
 30
0.0
 10
4.2257543179
 20
2.4989206783
 30
0.0
 10
4.2259824465
 20
2.4990078957
 30
0.0
 10
4.2262702766
 20
2.4990927072
 30
0.0
 10
4.2266228261
 20
2.4991790158
 30
0.0
 10
4.227038656
 20
2.499265232
 30
0.0
 10
4.2277195687
 20
2.4993879473
 30
0.0
 10
4.2287306996
 20
2.4995375384
 30
0.0
 10
4.2307698145
 20
2.4997865864
 30
0.0
 10
4.2339506479
 20
2.5000850479
 30
0.0
 10
4.238519398
 20
2.5004262652
 30
0.0
 10
4.244081007
 20
2.5007691612
 30
0.0
 10
4.2506223017
 20
2.5011138107
 30
0.0
 10
4.2581275738
 20
2.5014594001
 30
0.0
 10
4.2665793732
 20
2.5018056778
 30
0.0
 10
4.2759580029
 20
2.5021523328
 30
0.0
 10
4.2862410773
 20
2.5024993631
 30
0.0
 10
4.2974039976
 20
2.5028466761
 30
0.0
 10
4.3094207438
 20
2.503194179
 30
0.0
 10
4.3270661124
 20
2.5036717457
 30
0.0
 10
4.3510277836
 20
2.504262938
 30
0.0
 10
4.3819040175
 20
2.5049543998
 30
0.0
 10
4.4153945379
 20
2.5056467858
 30
0.0
 10
4.4511819219
 20
2.5063397321
 30
0.0
 10
4.4889284703
 20
2.5070331863
 30
0.0
 10
4.528276706
 20
2.5077269139
 30
0.0
 10
4.568854998
 20
2.5084208921
 30
0.0
 10
4.6102793509
 20
2.5091149907
 30
0.0
 10
4.6521583041
 20
2.5098091756
 30
0.0
 10
4.6940956716
 20
2.5105033552
 30
0.0
 10
4.7356951288
 20
2.5111975006
 30
0.0
 10
4.7765630588
 20
2.5118915008
 30
0.0
 10
4.8163133567
 20
2.5125853392
 30
0.0
 10
4.8545697944
 20
2.5132788538
 30
0.0
 10
4.8909710052
 20
2.5139719964
 30
0.0
 10
4.9251725098
 20
2.5146645536
 30
0.0
 10
4.9568510905
 20
2.5153562944
 30
0.0
 10
4.9857072779
 20
2.516047
 30
0.0
 10
5.0078631585
 20
2.5166393195
 30
0.0
 10
5.0239741429
 20
2.517118851
 30
0.0
 10
5.0347789797
 20
2.5174660898
 30
0.0
 10
5.0446936962
 20
2.5178129962
 30
0.0
 10
5.0536946808
 20
2.5181594745
 30
0.0
 10
5.0617603662
 20
2.5185055102
 30
0.0
 10
5.0688719217
 20
2.5188507442
 30
0.0
 10
5.075012953
 20
2.5191949313
 30
0.0
 10
5.0795162229
 20
2.519493516
 30
0.0
 10
5.0826218523
 20
2.5197373886
 30
0.0
 10
5.0845761075
 20
2.5199103613
 30
0.0
 10
5.0862785852
 20
2.52008285
 30
0.0
 10
5.087728381
 20
2.5202547784
 30
0.0
 10
5.0889250921
 20
2.5204253855
 30
0.0
 10
5.0898676385
 20
2.5205948544
 30
0.0
 10
5.0904934375
 20
2.5207436158
 30
0.0
 10
5.0908630164
 20
2.5208702973
 30
0.0
 10
5.0910043793
 20
2.5209345807
 30
0.0
 10
5.0910627735
 20
2.5209683761
 30
0.0
  0
SPLINE
  5
3CD
100
AcDbEntity
  8
ALL_FEATURES
100
AcDbSpline
 62
7
  6
CONTINUOUS
 70
0
 71
3
 72
46
 73
42
 74
0
 42
0.0000001
 43
0.0000001
 44
0.0000000001
 40
0.0
 40
0.0
 40
0.0
 40
0.0
 40
0.000208714
 40
0.0003781051
 40
0.0005994727
 40
0.0008752374
 40
0.0012066021
 40
0.0015942287
 40
0.0020385073
 40
0.0030978456
 40
0.0043857026
 40
0.0076479886
 40
0.0118247431
 40
0.016908981
 40
0.022891334
 40
0.0297621076
 40
0.0375111261
 40
0.0461243904
 40
0.0555853795
 40
0.0658774882
 40
0.0769839747
 40
0.0888853858
 40
0.1149837674
 40
0.1439912277
 40
0.1757013183
 40
0.2098909422
 40
0.2463176175
 40
0.2847233194
 40
0.324836782
 40
0.3663734592
 40
0.4090408285
 40
0.4965554452
 40
0.5849085094
 40
0.6716046795
 40
0.7541992905
 40
0.8303611797
 40
0.897937856
 40
0.927900012
 40
0.9550203376
 40
0.9791114083
 40
1.0
 40
1.0
 40
1.0
 40
1.0
 10
5.1158462733
 20
2.4959033022
 30
0.0
 10
5.1158462733
 20
2.4958427785
 30
0.0
 10
5.1157549709
 20
2.495749441
 30
0.0
 10
5.1156072367
 20
2.4956687309
 30
0.0
 10
5.1154267642
 20
2.4955934115
 30
0.0
 10
5.1151986082
 20
2.4955199406
 30
0.0
 10
5.1149196217
 20
2.4954453079
 30
0.0
 10
5.1145906634
 20
2.4953707163
 30
0.0
 10
5.1140525074
 20
2.4952646001
 30
0.0
 10
5.1132532566
 20
2.4951351565
 30
0.0
 10
5.1116408184
 20
2.4949196159
 30
0.0
 10
5.1091229081
 20
2.4946612549
 30
0.0
 10
5.1055032781
 20
2.4943661994
 30
0.0
 10
5.1010927821
 20
2.4940695979
 30
0.0
 10
5.095899733
 20
2.4937714855
 30
0.0
 10
5.0899328758
 20
2.493472603
 30
0.0
 10
5.08320229
 20
2.4931731772
 30
0.0
 10
5.0757199369
 20
2.492873348
 30
0.0
 10
5.0674996073
 20
2.4925731853
 30
0.0
 10
5.0585558513
 20
2.4922727854
 30
0.0
 10
5.048904049
 20
2.4919722347
 30
0.0
 10
5.0346700112
 20
2.491558533
 30
0.0
 10
5.0152456897
 20
2.491046361
 30
0.0
 10
4.9900775405
 20
2.4904480743
 30
0.0
 10
4.962562475
 20
2.4898489858
 30
0.0
 10
4.932895499
 20
2.4892493422
 30
0.0
 10
4.9012865408
 20
2.4886492795
 30
0.0
 10
4.8679594778
 20
2.4880489043
 30
0.0
 10
4.8331503704
 20
2.4874483223
 30
0.0
 10
4.7971052737
 20
2.4868475501
 30
0.0
 10
4.7473161453
 20
2.4860395867
 30
0.0
 10
4.6839523294
 20
2.4850404704
 30
0.0
 10
4.6078222778
 20
2.4838510515
 30
0.0
 10
4.5331191146
 20
2.4826622607
 30
0.0
 10
4.4619516253
 20
2.4814752708
 30
0.0
 10
4.3963292625
 20
2.4802911419
 30
0.0
 10
4.345969025
 20
2.4792728398
 30
0.0
 10
4.3098293978
 20
2.4784410401
 30
0.0
 10
4.2862979158
 20
2.4778433598
 30
0.0
 10
4.2653985293
 20
2.47724725
 30
0.0
 10
4.252362068
 20
2.4768200398
 30
0.0
 10
4.2463086438
 20
2.476601728
 30
0.0
  0
SPLINE
  5
3CE
100
AcDbEntity
  8
ALL_FEATURES
100
AcDbSpline
 62
7
  6
CONTINUOUS
 70
0
 71
3
 72
37
 73
33
 74
0
 42
0.0000001
 43
0.0000001
 44
0.0000000001
 40
0.0
 40
0.0
 40
0.0
 40
0.0
 40
0.0846180034
 40
0.1715654123
 40
0.2596345178
 40
0.3475992409
 40
0.4342344421
 40
0.5183379991
 40
0.5987419911
 40
0.6743290978
 40
0.7440503656
 40
0.7764031041
 40
0.8069347509
 40
0.8355369711
 40
0.8621099986
 40
0.8865648673
 40
0.9088137557
 40
0.9287794958
 40
0.9463963272
 40
0.9615997419
 40
0.9682794285
 40
0.9743377915
 40
0.979770063
 40
0.9845715649
 40
0.9887377659
 40
0.9922649379
 40
0.9951520384
 40
0.9973995897
 40
0.9982844465
 40
0.999011105
 40
0.9995815038
 40
1.0
 40
1.0
 40
1.0
 40
1.0
 10
4.5041082492
 20
2.4766016909
 30
0.0
 10
4.5213630574
 20
2.4768889232
 30
0.0
 10
4.5563478789
 20
2.477458898
 30
0.0
 10
4.6092917057
 20
2.4782987207
 30
0.0
 10
4.6629181525
 20
2.4791386969
 30
0.0
 10
4.7164809193
 20
2.479978655
 30
0.0
 10
4.7692348456
 20
2.4808184313
 30
0.0
 10
4.820446625
 20
2.4816578229
 30
0.0
 10
4.8694049275
 20
2.4824966069
 30
0.0
 10
4.915429632
 20
2.4833345726
 30
0.0
 10
4.9516552586
 20
2.4840482772
 30
0.0
 10
4.9786930329
 20
2.4846248397
 30
0.0
 10
4.997346278
 20
2.4850462089
 30
0.0
 10
5.0148204813
 20
2.4854673611
 30
0.0
 10
5.0310549931
 20
2.4858882912
 30
0.0
 10
5.0459933343
 20
2.4863087991
 30
0.0
 10
5.0595836014
 20
2.4867288744
 30
0.0
 10
5.0717785953
 20
2.4871483178
 30
0.0
 10
5.0825357994
 20
2.4875667814
 30
0.0
 10
5.0905834889
 20
2.4879280387
 30
0.0
 10
5.0962743978
 20
2.4882214907
 30
0.0
 10
5.0999741476
 20
2.4884317579
 30
0.0
 10
5.1032901908
 20
2.4886417345
 30
0.0
 10
5.1062195154
 20
2.4888513071
 30
0.0
 10
5.1087592113
 20
2.4890603487
 30
0.0
 10
5.1109071056
 20
2.4892684176
 30
0.0
 10
5.1126615293
 20
2.4894753908
 30
0.0
 10
5.1138762312
 20
2.4896566358
 30
0.0
 10
5.1146486936
 20
2.4898078222
 30
0.0
 10
5.1150817836
 20
2.4899113194
 30
0.0
 10
5.1154163253
 20
2.4900138694
 30
0.0
 10
5.1156032335
 20
2.4900925424
 30
0.0
 10
5.1156771973
 20
2.4901351314
 30
0.0
  0
SPLINE
  5
3CF
100
AcDbEntity
  8
ALL_FEATURES
100
AcDbSpline
 62
7
  6
CONTINUOUS
 70
0
 71
3
 72
46
 73
42
 74
0
 42
0.0000001
 43
0.0000001
 44
0.0000000001
 40
0.0
 40
0.0
 40
0.0
 40
0.0
 40
0.0002085802
 40
0.0003777886
 40
0.0005988941
 40
0.0008743186
 40
0.0012052665
 40
0.0015924008
 40
0.0020361124
 40
0.0030940975
 40
0.0043803146
 40
0.0076384894
 40
0.0118098683
 40
0.0168873381
 40
0.0228617787
 40
0.0297237469
 40
0.0374629488
 40
0.0460649143
 40
0.0555136001
 40
0.0657929196
 40
0.0768862421
 40
0.0887732803
 40
0.1148410297
 40
0.1438163323
 40
0.1754917524
 40
0.2096466442
 40
0.2460373299
 40
0.2844085055
 40
0.3244877235
 40
0.3659927656
 40
0.4086303861
 40
0.4960962164
 40
0.5844224848
 40
0.6711174127
 40
0.7537393509
 40
0.8299608977
 40
0.8976331992
 40
0.9276543132
 40
0.9548441118
 40
0.979018115
 40
1.0
 40
1.0
 40
1.0
 40
1.0
 10
4.2008462733
 20
2.5128547089
 30
0.0
 10
4.2008462733
 20
2.5129151601
 30
0.0
 10
4.2009373635
 20
2.513008414
 30
0.0
 10
4.2010848501
 20
2.513089072
 30
0.0
 10
4.2012649783
 20
2.5131643235
 30
0.0
 10
4.2014927068
 20
2.5132377304
 30
0.0
 10
4.2017711685
 20
2.5133122958
 30
0.0
 10
4.2020995103
 20
2.51338682
 30
0.0
 10
4.2026366601
 20
2.5134928393
 30
0.0
 10
4.2034344266
 20
2.5136221637
 30
0.0
 10
4.2050438969
 20
2.513837504
 30
0.0
 10
4.2075571698
 20
2.5140956088
 30
0.0
 10
4.2111700598
 20
2.5143903732
 30
0.0
 10
4.215572272
 20
2.5146866965
 30
0.0
 10
4.2207556068
 20
2.5149845263
 30
0.0
 10
4.2267114345
 20
2.5152831209
 30
0.0
 10
4.233429583
 20
2.5155822545
 30
0.0
 10
4.2408980642
 20
2.5158818109
 30
0.0
 10
4.2491032485
 20
2.5161816955
 30
0.0
 10
4.2580309147
 20
2.5164818121
 30
0.0
 10
4.2676656324
 20
2.5167820649
 30
0.0
 10
4.2818748511
 20
2.5171954011
 30
0.0
 10
4.3012659471
 20
2.5177071191
 30
0.0
 10
4.326391778
 20
2.5183048425
 30
0.0
 10
4.3538620245
 20
2.5189034112
 30
0.0
 10
4.3834818695
 20
2.5195024798
 30
0.0
 10
4.4150426522
 20
2.5201020233
 30
0.0
 10
4.4483207219
 20
2.5207018275
 30
0.0
 10
4.4830812692
 20
2.5213018842
 30
0.0
 10
4.5190785004
 20
2.5219020915
 30
0.0
 10
4.5688078652
 20
2.5227093648
 30
0.0
 10
4.6321057328
 20
2.5237076226
 30
0.0
 10
4.7081709635
 20
2.524895991
 30
0.0
 10
4.7828321654
 20
2.5260837476
 30
0.0
 10
4.8539847293
 20
2.5272697239
 30
0.0
 10
4.9196233464
 20
2.5284528517
 30
0.0
 10
4.9700175429
 20
2.5294701719
 30
0.0
 10
5.0062019302
 20
2.5303010682
 30
0.0
 10
5.0297815403
 20
2.5308981868
 30
0.0
 10
5.0507404803
 20
2.5314939877
 30
0.0
 10
5.0638207591
 20
2.531920792
 30
0.0
 10
5.0698978614
 20
2.5321388105
 30
0.0
  0
SPLINE
  5
3D0
100
AcDbEntity
  8
ALL_FEATURES
100
AcDbSpline
 62
7
  6
CONTINUOUS
 70
0
 71
3
 72
72
 73
68
 74
0
 42
0.0000001
 43
0.0000001
 44
0.0000000001
 40
0.0
 40
0.0
 40
0.0
 40
0.0
 40
0.0000692448
 40
0.0001242381
 40
0.0001957137
 40
0.0002845175
 40
0.0003910792
 40
0.0006583197
 40
0.0014120039
 40
0.0024600086
 40
0.0038029249
 40
0.0054407301
 40
0.0073730396
 40
0.009598654
 40
0.0121160654
 40
0.0149237304
 40
0.0180200842
 40
0.0214035474
 40
0.02902449
 40
0.0377674306
 40
0.0476112532
 40
0.0585340655
 40
0.0705089196
 40
0.0835067535
 40
0.0974979588
 40
0.1124485244
 40
0.1283222572
 40
0.1450825604
 40
0.1810988959
 40
0.2201544271
 40
0.2618763722
 40
0.3058681183
 40
0.351709938
 40
0.398964978
 40
0.4471837263
 40
0.495905869
 40
0.5446675175
 40
0.5930044007
 40
0.6404552508
 40
0.6865685283
 40
0.7309046535
 40
0.7730410089
 40
0.8125766948
 40
0.8491342716
 40
0.882366005
 40
0.89763444
 40
0.9119556695
 40
0.9252944585
 40
0.9376203285
 40
0.9489039567
 40
0.9591171341
 40
0.9682368564
 40
0.9762416745
 40
0.9831110374
 40
0.9861151037
 40
0.9888299698
 40
0.9912540651
 40
0.9933858441
 40
0.995223822
 40
0.996767088
 40
0.998015412
 40
0.9985290004
 40
0.9989689494
 40
0.9993354185
 40
0.9996287384
 40
0.9998496373
 40
1.0
 40
1.0
 40
1.0
 40
1.0
 10
3.8265962733
 20
3.2150968655
 30
0.0
 10
3.8265962733
 20
3.2151352689
 30
0.0
 10
3.8266510287
 20
3.2151953149
 30
0.0
 10
3.8267425081
 20
3.2152479444
 30
0.0
 10
3.8268530076
 20
3.2152964356
 30
0.0
 10
3.8269929102
 20
3.2153438286
 30
0.0
 10
3.8272401679
 20
3.2154132642
 30
0.0
 10
3.8278518782
 20
3.2155443622
 30
0.0
 10
3.8289882752
 20
3.2157092597
 30
0.0
 10
3.8307221072
 20
3.2158973523
 30
0.0
 10
3.8329486002
 20
3.2160869956
 30
0.0
 10
3.835666684
 20
3.2162783946
 30
0.0
 10
3.838875327
 20
3.2164704283
 30
0.0
 10
3.8425724994
 20
3.216663028
 30
0.0
 10
3.84675571
 20
3.2168559688
 30
0.0
 10
3.8514222779
 20
3.2170491639
 30
0.0
 10
3.8565695236
 20
3.2172425573
 30
0.0
 10
3.8643852381
 20
3.2175113879
 30
0.0
 10
3.8753321981
 20
3.2178431037
 30
0.0
 10
3.8898619956
 20
3.2182281906
 30
0.0
 10
3.9062235714
 20
3.2186139829
 30
0.0
 10
3.924378009
 20
3.2190002459
 30
0.0
 10
3.9442820217
 20
3.219386895
 30
0.0
 10
3.9658880626
 20
3.2197738621
 30
0.0
 10
3.9891446839
 20
3.2201610081
 30
0.0
 10
4.0139964905
 20
3.2205483322
 30
0.0
 10
4.0403842199
 20
3.2209358323
 30
0.0
 10
4.0784542546
 20
3.2214653831
 30
0.0
 10
4.1293804459
 20
3.2221221752
 30
0.0
 10
4.1941500788
 20
3.2228935856
 30
0.0
 10
4.2633431838
 20
3.2236656811
 30
0.0
 10
4.3363002007
 20
3.2244382711
 30
0.0
 10
4.41232605
 20
3.225211211
 30
0.0
 10
4.4906963224
 20
3.2259844042
 30
0.0
 10
4.5706641054
 20
3.2267577417
 30
0.0
 10
4.6514674958
 20
3.2275311619
 30
0.0
 10
4.7323364072
 20
3.2283045863
 30
0.0
 10
4.8125002239
 20
3.2290779437
 30
0.0
 10
4.8911951779
 20
3.2298511688
 30
0.0
 10
4.9676711917
 20
3.2306241557
 30
0.0
 10
5.0411996178
 20
3.2313968162
 30
0.0
 10
5.1110798856
 20
3.2321690183
 30
0.0
 10
5.1766458767
 20
3.2329405194
 30
0.0
 10
5.2372729796
 20
3.2337111825
 30
0.0
 10
5.284441702
 20
3.2343694598
 30
0.0
 10
5.319278597
 20
3.2349011212
 30
0.0
 10
5.3430837096
 20
3.235288333
 30
0.0
 10
5.3652566389
 20
3.2356753733
 30
0.0
 10
5.3857446343
 20
3.2360621426
 30
0.0
 10
5.4044988294
 20
3.2364485341
 30
0.0
 10
5.4214744802
 20
3.2368345454
 30
0.0
 10
5.4366311932
 20
3.2372198629
 30
0.0
 10
5.4499327642
 20
3.2376042636
 30
0.0
 10
5.45984259
 20
3.2379365091
 30
0.0
 10
5.4668188904
 20
3.2382065268
 30
0.0
 10
5.4713309225
 20
3.2383996713
 30
0.0
 10
5.4753587071
 20
3.2385925131
 30
0.0
 10
5.478899559
 20
3.2387849753
 30
0.0
 10
5.4819511354
 20
3.2389767942
 30
0.0
 10
5.4845116389
 20
3.2391678801
 30
0.0
 10
5.4863372932
 20
3.2393345907
 30
0.0
 10
5.4875507356
 20
3.2394719558
 30
0.0
 10
5.4882766086
 20
3.2395678113
 30
0.0
 10
5.4888790047
 20
3.2396631943
 30
0.0
 10
5.4893587117
 20
3.2397574898
 30
0.0
 10
5.4897149666
 20
3.239850746
 30
0.0
 10
5.4899094866
 20
3.2399233959
 30
0.0
 10
5.4899817511
 20
3.2399650132
 30
0.0
  0
SPLINE
  5
3D1
100
AcDbEntity
  8
ALL_FEATURES
100
AcDbSpline
 62
7
  6
CONTINUOUS
 70
0
 71
3
 72
38
 73
34
 74
0
 42
0.0000001
 43
0.0000001
 44
0.0000000001
 40
0.0
 40
0.0
 40
0.0
 40
0.0
 40
0.0969692436
 40
0.1930561026
 40
0.2872988097
 40
0.378837553
 40
0.4668067432
 40
0.550374315
 40
0.6287526201
 40
0.7012037141
 40
0.7670455776
 40
0.7972900027
 40
0.8256555578
 40
0.8520738408
 40
0.8764823077
 40
0.8988255566
 40
0.9190489117
 40
0.9371047014
 40
0.9529527431
 40
0.9665537039
 40
0.9725012978
 40
0.9778762633
 40
0.9826756816
 40
0.9868966842
 40
0.9905364875
 40
0.9935930082
 40
0.9960657193
 40
0.9970832234
 40
0.997954988
 40
0.9986813379
 40
0.9992629386
 40
0.9997012444
 40
1.0
 40
1.0
 40
1.0
 40
1.0
 10
4.6583462733
 20
3.2387293181
 30
0.0
 10
4.6314606582
 20
3.2384720912
 30
0.0
 10
4.5779340772
 20
3.2379599816
 30
0.0
 10
4.4982779073
 20
3.2371906919
 30
0.0
 10
4.4201275325
 20
3.2364215145
 30
0.0
 10
4.3442280678
 20
3.2356526094
 30
0.0
 10
4.2712886715
 20
3.2348840221
 30
0.0
 10
4.2019985011
 20
3.2341159079
 30
0.0
 10
4.1370113332
 20
3.2333484659
 30
0.0
 10
4.0769393632
 20
3.2325818691
 30
0.0
 10
4.0302132527
 20
3.2319270552
 30
0.0
 10
3.9957103034
 20
3.2313981591
 30
0.0
 10
3.9721374979
 20
3.2310129884
 30
0.0
 10
3.9501830663
 20
3.2306280257
 30
0.0
 10
3.9298987225
 20
3.2302432867
 30
0.0
 10
3.9113323844
 20
3.2298589345
 30
0.0
 10
3.8945278683
 20
3.2294750114
 30
0.0
 10
3.8795247914
 20
3.2290917218
 30
0.0
 10
3.8663585702
 20
3.228709339
 30
0.0
 10
3.8565495928
 20
3.2283788848
 30
0.0
 10
3.8496442071
 20
3.2281103006
 30
0.0
 10
3.8451781509
 20
3.2279181865
 30
0.0
 10
3.8411913037
 20
3.2277263754
 30
0.0
 10
3.8376861755
 20
3.2275349395
 30
0.0
 10
3.8346650666
 20
3.2273441597
 30
0.0
 10
3.8321298142
 20
3.2271540986
 30
0.0
 10
3.8303219904
 20
3.2269882761
 30
0.0
 10
3.8291202442
 20
3.2268516469
 30
0.0
 10
3.8284012076
 20
3.2267562956
 30
0.0
 10
3.827804344
 20
3.2266614123
 30
0.0
 10
3.8273288749
 20
3.2265675991
 30
0.0
 10
3.8269755348
 20
3.2264748187
 30
0.0
 10
3.8267825398
 20
3.2264025469
 30
0.0
 10
3.8267107613
 20
3.2263611979
 30
0.0
  0
SPLINE
  5
3D2
100
AcDbEntity
  8
ALL_FEATURES
100
AcDbSpline
 62
7
  6
CONTINUOUS
 70
0
 71
3
 72
63
 73
59
 74
0
 42
0.0000001
 43
0.0000001
 44
0.0000000001
 40
0.0
 40
0.0
 40
0.0
 40
0.0
 40
0.0002337237
 40
0.0005357424
 40
0.0013519183
 40
0.0024565929
 40
0.0038517716
 40
0.0055375864
 40
0.0075135602
 40
0.0097789225
 40
0.0123327437
 40
0.0183015586
 40
0.0254082542
 40
0.0336345119
 40
0.0429610494
 40
0.0533681129
 40
0.0648308876
 40
0.0773207307
 40
0.0908088709
 40
0.1206541619
 40
0.1540812612
 40
0.1907778435
 40
0.2303945963
 40
0.2725589117
 40
0.3168713433
 40
0.3629133552
 40
0.4102498794
 40
0.4584331383
 40
0.5070079327
 40
0.5555150076
 40
0.6034956397
 40
0.650496634
 40
0.6960733443
 40
0.7397951007
 40
0.7812490177
 40
0.8200422739
 40
0.8558101939
 40
0.8882121258
 40
0.9030553813
 40
0.9169456234
 40
0.9298485938
 40
0.9417356684
 40
0.9525794708
 40
0.9623527815
 40
0.9710324253
 40
0.9786002714
 40
0.9850386786
 40
0.9903311423
 40
0.9944679865
 40
0.9961014436
 40
0.9974444917
 40
0.9980072527
 40
0.9984977033
 40
0.9989161926
 40
0.9992633771
 40
0.9995406055
 40
0.9997506704
 40
1.0
 40
1.0
 40
1.0
 40
1.0
 10
4.2256301086
 20
2.4877896358
 30
0.0
 10
4.2256885267
 20
2.4878234212
 30
0.0
 10
4.2258298885
 20
2.4878876927
 30
0.0
 10
4.226199318
 20
2.4880143615
 30
0.0
 10
4.2268248391
 20
2.488163189
 30
0.0
 10
4.2277671777
 20
2.4883326405
 30
0.0
 10
4.2289639119
 20
2.4885032316
 30
0.0
 10
4.2304139293
 20
2.4886751497
 30
0.0
 10
4.2321166676
 20
2.4888476333
 30
0.0
 10
4.2340710642
 20
2.4890206029
 30
0.0
 10
4.237176419
 20
2.4892644681
 30
0.0
 10
4.2416794088
 20
2.4895631263
 30
0.0
 10
4.2478204041
 20
2.4899072662
 30
0.0
 10
4.2549321465
 20
2.4902524723
 30
0.0
 10
4.2629977515
 20
2.4905985247
 30
0.0
 10
4.2719985982
 20
2.4909450325
 30
0.0
 10
4.2819133964
 20
2.4912919114
 30
0.0
 10
4.2927182943
 20
2.4916391343
 30
0.0
 10
4.3088293122
 20
2.4921187162
 30
0.0
 10
4.3309849101
 20
2.4927109791
 30
0.0
 10
4.3598412254
 20
2.4934017335
 30
0.0
 10
4.3915196155
 20
2.4940934297
 30
0.0
 10
4.4257212778
 20
2.4947860259
 30
0.0
 10
4.4621223139
 20
2.4954791358
 30
0.0
 10
4.5003788575
 20
2.4961726753
 30
0.0
 10
4.5401290291
 20
2.4968664957
 30
0.0
 10
4.5809970059
 20
2.4975605077
 30
0.0
 10
4.6225963869
 20
2.4982546448
 30
0.0
 10
4.6645337926
 20
2.4989488313
 30
0.0
 10
4.706412685
 20
2.4996430075
 30
0.0
 10
4.7478371043
 20
2.5003371176
 30
0.0
 10
4.7884153065
 20
2.50103108
 30
0.0
 10
4.8277636411
 20
2.5017248267
 30
0.0
 10
4.8655100879
 20
2.5024182596
 30
0.0
 10
4.9012975761
 20
2.5031112262
 30
0.0
 10
4.9347880701
 20
2.5038035961
 30
0.0
 10
4.9656643565
 20
2.5044950673
 30
0.0
 10
4.9896259015
 20
2.505086244
 30
0.0
 10
5.0072713956
 20
2.5055638417
 30
0.0
 10
5.0192882937
 20
2.5059113121
 30
0.0
 10
5.0304512617
 20
2.5062586275
 30
0.0
 10
5.0407341657
 20
2.5066056785
 30
0.0
 10
5.0501128831
 20
2.5069523432
 30
0.0
 10
5.0585648252
 20
2.5072985719
 30
0.0
 10
5.0660700372
 20
2.5076441826
 30
0.0
 10
5.0726112276
 20
2.5079888797
 30
0.0
 10
5.0781730242
 20
2.5083317412
 30
0.0
 10
5.0827419612
 20
2.508672901
 30
0.0
 10
5.0859226842
 20
2.5089714038
 30
0.0
 10
5.0879615337
 20
2.5092204684
 30
0.0
 10
5.0889726204
 20
2.5093700668
 30
0.0
 10
5.0896536489
 20
2.5094927772
 30
0.0
 10
5.0900696803
 20
2.509578988
 30
0.0
 10
5.0904224406
 20
2.5096652873
 30
0.0
 10
5.0907104116
 20
2.5097500836
 30
0.0
 10
5.0909385732
 20
2.5098373209
 30
0.0
 10
5.0911213847
 20
2.5099288159
 30
0.0
 10
5.0912403023
 20
2.510037018
 30
0.0
 10
5.0912400884
 20
2.5101090079
 30
0.0
  0
SPLINE
  5
3D3
100
AcDbEntity
  8
ALL_FEATURES
100
AcDbSpline
 62
7
  6
CONTINUOUS
 70
0
 71
3
 72
72
 73
68
 74
0
 42
0.0000001
 43
0.0000001
 44
0.0000000001
 40
0.0
 40
0.0
 40
0.0
 40
0.0
 40
0.0000692451
 40
0.0001242389
 40
0.0001957151
 40
0.0002845198
 40
0.0003910826
 40
0.0006583257
 40
0.0014120165
 40
0.0024600288
 40
0.0038029527
 40
0.0054407647
 40
0.0073730832
 40
0.0095987133
 40
0.0121161446
 40
0.0149238311
 40
0.0180202051
 40
0.0214036848
 40
0.0290246696
 40
0.0377676775
 40
0.0476115579
 40
0.0585344232
 40
0.0705093643
 40
0.0835072783
 40
0.0974985539
 40
0.112449223
 40
0.1283230323
 40
0.1450833615
 40
0.1810998188
 40
0.220155602
 40
0.2618778834
 40
0.3058700003
 40
0.3517120965
 40
0.3989673519
 40
0.4471863006
 40
0.4959086125
 40
0.5446704075
 40
0.5930073916
 40
0.6404583376
 40
0.6865716772
 40
0.7309078326
 40
0.7730442973
 40
0.8125799382
 40
0.8491372277
 40
0.8823687605
 40
0.8976370045
 40
0.9119581515
 40
0.9252968503
 40
0.9376224665
 40
0.9489058834
 40
0.9591188061
 40
0.9682380536
 40
0.9762424538
 40
0.9831115673
 40
0.9861155068
 40
0.9888302541
 40
0.9912542475
 40
0.9933859503
 40
0.9952238836
 40
0.9967671211
 40
0.998015427
 40
0.9985290096
 40
0.9989689545
 40
0.9993354209
 40
0.9996287393
 40
0.9998496374
 40
1.0
 40
1.0
 40
1.0
 40
1.0
 10
3.8265962733
 20
3.1650968186
 30
0.0
 10
3.8265962733
 20
3.1651352222
 30
0.0
 10
3.8266510296
 20
3.1651952682
 30
0.0
 10
3.8267425099
 20
3.1652478976
 30
0.0
 10
3.8268530106
 20
3.165296389
 30
0.0
 10
3.8269929148
 20
3.165343782
 30
0.0
 10
3.8272401751
 20
3.1654132176
 30
0.0
 10
3.8278518911
 20
3.1655443159
 30
0.0
 10
3.8289882975
 20
3.1657092138
 30
0.0
 10
3.8307221415
 20
3.1658973071
 30
0.0
 10
3.8329486467
 20
3.1660869513
 30
0.0
 10
3.8356667434
 20
3.1662783515
 30
0.0
 10
3.8388754039
 20
3.1664703866
 30
0.0
 10
3.842572601
 20
3.166662987
 30
0.0
 10
3.8467558433
 20
3.1668559286
 30
0.0
 10
3.8514224453
 20
3.1670491245
 30
0.0
 10
3.8565697233
 20
3.1672425185
 30
0.0
 10
3.8643854816
 20
3.1675113501
 30
0.0
 10
3.8753325113
 20
3.1678430673
 30
0.0
 10
3.8898624017
 20
3.1682281545
 30
0.0
 10
3.9062240763
 20
3.1686139485
 30
0.0
 10
3.9243786235
 20
3.1690002139
 30
0.0
 10
3.9442827584
 20
3.1693868635
 30
0.0
 10
3.9658889309
 20
3.1697738321
 30
0.0
 10
3.989145693
 20
3.1701609804
 30
0.0
 10
4.0139976385
 20
3.1705483049
 30
0.0
 10
4.0403854822
 20
3.1709358059
 30
0.0
 10
4.0784556411
 20
3.1714653588
 30
0.0
 10
4.1293820542
 20
3.1721221513
 30
0.0
 10
4.1941520809
 20
3.1728935656
 30
0.0
 10
4.2633457178
 20
3.1736656669
 30
0.0
 10
4.3363032802
 20
3.1744382608
 30
0.0
 10
4.4123296079
 20
3.1752112054
 30
0.0
 10
4.4907002642
 20
3.1759844021
 30
0.0
 10
4.5706683715
 20
3.1767577424
 30
0.0
 10
4.6514720482
 20
3.1775311661
 30
0.0
 10
4.7323411906
 20
3.178304593
 30
0.0
 10
4.8125051977
 20
3.179077954
 30
0.0
 10
4.8912002952
 20
3.1798511821
 30
0.0
 10
4.9676764133
 20
3.1806241718
 30
0.0
 10
5.0412049513
 20
3.1813968381
 30
0.0
 10
5.1110852714
 20
3.1821690439
 30
0.0
 10
5.1766511387
 20
3.1829405476
 30
0.0
 10
5.2372779459
 20
3.1837112168
 30
0.0
 10
5.2844462918
 20
3.1843694901
 30
0.0
 10
5.3192829238
 20
3.184901158
 30
0.0
 10
5.3430878346
 20
3.1852883703
 30
0.0
 10
5.3652605274
 20
3.18567541
 30
0.0
 10
5.3857482147
 20
3.1860621847
 30
0.0
 10
5.4045020105
 20
3.186448573
 30
0.0
 10
5.4214771398
 20
3.186834572
 30
0.0
 10
5.4366332163
 20
3.1872198861
 30
0.0
 10
5.4499341538
 20
3.187604281
 30
0.0
 10
5.4598435394
 20
3.1879365125
 30
0.0
 10
5.4668195654
 20
3.1882065233
 30
0.0
 10
5.4713314048
 20
3.1883996626
 30
0.0
 10
5.4753590247
 20
3.1885924996
 30
0.0
 10
5.478899753
 20
3.1887849577
 30
0.0
 10
5.4819512467
 20
3.1889767719
 30
0.0
 10
5.4845116998
 20
3.189167855
 30
0.0
 10
5.4863373251
 20
3.1893345641
 30
0.0
 10
5.4875507519
 20
3.1894719285
 30
0.0
 10
5.4882766178
 20
3.1895677838
 30
0.0
 10
5.4888790092
 20
3.1896631667
 30
0.0
 10
5.4893587134
 20
3.1897574622
 30
0.0
 10
5.489714967
 20
3.1898507185
 30
0.0
 10
5.4899094864
 20
3.1899233684
 30
0.0
 10
5.4899817509
 20
3.1899649857
 30
0.0
  0
SPLINE
  5
3D4
100
AcDbEntity
  8
ALL_FEATURES
100
AcDbSpline
 62
7
  6
CONTINUOUS
 70
0
 71
3
 72
72
 73
68
 74
0
 42
0.0000001
 43
0.0000001
 44
0.0000000001
 40
0.0
 40
0.0
 40
0.0
 40
0.0
 40
0.000069245
 40
0.0001242388
 40
0.0001957151
 40
0.00028452
 40
0.0003910832
 40
0.0006583276
 40
0.0014120244
 40
0.0024600492
 40
0.0038029944
 40
0.0054408389
 40
0.0073732116
 40
0.0095989273
 40
0.0121164671
 40
0.0149242761
 40
0.0180207777
 40
0.0214043812
 40
0.0290257066
 40
0.0377692018
 40
0.0476134407
 40
0.0585364776
 40
0.0705116816
 40
0.083509764
 40
0.0975010714
 40
0.1124519172
 40
0.1283258852
 40
0.1450862794
 40
0.1811030885
 40
0.2201589005
 40
0.2618810803
 40
0.305873152
 40
0.3517151699
 40
0.3989703479
 40
0.4471891932
 40
0.4959113657
 40
0.5446729968
 40
0.5930097799
 40
0.6404605261
 40
0.6865735944
 40
0.7309094022
 40
0.7730455518
 40
0.8125809154
 40
0.8491380607
 40
0.8823694927
 40
0.8976376338
 40
0.9119586953
 40
0.9252973258
 40
0.9376228524
 40
0.9489062009
 40
0.9591190754
 40
0.9682382548
 40
0.9762426006
 40
0.9831116817
 40
0.9861156002
 40
0.9888303263
 40
0.9912543007
 40
0.9933859897
 40
0.9952239157
 40
0.996767146
 40
0.9980154442
 40
0.9985290229
 40
0.9989689642
 40
0.9993354274
 40
0.999628743
 40
0.9998496389
 40
1.0
 40
1.0
 40
1.0
 40
1.0
 10
5.4900962733
 20
3.2012293582
 30
0.0
 10
5.4900962733
 20
3.2011909547
 30
0.0
 10
5.490041517
 20
3.2011309088
 30
0.0
 10
5.4899500366
 20
3.2010782794
 30
0.0
 10
5.4898395357
 20
3.2010297882
 30
0.0
 10
5.4896996311
 20
3.2009823952
 30
0.0
 10
5.4894523697
 20
3.2009129596
 30
0.0
 10
5.4888406494
 20
3.2007818612
 30
0.0
 10
5.4877042319
 20
3.200616963
 30
0.0
 10
5.4859703658
 20
3.2004288688
 30
0.0
 10
5.4837438239
 20
3.2002392228
 30
0.0
 10
5.4810256673
 20
3.200047819
 30
0.0
 10
5.4778169114
 20
3.1998557794
 30
0.0
 10
5.4741195766
 20
3.1996631747
 30
0.0
 10
5.4699361588
 20
3.199470228
 30
0.0
 10
5.465269358
 20
3.1992770269
 30
0.0
 10
5.4601218727
 20
3.1990836276
 30
0.0
 10
5.4523057862
 20
3.1988147865
 30
0.0
 10
5.4413582286
 20
3.1984830599
 30
0.0
 10
5.4268276801
 20
3.1980979698
 30
0.0
 10
5.4104654413
 20
3.1977121679
 30
0.0
 10
5.3923104544
 20
3.1973258923
 30
0.0
 10
5.372405985
 20
3.1969392476
 30
0.0
 10
5.3507995555
 20
3.1965522817
 30
0.0
 10
5.3275425844
 20
3.1961651309
 30
0.0
 10
5.3026904352
 20
3.1957778113
 30
0.0
 10
5.2763023694
 20
3.195390312
 30
0.0
 10
5.2382318912
 20
3.1948607555
 30
0.0
 10
5.1873052309
 20
3.1942039706
 30
0.0
 10
5.1225350494
 20
3.1934325565
 30
0.0
 10
5.0533414779
 20
3.1926604605
 30
0.0
 10
4.9803840402
 20
3.1918878725
 30
0.0
 10
4.9043578238
 20
3.1911149304
 30
0.0
 10
4.8259873111
 20
3.1903417372
 30
0.0
 10
4.7460193813
 20
3.1895684003
 30
0.0
 10
4.6652159302
 20
3.1887949793
 30
0.0
 10
4.5843470674
 20
3.1880215559
 30
0.0
 10
4.5041833734
 20
3.1872481975
 30
0.0
 10
4.4254886486
 20
3.186474973
 30
0.0
 10
4.3490129845
 20
3.1857019875
 30
0.0
 10
4.2754849645
 20
3.1849293251
 30
0.0
 10
4.2056051656
 20
3.184157125
 30
0.0
 10
4.1400397068
 20
3.1833856248
 30
0.0
 10
4.0794131892
 20
3.182614957
 30
0.0
 10
4.0322450362
 20
3.1819566869
 30
0.0
 10
3.9974085647
 20
3.1814250192
 30
0.0
 10
3.9736037962
 20
3.1810378084
 30
0.0
 10
3.9514312383
 20
3.180650771
 30
0.0
 10
3.9309436765
 20
3.1802639969
 30
0.0
 10
3.9121899951
 20
3.17987761
 30
0.0
 10
3.8952149683
 20
3.1794916135
 30
0.0
 10
3.8800589864
 20
3.1791063
 30
0.0
 10
3.8667581348
 20
3.1787219058
 30
0.0
 10
3.856848809
 20
3.1783896762
 30
0.0
 10
3.8498728243
 20
3.1781196661
 30
0.0
 10
3.8453610189
 20
3.1779265275
 30
0.0
 10
3.8413334289
 20
3.1777336914
 30
0.0
 10
3.8377927228
 20
3.1775412341
 30
0.0
 10
3.8347412447
 20
3.1773494214
 30
0.0
 10
3.8321808039
 20
3.1771583394
 30
0.0
 10
3.830355189
 20
3.1769916309
 30
0.0
 10
3.8291417706
 20
3.1768542669
 30
0.0
 10
3.8284159106
 20
3.176758412
 30
0.0
 10
3.8278135246
 20
3.1766630293
 30
0.0
 10
3.827333825
 20
3.176568734
 30
0.0
 10
3.8269775751
 20
3.1764754779
 30
0.0
 10
3.8267830578
 20
3.176402828
 30
0.0
 10
3.8267107943
 20
3.1763612108
 30
0.0
  0
SPLINE
  5
3D5
100
AcDbEntity
  8
ALL_FEATURES
100
AcDbSpline
 62
7
  6
CONTINUOUS
 70
0
 71
3
 72
72
 73
68
 74
0
 42
0.0000001
 43
0.0000001
 44
0.0000000001
 40
0.0
 40
0.0
 40
0.0
 40
0.0
 40
0.0001538664
 40
0.000378095
 40
0.000674609
 40
0.0010441741
 40
0.0014871512
 40
0.002003725
 40
0.0032579787
 40
0.0048072485
 40
0.0066511137
 40
0.0087883494
 40
0.0112175838
 40
0.0139374018
 40
0.0169463619
 40
0.0238256413
 40
0.0318392018
 40
0.0409668516
 40
0.0511880957
 40
0.0624789192
 40
0.0748111417
 40
0.0881562826
 40
0.1024831393
 40
0.1177562906
 40
0.1509962849
 40
0.1875593575
 40
0.2270985645
 40
0.2692362405
 40
0.3135712784
 40
0.3596819379
 40
0.4071282833
 40
0.4554588331
 40
0.504213108
 40
0.5529266619
 40
0.6011356503
 40
0.6483805097
 40
0.69421179
 40
0.7381924663
 40
0.7799035858
 40
0.818948677
 40
0.8549546907
 40
0.8717103077
 40
0.8875794314
 40
0.9025255261
 40
0.9165128042
 40
0.9295067694
 40
0.9414778196
 40
0.9523975239
 40
0.962238489
 40
0.9709786138
 40
0.9785975267
 40
0.9819802272
 40
0.9850756926
 40
0.9878824521
 40
0.9903990583
 40
0.9926240871
 40
0.9945561513
 40
0.9961939418
 40
0.9975367411
 40
0.9985846555
 40
0.9993384779
 40
0.9996059719
 40
0.9997127358
 40
0.9998018111
 40
0.9998736521
 40
0.9999291447
 40
1.0
 40
1.0
 40
1.0
 40
1.0
 10
5.4649779736
 20
3.2255271706
 30
0.0
 10
5.4649062657
 20
3.2254858309
 30
0.0
 10
5.4647145361
 20
3.2254131475
 30
0.0
 10
5.4643641285
 20
3.2253197905
 30
0.0
 10
5.4638941502
 20
3.2252254119
 30
0.0
 10
5.463305228
 20
3.2251300196
 30
0.0
 10
5.462596606
 20
3.2250341703
 30
0.0
 10
5.4614136166
 20
3.2248968965
 30
0.0
 10
5.4596352075
 20
3.2247302594
 30
0.0
 10
5.45714245
 20
3.2245392659
 30
0.0
 10
5.454173574
 20
3.2243475237
 30
0.0
 10
5.45073055
 20
3.2241550957
 30
0.0
 10
5.4468156946
 20
3.2239622809
 30
0.0
 10
5.4424314185
 20
3.2237691539
 30
0.0
 10
5.4356544138
 20
3.2234991727
 30
0.0
 10
5.426030007
 20
3.2231670054
 30
0.0
 10
5.4131141394
 20
3.2227826393
 30
0.0
 10
5.3983998284
 20
3.2223973718
 30
0.0
 10
5.3819220354
 20
3.2220114606
 30
0.0
 10
5.3637199631
 20
3.2216251268
 30
0.0
 10
5.3438370898
 20
3.2212383989
 30
0.0
 10
5.322320737
 20
3.2208514285
 30
0.0
 10
5.2992221106
 20
3.2204642745
 30
0.0
 10
5.2654222043
 20
3.219932695
 30
0.0
 10
5.2196611101
 20
3.2192745479
 30
0.0
 10
5.1608466852
 20
3.2185039883
 30
0.0
 10
5.0972454841
 20
3.2177326061
 30
0.0
 10
5.0294631634
 20
3.2169605246
 30
0.0
 10
4.9581455917
 20
3.2161879788
 30
0.0
 10
4.8839721237
 20
3.2154151133
 30
0.0
 10
4.8076492043
 20
3.2146420073
 30
0.0
 10
4.7299041116
 20
3.2138687694
 30
0.0
 10
4.6514773055
 20
3.2130954657
 30
0.0
 10
4.5731158952
 20
3.2123221652
 30
0.0
 10
4.495566497
 20
3.2115489489
 30
0.0
 10
4.4195676626
 20
3.2107758746
 30
0.0
 10
4.3458435194
 20
3.2100030562
 30
0.0
 10
4.2750963555
 20
3.2092305854
 30
0.0
 10
4.2079999682
 20
3.2084586088
 30
0.0
 10
4.1451937548
 20
3.2076873241
 30
0.0
 10
4.0958117014
 20
3.2070306241
 30
0.0
 10
4.0588963428
 20
3.2065011632
 30
0.0
 10
4.0333090702
 20
3.2061137239
 30
0.0
 10
4.0092111725
 20
3.2057264521
 30
0.0
 10
3.9866601431
 20
3.2053393734
 30
0.0
 10
3.9657097548
 20
3.2049524667
 30
0.0
 10
3.9464098306
 20
3.2045658646
 30
0.0
 10
3.9288063885
 20
3.2041796756
 30
0.0
 10
3.9129414322
 20
3.2037939627
 30
0.0
 10
3.8988526688
 20
3.2034089209
 30
0.0
 10
3.8882379559
 20
3.2030772476
 30
0.0
 10
3.8806593434
 20
3.2028084512
 30
0.0
 10
3.8756683552
 20
3.202615067
 30
0.0
 10
3.8711436467
 20
3.2024218862
 30
0.0
 10
3.8670876359
 20
3.2022289688
 30
0.0
 10
3.8635027374
 20
3.2020364055
 30
0.0
 10
3.860391305
 20
3.2018444356
 30
0.0
 10
3.8577554953
 20
3.2016531525
 30
0.0
 10
3.8555964975
 20
3.2014635971
 30
0.0
 10
3.8539154075
 20
3.2012755673
 30
0.0
 10
3.8528136833
 20
3.2011106845
 30
0.0
 10
3.852220844
 20
3.2009795925
 30
0.0
 10
3.8519812097
 20
3.2009101682
 30
0.0
 10
3.8518455054
 20
3.2008627225
 30
0.0
 10
3.8517383773
 20
3.2008142348
 30
0.0
 10
3.8516490455
 20
3.2007611517
 30
0.0
 10
3.8515965778
 20
3.2007012249
 30
0.0
 10
3.8515964857
 20
3.2006631092
 30
0.0
  0
SPLINE
  5
3D6
100
AcDbEntity
  8
ALL_FEATURES
100
AcDbSpline
 62
7
  6
CONTINUOUS
 70
0
 71
3
 72
73
 73
69
 74
0
 42
0.0000001
 43
0.0000001
 44
0.0000000001
 40
0.0
 40
0.0
 40
0.0
 40
0.0
 40
0.0001535669
 40
0.0003775379
 40
0.0006739148
 40
0.0010435256
 40
0.0014867087
 40
0.0020035822
 40
0.0032584428
 40
0.0048078773
 40
0.0066512796
 40
0.008787896
 40
0.0112168962
 40
0.0139371219
 40
0.0169467003
 40
0.0238259278
 40
0.0318385338
 40
0.0409670533
 40
0.0511884765
 40
0.0624783233
 40
0.0748112112
 40
0.0881567224
 40
0.1024826554
 40
0.1177562465
 40
0.1509959373
 40
0.1875597924
 40
0.2270983951
 40
0.2692361727
 40
0.3135715682
 40
0.3596818184
 40
0.4071284084
 40
0.4554589392
 40
0.5042131955
 40
0.5529268229
 40
0.601135657
 40
0.6483808677
 40
0.6942118302
 40
0.7381925282
 40
0.7799041408
 40
0.8189485101
 40
0.8549549587
 40
0.8717100408
 40
0.8875800154
 40
0.9025259333
 40
0.9165124613
 40
0.9295072979
 40
0.9414783727
 40
0.9523971434
 40
0.9622389218
 40
0.9709793042
 40
0.9785971531
 40
0.9819799562
 40
0.9850759992
 40
0.9878832859
 40
0.990399862
 40
0.9926243307
 40
0.9945558283
 40
0.9961935731
 40
0.9975369032
 40
0.998098032
 40
0.998585446
 40
0.9989992027
 40
0.9993394816
 40
0.9996067816
 40
0.9998022524
 40
0.9998739435
 40
0.9999292981
 40
1.0
 40
1.0
 40
1.0
 40
1.0
 10
5.4649778922
 20
3.1755271442
 30
0.0
 10
5.4649063809
 20
3.1754857863
 30
0.0
 10
5.4647149655
 20
3.1754130859
 30
0.0
 10
5.4643649472
 20
3.1753197324
 30
0.0
 10
5.4638951562
 20
3.1752253575
 30
0.0
 10
5.4633061704
 20
3.1751299775
 30
0.0
 10
5.4625972474
 20
3.1750341385
 30
0.0
 10
5.4614136544
 20
3.1748968786
 30
0.0
 10
5.4596346645
 20
3.1747302713
 30
0.0
 10
5.457141742
 20
3.1745392727
 30
0.0
 10
5.4541733636
 20
3.1743474966
 30
0.0
 10
5.4507310508
 20
3.1741550477
 30
0.0
 10
5.4468164365
 20
3.1739622274
 30
0.0
 10
5.4424317343
 20
3.1737691211
 30
0.0
 10
5.4356542052
 20
3.173499183
 30
0.0
 10
5.4260300107
 20
3.1731669962
 30
0.0
 10
5.413114222
 20
3.1727825557
 30
0.0
 10
5.3983998618
 20
3.1723973664
 30
0.0
 10
5.3819220344
 20
3.1720114524
 30
0.0
 10
5.363720039
 20
3.1716250597
 30
0.0
 10
5.3438371381
 20
3.1712383768
 30
0.0
 10
5.3223207303
 20
3.1708514186
 30
0.0
 10
5.2992221716
 20
3.1704642168
 30
0.0
 10
5.2654226967
 20
3.169932686
 30
0.0
 10
5.2196611204
 20
3.1692744904
 30
0.0
 10
5.1608467772
 20
3.1685039769
 30
0.0
 10
5.097245442
 20
3.167732559
 30
0.0
 10
5.0294632164
 20
3.1669604872
 30
0.0
 10
4.9581456357
 20
3.1661879509
 30
0.0
 10
4.8839720828
 20
3.1654150678
 30
0.0
 10
4.8076492814
 20
3.164641973
 30
0.0
 10
4.729904097
 20
3.1638687302
 30
0.0
 10
4.6514772914
 20
3.163095425
 30
0.0
 10
4.5731159543
 20
3.1623221284
 30
0.0
 10
4.4955664303
 20
3.1615489018
 30
0.0
 10
4.4195676799
 20
3.1607758409
 30
0.0
 10
4.3458435258
 20
3.1600030114
 30
0.0
 10
4.2750962739
 20
3.1592305346
 30
0.0
 10
4.2080000145
 20
3.1584585851
 30
0.0
 10
4.1451937066
 20
3.157687257
 30
0.0
 10
4.0958121072
 20
3.1570306047
 30
0.0
 10
4.0588963547
 20
3.1565010961
 30
0.0
 10
4.0333090131
 20
3.1561136946
 30
0.0
 10
4.0092111623
 20
3.1557264197
 30
0.0
 10
3.9866601693
 20
3.1553392977
 30
0.0
 10
3.965709707
 20
3.1549524349
 30
0.0
 10
3.9464098075
 20
3.1545658442
 30
0.0
 10
3.9288064229
 20
3.1541795884
 30
0.0
 10
3.9129413957
 20
3.1537939242
 30
0.0
 10
3.8988526309
 20
3.1534089207
 30
0.0
 10
3.8882383017
 20
3.1530771731
 30
0.0
 10
3.8806598974
 20
3.1528083883
 30
0.0
 10
3.87566826
 20
3.1526150191
 30
0.0
 10
3.871142973
 20
3.1524218589
 30
0.0
 10
3.8670869974
 20
3.1522289471
 30
0.0
 10
3.8635027219
 20
3.1520363641
 30
0.0
 10
3.86039193
 20
3.1518443666
 30
0.0
 10
3.8577561491
 20
3.1516530564
 30
0.0
 10
3.8558578125
 20
3.1514864665
 30
0.0
 10
3.854578378
 20
3.1513497042
 30
0.0
 10
3.8537975959
 20
3.1512536726
 30
0.0
 10
3.8531365871
 20
3.1511579139
 30
0.0
 10
3.8525953461
 20
3.1510631276
 30
0.0
 10
3.8521734585
 20
3.1509684076
 30
0.0
 10
3.8518979547
 20
3.1508863361
 30
0.0
 10
3.8517383997
 20
3.1508142229
 30
0.0
 10
3.8516493164
 20
3.150761108
 30
0.0
 10
3.8515971832
 20
3.1507010948
 30
0.0
 10
3.851597249
 20
3.1506630616
 30
0.0
  0
SPLINE
  5
3D7
100
AcDbEntity
  8
ALL_FEATURES
100
AcDbSpline
 62
7
  6
CONTINUOUS
 70
0
 71
3
 72
72
 73
68
 74
0
 42
0.0000001
 43
0.0000001
 44
0.0000000001
 40
0.0
 40
0.0
 40
0.0
 40
0.0
 40
0.0000708552
 40
0.0001263478
 40
0.0001981889
 40
0.0002872641
 40
0.000394028
 40
0.0006615221
 40
0.0014153446
 40
0.002463259
 40
0.0038060582
 40
0.0054438486
 40
0.0073759127
 40
0.0096009415
 40
0.0121175479
 40
0.0149243074
 40
0.0180197728
 40
0.0214024731
 40
0.0290213859
 40
0.0377615108
 40
0.0476024758
 40
0.0585221799
 40
0.0704932303
 40
0.0834871953
 40
0.0974744732
 40
0.1124205679
 40
0.1282896916
 40
0.1450453083
 40
0.181051322
 40
0.2200964129
 40
0.261807532
 40
0.3057882083
 40
0.3516194883
 40
0.3988643474
 40
0.4470733357
 40
0.4957868893
 40
0.544541164
 40
0.5928717136
 40
0.640318059
 40
0.6864287183
 40
0.7307637561
 40
0.7729014322
 40
0.8124406392
 40
0.8490037119
 40
0.8822437065
 40
0.8975168577
 40
0.9118437146
 40
0.9251888558
 40
0.9375210783
 40
0.948811902
 40
0.9590331464
 40
0.9681607963
 40
0.9761743569
 40
0.9830536368
 40
0.9860625971
 40
0.9887824151
 40
0.9912116495
 40
0.9933488853
 40
0.9951927508
 40
0.9967420208
 40
0.9979962747
 40
0.9985128486
 40
0.9989558257
 40
0.9993253908
 40
0.9996219049
 40
0.9998461335
 40
1.0
 40
1.0
 40
1.0
 40
1.0
 10
5.4650960611
 20
3.2156631146
 30
0.0
 10
5.465095969
 20
3.2156249989
 30
0.0
 10
5.4650435012
 20
3.2155650722
 30
0.0
 10
5.4649541695
 20
3.2155119891
 30
0.0
 10
5.4648470414
 20
3.2154635015
 30
0.0
 10
5.464711337
 20
3.2154160558
 30
0.0
 10
5.4644717027
 20
3.2153466315
 30
0.0
 10
5.4638788633
 20
3.2152155396
 30
0.0
 10
5.462777139
 20
3.215050657
 30
0.0
 10
5.461096049
 20
3.2148626273
 30
0.0
 10
5.4589370512
 20
3.214673072
 30
0.0
 10
5.4563012417
 20
3.214481789
 30
0.0
 10
5.4531898094
 20
3.2142898193
 30
0.0
 10
5.4496049108
 20
3.2140972562
 30
0.0
 10
5.4455488999
 20
3.2139043389
 30
0.0
 10
5.4410241914
 20
3.2137111582
 30
0.0
 10
5.4360332032
 20
3.2135177741
 30
0.0
 10
5.428454591
 20
3.2132489779
 30
0.0
 10
5.417839878
 20
3.2129173048
 30
0.0
 10
5.4037511147
 20
3.2125322632
 30
0.0
 10
5.3878861586
 20
3.2121465506
 30
0.0
 10
5.3702827166
 20
3.2117603617
 30
0.0
 10
5.3509827924
 20
3.2113737599
 30
0.0
 10
5.3300324042
 20
3.2109868534
 30
0.0
 10
5.3074813751
 20
3.2105997748
 30
0.0
 10
5.2833834775
 20
3.2102125033
 30
0.0
 10
5.257796205
 20
3.2098250641
 30
0.0
 10
5.2208808467
 20
3.2092956034
 30
0.0
 10
5.1714987936
 20
3.2086389037
 30
0.0
 10
5.1086925805
 20
3.2078676193
 30
0.0
 10
5.0415961935
 20
3.2070956428
 30
0.0
 10
4.9708490301
 20
3.2063231722
 30
0.0
 10
4.8971248872
 20
3.205550354
 30
0.0
 10
4.8211260532
 20
3.2047772798
 30
0.0
 10
4.7435766554
 20
3.2040040635
 30
0.0
 10
4.6652152454
 20
3.2032307631
 30
0.0
 10
4.5867884397
 20
3.2024574593
 30
0.0
 10
4.5090433472
 20
3.2016842213
 30
0.0
 10
4.432720428
 20
3.2009111153
 30
0.0
 10
4.3585469602
 20
3.2001382496
 30
0.0
 10
4.2872293886
 20
3.1993657037
 30
0.0
 10
4.219447068
 20
3.198593622
 30
0.0
 10
4.1558458667
 20
3.1978222395
 30
0.0
 10
4.0970314417
 20
3.1970516797
 30
0.0
 10
4.0512703473
 20
3.1963935323
 30
0.0
 10
4.0174704408
 20
3.1958619526
 30
0.0
 10
3.9943718142
 20
3.1954747984
 30
0.0
 10
3.9728554612
 20
3.1950878279
 30
0.0
 10
3.9529725876
 20
3.1947010997
 30
0.0
 10
3.934770515
 20
3.1943147657
 30
0.0
 10
3.9182927217
 20
3.1939288543
 30
0.0
 10
3.9035784104
 20
3.1935435866
 30
0.0
 10
3.8906625424
 20
3.1931592202
 30
0.0
 10
3.8810381353
 20
3.1928270527
 30
0.0
 10
3.8742611302
 20
3.1925570714
 30
0.0
 10
3.8698768541
 20
3.1923639442
 30
0.0
 10
3.8659619985
 20
3.1921711292
 30
0.0
 10
3.8625189744
 20
3.1919787011
 30
0.0
 10
3.859550098
 20
3.1917869588
 30
0.0
 10
3.8570573402
 20
3.1915959652
 30
0.0
 10
3.8552789308
 20
3.191429328
 30
0.0
 10
3.8540959413
 20
3.191292054
 30
0.0
 10
3.8533873192
 20
3.1911962047
 30
0.0
 10
3.852798397
 20
3.1911008123
 30
0.0
 10
3.8523284186
 20
3.1910064336
 30
0.0
 10
3.8519780109
 20
3.1909130766
 30
0.0
 10
3.8517862813
 20
3.1908403931
 30
0.0
 10
3.8517145734
 20
3.1907990534
 30
0.0
  0
SPLINE
  5
3D8
100
AcDbEntity
  8
ALL_FEATURES
100
AcDbSpline
 62
7
  6
CONTINUOUS
 70
0
 71
3
 72
73
 73
69
 74
0
 42
0.0000001
 43
0.0000001
 44
0.0000000001
 40
0.0
 40
0.0
 40
0.0
 40
0.0
 40
0.0000707019
 40
0.0001260565
 40
0.0001977476
 40
0.0003932184
 40
0.0006605184
 40
0.0010007973
 40
0.001414554
 40
0.001901968
 40
0.0024630968
 40
0.0038064269
 40
0.0054441717
 40
0.0073756693
 40
0.009600138
 40
0.0121167141
 40
0.0149240008
 40
0.0180200438
 40
0.0214028469
 40
0.0290206958
 40
0.0377610782
 40
0.0476028566
 40
0.0585216273
 40
0.0704927021
 40
0.0834875387
 40
0.0974740667
 40
0.1124199846
 40
0.1282899592
 40
0.1450450413
 40
0.1810514899
 40
0.2200958592
 40
0.2618074718
 40
0.3057881698
 40
0.3516191323
 40
0.398864343
 40
0.4470731771
 40
0.4957868045
 40
0.5445410608
 40
0.5928715916
 40
0.6403181816
 40
0.6864284318
 40
0.7307638273
 40
0.7729016049
 40
0.8124402076
 40
0.8490040627
 40
0.8822437535
 40
0.8975173446
 40
0.9118432776
 40
0.9251887888
 40
0.9375216767
 40
0.9488115235
 40
0.9590329467
 40
0.9681614662
 40
0.9761740722
 40
0.9830532997
 40
0.9860628781
 40
0.9887831038
 40
0.991212104
 40
0.9933487204
 40
0.9951921227
 40
0.9967415572
 40
0.9979964178
 40
0.9985132913
 40
0.9989564744
 40
0.9993260852
 40
0.9996224621
 40
0.9998464331
 40
1.0
 40
1.0
 40
1.0
 40
1.0
 10
5.4650952976
 20
3.1656630882
 30
0.0
 10
5.4650953633
 20
3.1656250549
 30
0.0
 10
5.4650432302
 20
3.1655650417
 30
0.0
 10
5.4649541468
 20
3.1655119268
 30
0.0
 10
5.4647945919
 20
3.1654398136
 30
0.0
 10
5.464519088
 20
3.1653577421
 30
0.0
 10
5.4640972005
 20
3.1652630222
 30
0.0
 10
5.4635559595
 20
3.1651682359
 30
0.0
 10
5.4628949507
 20
3.1650724771
 30
0.0
 10
5.4621141686
 20
3.1649764455
 30
0.0
 10
5.4608347341
 20
3.1648396832
 30
0.0
 10
5.4589363974
 20
3.1646730933
 30
0.0
 10
5.4563006166
 20
3.1644817831
 30
0.0
 10
5.4531898247
 20
3.1642897857
 30
0.0
 10
5.4496055492
 20
3.1640972027
 30
0.0
 10
5.4455495736
 20
3.1639042908
 30
0.0
 10
5.4410242866
 20
3.1637111307
 30
0.0
 10
5.4360326492
 20
3.1635177615
 30
0.0
 10
5.4284542449
 20
3.1632489766
 30
0.0
 10
5.4178399157
 20
3.1629172291
 30
0.0
 10
5.4037511509
 20
3.1625322255
 30
0.0
 10
5.3878861237
 20
3.1621465613
 30
0.0
 10
5.3702827391
 20
3.1617603055
 30
0.0
 10
5.3509828396
 20
3.1613737148
 30
0.0
 10
5.3300323773
 20
3.160986852
 30
0.0
 10
5.3074813842
 20
3.16059973
 30
0.0
 10
5.2833835335
 20
3.1602124552
 30
0.0
 10
5.2577961919
 20
3.1598250537
 30
0.0
 10
5.2208804394
 20
3.1592955451
 30
0.0
 10
5.1714988399
 20
3.1586388928
 30
0.0
 10
5.1086925321
 20
3.1578675646
 30
0.0
 10
5.0415962727
 20
3.1570956151
 30
0.0
 10
4.9708490208
 20
3.1563231383
 30
0.0
 10
4.8971248667
 20
3.1555503089
 30
0.0
 10
4.8211261163
 20
3.1547772479
 30
0.0
 10
4.7435765923
 20
3.1540040214
 30
0.0
 10
4.6652152552
 20
3.1532307248
 30
0.0
 10
4.5867884496
 20
3.1524574195
 30
0.0
 10
4.5090432651
 20
3.1516841767
 30
0.0
 10
4.4327204637
 20
3.1509110819
 30
0.0
 10
4.3585469109
 20
3.1501381989
 30
0.0
 10
4.2872293302
 20
3.1493656625
 30
0.0
 10
4.2194471046
 20
3.1485935908
 30
0.0
 10
4.1558457694
 20
3.1478221728
 30
0.0
 10
4.0970314262
 20
3.1470516594
 30
0.0
 10
4.0512698499
 20
3.1463934638
 30
0.0
 10
4.017470375
 20
3.145861933
 30
0.0
 10
3.9943718163
 20
3.1454747312
 30
0.0
 10
3.9728554085
 20
3.145087773
 30
0.0
 10
3.9529725076
 20
3.14470109
 30
0.0
 10
3.9347705122
 20
3.1443146973
 30
0.0
 10
3.9182926848
 20
3.1439287833
 30
0.0
 10
3.9035783246
 20
3.1435435941
 30
0.0
 10
3.8906625359
 20
3.1431591535
 30
0.0
 10
3.8810383414
 20
3.1428269668
 30
0.0
 10
3.8742608123
 20
3.1425570287
 30
0.0
 10
3.86987611
 20
3.1423639224
 30
0.0
 10
3.8659614958
 20
3.1421711021
 30
0.0
 10
3.862519183
 20
3.1419786531
 30
0.0
 10
3.8595508046
 20
3.141786877
 30
0.0
 10
3.857057882
 20
3.1415958785
 30
0.0
 10
3.8552788922
 20
3.1414292712
 30
0.0
 10
3.8540952992
 20
3.1412920112
 30
0.0
 10
3.8533863762
 20
3.1411961722
 30
0.0
 10
3.8527973904
 20
3.1411007923
 30
0.0
 10
3.8523275994
 20
3.1410064173
 30
0.0
 10
3.8519775811
 20
3.1409130638
 30
0.0
 10
3.8517861657
 20
3.1408403635
 30
0.0
 10
3.8517146544
 20
3.1407990056
 30
0.0
  0
SPLINE
  5
3D9
100
AcDbEntity
  8
ALL_FEATURES
100
AcDbSpline
 62
7
  6
CONTINUOUS
 70
0
 71
3
 72
42
 73
38
 74
0
 42
0.0000001
 43
0.0000001
 44
0.0000000001
 40
0.0
 40
0.0
 40
0.0
 40
0.0
 40
0.0979742539
 40
0.1950455773
 40
0.290209937
 40
0.3825826618
 40
0.4712756573
 40
0.555428657
 40
0.6342322673
 40
0.7069302752
 40
0.7407669942
 40
0.7728207596
 40
0.8030122787
 40
0.8312689586
 40
0.8575250156
 40
0.881715164
 40
0.9037807167
 40
0.9236713476
 40
0.9413374102
 40
0.9567354467
 40
0.9635733872
 40
0.9698318283
 40
0.9755067111
 40
0.9805940479
 40
0.9850909204
 40
0.9889955566
 40
0.9923063619
 40
0.9950219808
 40
0.996156324
 40
0.9971416368
 40
0.9979780299
 40
0.9986658575
 40
0.9992061116
 40
0.9996010932
 40
0.999745893
 40
0.9998576244
 40
1.0
 40
1.0
 40
1.0
 40
1.0
 10
4.6583462733
 20
3.2631630749
 30
0.0
 10
4.6319924832
 20
3.2629031228
 30
0.0
 10
4.5795277794
 20
3.2623856177
 30
0.0
 10
4.5014651835
 20
3.2616082005
 30
0.0
 10
4.4249094734
 20
3.2608308989
 30
0.0
 10
4.350607649
 20
3.2600538852
 30
0.0
 10
4.279268044
 20
3.2592772176
 30
0.0
 10
4.2115787501
 20
3.2585010633
 30
0.0
 10
4.1481923999
 20
3.2577255404
 30
0.0
 10
4.0983407491
 20
3.2570653651
 30
0.0
 10
4.0610642457
 20
3.2565330074
 30
0.0
 10
4.0352211211
 20
3.2561434891
 30
0.0
 10
4.0108792048
 20
3.2557541038
 30
0.0
 10
3.9880970814
 20
3.2553648666
 30
0.0
 10
3.9669295737
 20
3.2549758893
 30
0.0
 10
3.947427776
 20
3.2545871917
 30
0.0
 10
3.9296386403
 20
3.2541988258
 30
0.0
 10
3.9136049262
 20
3.2538110529
 30
0.0
 10
3.8993653421
 20
3.2534239511
 30
0.0
 10
3.8886368336
 20
3.2530903951
 30
0.0
 10
3.8809765908
 20
3.2528201447
 30
0.0
 10
3.8759308548
 20
3.2526257187
 30
0.0
 10
3.8713564045
 20
3.2524315029
 30
0.0
 10
3.8672562738
 20
3.2522375385
 30
0.0
 10
3.8636329187
 20
3.2520439033
 30
0.0
 10
3.8604881767
 20
3.2518508568
 30
0.0
 10
3.8578236042
 20
3.2516585015
 30
0.0
 10
3.8559045104
 20
3.2514910018
 30
0.0
 10
3.8546110683
 20
3.2513534919
 30
0.0
 10
3.8538217372
 20
3.2512569363
 30
0.0
 10
3.853153487
 20
3.2511606542
 30
0.0
 10
3.8526063217
 20
3.2510653549
 30
0.0
 10
3.852179814
 20
3.2509701157
 30
0.0
 10
3.8519013069
 20
3.2508876139
 30
0.0
 10
3.8517399681
 20
3.250815091
 30
0.0
 10
3.8516500083
 20
3.2507617568
 30
0.0
 10
3.8515971828
 20
3.2507013951
 30
0.0
 10
3.851597249
 20
3.2506630961
 30
0.0
  0
SPLINE
  5
3DA
100
AcDbEntity
  8
ALL_FEATURES
100
AcDbSpline
 62
7
  6
CONTINUOUS
 70
0
 71
3
 72
38
 73
34
 74
0
 42
0.0000001
 43
0.0000001
 44
0.0000000001
 40
0.0
 40
0.0
 40
0.0
 40
0.0
 40
0.096933648
 40
0.1929951417
 40
0.2872096814
 40
0.3787205644
 40
0.4666682357
 40
0.5502171943
 40
0.6285815512
 40
0.7010257226
 40
0.7668645767
 40
0.7971114617
 40
0.8254786881
 40
0.8519020614
 40
0.8763182245
 40
0.8986678472
 40
0.9189012973
 40
0.9369704131
 40
0.9528302585
 40
0.9664467655
 40
0.972403895
 40
0.9777883718
 40
0.9825965453
 40
0.9868261967
 40
0.9904756967
 40
0.9935435685
 40
0.9960286298
 40
0.9970524317
 40
0.9979304471
 40
0.9986629138
 40
0.9992505105
 40
0.9996948837
 40
1.0
 40
1.0
 40
1.0
 40
1.0
 10
4.6583462733
 20
3.2531630749
 30
0.0
 10
4.6322783258
 20
3.2529059423
 30
0.0
 10
4.5803769756
 20
3.2523939939
 30
0.0
 10
4.5031389868
 20
3.2516249473
 30
0.0
 10
4.4273594619
 20
3.2508560088
 30
0.0
 10
4.3537621704
 20
3.2500873422
 30
0.0
 10
4.2830334249
 20
3.2493190113
 30
0.0
 10
4.2158405025
 20
3.2485511396
 30
0.0
 10
4.1528173512
 20
3.2477839206
 30
0.0
 10
4.0945575006
 20
3.2470176017
 30
0.0
 10
4.0492379824
 20
3.2463629584
 30
0.0
 10
4.015771926
 20
3.245834293
 30
0.0
 10
3.9929052873
 20
3.245449207
 30
0.0
 10
3.9716069886
 20
3.2450643659
 30
0.0
 10
3.9519273353
 20
3.2446797933
 30
0.0
 10
3.9339127299
 20
3.2442955107
 30
0.0
 10
3.9176055055
 20
3.2439117077
 30
0.0
 10
3.9030441463
 20
3.2435286207
 30
0.0
 10
3.8902630143
 20
3.2431462773
 30
0.0
 10
3.8807392435
 20
3.2428159061
 30
0.0
 10
3.8740323944
 20
3.2425474449
 30
0.0
 10
3.8696933252
 20
3.2423553935
 30
0.0
 10
3.8658193295
 20
3.2421636252
 30
0.0
 10
3.8624125598
 20
3.2419722271
 30
0.0
 10
3.8594746059
 20
3.2417814965
 30
0.0
 10
3.8570069635
 20
3.2415915381
 30
0.0
 10
3.8552458137
 20
3.2414258412
 30
0.0
 10
3.8540738992
 20
3.2412893392
 30
0.0
 10
3.8533717876
 20
3.2411940203
 30
0.0
 10
3.8527883056
 20
3.2410991568
 30
0.0
 10
3.852322723
 20
3.2410052828
 30
0.0
 10
3.8519755952
 20
3.2409124239
 30
0.0
 10
3.8517856872
 20
3.240840121
 30
0.0
 10
3.8517146538
 20
3.2407990395
 30
0.0
  0
ENDSEC
  0
SECTION
  2
OBJECTS
  0
DICTIONARY
  5
C
100
AcDbDictionary
280
0
281
1
  3
ACAD_GROUP
350
D
  3
ACAD_MLINESTYLE
350
17
  3
ACAD_LAYOUT
350
1A
  3
ACAD_PLOTSETTINGS
350
19
  3
ACAD_PLOTSTYLENAME
350
E
  0
DICTIONARY
  5
D
102
{ACAD_REACTORS
330
C
102
}
100
AcDbDictionary
280
0
281
1
  0
ACDBDICTIONARYWDFLT
  5
E
102
{ACAD_REACTORS
330
C
102
}
100
AcDbDictionary
281
1
  3
Normal
350
F
100
AcDbDictionaryWithDefault
340
F
  0
DICTIONARY
  5
17
102
{ACAD_REACTORS
330
C
102
}
100
AcDbDictionary
280
0
281
1
  3
Standard
350
18
  0
DICTIONARY
  5
19
102
{ACAD_REACTORS
330
C
102
}
100
AcDbDictionary
281
1
  0
DICTIONARY
  5
1A
102
{ACAD_REACTORS
330
C
102
}
100
AcDbDictionary
281
1
  3
Model
350
3DB
  3
Layout1
350
3DC
  0
ACDBPLACEHOLDER
  5
F
102
{ACAD_REACTORS
330
E
102
}
  0
MLINESTYLE
  5
18
102
{ACAD_REACTORS
330
17
102
}
100
AcDbMlineStyle
  2
STANDARD
 70
0
  3

 62
256
 51
90.0
 52
90.0
 71
2
 49
0.5
 62
256
  6
BYLAYER
 49
-0.5
 62
256
  6
BYLAYER
  0
LAYOUT
  5
3DB
102
{ACAD_REACTORS
330
1A
102
}
100
AcDbPlotSettings
  1

  2
none_device
  4
ANSI_A_(11.00_x_8.50_Inches)
  6

 40
0.0
 41
0.0
 42
0.0
 43
0.0
 44
279.4
 45
215.9
 46
0.0
 47
0.0
 48
0.0
 49
0.0
140
0.0
141
0.0
142
1.0
143
1.0
 70
1024
 72
0
 73
0
 74
0
  7

 75
0
147
1.0
148
0.0
149
0.0
100
AcDbLayout
  1
Model
 70
0
 71
0
 10
0.0
 20
0.0
 11
11.0
 21
8.5
 12
0.0
 22
0.0
 32
0.0
 14
0.0
 24
0.0
 34
0.0
 15
0.0
 25
0.0
 35
0.0
146
0.0
 13
0.0
 23
0.0
 33
0.0
 16
1.0
 26
0.0
 36
0.0
 17
0.0
 27
1.0
 37
0.0
 76
0
330
215
345
0
346
0
  0
LAYOUT
  5
3DC
102
{ACAD_REACTORS
330
1A
102
}
100
AcDbPlotSettings
  1

  2
none_device
  4
ANSI_A_(11.00_x_8.50_Inches)
  6

 40
0.0
 41
0.0
 42
0.0
 43
0.0
 44
279.4
 45
215.9
 46
0.0
 47
0.0
 48
0.0
 49
0.0
140
0.0
141
0.0
142
1.0
143
1.0
 70
0
 72
0
 73
0
 74
0
  7

 75
0
147
1.0
148
0.0
149
0.0
100
AcDbLayout
  1
Layout1
 70
0
 71
1
 10
0.0
 20
0.0
 11
11.0
 21
8.5
 12
0.0
 22
0.0
 32
0.0
 14
0.0
 24
0.0
 34
0.0
 15
0.0
 25
0.0
 35
0.0
146
0.0
 13
0.0
 23
0.0
 33
0.0
 16
1.0
 26
0.0
 36
0.0
 17
0.0
 27
1.0
 37
0.0
 76
0
330
216
345
0
346
0
  0
ENDSEC
  0
EOF
