999
DXF file: 120_top.dxf
999
Pro/ENGINEER 2018400 by Parametric Technology Corporation
  0
SECTION
  2
HEADER
  9
$ACADVER
  1
AC1027
  9
$DWGCODEPAGE
  3
ANSI_1252
  9
$EXTMAX
 10
11.0
 20
8.5
 30
0.0
  9
$EXTMIN
 10
0.0
 20
0.0
 30
0.0
  9
$LIMMIN
 10
0.0
 20
0.0
  9
$LIMMAX
 10
11.0
 20
8.5
  9
$VIEWCTR
 10
5.5
 20
4.25
  9
$VIEWSIZE
 40
8.5
  9
$CLAYER
  8
0
  9
$LTSCALE
 40
0.605
  9
$CELTYPE
  6
BYLAYER
  9
$DIMSCALE
 40
1.0
  9
$DIMASZ
 40
0.1
  9
$DIMEXO
 40
0.0625
  9
$DIMDLI
 40
0.418
  9
$DIMEXE
 40
0.125
  9
$DIMCEN
 40
0.099
  9
$DIMLFAC
 40
1.0
  9
$DIMBLK
  1
_FILLED
  9
$DIMALT
 70
1
  9
$DIMALTD
 70
1
  9
$DIMALTTD
 70
2
  9
$DIMALTF
 40
25.4
  9
$DIMTXT
 40
0.08
  9
$DIMTOL
 70
1
  9
$DIMLIM
 70
0
  9
$DIMTFAC
 40
1.0
  9
$DIMTP
 40
0.01
  9
$DIMTM
 40
0.01
  9
$DIMGAP
 40
0.09
  9
$DIMDSEP
 70
46
  9
$AUNITS
 70
0
  9
$PDMODE
 70
3
  9
$PDSIZE
 40
0.3125
  9
$HANDSEED
  5
2A5
  9
$TILEMODE
 70
1
  9
$MEASUREMENT
 70
0
  9
$INSUNITS
 70
1
  0
ENDSEC
  0
SECTION
  2
CLASSES
  0
CLASS
  1
ACDBDICTIONARYWDFLT
  2
AcDbDictionaryWithDefault
  3
AutoCAD 2000
 90
0
 91
1
280
0
281
0
  0
CLASS
  1
ACDBPLACEHOLDER
  2
AcDbPlaceHolder
  3
AutoCAD 2000
 90
0
 91
1
280
0
281
0
  0
CLASS
  1
LAYOUT
  2
AcDbLayout
  3
AutoCAD 2000
 90
0
 91
0
280
0
281
0
  0
ENDSEC
  0
SECTION
  2
TABLES
  0
TABLE
  2
VPORT
  5
8
100
AcDbSymbolTable
 70
2
  0
VPORT
  5
1F4
100
AcDbSymbolTableRecord
100
AcDbViewportTableRecord
  2
*ACTIVE
 70
0
 10
0.0
 20
0.0
 11
1.0
 21
1.0
 12
5.5
 22
4.25
 13
0.0
 23
0.0
 14
1.0
 24
1.0
 15
0.0
 25
0.0
 16
0.0
 26
0.0
 36
1.0
 17
0.0
 27
0.0
 37
0.0
 40
8.5
 41
1.2941176471
 42
50.0
 43
0.0
 44
0.0
 50
0.0
 51
0.0
 71
0
 72
100
 73
1
 74
1
 75
0
 76
0
 77
0
 78
0
  0
ENDTAB
  0
TABLE
  2
LTYPE
  5
5
100
AcDbSymbolTable
 70
6
  0
LTYPE
  5
14
100
AcDbSymbolTableRecord
100
AcDbLinetypeTableRecord
  2
BYBLOCK
 70
0
  3

 72
65
 73
0
 40
0.0
  0
LTYPE
  5
15
100
AcDbSymbolTableRecord
100
AcDbLinetypeTableRecord
  2
BYLAYER
 70
0
  3

 72
65
 73
0
 40
0.0
  0
LTYPE
  5
16
100
AcDbSymbolTableRecord
100
AcDbLinetypeTableRecord
  2
CONTINUOUS
 70
64
  3
Solid line
 72
65
 73
0
 40
0.0
  0
LTYPE
  5
1F5
100
AcDbSymbolTableRecord
100
AcDbLinetypeTableRecord
  2
CENTER
 70
64
  3
____ _ ____ _ ____ _ ____ _ ____ _ ____ _ ____
 72
65
 73
4
 40
0.6
 49
0.375
 74
0
 49
-0.075
 74
0
 49
0.075
 74
0
 49
-0.075
 74
0
  0
LTYPE
  5
1F6
100
AcDbSymbolTableRecord
100
AcDbLinetypeTableRecord
  2
HIDDEN
 70
64
  3
- - - - - - - - - - - - - - - - - - - -
 72
65
 73
2
 40
0.2
 49
0.1
 74
0
 49
-0.1
 74
0
  0
LTYPE
  5
1F7
100
AcDbSymbolTableRecord
100
AcDbLinetypeTableRecord
  2
PHANTOM
 70
64
  3
_____ _ _ _____ _ _ _____ _ _ _____
 72
65
 73
6
 40
0.8
 49
0.45
 74
0
 49
-0.05
 74
0
 49
0.1
 74
0
 49
-0.05
 74
0
 49
0.1
 74
0
 49
-0.05
 74
0
  0
LTYPE
  5
1F8
100
AcDbSymbolTableRecord
100
AcDbLinetypeTableRecord
  2
DOT
 70
64
  3
. . . . . . . . . . . . . . . . . . . .
 72
65
 73
2
 40
0.2
 49
0.1
 74
0
 49
-0.1
 74
0
  0
LTYPE
  5
1F9
100
AcDbSymbolTableRecord
100
AcDbLinetypeTableRecord
  2
DASHED
 70
64
  3
- - - - - - - - - - - - - - - - - - - -
 72
65
 73
2
 40
0.2
 49
0.1
 74
0
 49
-0.1
 74
0
  0
ENDTAB
  0
TABLE
  2
LAYER
  5
2
100
AcDbSymbolTable
 70
36
  0
LAYER
  5
10
100
AcDbSymbolTableRecord
100
AcDbLayerTableRecord
  2
0
 70
0
 62
7
  6
CONTINUOUS
370
-3
390
F
  0
LAYER
  5
1FA
100
AcDbSymbolTableRecord
100
AcDbLayerTableRecord
  2
DEFAULT_1
 70
0
 62
7
  6
CENTER
370
-3
390
F
  0
LAYER
  5
1FB
100
AcDbSymbolTableRecord
100
AcDbLayerTableRecord
  2
DEFAULT_2
 70
0
 62
8
  6
HIDDEN
370
-3
390
F
  0
LAYER
  5
1FC
100
AcDbSymbolTableRecord
100
AcDbLayerTableRecord
  2
DEFAULT_3
 70
0
 62
7
  6
PHANTOM
370
-3
390
F
  0
LAYER
  5
1FD
100
AcDbSymbolTableRecord
100
AcDbLayerTableRecord
  2
ALL_ASSEMBLY_MEMBERS
 70
0
 62
7
  6
CONTINUOUS
370
-3
390
F
  0
LAYER
  5
1FE
100
AcDbSymbolTableRecord
100
AcDbLayerTableRecord
  2
ALL_FEATURES
 70
0
 62
7
  6
CONTINUOUS
370
-3
390
F
  0
LAYER
  5
1FF
100
AcDbSymbolTableRecord
100
AcDbLayerTableRecord
  2
AXES_FEATURES
 70
0
 62
7
  6
CONTINUOUS
370
-3
390
F
  0
LAYER
  5
200
100
AcDbSymbolTableRecord
100
AcDbLayerTableRecord
  2
CHAMFER_FEATURES
 70
0
 62
7
  6
CONTINUOUS
370
-3
390
F
  0
LAYER
  5
201
100
AcDbSymbolTableRecord
100
AcDbLayerTableRecord
  2
COSMETIC_SKETCHES
 70
0
 62
7
  6
CONTINUOUS
370
-3
390
F
  0
LAYER
  5
202
100
AcDbSymbolTableRecord
100
AcDbLayerTableRecord
  2
CUT_FEATURES
 70
0
 62
7
  6
CONTINUOUS
370
-3
390
F
  0
LAYER
  5
203
100
AcDbSymbolTableRecord
100
AcDbLayerTableRecord
  2
DATUM_CURVES
 70
0
 62
7
  6
CONTINUOUS
370
-3
390
F
  0
LAYER
  5
204
100
AcDbSymbolTableRecord
100
AcDbLayerTableRecord
  2
DATUM_PLANES
 70
0
 62
7
  6
CONTINUOUS
370
-3
390
F
  0
LAYER
  5
205
100
AcDbSymbolTableRecord
100
AcDbLayerTableRecord
  2
DEFAULT_COORDINATE_SYSTEM
 70
0
 62
7
  6
CONTINUOUS
370
-3
390
F
  0
LAYER
  5
206
100
AcDbSymbolTableRecord
100
AcDbLayerTableRecord
  2
DEFAULT_DATUM_AXES
 70
0
 62
7
  6
CONTINUOUS
370
-3
390
F
  0
LAYER
  5
207
100
AcDbSymbolTableRecord
100
AcDbLayerTableRecord
  2
DEFAULT_DATUM_PLANES
 70
0
 62
7
  6
CONTINUOUS
370
-3
390
F
  0
LAYER
  5
208
100
AcDbSymbolTableRecord
100
AcDbLayerTableRecord
  2
DIMENSIONS
 70
0
 62
7
  6
CONTINUOUS
370
-3
390
F
  0
LAYER
  5
209
100
AcDbSymbolTableRecord
100
AcDbLayerTableRecord
  2
HOLE_FEATURES
 70
0
 62
7
  6
CONTINUOUS
370
-3
390
F
  0
LAYER
  5
20A
100
AcDbSymbolTableRecord
100
AcDbLayerTableRecord
  2
PART_REFERENCE_DIMENSIONS
 70
0
 62
7
  6
CONTINUOUS
370
-3
390
F
  0
LAYER
  5
20B
100
AcDbSymbolTableRecord
100
AcDbLayerTableRecord
  2
PLATED_SURFACE_AREA
 70
0
 62
7
  6
CONTINUOUS
370
-3
390
F
  0
LAYER
  5
20C
100
AcDbSymbolTableRecord
100
AcDbLayerTableRecord
  2
PROTRUSION_FEATURES
 70
0
 62
7
  6
CONTINUOUS
370
-3
390
F
  0
LAYER
  5
20D
100
AcDbSymbolTableRecord
100
AcDbLayerTableRecord
  2
QUILT
 70
0
 62
7
  6
CONTINUOUS
370
-3
390
F
  0
LAYER
  5
20E
100
AcDbSymbolTableRecord
100
AcDbLayerTableRecord
  2
QUILTS
 70
0
 62
7
  6
CONTINUOUS
370
-3
390
F
  0
LAYER
  5
20F
100
AcDbSymbolTableRecord
100
AcDbLayerTableRecord
  2
REFERENCE_DIMENSIONS
 70
0
 62
7
  6
CONTINUOUS
370
-3
390
F
  0
LAYER
  5
210
100
AcDbSymbolTableRecord
100
AcDbLayerTableRecord
  2
ROUND_FEATURES
 70
0
 62
7
  6
CONTINUOUS
370
-3
390
F
  0
LAYER
  5
211
100
AcDbSymbolTableRecord
100
AcDbLayerTableRecord
  2
SHELL_FEATURES
 70
0
 62
7
  6
CONTINUOUS
370
-3
390
F
  0
LAYER
  5
212
100
AcDbSymbolTableRecord
100
AcDbLayerTableRecord
  2
XSEC_DATUMS
 70
0
 62
7
  6
CONTINUOUS
370
-3
390
F
  0
ENDTAB
  0
TABLE
  2
STYLE
  5
3
100
AcDbSymbolTable
 70
1
  0
STYLE
  5
11
100
AcDbSymbolTableRecord
100
AcDbTextStyleTableRecord
  2
STANDARD
 70
0
 40
0.0
 41
0.8
 50
0.0
 71
0
 42
0.2
  3
txt
  4

  0
STYLE
  5
213
100
AcDbSymbolTableRecord
100
AcDbTextStyleTableRecord
  2
TEXTSTYLE_1
 70
0
 40
0.0
 41
0.8
 50
0.0
 71
0
 42
0.2
  3
gdt
  4

  0
ENDTAB
  0
TABLE
  2
VIEW
  5
6
100
AcDbSymbolTable
 70
0
  0
ENDTAB
  0
TABLE
  2
UCS
  5
7
100
AcDbSymbolTable
 70
0
  0
ENDTAB
  0
TABLE
  2
APPID
  5
9
100
AcDbSymbolTable
 70
1
  0
APPID
  5
214
100
AcDbSymbolTableRecord
100
AcDbRegAppTableRecord
  2
ACAD
 70
0
  0
ENDTAB
  0
TABLE
  2
BLOCK_RECORD
  5
1
100
AcDbSymbolTable
 70
0
  0
BLOCK_RECORD
  5
215
100
AcDbSymbolTableRecord
100
AcDbBlockTableRecord
  2
*Model_Space
  0
BLOCK_RECORD
  5
216
100
AcDbSymbolTableRecord
100
AcDbBlockTableRecord
  2
*Paper_Space
  0
BLOCK_RECORD
  5
217
100
AcDbSymbolTableRecord
100
AcDbBlockTableRecord
  2
_FILLED
  0
ENDTAB
  0
TABLE
  2
DIMSTYLE
  5
A
100
AcDbSymbolTable
 70
1
100
AcDbDimStyleTable
 71
0
  0
DIMSTYLE
105
218
100
AcDbSymbolTableRecord
100
AcDbDimStyleTableRecord
  2
STANDARD
 70
0
  3

  4

 40
1.0
 41
0.1
 42
0.0625
 43
0.38
 44
0.125
 45
0.0
 46
0.0
 47
0.01
 48
0.01
140
0.08
141
0.09
142
0.0
143
25.4
144
1.0
145
0.0
146
1.0
147
0.09
 71
1.0
 72
0.0
 73
1
 74
1
 75
0
 76
0
 77
0
 78
4
 79
1
170
1
171
1
172
0
173
0
174
0
175
0
176
0
177
0
178
0
270
2
179
2
271
2
272
2
273
2
274
2
275
0
280
0
281
0
282
0
283
1
284
4
285
0
286
0
287
3
288
0
340
11
278
46
341
217
342
217
343
217
344
217
  0
ENDTAB
  0
ENDSEC
  0
SECTION
  2
BLOCKS
  0
BLOCK
  5
20
100
AcDbEntity
  8
0
100
AcDbBlockBegin
  2
*Model_Space
 70
0
 10
0.0
 20
0.0
 30
0.0
  3
*Model_Space
  1

  0
ENDBLK
  5
21
100
AcDbEntity
  8
0
100
AcDbBlockEnd
  0
BLOCK
  5
1C
100
AcDbEntity
  8
0
100
AcDbBlockBegin
  2
*Paper_Space
 70
0
 10
0.0
 20
0.0
 30
0.0
  3
*Paper_Space
  1

  0
ENDBLK
  5
1D
100
AcDbEntity
  8
0
100
AcDbBlockEnd
  0
BLOCK
  5
219
100
AcDbEntity
  8
0
100
AcDbBlockBegin
  2
_FILLED
 70
64
 10
0.0
 20
0.0
  3
_FILLED
  1

  0
SOLID
  5
21A
100
AcDbEntity
  8
0
  6
BYBLOCK
 62
0
100
AcDbTrace
 10
0.0
 20
0.0
 11
-1.0
 21
0.2
 12
-1.0
 22
-0.2
 13
-1.0
 23
-0.2
  0
ENDBLK
  5
21B
100
AcDbEntity
  8
0
  6
BYBLOCK
 62
0
100
AcDbBlockEnd
  0
ENDSEC
  0
SECTION
  2
ENTITIES
  0
MTEXT
  5
21C
100
AcDbEntity
  8
0
100
AcDbMText
 62
2
  6
CONTINUOUS
  7
STANDARD
 71
3
 72
1
 10
5.0388198758
 20
2.3562895963
 30
0.0
 11
1.0
 21
0.0
 31
0.0
 73
2
 44
0.9
  1
SCALE  .500
 40
0.08
 41
0.704
  0
LINE
  5
21D
100
AcDbEntity
  8
0
100
AcDbLine
 62
7
  6
CONTINUOUS
 10
0.0
 20
0.0
 11
0.0
 21
8.5
  0
LINE
  5
21E
100
AcDbEntity
  8
0
100
AcDbLine
 62
7
  6
CONTINUOUS
 10
0.0
 20
0.0
 11
11.0
 21
0.0
  0
LINE
  5
21F
100
AcDbEntity
  8
0
100
AcDbLine
 62
7
  6
CONTINUOUS
 10
0.0
 20
8.5
 11
11.0
 21
8.5
  0
LINE
  5
220
100
AcDbEntity
  8
0
100
AcDbLine
 62
7
  6
CONTINUOUS
 10
11.0
 20
0.0
 11
11.0
 21
8.5
  0
LINE
  5
221
100
AcDbEntity
  8
ALL_ASSEMBLY_MEMBERS
100
AcDbLine
 62
7
  6
CONTINUOUS
 10
4.2858300588
 20
4.0360484484
 11
4.3033725713
 21
4.0814728541
  0
LINE
  5
222
100
AcDbEntity
  8
ALL_ASSEMBLY_MEMBERS
100
AcDbLine
 62
7
  6
CONTINUOUS
 10
4.3328411707
 20
4.1518517081
 11
4.3311565923
 21
4.1485236445
  0
LINE
  5
223
100
AcDbEntity
  8
ALL_ASSEMBLY_MEMBERS
100
AcDbLine
 62
7
  6
CONTINUOUS
 10
4.6158462733
 20
4.1018517081
 11
4.6158462733
 21
4.0868517081
  0
LINE
  5
224
100
AcDbEntity
  8
ALL_ASSEMBLY_MEMBERS
100
AcDbLine
 62
7
  6
CONTINUOUS
 10
4.6508462733
 20
4.0518517081
 11
4.6508462733
 21
4.1368517081
  0
LINE
  5
225
100
AcDbEntity
  8
ALL_ASSEMBLY_MEMBERS
100
AcDbLine
 62
7
  6
CONTINUOUS
 10
4.6658462733
 20
4.0518517081
 11
4.6658462733
 21
4.1368517081
  0
LINE
  5
226
100
AcDbEntity
  8
ALL_ASSEMBLY_MEMBERS
100
AcDbLine
 62
7
  6
CONTINUOUS
 10
4.6508462733
 20
4.0518517081
 11
4.6658462733
 21
4.0518517081
  0
LINE
  5
227
100
AcDbEntity
  8
ALL_ASSEMBLY_MEMBERS
100
AcDbLine
 62
7
  6
CONTINUOUS
 10
4.6158462733
 20
4.0868517081
 11
4.7008462733
 21
4.0868517081
  0
LINE
  5
228
100
AcDbEntity
  8
ALL_ASSEMBLY_MEMBERS
100
AcDbLine
 62
7
  6
CONTINUOUS
 10
4.6158462733
 20
4.1018517081
 11
4.7008462733
 21
4.1018517081
  0
LINE
  5
229
100
AcDbEntity
  8
ALL_ASSEMBLY_MEMBERS
100
AcDbLine
 62
7
  6
CONTINUOUS
 10
4.5434550204
 20
4.1368517081
 11
4.5463992574
 21
4.1340529955
  0
LINE
  5
22A
100
AcDbEntity
  8
ALL_ASSEMBLY_MEMBERS
100
AcDbLine
 62
7
  6
CONTINUOUS
 10
4.7008462733
 20
4.1018517081
 11
4.7008462733
 21
4.0868517081
  0
LINE
  5
22B
100
AcDbEntity
  8
ALL_ASSEMBLY_MEMBERS
100
AcDbLine
 62
7
  6
CONTINUOUS
 10
4.6508462733
 20
4.1368517081
 11
4.6658462733
 21
4.1368517081
  0
LINE
  5
22C
100
AcDbEntity
  8
ALL_ASSEMBLY_MEMBERS
100
AcDbLine
 62
7
  6
CONTINUOUS
 10
4.7732375262
 20
4.0518517081
 11
4.7702932892
 21
4.0546504207
  0
LINE
  5
22D
100
AcDbEntity
  8
ALL_ASSEMBLY_MEMBERS
100
AcDbLine
 62
7
  6
CONTINUOUS
 10
4.9838513759
 20
4.0368517081
 11
4.9855359543
 21
4.0401797716
  0
LINE
  5
22E
100
AcDbEntity
  8
ALL_ASSEMBLY_MEMBERS
100
AcDbLine
 62
7
  6
CONTINUOUS
 10
5.0133199753
 20
4.107230562
 11
5.0308624878
 21
4.1526549677
  0
CIRCLE
  5
22F
100
AcDbEntity
  8
ALL_ASSEMBLY_MEMBERS
100
AcDbCircle
 62
7
  6
CONTINUOUS
 10
4.5810920247
 20
3.856587579
 40
0.0445
  0
CIRCLE
  5
230
100
AcDbEntity
  8
ALL_ASSEMBLY_MEMBERS
100
AcDbCircle
 62
7
  6
CONTINUOUS
 10
4.4560920247
 20
3.947405395
 40
0.0445
  0
CIRCLE
  5
231
100
AcDbEntity
  8
ALL_ASSEMBLY_MEMBERS
100
AcDbCircle
 62
7
  6
CONTINUOUS
 10
4.1233769829
 20
3.9205296487
 40
0.0445
  0
CIRCLE
  5
232
100
AcDbEntity
  8
ALL_ASSEMBLY_MEMBERS
100
AcDbCircle
 62
7
  6
CONTINUOUS
 10
4.203274214
 20
3.7637225037
 40
0.0445
  0
CIRCLE
  5
233
100
AcDbEntity
  8
ALL_ASSEMBLY_MEMBERS
100
AcDbCircle
 62
7
  6
CONTINUOUS
 10
4.3277170689
 20
3.6392796487
 40
0.0445
  0
CIRCLE
  5
234
100
AcDbEntity
  8
ALL_ASSEMBLY_MEMBERS
100
AcDbCircle
 62
7
  6
CONTINUOUS
 10
4.484524214
 20
3.5593824177
 40
0.0445
  0
CIRCLE
  5
235
100
AcDbEntity
  8
ALL_ASSEMBLY_MEMBERS
100
AcDbCircle
 62
7
  6
CONTINUOUS
 10
4.2872184311
 20
3.9291149468
 40
0.0445
  0
CIRCLE
  5
236
100
AcDbEntity
  8
ALL_ASSEMBLY_MEMBERS
100
AcDbCircle
 62
7
  6
CONTINUOUS
 10
4.3865119645
 20
3.7924491227
 40
0.0445
  0
CIRCLE
  5
237
100
AcDbEntity
  8
ALL_ASSEMBLY_MEMBERS
100
AcDbCircle
 62
7
  6
CONTINUOUS
 10
4.5328081193
 20
3.7079849983
 40
0.0445
  0
ARC
  5
238
100
AcDbEntity
  8
ALL_ASSEMBLY_MEMBERS
100
AcDbCircle
 62
7
  6
CONTINUOUS
 10
4.2527003587
 20
4.3423155593
 40
0.5458308097
100
AcDbArc
 50
339.3392087872
 51
339.8570936014
  0
ARC
  5
239
100
AcDbEntity
  8
ALL_ASSEMBLY_MEMBERS
100
AcDbCircle
 62
7
  6
CONTINUOUS
 10
4.4209273456
 20
4.3858680064
 40
0.375
100
AcDbArc
 50
248.8838705586
 51
290.3844107791
  0
ARC
  5
23A
100
AcDbEntity
  8
ALL_ASSEMBLY_MEMBERS
100
AcDbCircle
 62
7
  6
CONTINUOUS
 10
4.4209273456
 20
4.3858680064
 40
0.3712784769
100
AcDbArc
 50
248.8838705586
 51
290.8817670066
  0
ARC
  5
23B
100
AcDbEntity
  8
ALL_ASSEMBLY_MEMBERS
100
AcDbCircle
 62
7
  6
CONTINUOUS
 10
4.4209273456
 20
4.3858680064
 40
0.3263058897
100
AcDbArc
 50
248.8838705586
 51
291.6725326815
  0
ARC
  5
23C
100
AcDbEntity
  8
ALL_ASSEMBLY_MEMBERS
100
AcDbCircle
 62
7
  6
CONTINUOUS
 10
4.4530630706
 20
4.3537717289
 40
0.2836941103
100
AcDbArc
 50
240.1589336423
 51
288.1191727302
  0
ARC
  5
23D
100
AcDbEntity
  8
ALL_ASSEMBLY_MEMBERS
100
AcDbCircle
 62
7
  6
CONTINUOUS
 10
4.4530630706
 20
4.3537717289
 40
0.2387215231
100
AcDbArc
 50
239.2919340961
 51
293.0157121591
  0
ARC
  5
23E
100
AcDbEntity
  8
ALL_ASSEMBLY_MEMBERS
100
AcDbCircle
 62
7
  6
CONTINUOUS
 10
4.4530630706
 20
4.3537717289
 40
0.235
100
AcDbArc
 50
239.2306996159
 51
292.6218021904
  0
ARC
  5
23F
100
AcDbEntity
  8
ALL_ASSEMBLY_MEMBERS
100
AcDbCircle
 62
7
  6
CONTINUOUS
 10
4.3083462733
 20
4.0943517081
 40
0.0625
100
AcDbArc
 50
66.9260819344
 51
248.8838705586
  0
ARC
  5
240
100
AcDbEntity
  8
ALL_ASSEMBLY_MEMBERS
100
AcDbCircle
 62
7
  6
CONTINUOUS
 10
4.3083462733
 20
4.0943517081
 40
0.0587784769
100
AcDbArc
 50
67.1653732168
 51
248.8838705586
  0
CIRCLE
  5
241
100
AcDbEntity
  8
ALL_ASSEMBLY_MEMBERS
100
AcDbCircle
 62
7
  6
CONTINUOUS
 10
4.1233769829
 20
4.2681737674
 40
0.0445
  0
CIRCLE
  5
242
100
AcDbEntity
  8
ALL_ASSEMBLY_MEMBERS
100
AcDbCircle
 62
7
  6
CONTINUOUS
 10
4.2872184311
 20
4.2595884693
 40
0.0445
  0
CIRCLE
  5
243
100
AcDbEntity
  8
ALL_ASSEMBLY_MEMBERS
100
AcDbCircle
 62
7
  6
CONTINUOUS
 10
4.4560920247
 20
4.2412980211
 40
0.0445
  0
CIRCLE
  5
244
100
AcDbEntity
  8
ALL_ASSEMBLY_MEMBERS
100
AcDbCircle
 62
7
  6
CONTINUOUS
 10
4.5810920247
 20
4.3321158371
 40
0.0445
  0
ARC
  5
245
100
AcDbEntity
  8
ALL_ASSEMBLY_MEMBERS
100
AcDbCircle
 62
7
  6
CONTINUOUS
 10
4.4083462733
 20
4.0943517081
 40
0.0445
100
AcDbArc
 50
33.5787233972
 51
126.8901540339
  0
CIRCLE
  5
246
100
AcDbEntity
  8
ALL_ASSEMBLY_MEMBERS
100
AcDbCircle
 62
7
  6
CONTINUOUS
 10
4.3865119645
 20
4.3962542934
 40
0.0445
  0
CIRCLE
  5
247
100
AcDbEntity
  8
ALL_ASSEMBLY_MEMBERS
100
AcDbCircle
 62
7
  6
CONTINUOUS
 10
4.5328081193
 20
4.4807184178
 40
0.0445
  0
CIRCLE
  5
248
100
AcDbEntity
  8
ALL_ASSEMBLY_MEMBERS
100
AcDbCircle
 62
7
  6
CONTINUOUS
 10
4.0958462733
 20
4.0943517081
 40
0.0445
  0
CIRCLE
  5
249
100
AcDbEntity
  8
ALL_ASSEMBLY_MEMBERS
100
AcDbCircle
 62
7
  6
CONTINUOUS
 10
4.484524214
 20
4.6293209985
 40
0.0445
  0
CIRCLE
  5
24A
100
AcDbEntity
  8
ALL_ASSEMBLY_MEMBERS
100
AcDbCircle
 62
7
  6
CONTINUOUS
 10
4.3277170689
 20
4.5494237674
 40
0.0445
  0
CIRCLE
  5
24B
100
AcDbEntity
  8
ALL_ASSEMBLY_MEMBERS
100
AcDbCircle
 62
7
  6
CONTINUOUS
 10
4.203274214
 20
4.4249809125
 40
0.0445
  0
ARC
  5
24C
100
AcDbEntity
  8
ALL_ASSEMBLY_MEMBERS
100
AcDbCircle
 62
7
  6
CONTINUOUS
 10
4.2520962733
 20
4.0943517081
 40
0.0445
100
AcDbArc
 50
75.6588405026
 51
284.3412388697
  0
ARC
  5
24D
100
AcDbEntity
  8
ALL_ASSEMBLY_MEMBERS
100
AcDbCircle
 62
7
  6
CONTINUOUS
 10
4.3083462733
 20
4.0943517081
 40
0.0138058897
100
AcDbArc
 50
75.0920419949
 51
248.8838705586
  0
ARC
  5
24E
100
AcDbEntity
  8
ALL_ASSEMBLY_MEMBERS
100
AcDbCircle
 62
7
  6
CONTINUOUS
 10
5.0639921879
 20
3.8463878568
 40
0.5458308097
100
AcDbArc
 50
159.3392087872
 51
159.8570936014
  0
ARC
  5
24F
100
AcDbEntity
  8
ALL_ASSEMBLY_MEMBERS
100
AcDbCircle
 62
7
  6
CONTINUOUS
 10
4.895765201
 20
3.8028354098
 40
0.375
100
AcDbArc
 50
68.8838705586
 51
110.3844107791
  0
ARC
  5
250
100
AcDbEntity
  8
ALL_ASSEMBLY_MEMBERS
100
AcDbCircle
 62
7
  6
CONTINUOUS
 10
4.895765201
 20
3.8028354098
 40
0.3712784769
100
AcDbArc
 50
68.8838705586
 51
110.8817670066
  0
ARC
  5
251
100
AcDbEntity
  8
ALL_ASSEMBLY_MEMBERS
100
AcDbCircle
 62
7
  6
CONTINUOUS
 10
4.895765201
 20
3.8028354098
 40
0.3263058897
100
AcDbArc
 50
68.8838705586
 51
111.6725326815
  0
ARC
  5
252
100
AcDbEntity
  8
ALL_ASSEMBLY_MEMBERS
100
AcDbCircle
 62
7
  6
CONTINUOUS
 10
4.863629476
 20
3.8349316873
 40
0.2836941103
100
AcDbArc
 50
60.1589336423
 51
108.1191727302
  0
ARC
  5
253
100
AcDbEntity
  8
ALL_ASSEMBLY_MEMBERS
100
AcDbCircle
 62
7
  6
CONTINUOUS
 10
4.863629476
 20
3.8349316873
 40
0.2387215231
100
AcDbArc
 50
59.2919340961
 51
113.0157121591
  0
ARC
  5
254
100
AcDbEntity
  8
ALL_ASSEMBLY_MEMBERS
100
AcDbCircle
 62
7
  6
CONTINUOUS
 10
4.863629476
 20
3.8349316873
 40
0.235
100
AcDbArc
 50
59.2306996159
 51
112.6218021904
  0
CIRCLE
  5
255
100
AcDbEntity
  8
ALL_ASSEMBLY_MEMBERS
100
AcDbCircle
 62
7
  6
CONTINUOUS
 10
4.8606005219
 20
3.947405395
 40
0.0445
  0
CIRCLE
  5
256
100
AcDbEntity
  8
ALL_ASSEMBLY_MEMBERS
100
AcDbCircle
 62
7
  6
CONTINUOUS
 10
4.7356005219
 20
3.856587579
 40
0.0445
  0
ARC
  5
257
100
AcDbEntity
  8
ALL_ASSEMBLY_MEMBERS
100
AcDbCircle
 62
7
  6
CONTINUOUS
 10
5.0557187361
 20
4.0098875837
 40
0.0445
100
AcDbArc
 50
149.3336822871
 51
89.2329290304
  0
CIRCLE
  5
258
100
AcDbEntity
  8
ALL_ASSEMBLY_MEMBERS
100
AcDbCircle
 62
7
  6
CONTINUOUS
 10
4.9870094273
 20
3.8555639493
 40
0.0445
  0
CIRCLE
  5
259
100
AcDbEntity
  8
ALL_ASSEMBLY_MEMBERS
100
AcDbCircle
 62
7
  6
CONTINUOUS
 10
4.8614712733
 20
3.7425288878
 40
0.0445
  0
CIRCLE
  5
25A
100
AcDbEntity
  8
ALL_ASSEMBLY_MEMBERS
100
AcDbCircle
 62
7
  6
CONTINUOUS
 10
4.7008109615
 20
3.6903271881
 40
0.0445
  0
CIRCLE
  5
25B
100
AcDbEntity
  8
ALL_ASSEMBLY_MEMBERS
100
AcDbCircle
 62
7
  6
CONTINUOUS
 10
4.6583462733
 20
3.5318517081
 40
0.0445
  0
CIRCLE
  5
25C
100
AcDbEntity
  8
ALL_ASSEMBLY_MEMBERS
100
AcDbCircle
 62
7
  6
CONTINUOUS
 10
4.8321683326
 20
3.5593824177
 40
0.0445
  0
CIRCLE
  5
25D
100
AcDbEntity
  8
ALL_ASSEMBLY_MEMBERS
100
AcDbCircle
 62
7
  6
CONTINUOUS
 10
4.9889754777
 20
3.6392796487
 40
0.0445
  0
CIRCLE
  5
25E
100
AcDbEntity
  8
ALL_ASSEMBLY_MEMBERS
100
AcDbCircle
 62
7
  6
CONTINUOUS
 10
5.1134183326
 20
3.7637225037
 40
0.0445
  0
CIRCLE
  5
25F
100
AcDbEntity
  8
ALL_ASSEMBLY_MEMBERS
100
AcDbCircle
 62
7
  6
CONTINUOUS
 10
5.1933155637
 20
3.9205296487
 40
0.0445
  0
CIRCLE
  5
260
100
AcDbEntity
  8
ALL_ASSEMBLY_MEMBERS
100
AcDbCircle
 62
7
  6
CONTINUOUS
 10
4.6583462733
 20
4.0943517081
 40
1.093
  0
CIRCLE
  5
261
100
AcDbEntity
  8
ALL_FEATURES
100
AcDbCircle
 62
7
  6
CONTINUOUS
 10
4.6583462733
 20
4.0943517081
 40
1.0925
  0
CIRCLE
  5
262
100
AcDbEntity
  8
ALL_FEATURES
100
AcDbCircle
 62
7
  6
CONTINUOUS
 10
4.6583462733
 20
4.0943517081
 40
1.0807635195
  0
CIRCLE
  5
263
100
AcDbEntity
  8
ALL_FEATURES
100
AcDbCircle
 62
7
  6
CONTINUOUS
 10
4.6583462733
 20
4.0943517081
 40
0.9015439778
  0
CIRCLE
  5
264
100
AcDbEntity
  8
ALL_ASSEMBLY_MEMBERS
100
AcDbCircle
 62
7
  6
CONTINUOUS
 10
4.6583462733
 20
4.0943517081
 40
0.84
  0
CIRCLE
  5
265
100
AcDbEntity
  8
ALL_ASSEMBLY_MEMBERS
100
AcDbCircle
 62
7
  6
CONTINUOUS
 10
4.6583462733
 20
4.0943517081
 40
0.8320000004
  0
CIRCLE
  5
266
100
AcDbEntity
  8
ALL_ASSEMBLY_MEMBERS
100
AcDbCircle
 62
7
  6
CONTINUOUS
 10
4.6583462733
 20
4.0943517081
 40
0.78625
  0
CIRCLE
  5
267
100
AcDbEntity
  8
ALL_ASSEMBLY_MEMBERS
100
AcDbCircle
 62
7
  6
CONTINUOUS
 10
4.6583462733
 20
4.0943517081
 40
0.71625
  0
CIRCLE
  5
268
100
AcDbEntity
  8
ALL_ASSEMBLY_MEMBERS
100
AcDbCircle
 62
7
  6
CONTINUOUS
 10
4.6583462733
 20
4.0943517081
 40
0.6262500011
  0
ARC
  5
269
100
AcDbEntity
  8
ALL_ASSEMBLY_MEMBERS
100
AcDbCircle
 62
7
  6
CONTINUOUS
 10
4.6583462733
 20
4.0943517081
 40
0.4451819965
100
AcDbArc
 50
153.0948044467
 51
158.9092250582
  0
ARC
  5
26A
100
AcDbEntity
  8
ALL_ASSEMBLY_MEMBERS
100
AcDbCircle
 62
7
  6
CONTINUOUS
 10
4.6583462733
 20
4.0943517081
 40
0.4451819965
100
AcDbArc
 50
129.0991841627
 51
134.9127017714
  0
ARC
  5
26B
100
AcDbEntity
  8
ALL_ASSEMBLY_MEMBERS
100
AcDbCircle
 62
7
  6
CONTINUOUS
 10
4.6583462733
 20
4.0943517081
 40
0.4451819965
100
AcDbArc
 50
105.0809036637
 51
110.8968006855
  0
ARC
  5
26C
100
AcDbEntity
  8
ALL_ASSEMBLY_MEMBERS
100
AcDbCircle
 62
7
  6
CONTINUOUS
 10
4.6583462733
 20
4.0943517081
 40
0.4451819965
100
AcDbArc
 50
81.0776302285
 51
86.9219610142
  0
ARC
  5
26D
100
AcDbEntity
  8
ALL_ASSEMBLY_MEMBERS
100
AcDbCircle
 62
7
  6
CONTINUOUS
 10
4.6583462733
 20
4.0943517081
 40
0.4451819965
100
AcDbArc
 50
57.0811545879
 51
62.9156936721
  0
ARC
  5
26E
100
AcDbEntity
  8
ALL_ASSEMBLY_MEMBERS
100
AcDbCircle
 62
7
  6
CONTINUOUS
 10
4.6583462733
 20
4.0943517081
 40
0.4451819965
100
AcDbArc
 50
33.0744333312
 51
38.9002586692
  0
ARC
  5
26F
100
AcDbEntity
  8
ALL_ASSEMBLY_MEMBERS
100
AcDbCircle
 62
7
  6
CONTINUOUS
 10
4.6583462733
 20
4.0943517081
 40
0.4451819965
100
AcDbArc
 50
9.1025300216
 51
14.892820768
  0
ARC
  5
270
100
AcDbEntity
  8
ALL_ASSEMBLY_MEMBERS
100
AcDbCircle
 62
7
  6
CONTINUOUS
 10
4.6583462733
 20
4.0943517081
 40
0.4451819965
100
AcDbArc
 50
345.1071403154
 51
350.8976700958
  0
ARC
  5
271
100
AcDbEntity
  8
ALL_ASSEMBLY_MEMBERS
100
AcDbCircle
 62
7
  6
CONTINUOUS
 10
4.6583462733
 20
4.0943517081
 40
0.4451819965
100
AcDbArc
 50
321.0975920798
 51
326.926650987
  0
ARC
  5
272
100
AcDbEntity
  8
ALL_ASSEMBLY_MEMBERS
100
AcDbCircle
 62
7
  6
CONTINUOUS
 10
4.6583462733
 20
4.0943517081
 40
0.4451819965
100
AcDbArc
 50
297.0880975373
 51
302.9188237284
  0
ARC
  5
273
100
AcDbEntity
  8
ALL_ASSEMBLY_MEMBERS
100
AcDbCircle
 62
7
  6
CONTINUOUS
 10
4.6583462733
 20
4.0943517081
 40
0.4451819965
100
AcDbArc
 50
273.0832296233
 51
278.920612506
  0
ARC
  5
274
100
AcDbEntity
  8
ALL_ASSEMBLY_MEMBERS
100
AcDbCircle
 62
7
  6
CONTINUOUS
 10
4.6583462733
 20
4.0943517081
 40
0.4451819965
100
AcDbArc
 50
249.1099432568
 51
254.9137985389
  0
ARC
  5
275
100
AcDbEntity
  8
ALL_ASSEMBLY_MEMBERS
100
AcDbCircle
 62
7
  6
CONTINUOUS
 10
4.6583462733
 20
4.0943517081
 40
0.4451819965
100
AcDbArc
 50
225.0805144215
 51
230.8966144833
  0
ARC
  5
276
100
AcDbEntity
  8
ALL_ASSEMBLY_MEMBERS
100
AcDbCircle
 62
7
  6
CONTINUOUS
 10
4.6583462733
 20
4.0943517081
 40
0.4451819965
100
AcDbArc
 50
201.0898821717
 51
206.9043227321
  0
ARC
  5
277
100
AcDbEntity
  8
ALL_ASSEMBLY_MEMBERS
100
AcDbCircle
 62
7
  6
CONTINUOUS
 10
4.6583462733
 20
4.0943517081
 40
0.4451819965
100
AcDbArc
 50
177.1090213254
 51
182.8909320139
  0
ARC
  5
278
100
AcDbEntity
  8
ALL_ASSEMBLY_MEMBERS
100
AcDbCircle
 62
7
  6
CONTINUOUS
 10
4.6583462733
 20
4.0943517081
 40
0.430995172
100
AcDbArc
 50
342.9365325678
 51
353.061156776
  0
ARC
  5
279
100
AcDbEntity
  8
ALL_ASSEMBLY_MEMBERS
100
AcDbCircle
 62
7
  6
CONTINUOUS
 10
4.6583462733
 20
4.0943517081
 40
0.430995172
100
AcDbArc
 50
318.9430661154
 51
329.0756747688
  0
ARC
  5
27A
100
AcDbEntity
  8
ALL_ASSEMBLY_MEMBERS
100
AcDbCircle
 62
7
  6
CONTINUOUS
 10
4.6583462733
 20
4.0943517081
 40
0.430995172
100
AcDbArc
 50
294.9234791517
 51
305.0743560463
  0
ARC
  5
27B
100
AcDbEntity
  8
ALL_ASSEMBLY_MEMBERS
100
AcDbCircle
 62
7
  6
CONTINUOUS
 10
4.6583462733
 20
4.0943517081
 40
0.430995172
100
AcDbArc
 50
270.9290072885
 51
281.0632317917
  0
ARC
  5
27C
100
AcDbEntity
  8
ALL_ASSEMBLY_MEMBERS
100
AcDbCircle
 62
7
  6
CONTINUOUS
 10
4.6583462733
 20
4.0943517081
 40
0.430995172
100
AcDbArc
 50
246.9361067786
 51
257.0662200193
  0
ARC
  5
27D
100
AcDbEntity
  8
ALL_ASSEMBLY_MEMBERS
100
AcDbCircle
 62
7
  6
CONTINUOUS
 10
4.6583462733
 20
4.0943517081
 40
0.430995172
100
AcDbArc
 50
222.9282144482
 51
233.0608038323
  0
ARC
  5
27E
100
AcDbEntity
  8
ALL_ASSEMBLY_MEMBERS
100
AcDbCircle
 62
7
  6
CONTINUOUS
 10
4.6583462733
 20
4.0943517081
 40
0.430995172
100
AcDbArc
 50
198.937628101
 51
209.0557342706
  0
ARC
  5
27F
100
AcDbEntity
  8
ALL_ASSEMBLY_MEMBERS
100
AcDbCircle
 62
7
  6
CONTINUOUS
 10
4.6583462733
 20
4.0943517081
 40
0.430995172
100
AcDbArc
 50
174.9428092888
 51
185.0571575479
  0
ARC
  5
280
100
AcDbEntity
  8
ALL_ASSEMBLY_MEMBERS
100
AcDbCircle
 62
7
  6
CONTINUOUS
 10
4.6583462733
 20
4.0943517081
 40
0.430995172
100
AcDbArc
 50
150.9445583044
 51
161.0637028105
  0
ARC
  5
281
100
AcDbEntity
  8
ALL_ASSEMBLY_MEMBERS
100
AcDbCircle
 62
7
  6
CONTINUOUS
 10
4.6583462733
 20
4.0943517081
 40
0.430995172
100
AcDbArc
 50
126.9390595025
 51
137.0679131169
  0
ARC
  5
282
100
AcDbEntity
  8
ALL_ASSEMBLY_MEMBERS
100
AcDbCircle
 62
7
  6
CONTINUOUS
 10
4.6583462733
 20
4.0943517081
 40
0.430995172
100
AcDbArc
 50
102.9303552108
 51
113.0659765612
  0
ARC
  5
283
100
AcDbEntity
  8
ALL_ASSEMBLY_MEMBERS
100
AcDbCircle
 62
7
  6
CONTINUOUS
 10
4.6583462733
 20
4.0943517081
 40
0.430995172
100
AcDbArc
 50
78.9348290873
 51
89.0721516621
  0
ARC
  5
284
100
AcDbEntity
  8
ALL_ASSEMBLY_MEMBERS
100
AcDbCircle
 62
7
  6
CONTINUOUS
 10
4.6583462733
 20
4.0943517081
 40
0.430995172
100
AcDbArc
 50
54.9236009089
 51
65.0766772683
  0
ARC
  5
285
100
AcDbEntity
  8
ALL_ASSEMBLY_MEMBERS
100
AcDbCircle
 62
7
  6
CONTINUOUS
 10
4.6583462733
 20
4.0943517081
 40
0.430995172
100
AcDbArc
 50
30.9257679192
 51
41.0565367638
  0
ARC
  5
286
100
AcDbEntity
  8
ALL_ASSEMBLY_MEMBERS
100
AcDbCircle
 62
7
  6
CONTINUOUS
 10
4.6583462733
 20
4.0943517081
 40
0.430995172
100
AcDbArc
 50
6.9389335036
 51
17.0631227652
  0
ARC
  5
287
100
AcDbEntity
  8
ALL_ASSEMBLY_MEMBERS
100
AcDbCircle
 62
7
  6
CONTINUOUS
 10
4.6583462733
 20
4.0943517081
 40
0.1225
100
AcDbArc
 50
209.3271687654
 51
339.6998091581
  0
ARC
  5
288
100
AcDbEntity
  8
ALL_ASSEMBLY_MEMBERS
100
AcDbCircle
 62
7
  6
CONTINUOUS
 10
4.6583462733
 20
4.0943517081
 40
0.1225
100
AcDbArc
 50
29.3271687654
 51
159.6998091581
  0
CIRCLE
  5
289
100
AcDbEntity
  8
ALL_ASSEMBLY_MEMBERS
100
AcDbCircle
 62
7
  6
CONTINUOUS
 10
4.6583462733
 20
4.0943517081
 40
0.1175
  0
CIRCLE
  5
28A
100
AcDbEntity
  8
ALL_ASSEMBLY_MEMBERS
100
AcDbCircle
 62
7
  6
CONTINUOUS
 10
4.6583462733
 20
4.0943517081
 40
0.0981350833
  0
CIRCLE
  5
28B
100
AcDbEntity
  8
ALL_ASSEMBLY_MEMBERS
100
AcDbCircle
 62
7
  6
CONTINUOUS
 10
4.6583462733
 20
4.0943517081
 40
0.08
  0
CIRCLE
  5
28C
100
AcDbEntity
  8
ALL_ASSEMBLY_MEMBERS
100
AcDbCircle
 62
7
  6
CONTINUOUS
 10
4.6583462733
 20
4.0943517081
 40
0.0775
  0
CIRCLE
  5
28D
100
AcDbEntity
  8
ALL_ASSEMBLY_MEMBERS
100
AcDbCircle
 62
7
  6
CONTINUOUS
 10
4.7356005219
 20
4.3321158371
 40
0.0445
  0
ARC
  5
28E
100
AcDbEntity
  8
ALL_ASSEMBLY_MEMBERS
100
AcDbCircle
 62
7
  6
CONTINUOUS
 10
4.9083462733
 20
4.0943517081
 40
0.0445
100
AcDbArc
 50
213.5787233972
 51
306.8901540339
  0
CIRCLE
  5
28F
100
AcDbEntity
  8
ALL_ASSEMBLY_MEMBERS
100
AcDbCircle
 62
7
  6
CONTINUOUS
 10
4.8606005219
 20
4.2412980211
 40
0.0445
  0
CIRCLE
  5
290
100
AcDbEntity
  8
ALL_ASSEMBLY_MEMBERS
100
AcDbCircle
 62
7
  6
CONTINUOUS
 10
4.7008109615
 20
4.4983762281
 40
0.0445
  0
CIRCLE
  5
291
100
AcDbEntity
  8
ALL_ASSEMBLY_MEMBERS
100
AcDbCircle
 62
7
  6
CONTINUOUS
 10
4.8614712733
 20
4.4461745284
 40
0.0445
  0
CIRCLE
  5
292
100
AcDbEntity
  8
ALL_ASSEMBLY_MEMBERS
100
AcDbCircle
 62
7
  6
CONTINUOUS
 10
4.8321683326
 20
4.6293209985
 40
0.0445
  0
CIRCLE
  5
293
100
AcDbEntity
  8
ALL_ASSEMBLY_MEMBERS
100
AcDbCircle
 62
7
  6
CONTINUOUS
 10
4.6583462733
 20
4.6568517081
 40
0.0445
  0
ARC
  5
294
100
AcDbEntity
  8
ALL_ASSEMBLY_MEMBERS
100
AcDbCircle
 62
7
  6
CONTINUOUS
 10
5.0083462733
 20
4.0943517081
 40
0.0625
100
AcDbArc
 50
246.9260819344
 51
68.8838705586
  0
ARC
  5
295
100
AcDbEntity
  8
ALL_ASSEMBLY_MEMBERS
100
AcDbCircle
 62
7
  6
CONTINUOUS
 10
5.0083462733
 20
4.0943517081
 40
0.0587784769
100
AcDbArc
 50
247.1653732168
 51
68.8838705586
  0
CIRCLE
  5
296
100
AcDbEntity
  8
ALL_ASSEMBLY_MEMBERS
100
AcDbCircle
 62
7
  6
CONTINUOUS
 10
4.9870094273
 20
4.3331394668
 40
0.0445
  0
ARC
  5
297
100
AcDbEntity
  8
ALL_ASSEMBLY_MEMBERS
100
AcDbCircle
 62
7
  6
CONTINUOUS
 10
5.0557187361
 20
4.1788158325
 40
0.0445
100
AcDbArc
 50
270.7669147592
 51
208.1148117998
  0
CIRCLE
  5
298
100
AcDbEntity
  8
ALL_ASSEMBLY_MEMBERS
100
AcDbCircle
 62
7
  6
CONTINUOUS
 10
5.2208462733
 20
4.0943517081
 40
0.0445
  0
CIRCLE
  5
299
100
AcDbEntity
  8
ALL_ASSEMBLY_MEMBERS
100
AcDbCircle
 62
7
  6
CONTINUOUS
 10
5.1933155637
 20
4.2681737674
 40
0.0445
  0
ARC
  5
29A
100
AcDbEntity
  8
ALL_ASSEMBLY_MEMBERS
100
AcDbCircle
 62
7
  6
CONTINUOUS
 10
5.0083462733
 20
4.0943517081
 40
0.0138058897
100
AcDbArc
 50
255.0920419949
 51
68.8838705586
  0
CIRCLE
  5
29B
100
AcDbEntity
  8
ALL_ASSEMBLY_MEMBERS
100
AcDbCircle
 62
7
  6
CONTINUOUS
 10
5.1134183326
 20
4.4249809125
 40
0.0445
  0
CIRCLE
  5
29C
100
AcDbEntity
  8
ALL_ASSEMBLY_MEMBERS
100
AcDbCircle
 62
7
  6
CONTINUOUS
 10
4.9889754777
 20
4.5494237674
 40
0.0445
  0
SPLINE
  5
29D
100
AcDbEntity
  8
ALL_ASSEMBLY_MEMBERS
100
AcDbSpline
 62
7
  6
CONTINUOUS
 70
0
 71
3
 72
28
 73
24
 74
0
 42
0.0000001
 43
0.0000001
 44
0.0000000001
 40
0.0
 40
0.0
 40
0.0
 40
0.0
 40
0.0012356266
 40
0.0029472971
 40
0.0052180432
 40
0.0080789908
 40
0.0156107302
 40
0.0255697877
 40
0.0379385961
 40
0.05267335
 40
0.0696917045
 40
0.0889029634
 40
0.1102146669
 40
0.1335334345
 40
0.1858246666
 40
0.2450670985
 40
0.3105622946
 40
0.3816653524
 40
0.4578804935
 40
0.5387455561
 40
0.6238260023
 40
0.8053236549
 40
1.0
 40
1.0
 40
1.0
 40
1.0
 10
4.7702932892
 20
4.0546504207
 30
0.0
 10
4.7702851447
 20
4.0546580837
 30
0.0
 10
4.7702716925
 20
4.0546822101
 30
0.0
 10
4.770260845
 20
4.0547282572
 30
0.0
 10
4.7702552492
 20
4.054790126
 30
0.0
 10
4.7702553493
 20
4.054904798
 30
0.0
 10
4.7702721733
 20
4.0550885063
 30
0.0
 10
4.7703115177
 20
4.0553558801
 30
0.0
 10
4.7703720489
 20
4.0556858692
 30
0.0
 10
4.7704529477
 20
4.0560769163
 30
0.0
 10
4.7705529192
 20
4.0565272067
 30
0.0
 10
4.7706705434
 20
4.0570345178
 30
0.0
 10
4.7708043471
 20
4.0575965988
 30
0.0
 10
4.7710103891
 20
4.0584492255
 30
0.0
 10
4.7712996285
 20
4.0596349084
 30
0.0
 10
4.7716746648
 20
4.061192562
 30
0.0
 10
4.7720776759
 20
4.0629185706
 30
0.0
 10
4.772496853
 20
4.0647984639
 30
0.0
 10
4.7729220675
 20
4.066819393
 30
0.0
 10
4.7733434625
 20
4.0689702084
 30
0.0
 10
4.7738993936
 20
4.0720652491
 30
0.0
 10
4.7745314216
 20
4.0761925344
 30
0.0
 10
4.7749174945
 20
4.0795761366
 30
0.0
 10
4.7750819925
 20
4.0813303157
 30
0.0
  0
SPLINE
  5
29E
100
AcDbEntity
  8
ALL_ASSEMBLY_MEMBERS
100
AcDbSpline
 62
7
  6
CONTINUOUS
 70
0
 71
3
 72
25
 73
21
 74
0
 42
0.0000001
 43
0.0000001
 44
0.0000000001
 40
0.0
 40
0.0
 40
0.0
 40
0.0
 40
0.2103718529
 40
0.4015542014
 40
0.4889546847
 40
0.5704266153
 40
0.6456378946
 40
0.7142690441
 40
0.7760539237
 40
0.8307343433
 40
0.8780688549
 40
0.9178802143
 40
0.9500132362
 40
0.9631597044
 40
0.9743514767
 40
0.9835937683
 40
0.9909033052
 40
0.9963247169
 40
0.9983648751
 40
1.0
 40
1.0
 40
1.0
 40
1.0
 10
4.5457882194
 20
4.0607683382
 30
0.0
 10
4.5462204458
 20
4.0592095221
 30
0.0
 10
4.5470987952
 20
4.0562485956
 30
0.0
 10
4.5482849275
 20
4.0526802608
 30
0.0
 10
4.5492124782
 20
4.0500715983
 30
0.0
 10
4.5498618418
 20
4.0483106188
 30
0.0
 10
4.5504769071
 20
4.0466909212
 30
0.0
 10
4.5510489258
 20
4.0452168617
 30
0.0
 10
4.5515700671
 20
4.0438924227
 30
0.0
 10
4.5520327466
 20
4.0427209657
 30
0.0
 10
4.5524297429
 20
4.0417052226
 30
0.0
 10
4.5527556412
 20
4.0408478871
 30
0.0
 10
4.552977134
 20
4.040232115
 30
0.0
 10
4.5531118645
 20
4.0398192683
 30
0.0
 10
4.5531852899
 20
4.0395716896
 30
0.0
 10
4.5532381374
 20
4.0393648773
 30
0.0
 10
4.5532701692
 20
4.0391989645
 30
0.0
 10
4.5532812084
 20
4.0390853765
 30
0.0
 10
4.553276796
 20
4.0390154393
 30
0.0
 10
4.5532705404
 20
4.038987625
 30
0.0
 10
4.5532661033
 20
4.0389758608
 30
0.0
  0
SPLINE
  5
29F
100
AcDbEntity
  8
ALL_ASSEMBLY_MEMBERS
100
AcDbSpline
 62
7
  6
CONTINUOUS
 70
0
 71
3
 72
28
 73
24
 74
0
 42
0.0000001
 43
0.0000001
 44
0.0000000001
 40
0.0
 40
0.0
 40
0.0
 40
0.0
 40
0.0012499415
 40
0.0029680694
 40
0.0052372918
 40
0.0080893695
 40
0.0155834043
 40
0.0254808197
 40
0.0377664524
 40
0.0524025559
 40
0.0693127914
 40
0.0884100441
 40
0.1096053404
 40
0.1328087213
 40
0.1848826851
 40
0.2439436059
 40
0.3093169125
 40
0.3803577608
 40
0.4565648923
 40
0.5374904789
 40
0.6227007344
 40
0.804626285
 40
1.0
 40
1.0
 40
1.0
 40
1.0
 10
4.5463992574
 20
4.1340529955
 30
0.0
 10
4.5464071633
 20
4.134045557
 30
0.0
 10
4.546420329
 20
4.1340223738
 30
0.0
 10
4.5464311779
 20
4.1339781051
 30
0.0
 10
4.546437006
 20
4.1339188173
 30
0.0
 10
4.5464376555
 20
4.1338091949
 30
0.0
 10
4.5464225349
 20
4.1336337582
 30
0.0
 10
4.5463860786
 20
4.1333786019
 30
0.0
 10
4.5463294501
 20
4.1330638326
 30
0.0
 10
4.5462533272
 20
4.1326908503
 30
0.0
 10
4.5461588696
 20
4.132261286
 30
0.0
 10
4.546047393
 20
4.1317771741
 30
0.0
 10
4.5459202559
 20
4.1312405984
 30
0.0
 10
4.5457239797
 20
4.1304260973
 30
0.0
 10
4.5454475093
 20
4.1292926697
 30
0.0
 10
4.5450875501
 20
4.1278026457
 30
0.0
 10
4.5446989503
 20
4.1261501032
 30
0.0
 10
4.5442928649
 20
4.1243487688
 30
0.0
 10
4.5438789174
 20
4.1224108681
 30
0.0
 10
4.5434662224
 20
4.1203470281
 30
0.0
 10
4.5429177426
 20
4.1173743681
 30
0.0
 10
4.542286414
 20
4.1134068242
 30
0.0
 10
4.5418900463
 20
4.1101532751
 30
0.0
 10
4.5417175705
 20
4.1084653435
 30
0.0
  0
SPLINE
  5
2A0
100
AcDbEntity
  8
ALL_ASSEMBLY_MEMBERS
100
AcDbSpline
 62
7
  6
CONTINUOUS
 70
0
 71
3
 72
14
 73
10
 74
0
 42
0.0000001
 43
0.0000001
 44
0.0000000001
 40
0.0
 40
0.0
 40
0.0
 40
0.0
 40
0.086093521
 40
0.3054569291
 40
0.4556504139
 40
0.6257432808
 40
0.8094466491
 40
0.9043307759
 40
1.0
 40
1.0
 40
1.0
 40
1.0
 10
4.3311565923
 20
4.1485236445
 30
0.0
 10
4.3305729163
 20
4.1473667251
 30
0.0
 10
4.3285078781
 20
4.1432590776
 30
0.0
 10
4.325460423
 20
4.1371151258
 30
0.0
 10
4.3219114261
 20
4.129809008
 30
0.0
 10
4.318656908
 20
4.1229568241
 30
0.0
 10
4.3158382443
 20
4.1168195814
 30
0.0
 10
4.3135649587
 20
4.1116655023
 30
0.0
 10
4.3124462006
 20
4.1090244339
 30
0.0
 10
4.3118980733
 20
4.1076928965
 30
0.0
  0
SPLINE
  5
2A1
100
AcDbEntity
  8
ALL_ASSEMBLY_MEMBERS
100
AcDbSpline
 62
7
  6
CONTINUOUS
 70
0
 71
3
 72
25
 73
21
 74
0
 42
0.0000001
 43
0.0000001
 44
0.0000000001
 40
0.0
 40
0.0
 40
0.0
 40
0.0
 40
0.210236223
 40
0.4013748754
 40
0.4887786441
 40
0.5702646334
 40
0.6454990314
 40
0.7141583254
 40
0.7759731137
 40
0.8306836542
 40
0.8780454672
 40
0.9178787193
 40
0.9500269543
 40
0.9631779438
 40
0.9743717342
 40
0.9836134022
 40
0.990919494
 40
0.996334401
 40
0.9983700921
 40
1.0
 40
1.0
 40
1.0
 40
1.0
 10
4.7709587563
 20
4.12773821
 30
0.0
 10
4.7705253317
 20
4.1293104625
 30
0.0
 10
4.7696436073
 20
4.132297471
 30
0.0
 10
4.768450918
 20
4.135897283
 30
0.0
 10
4.7675171566
 20
4.1385295372
 30
0.0
 10
4.7668629473
 20
4.1403067766
 30
0.0
 10
4.7662429234
 20
4.141941542
 30
0.0
 10
4.7656659992
 20
4.1434293899
 30
0.0
 10
4.7651401553
 20
4.1447662556
 30
0.0
 10
4.7646730877
 20
4.1459486974
 30
0.0
 10
4.7642721704
 20
4.1469739351
 30
0.0
 10
4.7639429429
 20
4.1478392265
 30
0.0
 10
4.763719083
 20
4.1484606459
 30
0.0
 10
4.7635828369
 20
4.1488772197
 30
0.0
 10
4.7635085629
 20
4.1491269789
 30
0.0
 10
4.76345507
 20
4.1493355602
 30
0.0
 10
4.7634226018
 20
4.1495028275
 30
0.0
 10
4.7634113394
 20
4.1496172964
 30
0.0
 10
4.7634157065
 20
4.1496877318
 30
0.0
 10
4.7634219812
 20
4.1497157249
 30
0.0
 10
4.7634264433
 20
4.1497275553
 30
0.0
  0
SPLINE
  5
2A2
100
AcDbEntity
  8
ALL_ASSEMBLY_MEMBERS
100
AcDbSpline
 62
7
  6
CONTINUOUS
 70
0
 71
3
 72
14
 73
10
 74
0
 42
0.0000001
 43
0.0000001
 44
0.0000000001
 40
0.0
 40
0.0
 40
0.0
 40
0.0
 40
0.086093521
 40
0.3054569291
 40
0.4556504139
 40
0.6257432808
 40
0.8094466491
 40
0.9043307759
 40
1.0
 40
1.0
 40
1.0
 40
1.0
 10
4.9855359543
 20
4.0401797716
 30
0.0
 10
4.9861196303
 20
4.041336691
 30
0.0
 10
4.9881846685
 20
4.0454443385
 30
0.0
 10
4.9912321235
 20
4.0515882903
 30
0.0
 10
4.9947811205
 20
4.0588944081
 30
0.0
 10
4.9980356386
 20
4.0657465921
 30
0.0
 10
5.0008543023
 20
4.0718838348
 30
0.0
 10
5.0031275879
 20
4.0770379138
 30
0.0
 10
5.004246346
 20
4.0796789823
 30
0.0
 10
5.0047944733
 20
4.0810105197
 30
0.0
  0
ENDSEC
  0
SECTION
  2
OBJECTS
  0
DICTIONARY
  5
C
100
AcDbDictionary
280
0
281
1
  3
ACAD_GROUP
350
D
  3
ACAD_MLINESTYLE
350
17
  3
ACAD_LAYOUT
350
1A
  3
ACAD_PLOTSETTINGS
350
19
  3
ACAD_PLOTSTYLENAME
350
E
  0
DICTIONARY
  5
D
102
{ACAD_REACTORS
330
C
102
}
100
AcDbDictionary
280
0
281
1
  0
ACDBDICTIONARYWDFLT
  5
E
102
{ACAD_REACTORS
330
C
102
}
100
AcDbDictionary
281
1
  3
Normal
350
F
100
AcDbDictionaryWithDefault
340
F
  0
DICTIONARY
  5
17
102
{ACAD_REACTORS
330
C
102
}
100
AcDbDictionary
280
0
281
1
  3
Standard
350
18
  0
DICTIONARY
  5
19
102
{ACAD_REACTORS
330
C
102
}
100
AcDbDictionary
281
1
  0
DICTIONARY
  5
1A
102
{ACAD_REACTORS
330
C
102
}
100
AcDbDictionary
281
1
  3
Model
350
2A3
  3
Layout1
350
2A4
  0
ACDBPLACEHOLDER
  5
F
102
{ACAD_REACTORS
330
E
102
}
  0
MLINESTYLE
  5
18
102
{ACAD_REACTORS
330
17
102
}
100
AcDbMlineStyle
  2
STANDARD
 70
0
  3

 62
256
 51
90.0
 52
90.0
 71
2
 49
0.5
 62
256
  6
BYLAYER
 49
-0.5
 62
256
  6
BYLAYER
  0
LAYOUT
  5
2A3
102
{ACAD_REACTORS
330
1A
102
}
100
AcDbPlotSettings
  1

  2
none_device
  4
ANSI_A_(11.00_x_8.50_Inches)
  6

 40
0.0
 41
0.0
 42
0.0
 43
0.0
 44
279.4
 45
215.9
 46
0.0
 47
0.0
 48
0.0
 49
0.0
140
0.0
141
0.0
142
1.0
143
1.0
 70
1024
 72
0
 73
0
 74
0
  7

 75
0
147
1.0
148
0.0
149
0.0
100
AcDbLayout
  1
Model
 70
0
 71
0
 10
0.0
 20
0.0
 11
11.0
 21
8.5
 12
0.0
 22
0.0
 32
0.0
 14
0.0
 24
0.0
 34
0.0
 15
0.0
 25
0.0
 35
0.0
146
0.0
 13
0.0
 23
0.0
 33
0.0
 16
1.0
 26
0.0
 36
0.0
 17
0.0
 27
1.0
 37
0.0
 76
0
330
215
345
0
346
0
  0
LAYOUT
  5
2A4
102
{ACAD_REACTORS
330
1A
102
}
100
AcDbPlotSettings
  1

  2
none_device
  4
ANSI_A_(11.00_x_8.50_Inches)
  6

 40
0.0
 41
0.0
 42
0.0
 43
0.0
 44
279.4
 45
215.9
 46
0.0
 47
0.0
 48
0.0
 49
0.0
140
0.0
141
0.0
142
1.0
143
1.0
 70
0
 72
0
 73
0
 74
0
  7

 75
0
147
1.0
148
0.0
149
0.0
100
AcDbLayout
  1
Layout1
 70
0
 71
1
 10
0.0
 20
0.0
 11
11.0
 21
8.5
 12
0.0
 22
0.0
 32
0.0
 14
0.0
 24
0.0
 34
0.0
 15
0.0
 25
0.0
 35
0.0
146
0.0
 13
0.0
 23
0.0
 33
0.0
 16
1.0
 26
0.0
 36
0.0
 17
0.0
 27
1.0
 37
0.0
 76
0
330
216
345
0
346
0
  0
ENDSEC
  0
EOF
