999
DXF file: E:\BRASSTECH\RAY\EN-4300m\Webdata\1220C\CAD\1220C_FRONT.dxf
999
Pro/ENGINEER 2018400 by Parametric Technology Corporation
  0
SECTION
  2
HEADER
  9
$ACADVER
  1
AC1018
  9
$DWGCODEPAGE
  3
ANSI_1252
  9
$EXTMAX
 10
22.0
 20
17.0
 30
0.0
  9
$EXTMIN
 10
0.0
 20
0.0
 30
0.0
  9
$LIMMIN
 10
0.0
 20
0.0
  9
$LIMMAX
 10
22.0
 20
17.0
  9
$VIEWCTR
 10
11.0
 20
8.5
  9
$VIEWSIZE
 40
17.0
  9
$CLAYER
  8
0
  9
$LTSCALE
 40
1.21
  9
$CELTYPE
  6
BYLAYER
  9
$DIMSCALE
 40
1.0
  9
$DIMASZ
 40
0.1
  9
$DIMEXO
 40
0.0625
  9
$DIMDLI
 40
0.836
  9
$DIMEXE
 40
0.125
  9
$DIMCEN
 40
0.198
  9
$DIMLFAC
 40
1.0
  9
$DIMBLK
  1
_FILLED
  9
$DIMALT
 70
1
  9
$DIMALTD
 70
2
  9
$DIMALTTD
 70
2
  9
$DIMALTF
 40
25.4
  9
$DIMTXT
 40
0.08
  9
$DIMTOL
 70
1
  9
$DIMLIM
 70
0
  9
$DIMTFAC
 40
1.0
  9
$DIMTP
 40
0.001
  9
$DIMTM
 40
0.001
  9
$DIMGAP
 40
0.09
  9
$DIMDSEP
 70
46
  9
$AUNITS
 70
0
  9
$PDMODE
 70
3
  9
$PDSIZE
 40
0.06
  9
$HANDSEED
  5
510
  9
$TILEMODE
 70
1
  9
$MEASUREMENT
 70
0
  9
$INSUNITS
 70
1
  0
ENDSEC
  0
SECTION
  2
CLASSES
  0
CLASS
  1
ACDBDICTIONARYWDFLT
  2
AcDbDictionaryWithDefault
  3
AutoCAD 2000
 90
0
 91
1
280
0
281
0
  0
CLASS
  1
ACDBPLACEHOLDER
  2
AcDbPlaceHolder
  3
AutoCAD 2000
 90
0
 91
1
280
0
281
0
  0
CLASS
  1
LAYOUT
  2
AcDbLayout
  3
AutoCAD 2000
 90
0
 91
0
280
0
281
0
  0
ENDSEC
  0
SECTION
  2
TABLES
  0
TABLE
  2
VPORT
  5
8
100
AcDbSymbolTable
 70
2
  0
VPORT
  5
1F4
100
AcDbSymbolTableRecord
100
AcDbViewportTableRecord
  2
*ACTIVE
 70
0
 10
0.0
 20
0.0
 11
1.0
 21
1.0
 12
11.0
 22
8.5
 13
0.0
 23
0.0
 14
1.0
 24
1.0
 15
0.0
 25
0.0
 16
0.0
 26
0.0
 36
1.0
 17
0.0
 27
0.0
 37
0.0
 40
17.0
 41
1.2941176471
 42
50.0
 43
0.0
 44
0.0
 50
0.0
 51
0.0
 71
0
 72
100
 73
1
 74
1
 75
0
 76
0
 77
0
 78
0
  0
ENDTAB
  0
TABLE
  2
LTYPE
  5
5
100
AcDbSymbolTable
 70
6
  0
LTYPE
  5
14
100
AcDbSymbolTableRecord
100
AcDbLinetypeTableRecord
  2
BYBLOCK
 70
0
  3

 72
65
 73
0
 40
0.0
  0
LTYPE
  5
15
100
AcDbSymbolTableRecord
100
AcDbLinetypeTableRecord
  2
BYLAYER
 70
0
  3

 72
65
 73
0
 40
0.0
  0
LTYPE
  5
16
100
AcDbSymbolTableRecord
100
AcDbLinetypeTableRecord
  2
CONTINUOUS
 70
64
  3
Solid line
 72
65
 73
0
 40
0.0
  0
LTYPE
  5
1F5
100
AcDbSymbolTableRecord
100
AcDbLinetypeTableRecord
  2
CENTER
 70
64
  3
____ _ ____ _ ____ _ ____ _ ____ _ ____ _ ____
 72
65
 73
4
 40
0.6
 49
0.375
 74
0
 49
-0.075
 74
0
 49
0.075
 74
0
 49
-0.075
 74
0
  0
LTYPE
  5
1F6
100
AcDbSymbolTableRecord
100
AcDbLinetypeTableRecord
  2
HIDDEN
 70
64
  3
- - - - - - - - - - - - - - - - - - - -
 72
65
 73
2
 40
0.2
 49
0.1
 74
0
 49
-0.1
 74
0
  0
LTYPE
  5
1F7
100
AcDbSymbolTableRecord
100
AcDbLinetypeTableRecord
  2
PHANTOM
 70
64
  3
_____ _ _ _____ _ _ _____ _ _ _____
 72
65
 73
6
 40
0.8
 49
0.45
 74
0
 49
-0.05
 74
0
 49
0.1
 74
0
 49
-0.05
 74
0
 49
0.1
 74
0
 49
-0.05
 74
0
  0
LTYPE
  5
1F8
100
AcDbSymbolTableRecord
100
AcDbLinetypeTableRecord
  2
DOT
 70
64
  3
. . . . . . . . . . . . . . . . . . . .
 72
65
 73
2
 40
0.2
 49
0.1
 74
0
 49
-0.1
 74
0
  0
LTYPE
  5
1F9
100
AcDbSymbolTableRecord
100
AcDbLinetypeTableRecord
  2
DASHED
 70
64
  3
- - - - - - - - - - - - - - - - - - - -
 72
65
 73
2
 40
0.2
 49
0.1
 74
0
 49
-0.1
 74
0
  0
ENDTAB
  0
TABLE
  2
LAYER
  5
2
100
AcDbSymbolTable
 70
36
  0
LAYER
  5
10
100
AcDbSymbolTableRecord
100
AcDbLayerTableRecord
  2
0
 70
0
 62
7
  6
CONTINUOUS
370
-3
390
F
  0
LAYER
  5
1FA
100
AcDbSymbolTableRecord
100
AcDbLayerTableRecord
  2
DEFAULT_1
 70
0
 62
7
  6
CENTER
370
-3
390
F
  0
LAYER
  5
1FB
100
AcDbSymbolTableRecord
100
AcDbLayerTableRecord
  2
DEFAULT_2
 70
0
 62
8
  6
HIDDEN
370
-3
390
F
  0
LAYER
  5
1FC
100
AcDbSymbolTableRecord
100
AcDbLayerTableRecord
  2
DEFAULT_3
 70
0
 62
7
  6
PHANTOM
370
-3
390
F
  0
LAYER
  5
1FD
100
AcDbSymbolTableRecord
100
AcDbLayerTableRecord
  2
ALL_FEATURES
 70
0
 62
7
  6
CONTINUOUS
370
-3
390
F
  0
LAYER
  5
1FE
100
AcDbSymbolTableRecord
100
AcDbLayerTableRecord
  2
AXES_FEATURES
 70
0
 62
7
  6
CONTINUOUS
370
-3
390
F
  0
LAYER
  5
1FF
100
AcDbSymbolTableRecord
100
AcDbLayerTableRecord
  2
DIMENSIONS
 70
0
 62
7
  6
CONTINUOUS
370
-3
390
F
  0
ENDTAB
  0
TABLE
  2
STYLE
  5
3
100
AcDbSymbolTable
 70
1
  0
STYLE
  5
11
100
AcDbSymbolTableRecord
100
AcDbTextStyleTableRecord
  2
STANDARD
 70
0
 40
0.0
 41
0.8
 50
0.0
 71
0
 42
0.2
  3
txt
  4

  0
STYLE
  5
200
100
AcDbSymbolTableRecord
100
AcDbTextStyleTableRecord
  2
TEXTSTYLE_1
 70
0
 40
0.0
 41
0.8
 50
0.0
 71
0
 42
0.2
  3
gdt
  4

  0
ENDTAB
  0
TABLE
  2
VIEW
  5
6
100
AcDbSymbolTable
 70
0
  0
ENDTAB
  0
TABLE
  2
UCS
  5
7
100
AcDbSymbolTable
 70
0
  0
ENDTAB
  0
TABLE
  2
APPID
  5
9
100
AcDbSymbolTable
 70
1
  0
APPID
  5
201
100
AcDbSymbolTableRecord
100
AcDbRegAppTableRecord
  2
ACAD
 70
0
  0
ENDTAB
  0
TABLE
  2
BLOCK_RECORD
  5
1
100
AcDbSymbolTable
 70
0
  0
BLOCK_RECORD
  5
202
100
AcDbSymbolTableRecord
100
AcDbBlockTableRecord
  2
*Model_Space
  0
BLOCK_RECORD
  5
203
100
AcDbSymbolTableRecord
100
AcDbBlockTableRecord
  2
*Paper_Space
  0
BLOCK_RECORD
  5
204
100
AcDbSymbolTableRecord
100
AcDbBlockTableRecord
  2
_FILLED
  0
ENDTAB
  0
TABLE
  2
DIMSTYLE
  5
A
100
AcDbSymbolTable
 70
1
100
AcDbDimStyleTable
 71
0
  0
DIMSTYLE
105
205
100
AcDbSymbolTableRecord
100
AcDbDimStyleTableRecord
  2
STANDARD
 70
0
  3

  4

 40
1.0
 41
0.1
 42
0.0625
 43
0.38
 44
0.125
 45
0.0
 46
0.0
 47
0.001
 48
0.001
140
0.08
141
0.09
142
0.0
143
25.4
144
1.0
145
0.0
146
1.0
147
0.09
 71
1.0
 72
0.0
 73
1
 74
1
 75
0
 76
0
 77
0
 78
4
 79
1
170
1
171
2
172
0
173
0
174
0
175
0
176
0
177
0
178
0
270
2
179
3
271
3
272
3
273
2
274
2
275
0
280
0
281
0
282
0
283
1
284
4
285
0
286
0
287
3
288
0
340
11
278
46
341
204
342
204
343
204
344
204
  0
ENDTAB
  0
ENDSEC
  0
SECTION
  2
BLOCKS
  0
BLOCK
  5
20
100
AcDbEntity
  8
0
100
AcDbBlockBegin
  2
*Model_Space
 70
0
 10
0.0
 20
0.0
 30
0.0
  3
*Model_Space
  1

  0
ENDBLK
  5
21
100
AcDbEntity
  8
0
100
AcDbBlockEnd
  0
BLOCK
  5
1C
100
AcDbEntity
  8
0
100
AcDbBlockBegin
  2
*Paper_Space
 70
0
 10
0.0
 20
0.0
 30
0.0
  3
*Paper_Space
  1

  0
ENDBLK
  5
1D
100
AcDbEntity
  8
0
100
AcDbBlockEnd
  0
BLOCK
  5
206
100
AcDbEntity
  8
0
100
AcDbBlockBegin
  2
_FILLED
 70
64
 10
0.0
 20
0.0
  3
_FILLED
  1

  0
SOLID
  5
207
100
AcDbEntity
  8
0
  6
BYBLOCK
 62
0
100
AcDbTrace
 10
0.0
 20
0.0
 11
-1.0
 21
0.2
 12
-1.0
 22
-0.2
 13
-1.0
 23
-0.2
  0
ENDBLK
  5
208
100
AcDbEntity
  8
0
  6
BYBLOCK
 62
0
100
AcDbBlockEnd
  0
ENDSEC
  0
SECTION
  2
ENTITIES
  0
LINE
  5
209
100
AcDbEntity
  8
0
100
AcDbLine
 62
7
  6
CONTINUOUS
 10
5.7501923427
 20
6.2786965989
 11
5.7501923427
 21
6.4303176404
  0
LINE
  5
20A
100
AcDbEntity
  8
0
100
AcDbLine
 62
9
  6
CONTINUOUS
 10
5.9129258627
 20
8.8649634111
 11
5.9129258627
 21
8.4144297867
  0
LINE
  5
20B
100
AcDbEntity
  8
0
100
AcDbLine
 62
9
  6
CONTINUOUS
 10
5.9950151198
 20
8.4719093033
 11
5.9950151198
 21
8.8074838945
  0
LINE
  5
20C
100
AcDbEntity
  8
0
100
AcDbLine
 62
7
  6
CONTINUOUS
 10
6.0201923427
 20
8.8287844499
 11
6.0201923427
 21
8.4506087478
  0
LINE
  5
20D
100
AcDbEntity
  8
0
100
AcDbLine
 62
9
  6
CONTINUOUS
 10
6.0450555013
 20
8.4487793057
 11
6.0450555013
 21
8.8306138921
  0
LINE
  5
20E
100
AcDbEntity
  8
0
100
AcDbLine
 62
9
  6
CONTINUOUS
 10
6.4065263271
 20
8.4848205727
 11
6.4065263271
 21
8.7947876037
  0
LINE
  5
20F
100
AcDbEntity
  8
0
100
AcDbLine
 62
7
  6
CONTINUOUS
 10
6.4101923427
 20
9.026980696
 11
6.4101923427
 21
8.9556965989
  0
LINE
  5
210
100
AcDbEntity
  8
0
100
AcDbLine
 62
9
  6
CONTINUOUS
 10
6.4286863641
 20
8.7366089815
 11
6.4286863641
 21
8.5433059537
  0
LINE
  5
211
100
AcDbEntity
  8
0
100
AcDbLine
 62
7
  6
CONTINUOUS
 10
6.3801923427
 20
8.4346965989
 11
6.4101923427
 21
8.3556965989
  0
LINE
  5
212
100
AcDbEntity
  8
0
100
AcDbLine
 62
7
  6
CONTINUOUS
 10
6.5076923427
 20
7.9256965989
 11
6.5076923427
 21
7.8056965989
  0
LINE
  5
213
100
AcDbEntity
  8
0
100
AcDbLine
 62
7
  6
CONTINUOUS
 10
6.5941923427
 20
8.3046965989
 11
6.5941923427
 21
7.9456965989
  0
LINE
  5
214
100
AcDbEntity
  8
0
100
AcDbLine
 62
7
  6
CONTINUOUS
 10
6.6726923427
 20
9.1166672285
 11
6.6726923427
 21
9.1155191815
  0
LINE
  5
215
100
AcDbEntity
  8
0
100
AcDbLine
 62
7
  6
CONTINUOUS
 10
6.6891923427
 20
9.120655664
 11
6.6891923427
 21
9.1191654439
  0
LINE
  5
216
100
AcDbEntity
  8
0
100
AcDbLine
 62
7
  6
CONTINUOUS
 10
6.700811571
 20
8.0776025881
 11
6.700811571
 21
8.1237906097
  0
LINE
  5
217
100
AcDbEntity
  8
0
100
AcDbLine
 62
7
  6
CONTINUOUS
 10
6.7291923427
 20
9.1251310145
 11
6.7291923427
 21
9.1265829092
  0
LINE
  5
218
100
AcDbEntity
  8
0
100
AcDbLine
 62
7
  6
CONTINUOUS
 10
6.7456923427
 20
9.1264147483
 11
6.7456923427
 21
9.1275546598
  0
LINE
  5
219
100
AcDbEntity
  8
0
100
AcDbLine
 62
7
  6
CONTINUOUS
 10
6.7538445796
 20
8.0776025881
 11
6.7538445796
 21
8.1237906097
  0
LINE
  5
21A
100
AcDbEntity
  8
0
100
AcDbLine
 62
7
  6
CONTINUOUS
 10
6.7573801135
 20
8.1237906097
 11
6.7573801135
 21
8.0776025881
  0
LINE
  5
21B
100
AcDbEntity
  8
0
100
AcDbLine
 62
7
  6
CONTINUOUS
 10
6.7626923427
 20
9.1295822245
 11
6.7626923427
 21
9.1284438154
  0
LINE
  5
21C
100
AcDbEntity
  8
0
100
AcDbLine
 62
7
  6
CONTINUOUS
 10
6.7791923427
 20
9.1325424835
 11
6.7791923427
 21
9.1310962036
  0
LINE
  5
21D
100
AcDbEntity
  8
0
100
AcDbLine
 62
7
  6
CONTINUOUS
 10
6.8191923427
 20
9.1346869182
 11
6.8191923427
 21
9.1361621782
  0
LINE
  5
21E
100
AcDbEntity
  8
0
100
AcDbLine
 62
7
  6
CONTINUOUS
 10
6.8356923427
 20
9.1350018374
 11
6.8356923427
 21
9.1361354178
  0
LINE
  5
21F
100
AcDbEntity
  8
0
100
AcDbLine
 62
7
  6
CONTINUOUS
 10
6.3621823625
 20
7.4128884487
 11
6.4376923427
 21
7.8056965989
  0
LINE
  5
220
100
AcDbEntity
  8
0
100
AcDbLine
 62
7
  6
CONTINUOUS
 10
6.4101923427
 20
8.9246965989
 11
6.3801923427
 21
8.8446965989
  0
LINE
  5
221
100
AcDbEntity
  8
0
100
AcDbLine
 62
7
  6
CONTINUOUS
 10
6.8939923427
 20
9.1400807151
 11
6.8939923427
 21
9.1390803175
  0
LINE
  5
222
100
AcDbEntity
  8
0
100
AcDbLine
 62
7
  6
CONTINUOUS
 10
6.9376923427
 20
6.5854438416
 11
6.9376923427
 21
6.6004647256
  0
LINE
  5
223
100
AcDbEntity
  8
0
100
AcDbLine
 62
7
  6
CONTINUOUS
 10
6.9376923427
 20
7.4128884487
 11
6.9376923427
 21
7.8056965989
  0
LINE
  5
224
100
AcDbEntity
  8
0
100
AcDbLine
 62
7
  6
CONTINUOUS
 10
6.9789923427
 20
9.1401465177
 11
6.9789923427
 21
9.1391461626
  0
LINE
  5
225
100
AcDbEntity
  8
0
100
AcDbLine
 62
7
  6
CONTINUOUS
 10
7.0756923427
 20
9.1333387834
 11
7.0756923427
 21
9.1322031473
  0
LINE
  5
226
100
AcDbEntity
  8
0
100
AcDbLine
 62
7
  6
CONTINUOUS
 10
7.0941923427
 20
9.1327790912
 11
7.0941923427
 21
9.1314909417
  0
LINE
  5
227
100
AcDbEntity
  8
0
100
AcDbLine
 62
7
  6
CONTINUOUS
 10
7.1180045719
 20
8.0776025881
 11
7.1180045719
 21
8.1237906097
  0
LINE
  5
228
100
AcDbEntity
  8
0
100
AcDbLine
 62
7
  6
CONTINUOUS
 10
7.1215401058
 20
8.1237906097
 11
7.1215401058
 21
8.0776025881
  0
LINE
  5
229
100
AcDbEntity
  8
0
100
AcDbLine
 62
7
  6
CONTINUOUS
 10
7.1301923427
 20
9.1274102036
 11
7.1301923427
 21
9.1287017694
  0
LINE
  5
22A
100
AcDbEntity
  8
0
100
AcDbLine
 62
7
  6
CONTINUOUS
 10
7.1486923427
 20
9.1239208465
 11
7.1486923427
 21
9.1250626099
  0
LINE
  5
22B
100
AcDbEntity
  8
0
100
AcDbLine
 62
7
  6
CONTINUOUS
 10
7.1745731144
 20
8.1237906097
 11
7.1745731144
 21
8.0776025881
  0
LINE
  5
22C
100
AcDbEntity
  8
0
100
AcDbLine
 62
7
  6
CONTINUOUS
 10
8.1251891024
 20
6.4303208
 11
7.9506923427
 21
6.6004647256
  0
LINE
  5
22D
100
AcDbEntity
  8
0
100
AcDbLine
 62
7
  6
CONTINUOUS
 10
7.513202323
 20
7.4128884487
 11
7.4376923427
 21
7.8056965989
  0
LINE
  5
22E
100
AcDbEntity
  8
0
100
AcDbLine
 62
7
  6
CONTINUOUS
 10
7.2811923427
 20
8.3046965989
 11
7.2811923427
 21
7.9456965989
  0
LINE
  5
22F
100
AcDbEntity
  8
0
100
AcDbLine
 62
7
  6
CONTINUOUS
 10
7.3676923427
 20
7.9256965989
 11
7.3676923427
 21
7.8056965989
  0
LINE
  5
230
100
AcDbEntity
  8
0
100
AcDbLine
 62
9
  6
CONTINUOUS
 10
7.4466983213
 20
8.5426949928
 11
7.4466983213
 21
8.7361375321
  0
LINE
  5
231
100
AcDbEntity
  8
0
100
AcDbLine
 62
7
  6
CONTINUOUS
 10
7.4651923427
 20
9.026980696
 11
7.4651923427
 21
8.9556965989
  0
LINE
  5
232
100
AcDbEntity
  8
0
100
AcDbLine
 62
9
  6
CONTINUOUS
 10
7.4688583584
 20
8.7945893949
 11
7.4688583584
 21
8.484599315
  0
LINE
  5
233
100
AcDbEntity
  8
0
100
AcDbLine
 62
7
  6
CONTINUOUS
 10
6.4244581905
 20
9.0466159509
 11
6.4101923427
 21
9.026980696
  0
LINE
  5
234
100
AcDbEntity
  8
0
100
AcDbLine
 62
7
  6
CONTINUOUS
 10
6.700811571
 20
8.0776025881
 11
6.7290958423
 21
8.0545085774
  0
LINE
  5
235
100
AcDbEntity
  8
0
100
AcDbLine
 62
7
  6
CONTINUOUS
 10
6.7556123466
 20
8.0761592124
 11
6.7538445796
 21
8.0776025881
  0
LINE
  5
236
100
AcDbEntity
  8
0
100
AcDbLine
 62
7
  6
CONTINUOUS
 10
6.7573801135
 20
8.1237906097
 11
6.7290958423
 21
8.1468846204
  0
LINE
  5
237
100
AcDbEntity
  8
0
100
AcDbLine
 62
7
  6
CONTINUOUS
 10
7.1180045719
 20
8.0776025881
 11
7.1462888432
 21
8.0545085774
  0
LINE
  5
238
100
AcDbEntity
  8
0
100
AcDbLine
 62
7
  6
CONTINUOUS
 10
7.1197723389
 20
8.1252339853
 11
7.1215401058
 21
8.1237906097
  0
LINE
  5
239
100
AcDbEntity
  8
0
100
AcDbLine
 62
7
  6
CONTINUOUS
 10
7.1745731144
 20
8.1237906097
 11
7.1462888432
 21
8.1468846204
  0
LINE
  5
23A
100
AcDbEntity
  8
0
100
AcDbLine
 62
7
  6
CONTINUOUS
 10
7.4651923427
 20
8.9246965989
 11
7.4951923427
 21
8.8446965989
  0
LINE
  5
23B
100
AcDbEntity
  8
0
100
AcDbLine
 62
9
  6
CONTINUOUS
 10
7.8303291842
 20
8.4487793057
 11
7.8303291842
 21
8.8306138921
  0
LINE
  5
23C
100
AcDbEntity
  8
0
100
AcDbLine
 62
7
  6
CONTINUOUS
 10
7.8551923427
 20
8.4506087478
 11
7.8551923427
 21
8.8287844499
  0
LINE
  5
23D
100
AcDbEntity
  8
0
100
AcDbLine
 62
9
  6
CONTINUOUS
 10
7.8803695657
 20
8.8074838945
 11
7.8803695657
 21
8.4719093033
  0
LINE
  5
23E
100
AcDbEntity
  8
0
100
AcDbLine
 62
9
  6
CONTINUOUS
 10
7.9624588227
 20
8.4144297867
 11
7.9624588227
 21
8.8649634111
  0
LINE
  5
23F
100
AcDbEntity
  8
0
100
AcDbLine
 62
7
  6
CONTINUOUS
 10
7.4951923427
 20
8.4346965989
 11
7.4651923427
 21
8.3556965989
  0
LINE
  5
240
100
AcDbEntity
  8
0
100
AcDbLine
 62
7
  6
CONTINUOUS
 10
5.7502025764
 20
6.2786965989
 11
8.125180886
 21
6.2786965989
  0
LINE
  5
241
100
AcDbEntity
  8
0
100
AcDbLine
 62
7
  6
CONTINUOUS
 10
9.7576939368
 20
6.2786965989
 11
12.1176907487
 21
6.2786965989
  0
LINE
  5
242
100
AcDbEntity
  8
0
100
AcDbLine
 62
7
  6
CONTINUOUS
 10
13.7502025764
 20
6.2786965989
 11
16.125180886
 21
6.2786965989
  0
LINE
  5
243
100
AcDbEntity
  8
0
100
AcDbLine
 62
7
  6
CONTINUOUS
 10
5.9950151198
 20
8.8074838945
 11
5.9129258627
 21
8.8649634111
  0
LINE
  5
244
100
AcDbEntity
  8
0
100
AcDbLine
 62
7
  6
CONTINUOUS
 10
7.450926495
 20
9.0466159509
 11
7.4651923427
 21
9.026980696
  0
LINE
  5
245
100
AcDbEntity
  8
0
100
AcDbLine
 62
7
  6
CONTINUOUS
 10
8.1251923427
 20
6.2786965989
 11
8.1251923427
 21
6.4303176404
  0
LINE
  5
246
100
AcDbEntity
  8
0
100
AcDbLine
 62
7
  6
CONTINUOUS
 10
10.6639927403
 20
12.2474691296
 11
10.6633173568
 21
12.2469960557
  0
LINE
  5
247
100
AcDbEntity
  8
0
100
AcDbLine
 62
9
  6
CONTINUOUS
 10
15.9506923427
 20
6.6004647256
 11
13.9246923427
 21
6.6004647256
  0
LINE
  5
248
100
AcDbEntity
  8
0
100
AcDbLine
 62
9
  6
CONTINUOUS
 10
7.9506923427
 20
6.6004647256
 11
5.9246923427
 21
6.6004647256
  0
LINE
  5
249
100
AcDbEntity
  8
0
100
AcDbLine
 62
7
  6
CONTINUOUS
 10
6.4370391303
 20
8.9401965989
 11
6.4101923427
 21
8.9556965989
  0
LINE
  5
24A
100
AcDbEntity
  8
0
100
AcDbLine
 62
7
  6
CONTINUOUS
 10
5.9950151198
 20
8.4719093033
 11
5.9129258627
 21
8.4144297867
  0
LINE
  5
24B
100
AcDbEntity
  8
0
100
AcDbLine
 62
9
  6
CONTINUOUS
 10
12.1172314161
 20
6.9612749224
 11
11.7886286387
 21
6.9612749224
  0
LINE
  5
24C
100
AcDbEntity
  8
0
100
AcDbLine
 62
9
  6
CONTINUOUS
 10
10.069957157
 20
6.9612749224
 11
9.7581532695
 21
6.9612749224
  0
LINE
  5
24D
100
AcDbEntity
  8
0
100
AcDbLine
 62
7
  6
CONTINUOUS
 10
6.5671923427
 20
8.3046965989
 11
6.4101923427
 21
8.3556965989
  0
LINE
  5
24E
100
AcDbEntity
  8
0
100
AcDbLine
 62
7
  6
CONTINUOUS
 10
7.4383455552
 20
8.9401965989
 11
7.4651923427
 21
8.9246965989
  0
LINE
  5
24F
100
AcDbEntity
  8
0
100
AcDbLine
 62
7
  6
CONTINUOUS
 10
7.8803695657
 20
8.4719093033
 11
7.9624588227
 21
8.4144297867
  0
LINE
  5
250
100
AcDbEntity
  8
0
100
AcDbLine
 62
7
  6
CONTINUOUS
 10
10.6633173568
 20
12.2469960557
 11
10.6626923422
 21
12.2458162876
  0
LWPOLYLINE
  5
251
100
AcDbEntity
  8
0
100
AcDbPolyline
 62
7
  6
CONTINUOUS
 90
4
 70
0
 10
10.5743152496
 20
12.1200895118
 10
10.5308462746
 20
12.0501184643
 10
10.4690349875
 20
11.9384284382
 10
10.4216342376
 20
11.8396258827
  0
LINE
  5
252
100
AcDbEntity
  8
0
100
AcDbLine
 62
7
  6
CONTINUOUS
 10
10.5743152496
 20
12.1200895118
 11
10.5743258225
 21
12.1201058134
  0
LINE
  5
253
100
AcDbEntity
  8
0
100
AcDbLine
 62
9
  6
CONTINUOUS
 10
10.5743258225
 20
12.1201058134
 11
10.6626923422
 21
12.2458162876
  0
LWPOLYLINE
  5
254
100
AcDbEntity
  8
0
100
AcDbPolyline
 62
7
  6
CONTINUOUS
 90
4
 70
0
 10
10.6633173568
 20
12.2469960557
 10
10.6305430254
 20
12.2025003688
 10
10.5901365765
 20
12.1441259833
 10
10.5743258225
 20
12.1201058134
  0
LINE
  5
255
100
AcDbEntity
  8
0
100
AcDbLine
 62
7
  6
CONTINUOUS
 10
6.7290958423
 20
8.1468846204
 11
6.700811571
 21
8.1237906097
  0
LINE
  5
256
100
AcDbEntity
  8
0
100
AcDbLine
 62
7
  6
CONTINUOUS
 10
6.7538445796
 20
8.1237906097
 11
6.7556123466
 21
8.1252339853
  0
LINE
  5
257
100
AcDbEntity
  8
0
100
AcDbLine
 62
7
  6
CONTINUOUS
 10
6.7290958423
 20
8.0545085774
 11
6.7573801135
 21
8.0776025881
  0
LINE
  5
258
100
AcDbEntity
  8
0
100
AcDbLine
 62
7
  6
CONTINUOUS
 10
6.4370391303
 20
8.9401965989
 11
6.4101923427
 21
8.9246965989
  0
LINE
  5
259
100
AcDbEntity
  8
0
100
AcDbLine
 62
9
  6
CONTINUOUS
 10
6.3621823625
 20
7.4128884487
 11
7.513202323
 21
7.4128884487
  0
LINE
  5
25A
100
AcDbEntity
  8
0
100
AcDbLine
 62
9
  6
CONTINUOUS
 10
14.3621823625
 20
7.4128884487
 11
15.513202323
 21
7.4128884487
  0
LINE
  5
25B
100
AcDbEntity
  8
0
100
AcDbLine
 62
7
  6
CONTINUOUS
 10
5.7501955831
 20
6.4303208
 11
5.9246923427
 21
6.6004647256
  0
LINE
  5
25C
100
AcDbEntity
  8
0
100
AcDbLine
 62
7
  6
CONTINUOUS
 10
7.1462888432
 20
8.1468846204
 11
7.1180045719
 21
8.1237906097
  0
LINE
  5
25D
100
AcDbEntity
  8
0
100
AcDbLine
 62
7
  6
CONTINUOUS
 10
7.1215401058
 20
8.0776025881
 11
7.1197723389
 21
8.0761592124
  0
LINE
  5
25E
100
AcDbEntity
  8
0
100
AcDbLine
 62
7
  6
CONTINUOUS
 10
7.1462888432
 20
8.0545085774
 11
7.1745731144
 21
8.0776025881
  0
LINE
  5
25F
100
AcDbEntity
  8
0
100
AcDbLine
 62
7
  6
CONTINUOUS
 10
7.8803695657
 20
8.8074838945
 11
7.9624588227
 21
8.8649634111
  0
LINE
  5
260
100
AcDbEntity
  8
0
100
AcDbLine
 62
7
  6
CONTINUOUS
 10
7.4383455552
 20
8.9401965989
 11
7.4651923427
 21
8.9556965989
  0
LINE
  5
261
100
AcDbEntity
  8
0
100
AcDbLine
 62
7
  6
CONTINUOUS
 10
15.4376923427
 20
7.8056965989
 11
14.4376923427
 21
7.8056965989
  0
LINE
  5
262
100
AcDbEntity
  8
0
100
AcDbLine
 62
7
  6
CONTINUOUS
 10
7.4376923427
 20
7.8056965989
 11
6.4376923427
 21
7.8056965989
  0
LINE
  5
263
100
AcDbEntity
  8
0
100
AcDbLine
 62
7
  6
CONTINUOUS
 10
15.3676917679
 20
7.9256965989
 11
14.5076929176
 21
7.9256965989
  0
LINE
  5
264
100
AcDbEntity
  8
0
100
AcDbLine
 62
7
  6
CONTINUOUS
 10
7.3676917679
 20
7.9256965989
 11
6.5076929176
 21
7.9256965989
  0
LINE
  5
265
100
AcDbEntity
  8
0
100
AcDbLine
 62
7
  6
CONTINUOUS
 10
6.5941927028
 20
7.9456965989
 11
7.2811919826
 21
7.9456965989
  0
LINE
  5
266
100
AcDbEntity
  8
0
100
AcDbLine
 62
7
  6
CONTINUOUS
 10
14.5941927028
 20
7.9456965989
 11
15.2811919826
 21
7.9456965989
  0
LINE
  5
267
100
AcDbEntity
  8
0
100
AcDbLine
 62
7
  6
CONTINUOUS
 10
14.7538445796
 20
8.0776025881
 11
14.700811571
 21
8.0776025881
  0
LINE
  5
268
100
AcDbEntity
  8
0
100
AcDbLine
 62
7
  6
CONTINUOUS
 10
6.7538445796
 20
8.0776025881
 11
6.700811571
 21
8.0776025881
  0
LINE
  5
269
100
AcDbEntity
  8
0
100
AcDbLine
 62
7
  6
CONTINUOUS
 10
7.1215401058
 20
8.0776025881
 11
7.1745731144
 21
8.0776025881
  0
LINE
  5
26A
100
AcDbEntity
  8
0
100
AcDbLine
 62
7
  6
CONTINUOUS
 10
15.1215401058
 20
8.0776025881
 11
15.1745731144
 21
8.0776025881
  0
LINE
  5
26B
100
AcDbEntity
  8
0
100
AcDbLine
 62
7
  6
CONTINUOUS
 10
7.3922022989
 20
9.0656965989
 11
7.450926495
 21
9.0466159509
  0
LINE
  5
26C
100
AcDbEntity
  8
0
100
AcDbLine
 62
7
  6
CONTINUOUS
 10
9.7576923428
 20
6.2786965989
 11
9.7576923428
 21
6.9612749224
  0
LINE
  5
26D
100
AcDbEntity
  8
0
100
AcDbLine
 62
7
  6
CONTINUOUS
 10
6.4831823866
 20
9.0656965989
 11
6.4244581905
 21
9.0466159509
  0
LINE
  5
26E
100
AcDbEntity
  8
0
100
AcDbLine
 62
7
  6
CONTINUOUS
 10
14.7538445796
 20
8.1237906097
 11
14.700811571
 21
8.1237906097
  0
LINE
  5
26F
100
AcDbEntity
  8
0
100
AcDbLine
 62
7
  6
CONTINUOUS
 10
6.7538445796
 20
8.1237906097
 11
6.700811571
 21
8.1237906097
  0
LINE
  5
270
100
AcDbEntity
  8
0
100
AcDbLine
 62
7
  6
CONTINUOUS
 10
7.1215401058
 20
8.1237906097
 11
7.1745731144
 21
8.1237906097
  0
LINE
  5
271
100
AcDbEntity
  8
0
100
AcDbLine
 62
7
  6
CONTINUOUS
 10
15.1215401058
 20
8.1237906097
 11
15.1745731144
 21
8.1237906097
  0
LINE
  5
272
100
AcDbEntity
  8
0
100
AcDbLine
 62
7
  6
CONTINUOUS
 10
6.5671927406
 20
8.3046965989
 11
7.3081919449
 21
8.3046965989
  0
LINE
  5
273
100
AcDbEntity
  8
0
100
AcDbLine
 62
7
  6
CONTINUOUS
 10
14.5671927406
 20
8.3046965989
 11
15.3081919449
 21
8.3046965989
  0
LINE
  5
274
100
AcDbEntity
  8
0
100
AcDbLine
 62
7
  6
CONTINUOUS
 10
15.4651923427
 20
8.3556965989
 11
14.4101923427
 21
8.3556965989
  0
LINE
  5
275
100
AcDbEntity
  8
0
100
AcDbLine
 62
7
  6
CONTINUOUS
 10
7.4651923427
 20
8.3556965989
 11
6.4101923427
 21
8.3556965989
  0
LINE
  5
276
100
AcDbEntity
  8
0
100
AcDbLine
 62
7
  6
CONTINUOUS
 10
6.3801923427
 20
8.4346965989
 11
6.7555853303
 21
8.4346965989
  0
LINE
  5
277
100
AcDbEntity
  8
0
100
AcDbLine
 62
7
  6
CONTINUOUS
 10
7.1197993552
 20
8.4346965989
 11
7.4951923427
 21
8.4346965989
  0
LINE
  5
278
100
AcDbEntity
  8
0
100
AcDbLine
 62
7
  6
CONTINUOUS
 10
14.3801923427
 20
8.4346965989
 11
14.7555853303
 21
8.4346965989
  0
LINE
  5
279
100
AcDbEntity
  8
0
100
AcDbLine
 62
7
  6
CONTINUOUS
 10
15.1197993552
 20
8.4346965989
 11
15.4951923427
 21
8.4346965989
  0
LINE
  5
27A
100
AcDbEntity
  8
0
100
AcDbLine
 62
7
  6
CONTINUOUS
 10
10.3576923427
 20
10.8975802684
 11
10.3576923427
 21
10.8252472435
  0
LINE
  5
27B
100
AcDbEntity
  8
0
100
AcDbLine
 62
7
  6
CONTINUOUS
 10
10.4751923427
 20
10.9295084923
 11
10.4751923427
 21
10.747319058
  0
LINE
  5
27C
100
AcDbEntity
  8
0
100
AcDbLine
 62
7
  6
CONTINUOUS
 10
10.5714423427
 20
10.6056246063
 11
10.5714423427
 21
10.591719433
  0
LINE
  5
27D
100
AcDbEntity
  8
0
100
AcDbLine
 62
7
  6
CONTINUOUS
 10
10.3676677284
 20
11.5854849813
 11
10.3644224333
 21
11.382047341
  0
LWPOLYLINE
  5
27E
100
AcDbEntity
  8
0
100
AcDbPolyline
 62
7
  6
CONTINUOUS
 90
5
 70
0
 10
10.3572581499
 20
11.2837021313
 10
10.3560915375
 20
11.2491747425
 10
10.3521540432
 20
11.1335738175
 10
10.3480571284
 20
11.016610697
 10
10.3444664002
 20
10.9182212164
  0
LINE
  5
27F
100
AcDbEntity
  8
0
100
AcDbLine
 62
7
  6
CONTINUOUS
 10
10.3625886573
 20
11.3821176726
 11
10.362490391
 21
11.3795486627
  0
LINE
  5
280
100
AcDbEntity
  8
0
100
AcDbLine
 62
7
  6
CONTINUOUS
 10
10.362490391
 20
11.3795486627
 11
10.3590828493
 21
11.3209879522
  0
LINE
  5
281
100
AcDbEntity
  8
0
100
AcDbLine
 62
7
  6
CONTINUOUS
 10
10.3591433506
 20
11.3210668521
 11
10.3644223583
 21
11.3820475324
  0
LINE
  5
282
100
AcDbEntity
  8
0
100
AcDbLine
 62
7
  6
CONTINUOUS
 10
15.4951923427
 20
8.8446965989
 11
15.1197993552
 21
8.8446965989
  0
LINE
  5
283
100
AcDbEntity
  8
0
100
AcDbLine
 62
7
  6
CONTINUOUS
 10
14.7555853303
 20
8.8446965989
 11
14.3801923427
 21
8.8446965989
  0
LINE
  5
284
100
AcDbEntity
  8
0
100
AcDbLine
 62
7
  6
CONTINUOUS
 10
7.4951923427
 20
8.8446965989
 11
7.1197993552
 21
8.8446965989
  0
LINE
  5
285
100
AcDbEntity
  8
0
100
AcDbLine
 62
7
  6
CONTINUOUS
 10
6.7555853303
 20
8.8446965989
 11
6.3801923427
 21
8.8446965989
  0
LINE
  5
286
100
AcDbEntity
  8
0
100
AcDbLine
 62
7
  6
CONTINUOUS
 10
7.0941923427
 20
9.1317739558
 11
7.1301923427
 21
9.1276939687
  0
LINE
  5
287
100
AcDbEntity
  8
0
100
AcDbLine
 62
9
  6
CONTINUOUS
 10
10.9377439864
 20
6.8742811226
 11
10.937442182
 21
7.3465303443
  0
LINE
  5
288
100
AcDbEntity
  8
0
100
AcDbLine
 62
9
  6
CONTINUOUS
 10
10.937692343
 20
11.0197531021
 11
10.937692343
 21
11.3808100647
  0
LINE
  5
289
100
AcDbEntity
  8
0
100
AcDbLine
 62
9
  6
CONTINUOUS
 10
10.9376923517
 20
9.3890270526
 11
10.9376907228
 21
10.5072185012
  0
LINE
  5
28A
100
AcDbEntity
  8
0
100
AcDbLine
 62
9
  6
CONTINUOUS
 10
10.937692343
 20
11.3808100647
 11
10.93767239
 21
11.925965174
  0
LINE
  5
28B
100
AcDbEntity
  8
0
100
AcDbLine
 62
9
  6
CONTINUOUS
 10
10.937692853
 20
12.2571337323
 11
10.9376921759
 21
12.2566424054
  0
LINE
  5
28C
100
AcDbEntity
  8
0
100
AcDbLine
 62
7
  6
CONTINUOUS
 10
7.3081923427
 20
8.3046965989
 11
7.4651923427
 21
8.3556965989
  0
LINE
  5
28D
100
AcDbEntity
  8
0
100
AcDbLine
 62
7
  6
CONTINUOUS
 10
14.8989923427
 20
9.1402136066
 11
14.8139923427
 21
9.1357548283
  0
LINE
  5
28E
100
AcDbEntity
  8
0
100
AcDbLine
 62
7
  6
CONTINUOUS
 10
6.4101923427
 20
8.9246965989
 11
7.4651923427
 21
8.9246965989
  0
LINE
  5
28F
100
AcDbEntity
  8
0
100
AcDbLine
 62
7
  6
CONTINUOUS
 10
14.4101923427
 20
8.9246965989
 11
15.4651923427
 21
8.9246965989
  0
LINE
  5
290
100
AcDbEntity
  8
0
100
AcDbLine
 62
7
  6
CONTINUOUS
 10
6.4370391303
 20
8.9401965989
 11
7.4383455552
 21
8.9401965989
  0
LINE
  5
291
100
AcDbEntity
  8
0
100
AcDbLine
 62
7
  6
CONTINUOUS
 10
14.4370391303
 20
8.9401965989
 11
15.4383455552
 21
8.9401965989
  0
LINE
  5
292
100
AcDbEntity
  8
0
100
AcDbLine
 62
7
  6
CONTINUOUS
 10
6.4101923427
 20
8.9556965989
 11
7.4651923427
 21
8.9556965989
  0
LINE
  5
293
100
AcDbEntity
  8
0
100
AcDbLine
 62
7
  6
CONTINUOUS
 10
14.4101923427
 20
8.9556965989
 11
15.4651923427
 21
8.9556965989
  0
LINE
  5
294
100
AcDbEntity
  8
0
100
AcDbLine
 62
7
  6
CONTINUOUS
 10
15.4651923427
 20
9.026980696
 11
14.4101923427
 21
9.026980696
  0
LINE
  5
295
100
AcDbEntity
  8
0
100
AcDbLine
 62
7
  6
CONTINUOUS
 10
7.4651923427
 20
9.026980696
 11
6.4101923427
 21
9.026980696
  0
LINE
  5
296
100
AcDbEntity
  8
0
100
AcDbLine
 62
7
  6
CONTINUOUS
 10
6.4244581905
 20
9.0466159509
 11
7.450926495
 21
9.0466159509
  0
LINE
  5
297
100
AcDbEntity
  8
0
100
AcDbLine
 62
7
  6
CONTINUOUS
 10
14.4244581905
 20
9.0466159509
 11
15.450926495
 21
9.0466159509
  0
LINE
  5
298
100
AcDbEntity
  8
0
100
AcDbLine
 62
7
  6
CONTINUOUS
 10
15.3921964176
 20
9.0656965989
 11
14.4831882679
 21
9.0656965989
  0
LINE
  5
299
100
AcDbEntity
  8
0
100
AcDbLine
 62
7
  6
CONTINUOUS
 10
7.3921964176
 20
9.0656965989
 11
6.4831882679
 21
9.0656965989
  0
LINE
  5
29A
100
AcDbEntity
  8
0
100
AcDbLine
 62
9
  6
CONTINUOUS
 10
15.3328370245
 20
9.0895058855
 11
14.5425476851
 21
9.0895058919
  0
LINE
  5
29B
100
AcDbEntity
  8
0
100
AcDbLine
 62
9
  6
CONTINUOUS
 10
6.5425477032
 20
9.0895060119
 11
7.3328369823
 21
9.0895060119
  0
LINE
  5
29C
100
AcDbEntity
  8
0
100
AcDbLine
 62
7
  6
CONTINUOUS
 10
14.9691923427
 20
9.139376417
 11
15.0051923427
 21
9.1382258299
  0
LINE
  5
29D
100
AcDbEntity
  8
0
100
AcDbLine
 62
7
  6
CONTINUOUS
 10
11.3039423427
 20
10.6059506284
 11
11.3039423427
 21
10.591719433
  0
LINE
  5
29E
100
AcDbEntity
  8
0
100
AcDbLine
 62
7
  6
CONTINUOUS
 10
11.4001923427
 20
10.9295084923
 11
11.4001923427
 21
10.747319058
  0
LINE
  5
29F
100
AcDbEntity
  8
0
100
AcDbLine
 62
7
  6
CONTINUOUS
 10
15.1376923427
 20
9.1267364314
 11
15.1739742231
 21
9.1215774412
  0
LINE
  5
2A0
100
AcDbEntity
  8
0
100
AcDbLine
 62
7
  6
CONTINUOUS
 10
14.5671923427
 20
8.3046965989
 11
14.4101923427
 21
8.3556965989
  0
LINE
  5
2A1
100
AcDbEntity
  8
0
100
AcDbLine
 62
7
  6
CONTINUOUS
 10
11.5162594431
 20
11.3214087013
 11
11.5110044719
 21
11.3815626702
  0
LINE
  5
2A2
100
AcDbEntity
  8
0
100
AcDbLine
 62
7
  6
CONTINUOUS
 10
11.51625976
 20
11.3214038407
 11
11.5128802872
 21
11.379953326
  0
LINE
  5
2A3
100
AcDbEntity
  8
0
100
AcDbLine
 62
7
  6
CONTINUOUS
 10
11.5128802872
 20
11.379953326
 11
11.5128159691
 21
11.3816320743
  0
LWPOLYLINE
  5
2A4
100
AcDbEntity
  8
0
100
AcDbPolyline
 62
7
  6
CONTINUOUS
 90
5
 70
0
 10
11.5309464987
 20
10.9182211402
 10
11.5273412198
 20
11.0164947928
 10
11.5232340747
 20
11.1333620978
 10
11.5192955925
 20
11.248886747
 10
11.5180874081
 20
11.2846762163
  0
LINE
  5
2A5
100
AcDbEntity
  8
0
100
AcDbLine
 62
7
  6
CONTINUOUS
 10
11.5176923427
 20
10.8975458669
 11
11.5176923427
 21
10.814728142
  0
LINE
  5
2A6
100
AcDbEntity
  8
0
100
AcDbLine
 62
7
  6
CONTINUOUS
 10
12.1176923428
 20
6.2786965989
 11
12.1176923428
 21
6.9612749224
  0
LINE
  5
2A7
100
AcDbEntity
  8
0
100
AcDbLine
 62
7
  6
CONTINUOUS
 10
14.4831823866
 20
9.0656965989
 11
14.4244581905
 21
9.0466159509
  0
LINE
  5
2A8
100
AcDbEntity
  8
0
100
AcDbLine
 62
7
  6
CONTINUOUS
 10
11.6070924726
 20
10.1572765989
 11
11.5948752269
 21
10.1572765989
  0
LINE
  5
2A9
100
AcDbEntity
  8
0
100
AcDbLine
 62
7
  6
CONTINUOUS
 10
10.2792603223
 20
10.1572765989
 11
10.2682922129
 21
10.1572765989
  0
LINE
  5
2AA
100
AcDbEntity
  8
0
100
AcDbLine
 62
7
  6
CONTINUOUS
 10
15.3922022989
 20
9.0656965989
 11
15.450926495
 21
9.0466159509
  0
LINE
  5
2AB
100
AcDbEntity
  8
0
100
AcDbLine
 62
7
  6
CONTINUOUS
 10
14.4370391303
 20
8.9401965989
 11
14.4101923427
 21
8.9556965989
  0
LINE
  5
2AC
100
AcDbEntity
  8
0
100
AcDbLine
 62
7
  6
CONTINUOUS
 10
13.9950151198
 20
8.8074838945
 11
13.9129258627
 21
8.8649634111
  0
LINE
  5
2AD
100
AcDbEntity
  8
0
100
AcDbLine
 62
7
  6
CONTINUOUS
 10
14.700811571
 20
8.0776025881
 11
14.7290958423
 21
8.0545085774
  0
LINE
  5
2AE
100
AcDbEntity
  8
0
100
AcDbLine
 62
7
  6
CONTINUOUS
 10
14.7556123466
 20
8.0761592124
 11
14.7538445796
 21
8.0776025881
  0
LINE
  5
2AF
100
AcDbEntity
  8
0
100
AcDbLine
 62
7
  6
CONTINUOUS
 10
14.7573801135
 20
8.1237906097
 11
14.7290958423
 21
8.1468846204
  0
LINE
  5
2B0
100
AcDbEntity
  8
0
100
AcDbLine
 62
7
  6
CONTINUOUS
 10
16.1251891024
 20
6.4303208
 11
15.9506923427
 21
6.6004647256
  0
LINE
  5
2B1
100
AcDbEntity
  8
0
100
AcDbLine
 62
7
  6
CONTINUOUS
 10
11.2120666667
 20
12.24700143
 11
11.2126923428
 21
12.2458162885
  0
LWPOLYLINE
  5
2B2
100
AcDbEntity
  8
0
100
AcDbPolyline
 62
7
  6
CONTINUOUS
 90
4
 70
0
 10
11.4538045821
 20
11.8395273613
 10
11.4063877791
 20
11.9383554684
 10
11.3446649474
 20
12.0499020918
 10
11.3021657018
 20
12.1183974296
  0
LINE
  5
2B3
100
AcDbEntity
  8
0
100
AcDbLine
 62
7
  6
CONTINUOUS
 10
14.4370391303
 20
8.9401965989
 11
14.4101923427
 21
8.9246965989
  0
LINE
  5
2B4
100
AcDbEntity
  8
0
100
AcDbLine
 62
7
  6
CONTINUOUS
 10
15.4383455552
 20
8.9401965989
 11
15.4651923427
 21
8.9246965989
  0
LINE
  5
2B5
100
AcDbEntity
  8
0
100
AcDbLine
 62
7
  6
CONTINUOUS
 10
15.1180045719
 20
8.0776025881
 11
15.1462888432
 21
8.0545085774
  0
LINE
  5
2B6
100
AcDbEntity
  8
0
100
AcDbLine
 62
7
  6
CONTINUOUS
 10
15.1197723389
 20
8.1252339853
 11
15.1215401058
 21
8.1237906097
  0
LINE
  5
2B7
100
AcDbEntity
  8
0
100
AcDbLine
 62
7
  6
CONTINUOUS
 10
15.1745731144
 20
8.1237906097
 11
15.1462888432
 21
8.1468846204
  0
LINE
  5
2B8
100
AcDbEntity
  8
0
100
AcDbLine
 62
9
  6
CONTINUOUS
 10
11.2126923432
 20
12.2458162876
 11
11.3021657018
 21
12.1183974296
  0
LWPOLYLINE
  5
2B9
100
AcDbEntity
  8
0
100
AcDbPolyline
 62
7
  6
CONTINUOUS
 90
4
 70
0
 10
11.3021800659
 20
12.1183752347
 10
11.2863754114
 20
12.1424380166
 10
11.2458736615
 20
12.2010641844
 10
11.2128522516
 20
12.2459339703
  0
LINE
  5
2BA
100
AcDbEntity
  8
0
100
AcDbLine
 62
7
  6
CONTINUOUS
 10
11.3021657018
 20
12.1183974296
 11
11.3021800659
 21
12.1183752347
  0
LINE
  5
2BB
100
AcDbEntity
  8
0
100
AcDbLine
 62
7
  6
CONTINUOUS
 10
13.9950151198
 20
8.4719093033
 11
13.9129258627
 21
8.4144297867
  0
LINE
  5
2BC
100
AcDbEntity
  8
0
100
AcDbLine
 62
7
  6
CONTINUOUS
 10
15.4383455552
 20
8.9401965989
 11
15.4651923427
 21
8.9556965989
  0
LINE
  5
2BD
100
AcDbEntity
  8
0
100
AcDbLine
 62
7
  6
CONTINUOUS
 10
15.3081923427
 20
8.3046965989
 11
15.4651923427
 21
8.3556965989
  0
LINE
  5
2BE
100
AcDbEntity
  8
0
100
AcDbLine
 62
7
  6
CONTINUOUS
 10
15.8803695657
 20
8.4719093033
 11
15.9624588227
 21
8.4144297867
  0
LINE
  5
2BF
100
AcDbEntity
  8
0
100
AcDbLine
 62
7
  6
CONTINUOUS
 10
13.7501923427
 20
6.2786965989
 11
13.7501923427
 21
6.4303176404
  0
LINE
  5
2C0
100
AcDbEntity
  8
0
100
AcDbLine
 62
7
  6
CONTINUOUS
 10
14.4244581905
 20
9.0466159509
 11
14.4101923427
 21
9.026980696
  0
LINE
  5
2C1
100
AcDbEntity
  8
0
100
AcDbLine
 62
7
  6
CONTINUOUS
 10
11.2113984775
 20
12.2474694793
 11
11.2120666667
 21
12.24700143
  0
LINE
  5
2C2
100
AcDbEntity
  8
0
100
AcDbLine
 62
7
  6
CONTINUOUS
 10
14.3801923427
 20
8.4346965989
 11
14.4101923427
 21
8.3556965989
  0
LINE
  5
2C3
100
AcDbEntity
  8
0
100
AcDbLine
 62
9
  6
CONTINUOUS
 10
13.9129258627
 20
8.8649634111
 11
13.9129258627
 21
8.4144297867
  0
LINE
  5
2C4
100
AcDbEntity
  8
0
100
AcDbLine
 62
9
  6
CONTINUOUS
 10
13.9950151198
 20
8.4719093033
 11
13.9950151198
 21
8.8074838945
  0
LINE
  5
2C5
100
AcDbEntity
  8
0
100
AcDbLine
 62
7
  6
CONTINUOUS
 10
14.0201923427
 20
8.8287844499
 11
14.0201923427
 21
8.4506087478
  0
LINE
  5
2C6
100
AcDbEntity
  8
0
100
AcDbLine
 62
9
  6
CONTINUOUS
 10
14.0450555013
 20
8.4487793057
 11
14.0450555013
 21
8.8306138921
  0
LINE
  5
2C7
100
AcDbEntity
  8
0
100
AcDbLine
 62
7
  6
CONTINUOUS
 10
14.4101923427
 20
8.9246965989
 11
14.3801923427
 21
8.8446965989
  0
LINE
  5
2C8
100
AcDbEntity
  8
0
100
AcDbLine
 62
7
  6
CONTINUOUS
 10
14.7290958423
 20
8.1468846204
 11
14.700811571
 21
8.1237906097
  0
LINE
  5
2C9
100
AcDbEntity
  8
0
100
AcDbLine
 62
7
  6
CONTINUOUS
 10
14.7538445796
 20
8.1237906097
 11
14.7556123466
 21
8.1252339853
  0
LINE
  5
2CA
100
AcDbEntity
  8
0
100
AcDbLine
 62
7
  6
CONTINUOUS
 10
14.7290958423
 20
8.0545085774
 11
14.7573801135
 21
8.0776025881
  0
LINE
  5
2CB
100
AcDbEntity
  8
0
100
AcDbLine
 62
7
  6
CONTINUOUS
 10
15.8803695657
 20
8.8074838945
 11
15.9624588227
 21
8.8649634111
  0
LWPOLYLINE
  5
2CC
100
AcDbEntity
  8
0
100
AcDbPolyline
 62
7
  6
CONTINUOUS
 90
4
 70
0
 10
10.937692853
 20
12.2571337321
 10
10.8614012509
 20
12.2563856452
 10
10.7596497605
 20
12.2530504888
 10
10.6639927403
 20
12.2474691296
  0
LWPOLYLINE
  5
2CD
100
AcDbEntity
  8
0
100
AcDbPolyline
 62
7
  6
CONTINUOUS
 90
4
 70
0
 10
11.2113984775
 20
12.2474694793
 10
11.1170944777
 20
12.2529877792
 10
11.0153537529
 20
12.2563583223
 10
10.937692853
 20
12.2571337323
  0
LINE
  5
2CE
100
AcDbEntity
  8
0
100
AcDbLine
 62
9
  6
CONTINUOUS
 10
14.4065263271
 20
8.4848205727
 11
14.4065263271
 21
8.7947876037
  0
LINE
  5
2CF
100
AcDbEntity
  8
0
100
AcDbLine
 62
7
  6
CONTINUOUS
 10
14.4101923427
 20
9.026980696
 11
14.4101923427
 21
8.9556965989
  0
LINE
  5
2D0
100
AcDbEntity
  8
0
100
AcDbLine
 62
9
  6
CONTINUOUS
 10
14.4286863641
 20
8.7366089815
 11
14.4286863641
 21
8.5433059537
  0
LINE
  5
2D1
100
AcDbEntity
  8
0
100
AcDbLine
 62
7
  6
CONTINUOUS
 10
14.5076923427
 20
7.9256965989
 11
14.5076923427
 21
7.8056965989
  0
LINE
  5
2D2
100
AcDbEntity
  8
0
100
AcDbLine
 62
7
  6
CONTINUOUS
 10
14.5941923427
 20
8.3046965989
 11
14.5941923427
 21
7.9456965989
  0
LINE
  5
2D3
100
AcDbEntity
  8
0
100
AcDbLine
 62
7
  6
CONTINUOUS
 10
14.6296923427
 20
9.1087809403
 11
14.6296923427
 21
9.1098006165
  0
LINE
  5
2D4
100
AcDbEntity
  8
0
100
AcDbLine
 62
9
  6
CONTINUOUS
 10
14.6356613602
 20
9.1106889845
 11
14.6356613602
 21
9.109669288
  0
LINE
  5
2D5
100
AcDbEntity
  8
0
100
AcDbLine
 62
9
  6
CONTINUOUS
 10
14.668980108
 20
9.1160715701
 11
14.668980108
 21
9.1150554229
  0
LINE
  5
2D6
100
AcDbEntity
  8
0
100
AcDbLine
 62
7
  6
CONTINUOUS
 10
14.700811571
 20
8.0776025881
 11
14.700811571
 21
8.1237906097
  0
LINE
  5
2D7
100
AcDbEntity
  8
0
100
AcDbLine
 62
7
  6
CONTINUOUS
 10
14.3621823625
 20
7.4128884487
 11
14.4376923427
 21
7.8056965989
  0
LINE
  5
2D8
100
AcDbEntity
  8
0
100
AcDbLine
 62
7
  6
CONTINUOUS
 10
15.1462888432
 20
8.1468846204
 11
15.1180045719
 21
8.1237906097
  0
LINE
  5
2D9
100
AcDbEntity
  8
0
100
AcDbLine
 62
7
  6
CONTINUOUS
 10
15.1215401058
 20
8.0776025881
 11
15.1197723389
 21
8.0761592124
  0
LINE
  5
2DA
100
AcDbEntity
  8
0
100
AcDbLine
 62
7
  6
CONTINUOUS
 10
15.1462888432
 20
8.0545085774
 11
15.1745731144
 21
8.0776025881
  0
LINE
  5
2DB
100
AcDbEntity
  8
0
100
AcDbLine
 62
7
  6
CONTINUOUS
 10
15.450926495
 20
9.0466159509
 11
15.4651923427
 21
9.026980696
  0
LINE
  5
2DC
100
AcDbEntity
  8
0
100
AcDbLine
 62
7
  6
CONTINUOUS
 10
14.7401422312
 20
9.1278742515
 11
14.7401422312
 21
9.1268659082
  0
LINE
  5
2DD
100
AcDbEntity
  8
0
100
AcDbLine
 62
7
  6
CONTINUOUS
 10
14.7538445796
 20
8.0776025881
 11
14.7538445796
 21
8.1237906097
  0
LINE
  5
2DE
100
AcDbEntity
  8
0
100
AcDbLine
 62
7
  6
CONTINUOUS
 10
14.7573801135
 20
8.1237906097
 11
14.7573801135
 21
8.0776025881
  0
LINE
  5
2DF
100
AcDbEntity
  8
0
100
AcDbLine
 62
7
  6
CONTINUOUS
 10
14.8139923427
 20
9.1357548283
 11
14.8139923427
 21
9.1347516291
  0
LINE
  5
2E0
100
AcDbEntity
  8
0
100
AcDbLine
 62
7
  6
CONTINUOUS
 10
14.8989923427
 20
9.1402136066
 11
14.8989923427
 21
9.1392132948
  0
LINE
  5
2E1
100
AcDbEntity
  8
0
100
AcDbLine
 62
7
  6
CONTINUOUS
 10
14.9376923427
 20
6.5854438416
 11
14.9376923427
 21
6.6004647256
  0
LINE
  5
2E2
100
AcDbEntity
  8
0
100
AcDbLine
 62
7
  6
CONTINUOUS
 10
14.9376923427
 20
7.4128884487
 11
14.9376923427
 21
7.8056965989
  0
LINE
  5
2E3
100
AcDbEntity
  8
0
100
AcDbLine
 62
7
  6
CONTINUOUS
 10
14.9476923427
 20
9.139464061
 11
14.9476923427
 21
9.1383329151
  0
LINE
  5
2E4
100
AcDbEntity
  8
0
100
AcDbLine
 62
7
  6
CONTINUOUS
 10
14.9691923427
 20
9.1403766241
 11
14.9691923427
 21
9.1390411655
  0
LINE
  5
2E5
100
AcDbEntity
  8
0
100
AcDbLine
 62
7
  6
CONTINUOUS
 10
15.0051923427
 20
9.1391894791
 11
15.0051923427
 21
9.1392267793
  0
LINE
  5
2E6
100
AcDbEntity
  8
0
100
AcDbLine
 62
7
  6
CONTINUOUS
 10
15.0051923427
 20
9.1378903292
 11
15.0051923427
 21
9.1388914954
  0
LINE
  5
2E7
100
AcDbEntity
  8
0
100
AcDbLine
 62
9
  6
CONTINUOUS
 10
15.0351923427
 20
9.136376723
 11
15.0351923427
 21
9.1353739276
  0
LINE
  5
2E8
100
AcDbEntity
  8
0
100
AcDbLine
 62
9
  6
CONTINUOUS
 10
15.0591923427
 20
9.1336724023
 11
15.0591923427
 21
9.1346763024
  0
LINE
  5
2E9
100
AcDbEntity
  8
0
100
AcDbLine
 62
9
  6
CONTINUOUS
 10
15.0848575327
 20
9.132958399
 11
15.0848575327
 21
9.1319533805
  0
LINE
  5
2EA
100
AcDbEntity
  8
0
100
AcDbLine
 62
7
  6
CONTINUOUS
 10
15.0981372794
 20
9.1321576218
 11
15.0981372794
 21
9.1311520811
  0
LINE
  5
2EB
100
AcDbEntity
  8
0
100
AcDbLine
 62
7
  6
CONTINUOUS
 10
15.1180045719
 20
8.0776025881
 11
15.1180045719
 21
8.1237906097
  0
LINE
  5
2EC
100
AcDbEntity
  8
0
100
AcDbLine
 62
7
  6
CONTINUOUS
 10
15.1215401058
 20
8.1237906097
 11
15.1215401058
 21
8.0776025881
  0
LINE
  5
2ED
100
AcDbEntity
  8
0
100
AcDbLine
 62
7
  6
CONTINUOUS
 10
15.1276923427
 20
9.1278030616
 11
15.1276923427
 21
9.1266633319
  0
LINE
  5
2EE
100
AcDbEntity
  8
0
100
AcDbLine
 62
7
  6
CONTINUOUS
 10
15.1376923427
 20
9.1277448616
 11
15.1376923427
 21
9.1260810576
  0
LINE
  5
2EF
100
AcDbEntity
  8
0
100
AcDbLine
 62
7
  6
CONTINUOUS
 10
13.7501955831
 20
6.4303208
 11
13.9246923427
 21
6.6004647256
  0
LINE
  5
2F0
100
AcDbEntity
  8
0
100
AcDbLine
 62
7
  6
CONTINUOUS
 10
15.4651923427
 20
8.9246965989
 11
15.4951923427
 21
8.8446965989
  0
LINE
  5
2F1
100
AcDbEntity
  8
0
100
AcDbLine
 62
7
  6
CONTINUOUS
 10
15.513202323
 20
7.4128884487
 11
15.4376923427
 21
7.8056965989
  0
LINE
  5
2F2
100
AcDbEntity
  8
0
100
AcDbLine
 62
7
  6
CONTINUOUS
 10
15.1739742231
 20
9.1205895615
 11
15.1739742231
 21
9.122589264
  0
LINE
  5
2F3
100
AcDbEntity
  8
0
100
AcDbLine
 62
7
  6
CONTINUOUS
 10
15.1745731144
 20
8.1237906097
 11
15.1745731144
 21
8.0776025881
  0
LINE
  5
2F4
100
AcDbEntity
  8
0
100
AcDbLine
 62
9
  6
CONTINUOUS
 10
15.1799742231
 20
9.1204369818
 11
15.1799742231
 21
9.119423735
  0
LINE
  5
2F5
100
AcDbEntity
  8
0
100
AcDbLine
 62
9
  6
CONTINUOUS
 10
15.2078371309
 20
9.1147488369
 11
15.2078371309
 21
9.1157651883
  0
LINE
  5
2F6
100
AcDbEntity
  8
0
100
AcDbLine
 62
9
  6
CONTINUOUS
 10
15.2533723487
 20
9.1079624553
 11
15.2533723487
 21
9.1069408761
  0
LINE
  5
2F7
100
AcDbEntity
  8
0
100
AcDbLine
 62
7
  6
CONTINUOUS
 10
15.2583532627
 20
9.1061556944
 11
15.2583532627
 21
9.1071778024
  0
LINE
  5
2F8
100
AcDbEntity
  8
0
100
AcDbLine
 62
7
  6
CONTINUOUS
 10
15.2811923427
 20
8.3046965989
 11
15.2811923427
 21
7.9456965989
  0
LINE
  5
2F9
100
AcDbEntity
  8
0
100
AcDbLine
 62
7
  6
CONTINUOUS
 10
15.3676923427
 20
7.9256965989
 11
15.3676923427
 21
7.8056965989
  0
LINE
  5
2FA
100
AcDbEntity
  8
0
100
AcDbLine
 62
9
  6
CONTINUOUS
 10
15.4466983213
 20
8.5426949928
 11
15.4466983213
 21
8.7361375321
  0
LINE
  5
2FB
100
AcDbEntity
  8
0
100
AcDbLine
 62
7
  6
CONTINUOUS
 10
15.4651923427
 20
9.026980696
 11
15.4651923427
 21
8.9556965989
  0
LINE
  5
2FC
100
AcDbEntity
  8
0
100
AcDbLine
 62
9
  6
CONTINUOUS
 10
15.4688583584
 20
8.7945893949
 11
15.4688583584
 21
8.484599315
  0
LINE
  5
2FD
100
AcDbEntity
  8
0
100
AcDbLine
 62
7
  6
CONTINUOUS
 10
15.4951923427
 20
8.4346965989
 11
15.4651923427
 21
8.3556965989
  0
LINE
  5
2FE
100
AcDbEntity
  8
0
100
AcDbLine
 62
9
  6
CONTINUOUS
 10
15.8303291842
 20
8.4487793057
 11
15.8303291842
 21
8.8306138921
  0
LINE
  5
2FF
100
AcDbEntity
  8
0
100
AcDbLine
 62
7
  6
CONTINUOUS
 10
15.8551923427
 20
8.4506087478
 11
15.8551923427
 21
8.8287844499
  0
LINE
  5
300
100
AcDbEntity
  8
0
100
AcDbLine
 62
9
  6
CONTINUOUS
 10
15.8803695657
 20
8.8074838945
 11
15.8803695657
 21
8.4719093033
  0
LINE
  5
301
100
AcDbEntity
  8
0
100
AcDbLine
 62
9
  6
CONTINUOUS
 10
15.9624588227
 20
8.4144297867
 11
15.9624588227
 21
8.8649634111
  0
LINE
  5
302
100
AcDbEntity
  8
0
100
AcDbLine
 62
7
  6
CONTINUOUS
 10
16.1251923427
 20
6.2786965989
 11
16.1251923427
 21
6.4303176404
  0
ARC
  5
303
100
AcDbEntity
  8
0
100
AcDbCircle
 62
9
  6
CONTINUOUS
 10
-128.2196973969
 20
6.8136160683
 40
139.0462460328
100
AcDbArc
 50
1.7316401079
 51
1.905323849
  0
ARC
  5
304
100
AcDbEntity
  8
0
100
AcDbCircle
 62
7
  6
CONTINUOUS
 10
4.8488889638
 20
7.7037906475
 40
1.541
100
AcDbArc
 50
314.2763891045
 51
349.1186996529
  0
ARC
  5
305
100
AcDbEntity
  8
0
100
AcDbCircle
 62
7
  6
CONTINUOUS
 10
6.2278163838
 20
8.2781965989
 40
0.25
100
AcDbArc
 50
47.6865981126
 51
136.9739483152
  0
ARC
  5
306
100
AcDbEntity
  8
0
100
AcDbCircle
 62
7
  6
CONTINUOUS
 10
6.0041923427
 20
8.4588028706
 40
0.016
100
AcDbArc
 50
0.0
 51
124.9999999998
  0
ARC
  5
307
100
AcDbEntity
  8
0
100
AcDbCircle
 62
7
  6
CONTINUOUS
 10
6.0333588048
 20
8.4596965989
 40
0.016
100
AcDbArc
 50
214.6234510999
 51
316.9739483152
  0
ARC
  5
308
100
AcDbEntity
  8
0
100
AcDbCircle
 62
7
  6
CONTINUOUS
 10
6.9376923427
 20
7.5900232069
 40
1.550673392
100
AcDbArc
 50
75.2370022574
 51
82.8689275621
  0
ARC
  5
309
100
AcDbEntity
  8
0
100
AcDbCircle
 62
7
  6
CONTINUOUS
 10
6.9376923427
 20
7.5900232069
 40
1.550673392
100
AcDbArc
 50
84.2076250178
 51
87.1537590823
  0
ARC
  5
30A
100
AcDbEntity
  8
0
100
AcDbCircle
 62
7
  6
CONTINUOUS
 10
6.9376923427
 20
7.5900232069
 40
1.550673392
100
AcDbArc
 50
92.9572311058
 51
94.3827253199
  0
ARC
  5
30B
100
AcDbEntity
  8
0
100
AcDbCircle
 62
7
  6
CONTINUOUS
 10
6.9376923427
 20
7.5900232069
 40
1.550673392
100
AcDbArc
 50
88.473827208
 51
91.6148836456
  0
ARC
  5
30C
100
AcDbEntity
  8
0
100
AcDbCircle
 62
7
  6
CONTINUOUS
 10
6.9376923427
 20
7.5900232069
 40
1.550673392
100
AcDbArc
 50
99.221579184
 51
104.7629977426
  0
ARC
  5
30D
100
AcDbEntity
  8
0
100
AcDbCircle
 62
7
  6
CONTINUOUS
 10
6.9376923427
 20
7.5900232069
 40
1.550668233
100
AcDbArc
 50
96.0895835634
 51
97.5036217175
  0
ARC
  5
30E
100
AcDbEntity
  8
0
100
AcDbCircle
 62
7
  6
CONTINUOUS
 10
6.9376923427
 20
7.5900232069
 40
1.549673392
100
AcDbArc
 50
94.3855590149
 51
95.8667730096
  0
ARC
  5
30F
100
AcDbEntity
  8
0
100
AcDbCircle
 62
7
  6
CONTINUOUS
 10
6.9376923427
 20
7.5900232069
 40
1.549673392
100
AcDbArc
 50
97.7294142583
 51
99.2275818147
  0
ARC
  5
310
100
AcDbEntity
  8
0
100
AcDbCircle
 62
7
  6
CONTINUOUS
 10
6.9376923427
 20
7.5900232069
 40
1.549673392
100
AcDbArc
 50
87.79712788
 51
88.4728421397
  0
ARC
  5
311
100
AcDbEntity
  8
0
100
AcDbCircle
 62
7
  6
CONTINUOUS
 10
6.9376923427
 20
7.5900232069
 40
1.549673392
100
AcDbArc
 50
91.6159260019
 51
92.3262697041
  0
ARC
  5
312
100
AcDbEntity
  8
0
100
AcDbCircle
 62
7
  6
CONTINUOUS
 10
6.9376923427
 20
7.5900232069
 40
1.5483420064
100
AcDbArc
 50
82.1676580455
 51
84.8865797045
  0
ARC
  5
313
100
AcDbEntity
  8
0
100
AcDbCircle
 62
7
  6
CONTINUOUS
 10
6.9376923427
 20
7.5900232069
 40
1.5483420064
100
AcDbArc
 50
97.1232192299
 51
99.8547367444
  0
ARC
  5
314
100
AcDbEntity
  8
0
100
AcDbCircle
 62
7
  6
CONTINUOUS
 10
6.9376923427
 20
7.5900232069
 40
1.5483420064
100
AcDbArc
 50
93.7772047905
 51
96.4896726718
  0
ARC
  5
315
100
AcDbEntity
  8
0
100
AcDbCircle
 62
7
  6
CONTINUOUS
 10
6.6425446504
 20
8.1006959173
 40
0.1195023702
100
AcDbArc
 50
0.3792025702
 51
1.1663357283
  0
ARC
  5
316
100
AcDbEntity
  8
0
100
AcDbCircle
 62
7
  6
CONTINUOUS
 10
6.6427323332
 20
8.1006883491
 40
0.1193147419
100
AcDbArc
 50
352.4880657592
 51
0.3834332813
  0
ARC
  5
317
100
AcDbEntity
  8
0
100
AcDbCircle
 62
7
  6
CONTINUOUS
 10
6.7278170446
 20
8.0643614563
 40
0.0287722943
100
AcDbArc
 50
275.6304926476
 51
285.410644731
  0
ARC
  5
318
100
AcDbEntity
  8
0
100
AcDbCircle
 62
7
  6
CONTINUOUS
 10
6.7279336861
 20
8.0634689674
 40
0.027872682
100
AcDbArc
 50
272.8919139511
 51
275.5718776543
  0
ARC
  5
319
100
AcDbEntity
  8
0
100
AcDbCircle
 62
7
  6
CONTINUOUS
 10
6.727945793
 20
8.0632354353
 40
0.0276388364
100
AcDbArc
 50
270.0020612556
 51
272.8912727743
  0
ARC
  5
31A
100
AcDbEntity
  8
0
100
AcDbCircle
 62
7
  6
CONTINUOUS
 10
6.6890626789
 20
8.118278716
 40
0.068356467
100
AcDbArc
 50
41.11324755
 51
43.6015767931
  0
ARC
  5
31B
100
AcDbEntity
  8
0
100
AcDbCircle
 62
7
  6
CONTINUOUS
 10
6.7102810404
 20
8.1350397373
 40
0.0476787784
100
AcDbArc
 50
97.1309142541
 51
105.4829579435
  0
ARC
  5
31C
100
AcDbEntity
  8
0
100
AcDbCircle
 62
7
  6
CONTINUOUS
 10
6.7019330657
 20
8.1377374361
 40
0.0446608759
100
AcDbArc
 50
79.864382639
 51
86.9358986202
  0
ARC
  5
31D
100
AcDbEntity
  8
0
100
AcDbCircle
 62
7
  6
CONTINUOUS
 10
6.7020060016
 20
8.1382161421
 40
0.0441789808
100
AcDbArc
 50
86.9971684704
 51
96.2073695434
  0
ARC
  5
31E
100
AcDbEntity
  8
0
100
AcDbCircle
 62
7
  6
CONTINUOUS
 10
6.716889211
 20
8.1280693454
 40
0.0377274029
100
AcDbArc
 50
85.8635172997
 51
88.037505429
  0
ARC
  5
31F
100
AcDbEntity
  8
0
100
AcDbCircle
 62
7
  6
CONTINUOUS
 10
6.7168975963
 20
8.128304238
 40
0.0374923609
100
AcDbArc
 50
88.0380195619
 51
89.9990189671
  0
ARC
  5
320
100
AcDbEntity
  8
0
100
AcDbCircle
 62
7
  6
CONTINUOUS
 10
6.7320656846
 20
8.1300605211
 40
0.0358333014
100
AcDbArc
 50
109.2187832942
 51
112.6024484291
  0
ARC
  5
321
100
AcDbEntity
  8
0
100
AcDbCircle
 62
7
  6
CONTINUOUS
 10
6.7316191905
 20
8.1313913296
 40
0.0344296895
100
AcDbArc
 50
103.6610731393
 51
109.2461753236
  0
ARC
  5
322
100
AcDbEntity
  8
0
100
AcDbCircle
 62
7
  6
CONTINUOUS
 10
6.7290979324
 20
8.1316745226
 40
0.0310220764
100
AcDbArc
 50
90.0038603233
 51
93.8765544624
  0
ARC
  5
323
100
AcDbEntity
  8
0
100
AcDbCircle
 62
7
  6
CONTINUOUS
 10
6.7290947173
 20
8.1316858222
 40
0.0310107767
100
AcDbArc
 50
85.0353375057
 51
89.9979213764
  0
ARC
  5
324
100
AcDbEntity
  8
0
100
AcDbCircle
 62
7
  6
CONTINUOUS
 10
7.2329086031
 20
8.1006945129
 40
0.1195709539
100
AcDbArc
 50
177.4828609912
 51
178.6615438544
  0
ARC
  5
325
100
AcDbEntity
  8
0
100
AcDbCircle
 62
7
  6
CONTINUOUS
 10
7.2328767019
 20
8.1006959708
 40
0.1195390195
100
AcDbArc
 50
176.6587073817
 51
177.4828876094
  0
ARC
  5
326
100
AcDbEntity
  8
0
100
AcDbCircle
 62
7
  6
CONTINUOUS
 10
7.2328363151
 20
8.1006961271
 40
0.119498648
100
AcDbArc
 50
178.6615080061
 51
183.9813049444
  0
ARC
  5
327
100
AcDbEntity
  8
0
100
AcDbCircle
 62
7
  6
CONTINUOUS
 10
7.232755805
 20
8.1007032349
 40
0.1194179047
100
AcDbArc
 50
175.4961953455
 51
176.658805937
  0
ARC
  5
328
100
AcDbEntity
  8
0
100
AcDbCircle
 62
7
  6
CONTINUOUS
 10
7.2326924231
 20
8.1006852589
 40
0.1193543486
100
AcDbArc
 50
183.9808962241
 51
184.583778531
  0
ARC
  5
329
100
AcDbEntity
  8
0
100
AcDbCircle
 62
7
  6
CONTINUOUS
 10
7.2325338606
 20
8.1006724295
 40
0.119195268
100
AcDbArc
 50
184.5837224986
 51
185.3746796386
  0
ARC
  5
32A
100
AcDbEntity
  8
0
100
AcDbCircle
 62
7
  6
CONTINUOUS
 10
7.2315948501
 20
8.1008351894
 40
0.1182501799
100
AcDbArc
 50
163.8816018198
 51
175.5157620095
  0
ARC
  5
32B
100
AcDbEntity
  8
0
100
AcDbCircle
 62
7
  6
CONTINUOUS
 10
7.2294956468
 20
8.1013793521
 40
0.1160824395
100
AcDbArc
 50
163.6075795818
 51
163.8519793444
  0
ARC
  5
32C
100
AcDbEntity
  8
0
100
AcDbCircle
 62
7
  6
CONTINUOUS
 10
7.1024095399
 20
8.1006966202
 40
0.0877198425
100
AcDbArc
 50
358.2429578634
 51
1.4191037063
  0
ARC
  5
32D
100
AcDbEntity
  8
0
100
AcDbCircle
 62
7
  6
CONTINUOUS
 10
7.1028859606
 20
8.1006812625
 40
0.0872431749
100
AcDbArc
 50
355.5278273496
 51
358.2434457075
  0
ARC
  5
32E
100
AcDbEntity
  8
0
100
AcDbCircle
 62
7
  6
CONTINUOUS
 10
7.1029260885
 20
8.1007139106
 40
0.0872030243
100
AcDbArc
 50
1.4161519598
 51
4.2182998511
  0
ARC
  5
32F
100
AcDbEntity
  8
0
100
AcDbCircle
 62
7
  6
CONTINUOUS
 10
7.104010573
 20
8.1005901753
 40
0.0861148842
100
AcDbArc
 50
351.0105310794
 51
355.5299020683
  0
ARC
  5
330
100
AcDbEntity
  8
0
100
AcDbCircle
 62
7
  6
CONTINUOUS
 10
7.1042109199
 20
8.1008269472
 40
0.0859133607
100
AcDbArc
 50
4.2061472865
 51
8.5595876045
  0
ARC
  5
331
100
AcDbEntity
  8
0
100
AcDbCircle
 62
7
  6
CONTINUOUS
 10
7.1057785325
 20
8.1010561835
 40
0.0843290901
100
AcDbArc
 50
8.564097172
 51
9.5545579758
  0
ARC
  5
332
100
AcDbEntity
  8
0
100
AcDbCircle
 62
7
  6
CONTINUOUS
 10
7.1057898342
 20
8.1003347753
 40
0.0843175744
100
AcDbArc
 50
350.7302933999
 51
350.9930321035
  0
ARC
  5
333
100
AcDbEntity
  8
0
100
AcDbCircle
 62
7
  6
CONTINUOUS
 10
7.1474661588
 20
8.0735525068
 40
0.0379567081
100
AcDbArc
 50
264.4280455114
 51
265.8511421008
  0
ARC
  5
334
100
AcDbEntity
  8
0
100
AcDbCircle
 62
7
  6
CONTINUOUS
 10
7.1474490212
 20
8.0733117548
 40
0.0377153471
100
AcDbArc
 50
265.8506480806
 51
267.8775930412
  0
ARC
  5
335
100
AcDbEntity
  8
0
100
AcDbCircle
 62
7
  6
CONTINUOUS
 10
7.1474387895
 20
8.0730381714
 40
0.0374415726
100
AcDbArc
 50
267.8777348894
 51
269.9986360773
  0
ARC
  5
336
100
AcDbEntity
  8
0
100
AcDbCircle
 62
7
  6
CONTINUOUS
 10
7.1463117126
 20
8.0701086994
 40
0.0314121089
100
AcDbArc
 50
256.4018944877
 51
269.9582860913
  0
ARC
  5
337
100
AcDbEntity
  8
0
100
AcDbCircle
 62
7
  6
CONTINUOUS
 10
7.1689167819
 20
8.144499998
 40
0.0378877647
100
AcDbArc
 50
86.7584321057
 51
96.6304815233
  0
ARC
  5
338
100
AcDbEntity
  8
0
100
AcDbCircle
 62
7
  6
CONTINUOUS
 10
7.1651298166
 20
8.1452829205
 40
0.0374359833
100
AcDbArc
 50
74.9577471566
 51
80.9304785934
  0
ARC
  5
339
100
AcDbEntity
  8
0
100
AcDbCircle
 62
7
  6
CONTINUOUS
 10
7.14327751
 20
8.1299372638
 40
0.0359630379
100
AcDbArc
 50
67.4632455474
 51
70.7922180076
  0
ARC
  5
33A
100
AcDbEntity
  8
0
100
AcDbCircle
 62
7
  6
CONTINUOUS
 10
7.1436876234
 20
8.1311151032
 40
0.0347158416
100
AcDbArc
 50
70.791854766
 51
77.1207620926
  0
ARC
  5
33B
100
AcDbEntity
  8
0
100
AcDbCircle
 62
7
  6
CONTINUOUS
 10
7.1462889224
 20
8.1317857833
 40
0.0309108156
100
AcDbArc
 50
90.0001468015
 51
90.95717499
  0
ARC
  5
33C
100
AcDbEntity
  8
0
100
AcDbCircle
 62
7
  6
CONTINUOUS
 10
7.1589983797
 20
8.1356728231
 40
0.0301841018
100
AcDbArc
 50
104.5796380029
 51
111.5270093812
  0
ARC
  5
33D
100
AcDbEntity
  8
0
100
AcDbCircle
 62
7
  6
CONTINUOUS
 10
7.1585671261
 20
8.1372937545
 40
0.0285068106
100
AcDbArc
 50
94.3193486822
 51
104.5608714323
  0
ARC
  5
33E
100
AcDbEntity
  8
0
100
AcDbCircle
 62
7
  6
CONTINUOUS
 10
7.1584884562
 20
8.1379789062
 40
0.0278176928
100
AcDbArc
 50
90.0041378779
 51
94.2640585692
  0
ARC
  5
33F
100
AcDbEntity
  8
0
100
AcDbCircle
 62
7
  6
CONTINUOUS
 10
7.6475683017
 20
8.2781965989
 40
0.25
100
AcDbArc
 50
43.0260516848
 51
132.3168916863
  0
ARC
  5
340
100
AcDbEntity
  8
0
100
AcDbCircle
 62
7
  6
CONTINUOUS
 10
7.8420258806
 20
8.4596965989
 40
0.016
100
AcDbArc
 50
223.0260516848
 51
325.3765489001
  0
ARC
  5
341
100
AcDbEntity
  8
0
100
AcDbCircle
 62
7
  6
CONTINUOUS
 10
-4.0971773526
 20
10.1324952282
 40
14.3654892782
100
AcDbArc
 50
359.7224925987
 51
359.9972868922
  0
ARC
  5
342
100
AcDbEntity
  8
0
100
AcDbCircle
 62
7
  6
CONTINUOUS
 10
2.247423302
 20
9.8232307553
 40
8.0197372508
100
AcDbArc
 50
339.467469707
 51
341.0252712546
  0
CIRCLE
  5
343
100
AcDbEntity
  8
0
100
AcDbCircle
 62
7
  6
CONTINUOUS
 10
6.9376923427
 20
8.6396965989
 40
0.275
  0
ARC
  5
344
100
AcDbEntity
  8
0
100
AcDbCircle
 62
7
  6
CONTINUOUS
 10
5.7551923427
 20
8.6396965989
 40
0.275
100
AcDbArc
 50
55.0
 51
305.0
  0
ARC
  5
345
100
AcDbEntity
  8
0
100
AcDbCircle
 62
7
  6
CONTINUOUS
 10
6.2278163838
 20
9.0011965989
 40
0.25
100
AcDbArc
 50
223.0260516848
 51
312.316709225
  0
ARC
  5
346
100
AcDbEntity
  8
0
100
AcDbCircle
 62
7
  6
CONTINUOUS
 10
7.6475683017
 20
9.0011965989
 40
0.25
100
AcDbArc
 50
227.6856520344
 51
316.9739483152
  0
ARC
  5
347
100
AcDbEntity
  8
0
100
AcDbCircle
 62
7
  6
CONTINUOUS
 10
6.5501923427
 20
9.0604963672
 40
0.03
100
AcDbArc
 50
104.7629977425
 51
169.9531939797
  0
ARC
  5
348
100
AcDbEntity
  8
0
100
AcDbCircle
 62
7
  6
CONTINUOUS
 10
7.3251923427
 20
9.0604963672
 40
0.03
100
AcDbArc
 50
10.0468060203
 51
75.2370022575
  0
ARC
  5
349
100
AcDbEntity
  8
0
100
AcDbCircle
 62
7
  6
CONTINUOUS
 10
6.0041923427
 20
8.8205903272
 40
0.016
100
AcDbArc
 50
235.0000000002
 51
360.0
  0
ARC
  5
34A
100
AcDbEntity
  8
0
100
AcDbCircle
 62
7
  6
CONTINUOUS
 10
6.0333588048
 20
8.8196965989
 40
0.016
100
AcDbArc
 50
43.0260516848
 51
145.3765489001
  0
ARC
  5
34B
100
AcDbEntity
  8
0
100
AcDbCircle
 62
7
  6
CONTINUOUS
 10
7.8420258806
 20
8.8196965989
 40
0.016
100
AcDbArc
 50
34.6234510999
 51
136.9739483152
  0
ARC
  5
34C
100
AcDbEntity
  8
0
100
AcDbCircle
 62
7
  6
CONTINUOUS
 10
17.9052582186
 20
-9.6383725784
 40
19.0304495943
100
AcDbArc
 50
99.5861041306
 51
99.7905965331
  0
ARC
  5
34D
100
AcDbEntity
  8
0
100
AcDbCircle
 62
7
  6
CONTINUOUS
 10
10.9356325285
 20
7.6386534772
 40
3.3811001962
100
AcDbArc
 50
89.9645536077
 51
92.9258419234
  0
ARC
  5
34E
100
AcDbEntity
  8
0
100
AcDbCircle
 62
7
  6
CONTINUOUS
 10
10.9122969652
 20
8.1264654191
 40
2.8927334612
100
AcDbArc
 50
92.9574224407
 51
94.1204901084
  0
ARC
  5
34F
100
AcDbEntity
  8
0
100
AcDbCircle
 62
7
  6
CONTINUOUS
 10
9.5642692038
 20
7.0097932853
 40
2.5534232099
100
AcDbArc
 50
358.9112401271
 51
0.0135036793
  0
ARC
  5
350
100
AcDbEntity
  8
0
100
AcDbCircle
 62
7
  6
CONTINUOUS
 10
12.2632041898
 20
7.0093437024
 40
2.5055120676
100
AcDbArc
 50
179.9759570846
 51
181.0992991151
  0
ARC
  5
351
100
AcDbEntity
  8
0
100
AcDbCircle
 62
7
  6
CONTINUOUS
 10
9.0264957217
 20
7.7037906475
 40
1.541
100
AcDbArc
 50
190.8813003471
 51
225.7236108955
  0
ARC
  5
352
100
AcDbEntity
  8
0
100
AcDbCircle
 62
7
  6
CONTINUOUS
 10
8.8996257478
 20
7.4261098788
 40
1.4718126292
100
AcDbArc
 50
356.912502626
 51
358.1358179161
  0
ARC
  5
353
100
AcDbEntity
  8
0
100
AcDbCircle
 62
7
  6
CONTINUOUS
 10
8.9103734881
 20
7.9200793758
 40
1.0697271598
100
AcDbArc
 50
341.1182859079
 51
344.3387547339
  0
ARC
  5
354
100
AcDbEntity
  8
0
100
AcDbCircle
 62
7
  6
CONTINUOUS
 10
8.9629652648
 20
7.9055886871
 40
1.0151761552
100
AcDbArc
 50
344.3249613397
 51
348.1496225091
  0
ARC
  5
355
100
AcDbEntity
  8
0
100
AcDbCircle
 62
9
  6
CONTINUOUS
 10
10.9376646424
 20
8.7578144462
 40
3.4988279592
100
AcDbArc
 50
85.4915761508
 51
89.9995448816
  0
ARC
  5
356
100
AcDbEntity
  8
0
100
AcDbCircle
 62
9
  6
CONTINUOUS
 10
10.9376909009
 20
8.7585546641
 40
3.4980877413
100
AcDbArc
 50
89.9999748771
 51
94.5089010272
  0
ARC
  5
357
100
AcDbEntity
  8
0
100
AcDbCircle
 62
7
  6
CONTINUOUS
 10
8.1201923427
 20
8.6396965989
 40
0.275
100
AcDbArc
 50
235.0
 51
125.0
  0
ARC
  5
358
100
AcDbEntity
  8
0
100
AcDbCircle
 62
7
  6
CONTINUOUS
 10
7.8711923427
 20
8.8205903272
 40
0.016
100
AcDbArc
 50
180.0
 51
304.9999999998
  0
ARC
  5
359
100
AcDbEntity
  8
0
100
AcDbCircle
 62
7
  6
CONTINUOUS
 10
7.8711923427
 20
8.4588028706
 40
0.016
100
AcDbArc
 50
55.0000000002
 51
180.0
  0
ARC
  5
35A
100
AcDbEntity
  8
0
100
AcDbCircle
 62
7
  6
CONTINUOUS
 10
12.8488889638
 20
7.7037906475
 40
1.541
100
AcDbArc
 50
314.2763891045
 51
349.1186996529
  0
ARC
  5
35B
100
AcDbEntity
  8
0
100
AcDbCircle
 62
7
  6
CONTINUOUS
 10
12.9873905551
 20
7.4301832485
 40
1.4843815598
100
AcDbArc
 50
181.9763719036
 51
183.2182559476
  0
ARC
  5
35C
100
AcDbEntity
  8
0
100
AcDbCircle
 62
7
  6
CONTINUOUS
 10
14.8987789876
 20
7.8252821441
 40
1.3122163765
100
AcDbArc
 50
96.2161682461
 51
96.9435981609
  0
ARC
  5
35D
100
AcDbEntity
  8
0
100
AcDbCircle
 62
7
  6
CONTINUOUS
 10
12.9950394559
 20
7.9306569857
 40
1.1014372832
100
AcDbArc
 50
195.7236965047
 51
198.9072482029
  0
ARC
  5
35E
100
AcDbEntity
  8
0
100
AcDbCircle
 62
7
  6
CONTINUOUS
 10
12.9388715996
 20
7.9152034169
 40
1.0431834044
100
AcDbArc
 50
191.933877365
 51
195.7427066029
  0
ARC
  5
35F
100
AcDbEntity
  8
0
100
AcDbCircle
 62
7
  6
CONTINUOUS
 10
14.6425446503
 20
8.1006959173
 40
0.1195023702
100
AcDbArc
 50
0.3792025706
 51
1.1663357282
  0
ARC
  5
360
100
AcDbEntity
  8
0
100
AcDbCircle
 62
7
  6
CONTINUOUS
 10
14.6427323332
 20
8.1006883491
 40
0.1193147419
100
AcDbArc
 50
352.4880657591
 51
0.3834332813
  0
ARC
  5
361
100
AcDbEntity
  8
0
100
AcDbCircle
 62
7
  6
CONTINUOUS
 10
14.6890626789
 20
8.118278716
 40
0.068356467
100
AcDbArc
 50
41.1132475499
 51
43.6015767932
  0
ARC
  5
362
100
AcDbEntity
  8
0
100
AcDbCircle
 62
7
  6
CONTINUOUS
 10
14.7102810404
 20
8.1350397373
 40
0.0476787784
100
AcDbArc
 50
97.1309142541
 51
105.4829579435
  0
ARC
  5
363
100
AcDbEntity
  8
0
100
AcDbCircle
 62
7
  6
CONTINUOUS
 10
14.7019330657
 20
8.1377374361
 40
0.0446608759
100
AcDbArc
 50
79.864382639
 51
86.9358986202
  0
ARC
  5
364
100
AcDbEntity
  8
0
100
AcDbCircle
 62
7
  6
CONTINUOUS
 10
14.7020060016
 20
8.1382161421
 40
0.0441789808
100
AcDbArc
 50
86.9971684704
 51
96.2073695434
  0
ARC
  5
365
100
AcDbEntity
  8
0
100
AcDbCircle
 62
7
  6
CONTINUOUS
 10
14.716889211
 20
8.1280693454
 40
0.0377274029
100
AcDbArc
 50
85.8635172995
 51
88.037505429
  0
ARC
  5
366
100
AcDbEntity
  8
0
100
AcDbCircle
 62
7
  6
CONTINUOUS
 10
14.7168975963
 20
8.128304238
 40
0.0374923609
100
AcDbArc
 50
88.0380195619
 51
89.9990189671
  0
ARC
  5
367
100
AcDbEntity
  8
0
100
AcDbCircle
 62
7
  6
CONTINUOUS
 10
14.7320656846
 20
8.1300605211
 40
0.0358333014
100
AcDbArc
 50
109.2187832941
 51
112.6024484292
  0
ARC
  5
368
100
AcDbEntity
  8
0
100
AcDbCircle
 62
7
  6
CONTINUOUS
 10
14.7316191905
 20
8.1313913296
 40
0.0344296895
100
AcDbArc
 50
103.6610731391
 51
109.2461753238
  0
ARC
  5
369
100
AcDbEntity
  8
0
100
AcDbCircle
 62
7
  6
CONTINUOUS
 10
14.7290979324
 20
8.1316745226
 40
0.0310220764
100
AcDbArc
 50
90.0038603233
 51
93.8765544624
  0
ARC
  5
36A
100
AcDbEntity
  8
0
100
AcDbCircle
 62
7
  6
CONTINUOUS
 10
14.7290947173
 20
8.1316858222
 40
0.0310107767
100
AcDbArc
 50
85.0353375057
 51
89.9979213764
  0
ARC
  5
36B
100
AcDbEntity
  8
0
100
AcDbCircle
 62
7
  6
CONTINUOUS
 10
14.7278170446
 20
8.0643614563
 40
0.0287722943
100
AcDbArc
 50
275.6304926476
 51
285.410644731
  0
ARC
  5
36C
100
AcDbEntity
  8
0
100
AcDbCircle
 62
7
  6
CONTINUOUS
 10
14.7279336861
 20
8.0634689674
 40
0.027872682
100
AcDbArc
 50
272.891913951
 51
275.5718776543
  0
ARC
  5
36D
100
AcDbEntity
  8
0
100
AcDbCircle
 62
7
  6
CONTINUOUS
 10
14.727945793
 20
8.0632354353
 40
0.0276388364
100
AcDbArc
 50
270.0020612555
 51
272.8912727744
  0
ARC
  5
36E
100
AcDbEntity
  8
0
100
AcDbCircle
 62
7
  6
CONTINUOUS
 10
14.9376923427
 20
7.5900265834
 40
1.5506700155
100
AcDbArc
 50
82.589547494
 51
87.505151011
  0
ARC
  5
36F
100
AcDbEntity
  8
0
100
AcDbCircle
 62
7
  6
CONTINUOUS
 10
14.9376923427
 20
7.5900265834
 40
1.5506700155
100
AcDbArc
 50
75.2369677689
 51
76.6138583876
  0
ARC
  5
370
100
AcDbEntity
  8
0
100
AcDbCircle
 62
7
  6
CONTINUOUS
 10
14.9376923427
 20
7.5900265834
 40
1.5506700155
100
AcDbArc
 50
78.2452597908
 51
81.2354682492
  0
ARC
  5
371
100
AcDbEntity
  8
0
100
AcDbCircle
 62
7
  6
CONTINUOUS
 10
14.9376923427
 20
7.5900265834
 40
1.5506700155
100
AcDbArc
 50
103.0445666344
 51
104.7630312681
  0
ARC
  5
372
100
AcDbEntity
  8
0
100
AcDbCircle
 62
7
  6
CONTINUOUS
 10
14.9376923427
 20
7.5900265834
 40
1.5506700155
100
AcDbArc
 50
88.836024953
 51
90.1108469994
  0
ARC
  5
373
100
AcDbEntity
  8
0
100
AcDbCircle
 62
7
  6
CONTINUOUS
 10
14.9376923427
 20
7.5900265834
 40
1.5506700155
100
AcDbArc
 50
95.9223899948
 51
101.2405406729
  0
ARC
  5
374
100
AcDbEntity
  8
0
100
AcDbCircle
 62
7
  6
CONTINUOUS
 10
14.9376923427
 20
7.5900265834
 40
1.5496700155
100
AcDbArc
 50
94.5784174525
 51
95.2142832761
  0
ARC
  5
375
100
AcDbEntity
  8
0
100
AcDbCircle
 62
7
  6
CONTINUOUS
 10
14.9376923427
 20
7.5900265834
 40
1.5496700155
100
AcDbArc
 50
90.8291524331
 51
91.430999623
  0
ARC
  5
376
100
AcDbEntity
  8
0
100
AcDbCircle
 62
7
  6
CONTINUOUS
 10
14.9376923427
 20
7.5900265834
 40
1.5496700155
100
AcDbArc
 50
77.4924797184
 51
78.0591795779
  0
ARC
  5
377
100
AcDbEntity
  8
0
100
AcDbCircle
 62
7
  6
CONTINUOUS
 10
14.9376923427
 20
7.5900265834
 40
1.5496700155
100
AcDbArc
 50
101.4639028364
 51
102.1588703004
  0
ARC
  5
378
100
AcDbEntity
  8
0
100
AcDbCircle
 62
7
  6
CONTINUOUS
 10
14.9376923427
 20
7.5900265834
 40
1.549469747
100
AcDbArc
 50
79.9593632588
 51
81.0040654587
  0
ARC
  5
379
100
AcDbEntity
  8
0
100
AcDbCircle
 62
7
  6
CONTINUOUS
 10
14.9376923427
 20
7.5900265834
 40
1.5494208609
100
AcDbArc
 50
85.5024540677
 51
86.3921798126
  0
ARC
  5
37A
100
AcDbEntity
  8
0
100
AcDbCircle
 62
7
  6
CONTINUOUS
 10
14.9376923427
 20
7.5900265834
 40
1.5484689719
100
AcDbArc
 50
79.9528066769
 51
80.9982030894
  0
ARC
  5
37B
100
AcDbEntity
  8
0
100
AcDbCircle
 62
7
  6
CONTINUOUS
 10
14.9376923427
 20
7.5900265834
 40
1.5484200542
100
AcDbArc
 50
85.49954113
 51
86.3898448421
  0
ARC
  5
37C
100
AcDbEntity
  8
0
100
AcDbCircle
 62
7
  6
CONTINUOUS
 10
14.9376923427
 20
7.5900265834
 40
1.5483386247
100
AcDbArc
 50
84.0880697177
 51
89.6299506004
  0
ARC
  5
37D
100
AcDbEntity
  8
0
100
AcDbCircle
 62
7
  6
CONTINUOUS
 10
14.9376923427
 20
7.5900265834
 40
1.5483386247
100
AcDbArc
 50
79.7882367111
 51
82.9513441199
  0
ARC
  5
37E
100
AcDbEntity
  8
0
100
AcDbCircle
 62
7
  6
CONTINUOUS
 10
17.0264957217
 20
7.7037906475
 40
1.541
100
AcDbArc
 50
190.8813003471
 51
225.7236108955
  0
ARC
  5
37F
100
AcDbEntity
  8
0
100
AcDbCircle
 62
7
  6
CONTINUOUS
 10
14.9687779947
 20
7.9991763977
 40
1.1403421761
100
AcDbArc
 50
83.0535751546
 51
83.4864024216
  0
ARC
  5
380
100
AcDbEntity
  8
0
100
AcDbCircle
 62
7
  6
CONTINUOUS
 10
15.232908603
 20
8.1006945129
 40
0.1195709539
100
AcDbArc
 50
177.4828609908
 51
178.6615438547
  0
ARC
  5
381
100
AcDbEntity
  8
0
100
AcDbCircle
 62
7
  6
CONTINUOUS
 10
15.2328767019
 20
8.1006959708
 40
0.1195390195
100
AcDbArc
 50
176.6587073816
 51
177.4828876095
  0
ARC
  5
382
100
AcDbEntity
  8
0
100
AcDbCircle
 62
7
  6
CONTINUOUS
 10
15.2328363151
 20
8.1006961271
 40
0.119498648
100
AcDbArc
 50
178.6615080063
 51
183.9813049443
  0
ARC
  5
383
100
AcDbEntity
  8
0
100
AcDbCircle
 62
7
  6
CONTINUOUS
 10
15.232755805
 20
8.1007032349
 40
0.1194179047
100
AcDbArc
 50
175.4961953454
 51
176.658805937
  0
ARC
  5
384
100
AcDbEntity
  8
0
100
AcDbCircle
 62
7
  6
CONTINUOUS
 10
15.2326924231
 20
8.1006852589
 40
0.1193543487
100
AcDbArc
 50
183.9808962241
 51
184.5837785309
  0
ARC
  5
385
100
AcDbEntity
  8
0
100
AcDbCircle
 62
7
  6
CONTINUOUS
 10
15.2325338607
 20
8.1006724295
 40
0.1191952681
100
AcDbArc
 50
184.5837224988
 51
185.3746796385
  0
ARC
  5
386
100
AcDbEntity
  8
0
100
AcDbCircle
 62
7
  6
CONTINUOUS
 10
15.2315948501
 20
8.1008351894
 40
0.1182501799
100
AcDbArc
 50
163.8816018198
 51
175.5157620095
  0
ARC
  5
387
100
AcDbEntity
  8
0
100
AcDbCircle
 62
7
  6
CONTINUOUS
 10
15.2294956461
 20
8.1013793524
 40
0.1160824387
100
AcDbArc
 50
163.6075795809
 51
163.8519793452
  0
ARC
  5
388
100
AcDbEntity
  8
0
100
AcDbCircle
 62
7
  6
CONTINUOUS
 10
15.1024095399
 20
8.1006966202
 40
0.0877198425
100
AcDbArc
 50
358.2429578635
 51
1.4191037063
  0
ARC
  5
389
100
AcDbEntity
  8
0
100
AcDbCircle
 62
7
  6
CONTINUOUS
 10
15.1028859606
 20
8.1006812625
 40
0.0872431749
100
AcDbArc
 50
355.5278273498
 51
358.2434457073
  0
ARC
  5
38A
100
AcDbEntity
  8
0
100
AcDbCircle
 62
7
  6
CONTINUOUS
 10
15.1029260885
 20
8.1007139106
 40
0.0872030243
100
AcDbArc
 50
1.4161519597
 51
4.2182998512
  0
ARC
  5
38B
100
AcDbEntity
  8
0
100
AcDbCircle
 62
7
  6
CONTINUOUS
 10
15.104010573
 20
8.1005901753
 40
0.0861148842
100
AcDbArc
 50
351.0105310794
 51
355.5299020683
  0
ARC
  5
38C
100
AcDbEntity
  8
0
100
AcDbCircle
 62
7
  6
CONTINUOUS
 10
15.1042109199
 20
8.1008269472
 40
0.0859133607
100
AcDbArc
 50
4.2061472865
 51
8.5595876045
  0
ARC
  5
38D
100
AcDbEntity
  8
0
100
AcDbCircle
 62
7
  6
CONTINUOUS
 10
15.1057785325
 20
8.1010561835
 40
0.0843290901
100
AcDbArc
 50
8.5640971716
 51
9.5545579761
  0
ARC
  5
38E
100
AcDbEntity
  8
0
100
AcDbCircle
 62
7
  6
CONTINUOUS
 10
15.1057898357
 20
8.1003347751
 40
0.0843175729
100
AcDbArc
 50
350.7302933977
 51
350.9930321059
  0
ARC
  5
38F
100
AcDbEntity
  8
0
100
AcDbCircle
 62
7
  6
CONTINUOUS
 10
15.1474661588
 20
8.0735525067
 40
0.0379567081
100
AcDbArc
 50
264.4280455113
 51
265.8511421011
  0
ARC
  5
390
100
AcDbEntity
  8
0
100
AcDbCircle
 62
7
  6
CONTINUOUS
 10
15.1689167819
 20
8.144499998
 40
0.0378877647
100
AcDbArc
 50
86.7584321057
 51
96.6304815233
  0
ARC
  5
391
100
AcDbEntity
  8
0
100
AcDbCircle
 62
7
  6
CONTINUOUS
 10
15.1474490212
 20
8.0733117548
 40
0.0377153471
100
AcDbArc
 50
265.8506480807
 51
267.8775930411
  0
ARC
  5
392
100
AcDbEntity
  8
0
100
AcDbCircle
 62
7
  6
CONTINUOUS
 10
15.1474387895
 20
8.0730381714
 40
0.0374415726
100
AcDbArc
 50
267.8777348894
 51
269.9986360775
  0
ARC
  5
393
100
AcDbEntity
  8
0
100
AcDbCircle
 62
7
  6
CONTINUOUS
 10
15.1651298166
 20
8.1452829205
 40
0.0374359833
100
AcDbArc
 50
74.9577471565
 51
80.9304785935
  0
ARC
  5
394
100
AcDbEntity
  8
0
100
AcDbCircle
 62
7
  6
CONTINUOUS
 10
15.14327751
 20
8.1299372638
 40
0.0359630379
100
AcDbArc
 50
67.4632455473
 51
70.7922180076
  0
ARC
  5
395
100
AcDbEntity
  8
0
100
AcDbCircle
 62
7
  6
CONTINUOUS
 10
15.1436876234
 20
8.1311151032
 40
0.0347158416
100
AcDbArc
 50
70.7918547659
 51
77.1207620927
  0
ARC
  5
396
100
AcDbEntity
  8
0
100
AcDbCircle
 62
7
  6
CONTINUOUS
 10
15.1463117126
 20
8.0701086994
 40
0.0314121089
100
AcDbArc
 50
256.4018944877
 51
269.9582860914
  0
ARC
  5
397
100
AcDbEntity
  8
0
100
AcDbCircle
 62
7
  6
CONTINUOUS
 10
15.1462889224
 20
8.1317857833
 40
0.0309108156
100
AcDbArc
 50
90.0001468015
 51
90.95717499
  0
ARC
  5
398
100
AcDbEntity
  8
0
100
AcDbCircle
 62
7
  6
CONTINUOUS
 10
15.1589983797
 20
8.1356728231
 40
0.0301841018
100
AcDbArc
 50
104.5796380029
 51
111.5270093812
  0
ARC
  5
399
100
AcDbEntity
  8
0
100
AcDbCircle
 62
7
  6
CONTINUOUS
 10
15.1585671261
 20
8.1372937545
 40
0.0285068106
100
AcDbArc
 50
94.3193486822
 51
104.5608714323
  0
ARC
  5
39A
100
AcDbEntity
  8
0
100
AcDbCircle
 62
7
  6
CONTINUOUS
 10
15.1584884562
 20
8.1379789062
 40
0.0278176928
100
AcDbArc
 50
90.0041378779
 51
94.2640585692
  0
ARC
  5
39B
100
AcDbEntity
  8
0
100
AcDbCircle
 62
7
  6
CONTINUOUS
 10
15.1527455803
 20
8.4419888775
 40
0.6725228297
100
AcDbArc
 50
81.0733651849
 51
81.3947580836
  0
ARC
  5
39C
100
AcDbEntity
  8
0
100
AcDbCircle
 62
7
  6
CONTINUOUS
 10
15.0664553795
 20
8.716620372
 40
0.4157406394
100
AcDbArc
 50
85.7524073639
 51
86.2409717649
  0
ARC
  5
39D
100
AcDbEntity
  8
0
100
AcDbCircle
 62
7
  6
CONTINUOUS
 10
15.0664849772
 20
8.7177625901
 40
0.415602106
100
AcDbArc
 50
85.6321176027
 51
87.4662951876
  0
ARC
  5
39E
100
AcDbEntity
  8
0
100
AcDbCircle
 62
7
  6
CONTINUOUS
 10
15.0665043179
 20
8.7173747728
 40
0.4149846533
100
AcDbArc
 50
86.2408853711
 51
87.4651957744
  0
ARC
  5
39F
100
AcDbEntity
  8
0
100
AcDbCircle
 62
7
  6
CONTINUOUS
 10
15.1628472675
 20
9.463989372
 40
0.3380193841
100
AcDbArc
 50
264.030289764
 51
264.7280278044
  0
CIRCLE
  5
3A0
100
AcDbEntity
  8
0
100
AcDbCircle
 62
7
  6
CONTINUOUS
 10
14.9376923427
 20
8.6396965989
 40
0.275
  0
ARC
  5
3A1
100
AcDbEntity
  8
0
100
AcDbCircle
 62
7
  6
CONTINUOUS
 10
13.7551923427
 20
8.6396965989
 40
0.275
100
AcDbArc
 50
55.0
 51
305.0
  0
ARC
  5
3A2
100
AcDbEntity
  8
0
100
AcDbCircle
 62
7
  6
CONTINUOUS
 10
16.1201923427
 20
8.6396965989
 40
0.275
100
AcDbArc
 50
235.0
 51
125.0
  0
ARC
  5
3A3
100
AcDbEntity
  8
0
100
AcDbCircle
 62
7
  6
CONTINUOUS
 10
14.2278163838
 20
9.0011965989
 40
0.25
100
AcDbArc
 50
223.0260516848
 51
312.316709225
  0
ARC
  5
3A4
100
AcDbEntity
  8
0
100
AcDbCircle
 62
7
  6
CONTINUOUS
 10
14.2278163838
 20
8.2781965989
 40
0.25
100
AcDbArc
 50
47.6865981126
 51
136.9739483152
  0
ARC
  5
3A5
100
AcDbEntity
  8
0
100
AcDbCircle
 62
7
  6
CONTINUOUS
 10
15.6475683017
 20
9.0011965989
 40
0.25
100
AcDbArc
 50
227.6856520344
 51
316.9739483152
  0
ARC
  5
3A6
100
AcDbEntity
  8
0
100
AcDbCircle
 62
7
  6
CONTINUOUS
 10
15.6475683017
 20
8.2781965989
 40
0.25
100
AcDbArc
 50
43.0260516848
 51
132.3168916863
  0
ARC
  5
3A7
100
AcDbEntity
  8
0
100
AcDbCircle
 62
7
  6
CONTINUOUS
 10
15.107254175
 20
9.0819914783
 40
0.0491834672
100
AcDbArc
 50
100.5107895849
 51
101.8305445966
  0
ARC
  5
3A8
100
AcDbEntity
  8
0
100
AcDbCircle
 62
7
  6
CONTINUOUS
 10
15.1070985365
 20
9.082837515
 40
0.0483232265
100
AcDbArc
 50
98.0353845906
 51
100.3062299902
  0
ARC
  5
3A9
100
AcDbEntity
  8
0
100
AcDbCircle
 62
7
  6
CONTINUOUS
 10
15.1069604774
 20
9.0838068718
 40
0.0473440884
100
AcDbArc
 50
94.1700500485
 51
98.0339293868
  0
ARC
  5
3AA
100
AcDbEntity
  8
0
100
AcDbCircle
 62
7
  6
CONTINUOUS
 10
15.1069010555
 20
9.0845310496
 40
0.0466175073
100
AcDbArc
 50
90.2565216127
 51
94.1619325294
  0
ARC
  5
3AB
100
AcDbEntity
  8
0
100
AcDbCircle
 62
7
  6
CONTINUOUS
 10
14.5501923427
 20
9.0604962519
 40
0.03
100
AcDbArc
 50
104.7630312681
 51
169.9529713788
  0
ARC
  5
3AC
100
AcDbEntity
  8
0
100
AcDbCircle
 62
7
  6
CONTINUOUS
 10
15.3251923427
 20
9.0604962519
 40
0.03
100
AcDbArc
 50
10.0470286212
 51
75.2369687319
  0
ARC
  5
3AD
100
AcDbEntity
  8
0
100
AcDbCircle
 62
7
  6
CONTINUOUS
 10
14.0041923427
 20
8.8205903272
 40
0.016
100
AcDbArc
 50
235.0000000002
 51
360.0
  0
ARC
  5
3AE
100
AcDbEntity
  8
0
100
AcDbCircle
 62
7
  6
CONTINUOUS
 10
14.0041923427
 20
8.4588028706
 40
0.016
100
AcDbArc
 50
0.0
 51
124.9999999998
  0
ARC
  5
3AF
100
AcDbEntity
  8
0
100
AcDbCircle
 62
7
  6
CONTINUOUS
 10
14.0333588048
 20
8.4596965989
 40
0.016
100
AcDbArc
 50
214.6234510999
 51
316.9739483152
  0
ARC
  5
3B0
100
AcDbEntity
  8
0
100
AcDbCircle
 62
7
  6
CONTINUOUS
 10
14.0333588048
 20
8.8196965989
 40
0.016
100
AcDbArc
 50
43.0260516848
 51
145.3765489001
  0
ARC
  5
3B1
100
AcDbEntity
  8
0
100
AcDbCircle
 62
7
  6
CONTINUOUS
 10
15.8711923427
 20
8.8205903272
 40
0.016
100
AcDbArc
 50
180.0
 51
304.9999999998
  0
ARC
  5
3B2
100
AcDbEntity
  8
0
100
AcDbCircle
 62
7
  6
CONTINUOUS
 10
15.8711923427
 20
8.4588028706
 40
0.016
100
AcDbArc
 50
55.0000000002
 51
180.0
  0
ARC
  5
3B3
100
AcDbEntity
  8
0
100
AcDbCircle
 62
7
  6
CONTINUOUS
 10
15.8420258806
 20
8.4596965989
 40
0.016
100
AcDbArc
 50
223.0260516848
 51
325.3765489001
  0
ARC
  5
3B4
100
AcDbEntity
  8
0
100
AcDbCircle
 62
7
  6
CONTINUOUS
 10
15.8420258806
 20
8.8196965989
 40
0.016
100
AcDbArc
 50
34.6234510999
 51
136.9739483152
  0
ARC
  5
3B5
100
AcDbEntity
  8
0
100
AcDbCircle
 62
7
  6
CONTINUOUS
 10
25.9704717274
 20
10.1324948172
 40
14.363399054
100
AcDbArc
 50
180.0026906453
 51
180.3217185284
  0
ARC
  5
3B6
100
AcDbEntity
  8
0
100
AcDbCircle
 62
7
  6
CONTINUOUS
 10
19.6278290358
 20
9.823182482
 40
8.0195963792
100
AcDbArc
 50
198.9661948227
 51
200.5325389583
  0
ARC
  5
3B7
100
AcDbEntity
  8
0
100
AcDbCircle
 62
9
  6
CONTINUOUS
 10
10.9367270252
 20
12.6508255126
 40
3.2617981385
100
AcDbArc
 50
262.6616695828
 51
270.0169566461
  0
ARC
  5
3B8
100
AcDbEntity
  8
0
100
AcDbCircle
 62
9
  6
CONTINUOUS
 10
10.9373978469
 20
12.6458356902
 40
3.256808651
100
AcDbArc
 50
270.0051811091
 51
277.3439376459
  0
ARC
  5
3B9
100
AcDbEntity
  8
0
100
AcDbCircle
 62
9
  6
CONTINUOUS
 10
10.9377588727
 20
9.750708548
 40
2.1752566277
100
AcDbArc
 50
85.7447820428
 51
90.0022779343
  0
ARC
  5
3BA
100
AcDbEntity
  8
0
100
AcDbCircle
 62
9
  6
CONTINUOUS
 10
10.9377149473
 20
9.7522942811
 40
2.1736708908
100
AcDbArc
 50
90.0011217671
 51
94.2573040684
  0
ARC
  5
3BB
100
AcDbEntity
  8
0
100
AcDbCircle
 62
9
  6
CONTINUOUS
 10
10.9351915143
 20
9.7830991655
 40
2.1427636874
100
AcDbArc
 50
94.2511634067
 51
97.5494208527
  0
ARC
  5
3BC
100
AcDbEntity
  8
0
100
AcDbCircle
 62
9
  6
CONTINUOUS
 10
10.940423659
 20
9.7835693914
 40
2.1422886489
100
AcDbArc
 50
82.4561902542
 51
85.7506442434
  0
ARC
  5
3BD
100
AcDbEntity
  8
0
100
AcDbCircle
 62
7
  6
CONTINUOUS
 10
11.6847153256
 20
10.6895450003
 40
1.5928975653
100
AcDbArc
 50
140.7320911584
 51
145.773973493
  0
ARC
  5
3BE
100
AcDbEntity
  8
0
100
AcDbCircle
 62
7
  6
CONTINUOUS
 10
11.5122301762
 20
11.2440222795
 40
1.1556575628
100
AcDbArc
 50
176.1771861947
 51
178.0325896679
  0
ARC
  5
3BF
100
AcDbEntity
  8
0
100
AcDbCircle
 62
7
  6
CONTINUOUS
 10
10.3763147284
 20
11.24531585
 40
1.1424723382
100
AcDbArc
 50
1.9736673727
 51
3.8185422524
  0
ARC
  5
3C0
100
AcDbEntity
  8
0
100
AcDbCircle
 62
9
  6
CONTINUOUS
 10
10.814539081
 20
9.7816496268
 40
0.8654146391
100
AcDbArc
 50
95.6985472576
 51
95.8156783598
  0
ARC
  5
3C1
100
AcDbEntity
  8
0
100
AcDbCircle
 62
7
  6
CONTINUOUS
 10
10.6349016228
 20
11.5838482224
 40
0.7488906601
100
AcDbArc
 50
255.8978561097
 51
257.5337008262
  0
ARC
  5
3C2
100
AcDbEntity
  8
0
100
AcDbCircle
 62
7
  6
CONTINUOUS
 10
11.2477062282
 20
11.5534519984
 40
0.7176517542
100
AcDbArc
 50
282.4283834275
 51
284.1417300147
  0
ARC
  5
3C3
100
AcDbEntity
  8
0
100
AcDbCircle
 62
7
  6
CONTINUOUS
 10
10.9981489407
 20
10.747335401
 40
0.4020436811
100
AcDbArc
 50
335.3767823756
 51
359.9976709382
  0
ARC
  5
3C4
100
AcDbEntity
  8
0
100
AcDbCircle
 62
7
  6
CONTINUOUS
 10
10.8772266349
 20
10.7473335493
 40
0.4020343506
100
AcDbArc
 50
180.0020652303
 51
204.6235186644
  0
ARC
  5
3C5
100
AcDbEntity
  8
0
100
AcDbCircle
 62
7
  6
CONTINUOUS
 10
11.2749519318
 20
10.6888316279
 40
0.2806784607
100
AcDbArc
 50
70.0549201796
 51
71.1189860288
  0
ARC
  5
3C6
100
AcDbEntity
  8
0
100
AcDbCircle
 62
7
  6
CONTINUOUS
 10
11.3847451933
 20
10.9435071687
 40
0.024296618
100
AcDbArc
 50
321.2186827336
 51
323.389381213
  0
ARC
  5
3C7
100
AcDbEntity
  8
0
100
AcDbCircle
 62
7
  6
CONTINUOUS
 10
11.3863734284
 20
10.942291488
 40
0.022264623
100
AcDbArc
 50
323.4017305785
 51
326.0584430719
  0
ARC
  5
3C8
100
AcDbEntity
  8
0
100
AcDbCircle
 62
9
  6
CONTINUOUS
 10
143.9065851202
 20
6.8178725901
 40
132.8609529522
100
AcDbArc
 50
178.0077099965
 51
178.1895452063
  0
SPLINE
  5
3C9
100
AcDbEntity
  8
0
100
AcDbSpline
 62
7
  6
CONTINUOUS
 70
0
 71
3
 72
14
 73
10
 74
0
 42
0.0000001
 43
0.0000001
 44
0.0000000001
 40
0.0
 40
0.0
 40
0.0
 40
0.0
 40
0.1150620559
 40
0.2325311393
 40
0.3527233133
 40
0.4758656381
 40
0.7314216839
 40
0.8641555392
 40
1.0
 40
1.0
 40
1.0
 40
1.0
 10
14.7182937008
 20
8.1631416026
 30
0.0
 10
14.7172373759
 20
8.1627021308
 30
0.0
 10
14.7151432676
 20
8.1617129998
 30
0.0
 10
14.7121150472
 20
8.159935314
 30
0.0
 10
14.7091848979
 20
8.1578576171
 30
0.0
 10
14.7053826028
 20
8.1546649006
 30
0.0
 10
14.7018852376
 20
8.1509422523
 30
0.0
 10
14.6987300975
 20
8.1467912135
 30
0.0
 10
14.6972583587
 20
8.1445597939
 30
0.0
 10
14.6965508225
 20
8.1434091862
 30
0.0
  0
SPLINE
  5
3CA
100
AcDbEntity
  8
0
100
AcDbSpline
 62
7
  6
CONTINUOUS
 70
0
 71
3
 72
15
 73
11
 74
0
 42
0.0000001
 43
0.0000001
 44
0.0000000001
 40
0.0
 40
0.0
 40
0.0
 40
0.0
 40
0.1199877252
 40
0.2405658515
 40
0.3621478732
 40
0.4851903706
 40
0.610145498
 40
0.7374009548
 40
0.8672673527
 40
1.0
 40
1.0
 40
1.0
 40
1.0
 10
14.7290958423
 20
8.0386965989
 30
0.0
 10
14.7281348083
 20
8.0386965989
 30
0.0
 10
14.726206836
 20
8.038786717
 30
0.0
 10
14.7233304436
 20
8.0391898549
 30
0.0
 10
14.7204790439
 20
8.0398602309
 30
0.0
 10
14.7176661123
 20
8.0407943472
 30
0.0
 10
14.7149036815
 20
8.0419878984
 30
0.0
 10
14.712203522
 20
8.0434355254
 30
0.0
 10
14.7095772521
 20
8.045130353
 30
0.0
 10
14.7079021342
 20
8.0464061863
 30
0.0
 10
14.7070805563
 20
8.0470808865
 30
0.0
  0
SPLINE
  5
3CB
100
AcDbEntity
  8
0
100
AcDbSpline
 62
7
  6
CONTINUOUS
 70
0
 71
3
 72
31
 73
27
 74
0
 42
0.0000001
 43
0.0000001
 44
0.0000000001
 40
0.0
 40
0.0
 40
0.0
 40
0.0
 40
0.0266780019
 40
0.0538898816
 40
0.081646921
 40
0.1099527989
 40
0.138805325
 40
0.1681944685
 40
0.2284981384
 40
0.2906949255
 40
0.3224313801
 40
0.3545369972
 40
0.3869702272
 40
0.4196858666
 40
0.4857602775
 40
0.5523757398
 40
0.585763358
 40
0.6191295502
 40
0.6524218661
 40
0.6855885558
 40
0.751328471
 40
0.7838186845
 40
0.8159895725
 40
0.8477989354
 40
0.8792072543
 40
1.0
 40
1.0
 40
1.0
 40
1.0
 10
14.7070805563
 20
8.0470808865
 30
0.0
 10
14.70636367
 20
8.0476696113
 30
0.0
 10
14.7049532375
 20
8.0489054887
 30
0.0
 10
14.7029350137
 20
8.0509044556
 30
0.0
 10
14.7009994669
 20
8.053060294
 30
0.0
 10
14.6991526675
 20
8.0553660163
 30
0.0
 10
14.6974006727
 20
8.0578146762
 30
0.0
 10
14.6951791448
 20
8.0612887256
 30
0.0
 10
14.6926760922
 20
8.0659496906
 30
0.0
 10
14.6905903373
 20
8.0708990291
 30
0.0
 10
14.6891590531
 20
8.0750425292
 30
0.0
 10
14.688203952
 20
8.0782521859
 30
0.0
 10
14.6873779711
 20
8.0815325351
 30
0.0
 10
14.6864487386
 20
8.0860009244
 30
0.0
 10
14.6856263777
 20
8.0917001012
 30
0.0
 10
14.6852609977
 20
8.0974698425
 30
0.0
 10
14.6852436389
 20
8.1021083259
 30
0.0
 10
14.6853686199
 20
8.1055858107
 30
0.0
 10
14.6856316216
 20
8.1090479255
 30
0.0
 10
14.6861629491
 20
8.1136148197
 30
0.0
 10
14.6869652645
 20
8.1181189556
 30
0.0
 10
14.6880377568
 20
8.1225256707
 30
0.0
 10
14.6889686145
 20
8.1257494009
 30
0.0
 10
14.6900260787
 20
8.1288946739
 30
0.0
 10
14.6923309503
 20
8.1348627274
 30
0.0
 10
14.6947918708
 20
8.1396001402
 30
0.0
 10
14.6971125952
 20
8.1431009719
 30
0.0
  0
SPLINE
  5
3CC
100
AcDbEntity
  8
0
100
AcDbSpline
 62
7
  6
CONTINUOUS
 70
0
 71
3
 72
19
 73
15
 74
0
 42
0.0000001
 43
0.0000001
 44
0.0000000001
 40
0.0
 40
0.0
 40
0.0
 40
0.0
 40
0.1389062731
 40
0.2066797802
 40
0.2733195011
 40
0.4032047479
 40
0.5288327269
 40
0.6506174358
 40
0.7102758687
 40
0.7692126844
 40
0.8275368941
 40
0.8853659274
 40
0.9428184642
 40
1.0
 40
1.0
 40
1.0
 40
1.0
 10
14.6971125952
 20
8.1431009719
 30
0.0
 10
14.6980587709
 20
8.1445282857
 30
0.0
 10
14.6995606078
 20
8.1465924411
 30
0.0
 10
14.7017336552
 20
8.1491689467
 30
0.0
 10
14.7039542647
 20
8.1515548542
 30
0.0
 10
14.7068771406
 20
8.1542552764
 30
0.0
 10
14.7106223052
 20
8.1570293103
 30
0.0
 10
14.7139131459
 20
8.1589205053
 30
0.0
 10
14.7166095408
 20
8.1601537911
 30
0.0
 10
14.7186476396
 20
8.1609347764
 30
0.0
 10
14.7207102042
 20
8.1615762855
 30
0.0
 10
14.7227927449
 20
8.1620767064
 30
0.0
 10
14.7248901
 20
8.1624345058
 30
0.0
 10
14.7262972956
 20
8.1625779797
 30
0.0
 10
14.7270006219
 20
8.1626256213
 30
0.0
  0
SPLINE
  5
3CD
100
AcDbEntity
  8
0
100
AcDbSpline
 62
7
  6
CONTINUOUS
 70
0
 71
3
 72
12
 73
8
 74
0
 42
0.0000001
 43
0.0000001
 44
0.0000000001
 40
0.0
 40
0.0
 40
0.0
 40
0.0
 40
0.1301683358
 40
0.259098864
 40
0.5124674862
 40
0.7594745031
 40
1.0
 40
1.0
 40
1.0
 40
1.0
 10
14.6965508225
 20
8.1434091862
 30
0.0
 10
14.6971693309
 20
8.1444994359
 30
0.0
 10
14.698450567
 20
8.1466416851
 30
0.0
 10
14.7011794349
 20
8.150755008
 30
0.0
 10
14.7048873415
 20
8.1555616949
 30
0.0
 10
14.7097949306
 20
8.1607561246
 30
0.0
 10
14.7133662196
 20
8.1638200885
 30
0.0
 10
14.7152051774
 20
8.1652282412
 30
0.0
  0
SPLINE
  5
3CE
100
AcDbEntity
  8
0
100
AcDbSpline
 62
7
  6
CONTINUOUS
 70
0
 71
3
 72
11
 73
7
 74
0
 42
0.0000001
 43
0.0000001
 44
0.0000000001
 40
0.0
 40
0.0
 40
0.0
 40
0.0
 40
0.253084845
 40
0.5036003926
 40
0.7523317581
 40
1.0
 40
1.0
 40
1.0
 40
1.0
 10
14.7396246494
 20
8.0405111541
 30
0.0
 10
14.7387701006
 20
8.0402121678
 30
0.0
 10
14.7370448373
 20
8.039685446
 30
0.0
 10
14.7344114191
 20
8.0391157429
 30
0.0
 10
14.7317584618
 20
8.0387731397
 30
0.0
 10
14.7299818091
 20
8.0386965989
 30
0.0
 10
14.7290958423
 20
8.0386965989
 30
0.0
  0
SPLINE
  5
3CF
100
AcDbEntity
  8
0
100
AcDbSpline
 62
7
  6
CONTINUOUS
 70
0
 71
3
 72
14
 73
10
 74
0
 42
0.0000001
 43
0.0000001
 44
0.0000000001
 40
0.0
 40
0.0
 40
0.0
 40
0.0
 40
0.1150620559
 40
0.2325311393
 40
0.3527233133
 40
0.4758656381
 40
0.7314216839
 40
0.8641555392
 40
1.0
 40
1.0
 40
1.0
 40
1.0
 10
6.7182937008
 20
8.1631416026
 30
0.0
 10
6.7172373759
 20
8.1627021308
 30
0.0
 10
6.7151432676
 20
8.1617129998
 30
0.0
 10
6.7121150472
 20
8.159935314
 30
0.0
 10
6.7091848979
 20
8.1578576171
 30
0.0
 10
6.7053826028
 20
8.1546649006
 30
0.0
 10
6.7018852376
 20
8.1509422523
 30
0.0
 10
6.6987300975
 20
8.1467912135
 30
0.0
 10
6.6972583587
 20
8.1445597939
 30
0.0
 10
6.6965508225
 20
8.1434091862
 30
0.0
  0
SPLINE
  5
3D0
100
AcDbEntity
  8
0
100
AcDbSpline
 62
7
  6
CONTINUOUS
 70
0
 71
3
 72
15
 73
11
 74
0
 42
0.0000001
 43
0.0000001
 44
0.0000000001
 40
0.0
 40
0.0
 40
0.0
 40
0.0
 40
0.1199877252
 40
0.2405658515
 40
0.3621478732
 40
0.4851903706
 40
0.610145498
 40
0.7374009548
 40
0.8672673527
 40
1.0
 40
1.0
 40
1.0
 40
1.0
 10
6.7290958423
 20
8.0386965989
 30
0.0
 10
6.7281348083
 20
8.0386965989
 30
0.0
 10
6.726206836
 20
8.038786717
 30
0.0
 10
6.7233304436
 20
8.0391898549
 30
0.0
 10
6.7204790439
 20
8.0398602309
 30
0.0
 10
6.7176661123
 20
8.0407943472
 30
0.0
 10
6.7149036815
 20
8.0419878984
 30
0.0
 10
6.712203522
 20
8.0434355254
 30
0.0
 10
6.7095772521
 20
8.045130353
 30
0.0
 10
6.7079021342
 20
8.0464061863
 30
0.0
 10
6.7070805563
 20
8.0470808865
 30
0.0
  0
SPLINE
  5
3D1
100
AcDbEntity
  8
0
100
AcDbSpline
 62
7
  6
CONTINUOUS
 70
0
 71
3
 72
31
 73
27
 74
0
 42
0.0000001
 43
0.0000001
 44
0.0000000001
 40
0.0
 40
0.0
 40
0.0
 40
0.0
 40
0.0266780019
 40
0.0538898816
 40
0.081646921
 40
0.1099527989
 40
0.138805325
 40
0.1681944685
 40
0.2284981384
 40
0.2906949255
 40
0.3224313801
 40
0.3545369972
 40
0.3869702272
 40
0.4196858666
 40
0.4857602775
 40
0.5523757398
 40
0.585763358
 40
0.6191295502
 40
0.6524218661
 40
0.6855885558
 40
0.751328471
 40
0.7838186845
 40
0.8159895725
 40
0.8477989354
 40
0.8792072543
 40
1.0
 40
1.0
 40
1.0
 40
1.0
 10
6.7070805563
 20
8.0470808865
 30
0.0
 10
6.70636367
 20
8.0476696113
 30
0.0
 10
6.7049532375
 20
8.0489054887
 30
0.0
 10
6.7029350137
 20
8.0509044556
 30
0.0
 10
6.7009994669
 20
8.053060294
 30
0.0
 10
6.6991526675
 20
8.0553660163
 30
0.0
 10
6.6974006727
 20
8.0578146762
 30
0.0
 10
6.6951791448
 20
8.0612887256
 30
0.0
 10
6.6926760922
 20
8.0659496906
 30
0.0
 10
6.6905903373
 20
8.0708990291
 30
0.0
 10
6.6891590531
 20
8.0750425292
 30
0.0
 10
6.688203952
 20
8.0782521859
 30
0.0
 10
6.6873779711
 20
8.0815325351
 30
0.0
 10
6.6864487386
 20
8.0860009244
 30
0.0
 10
6.6856263777
 20
8.0917001012
 30
0.0
 10
6.6852609977
 20
8.0974698425
 30
0.0
 10
6.6852436389
 20
8.1021083259
 30
0.0
 10
6.6853686199
 20
8.1055858107
 30
0.0
 10
6.6856316216
 20
8.1090479255
 30
0.0
 10
6.6861629491
 20
8.1136148197
 30
0.0
 10
6.6869652645
 20
8.1181189556
 30
0.0
 10
6.6880377568
 20
8.1225256707
 30
0.0
 10
6.6889686145
 20
8.1257494009
 30
0.0
 10
6.6900260787
 20
8.1288946739
 30
0.0
 10
6.6923309503
 20
8.1348627274
 30
0.0
 10
6.6947918708
 20
8.1396001402
 30
0.0
 10
6.6971125952
 20
8.1431009719
 30
0.0
  0
SPLINE
  5
3D2
100
AcDbEntity
  8
0
100
AcDbSpline
 62
7
  6
CONTINUOUS
 70
0
 71
3
 72
19
 73
15
 74
0
 42
0.0000001
 43
0.0000001
 44
0.0000000001
 40
0.0
 40
0.0
 40
0.0
 40
0.0
 40
0.1389062731
 40
0.2066797802
 40
0.2733195011
 40
0.4032047479
 40
0.5288327269
 40
0.6506174358
 40
0.7102758687
 40
0.7692126844
 40
0.8275368941
 40
0.8853659274
 40
0.9428184642
 40
1.0
 40
1.0
 40
1.0
 40
1.0
 10
6.6971125952
 20
8.1431009719
 30
0.0
 10
6.6980587709
 20
8.1445282857
 30
0.0
 10
6.6995606078
 20
8.1465924411
 30
0.0
 10
6.7017336552
 20
8.1491689467
 30
0.0
 10
6.7039542647
 20
8.1515548542
 30
0.0
 10
6.7068771406
 20
8.1542552764
 30
0.0
 10
6.7106223052
 20
8.1570293103
 30
0.0
 10
6.7139131459
 20
8.1589205053
 30
0.0
 10
6.7166095408
 20
8.1601537911
 30
0.0
 10
6.7186476396
 20
8.1609347764
 30
0.0
 10
6.7207102042
 20
8.1615762855
 30
0.0
 10
6.7227927449
 20
8.1620767064
 30
0.0
 10
6.7248901
 20
8.1624345058
 30
0.0
 10
6.7262972956
 20
8.1625779797
 30
0.0
 10
6.7270006219
 20
8.1626256213
 30
0.0
  0
SPLINE
  5
3D3
100
AcDbEntity
  8
0
100
AcDbSpline
 62
7
  6
CONTINUOUS
 70
0
 71
3
 72
12
 73
8
 74
0
 42
0.0000001
 43
0.0000001
 44
0.0000000001
 40
0.0
 40
0.0
 40
0.0
 40
0.0
 40
0.1301683358
 40
0.259098864
 40
0.5124674862
 40
0.7594745031
 40
1.0
 40
1.0
 40
1.0
 40
1.0
 10
6.6965508225
 20
8.1434091862
 30
0.0
 10
6.6971693309
 20
8.1444994359
 30
0.0
 10
6.698450567
 20
8.1466416851
 30
0.0
 10
6.7011794349
 20
8.150755008
 30
0.0
 10
6.7048873415
 20
8.1555616949
 30
0.0
 10
6.7097949306
 20
8.1607561246
 30
0.0
 10
6.7133662196
 20
8.1638200885
 30
0.0
 10
6.7152051774
 20
8.1652282412
 30
0.0
  0
SPLINE
  5
3D4
100
AcDbEntity
  8
0
100
AcDbSpline
 62
7
  6
CONTINUOUS
 70
0
 71
3
 72
11
 73
7
 74
0
 42
0.0000001
 43
0.0000001
 44
0.0000000001
 40
0.0
 40
0.0
 40
0.0
 40
0.0
 40
0.253084845
 40
0.5036003926
 40
0.7523317581
 40
1.0
 40
1.0
 40
1.0
 40
1.0
 10
6.7396246494
 20
8.0405111541
 30
0.0
 10
6.7387701006
 20
8.0402121678
 30
0.0
 10
6.7370448373
 20
8.039685446
 30
0.0
 10
6.7344114191
 20
8.0391157429
 30
0.0
 10
6.7317584618
 20
8.0387731397
 30
0.0
 10
6.7299818091
 20
8.0386965989
 30
0.0
 10
6.7290958423
 20
8.0386965989
 30
0.0
  0
SPLINE
  5
3D5
100
AcDbEntity
  8
0
100
AcDbSpline
 62
7
  6
CONTINUOUS
 70
0
 71
3
 72
11
 73
7
 74
0
 42
0.0000001
 43
0.0000001
 44
0.0000000001
 40
0.0
 40
0.0
 40
0.0
 40
0.0
 40
0.2639178691
 40
0.5180450849
 40
0.7630030472
 40
1.0
 40
1.0
 40
1.0
 40
1.0
 10
7.1742887749
 20
8.1498336798
 30
0.0
 10
7.1730681095
 20
8.1513339521
 30
0.0
 10
7.1705153387
 20
8.1541562042
 30
0.0
 10
7.166305628
 20
8.157856124
 30
0.0
 10
7.1618345761
 20
8.16089926
 30
0.0
 10
7.1586655254
 20
8.1624883669
 30
0.0
 10
7.1570612796
 20
8.1631539431
 30
0.0
  0
SPLINE
  5
3D6
100
AcDbEntity
  8
0
100
AcDbSpline
 62
7
  6
CONTINUOUS
 70
0
 71
3
 72
26
 73
22
 74
0
 42
0.0000001
 43
0.0000001
 44
0.0000000001
 40
0.0
 40
0.0
 40
0.0
 40
0.0
 40
0.0270635144
 40
0.0547295194
 40
0.1117637289
 40
0.1709689232
 40
0.2013359802
 40
0.2321645945
 40
0.2634187617
 40
0.2950598116
 40
0.3593243492
 40
0.424621795
 40
0.4905828704
 40
0.5568307878
 40
0.6229896666
 40
0.6886988484
 40
0.7536208885
 40
0.8174490265
 40
0.8799193781
 40
0.9408204111
 40
1.0
 40
1.0
 40
1.0
 40
1.0
 10
7.1742887749
 20
8.1498336798
 30
0.0
 10
7.1749223018
 20
8.1490821326
 30
0.0
 10
7.17615939
 20
8.1475245836
 30
0.0
 10
7.1785066167
 20
8.1442107984
 30
0.0
 10
7.1811829627
 20
8.1397099701
 30
0.0
 10
7.1834511172
 20
8.1348835734
 30
0.0
 10
7.1850411635
 20
8.130808712
 30
0.0
 10
7.1861238278
 20
8.1276291149
 30
0.0
 10
7.1870827487
 20
8.1243618589
 30
0.0
 10
7.1881987186
 20
8.1198791516
 30
0.0
 10
7.1892645227
 20
8.1141151932
 30
0.0
 10
7.1900086094
 20
8.1070460798
 30
0.0
 10
7.1902159178
 20
8.0998688046
 30
0.0
 10
7.1898838627
 20
8.0926650562
 30
0.0
 10
7.1890161383
 20
8.0855152234
 30
0.0
 10
7.187622161
 20
8.0784980728
 30
0.0
 10
7.1857168894
 20
8.0716897522
 30
0.0
 10
7.1833204656
 20
8.0651632352
 30
0.0
 10
7.1804580408
 20
8.0589871215
 30
0.0
 10
7.1771597662
 20
8.0532261353
 30
0.0
 10
7.1746542751
 20
8.0496470654
 30
0.0
 10
7.1733371675
 20
8.0479484968
 30
0.0
  0
SPLINE
  5
3D7
100
AcDbEntity
  8
0
100
AcDbSpline
 62
7
  6
CONTINUOUS
 70
0
 71
3
 72
24
 73
20
 74
0
 42
0.0000001
 43
0.0000001
 44
0.0000000001
 40
0.0
 40
0.0
 40
0.0
 40
0.0
 40
0.0528887707
 40
0.1061704708
 40
0.1601514114
 40
0.1875173101
 40
0.2151773419
 40
0.271485154
 40
0.3293084301
 40
0.3888062321
 40
0.4500826326
 40
0.5131826991
 40
0.5781009455
 40
0.6447815065
 40
0.7131280023
 40
0.7830041097
 40
0.8542423477
 40
0.9266470073
 40
1.0
 40
1.0
 40
1.0
 40
1.0
 10
7.1462888432
 20
8.1626965989
 30
0.0
 10
7.1475105017
 20
8.1626965989
 30
0.0
 10
7.1499653363
 20
8.1625506695
 30
0.0
 10
7.1536146256
 20
8.161898572
 30
0.0
 10
7.1565994556
 20
8.1610003423
 30
0.0
 10
7.1589429329
 20
8.1600766378
 30
0.0
 10
7.1612814278
 20
8.1590039303
 30
0.0
 10
7.1641446339
 20
8.1574003541
 30
0.0
 10
7.1674321554
 20
8.1550921305
 30
0.0
 10
7.1705704067
 20
8.1524051748
 30
0.0
 10
7.1735373321
 20
8.1493584132
 30
0.0
 10
7.1763133136
 20
8.1459737411
 30
0.0
 10
7.1788788124
 20
8.1422744115
 30
0.0
 10
7.1812168867
 20
8.1382865942
 30
0.0
 10
7.1833111064
 20
8.134037753
 30
0.0
 10
7.1851474084
 20
8.129557551
 30
0.0
 10
7.1867131186
 20
8.1248769735
 30
0.0
 10
7.1879973055
 20
8.1200287028
 30
0.0
 10
7.1886565597
 20
8.1167245384
 30
0.0
 10
7.1889378089
 20
8.1150536898
 30
0.0
  0
SPLINE
  5
3D8
100
AcDbEntity
  8
0
100
AcDbSpline
 62
7
  6
CONTINUOUS
 70
0
 71
3
 72
25
 73
21
 74
0
 42
0.0000001
 43
0.0000001
 44
0.0000000001
 40
0.0
 40
0.0
 40
0.0
 40
0.0
 40
0.0733498266
 40
0.1457650709
 40
0.2170239282
 40
0.2869272871
 40
0.3553039639
 40
0.4220144458
 40
0.4869592086
 40
0.5187558079
 40
0.5500934252
 40
0.6113821344
 40
0.6708823152
 40
0.728697086
 40
0.7849853129
 40
0.8126316782
 40
0.8399814385
 40
0.8939234712
 40
0.9471598936
 40
1.0
 40
1.0
 40
1.0
 40
1.0
 10
7.1890063073
 20
8.0867527294
 30
0.0
 10
7.1887317353
 20
8.0850704504
 30
0.0
 10
7.1880845881
 20
8.0817429172
 30
0.0
 10
7.1868152648
 20
8.0768586616
 30
0.0
 10
7.1852607645
 20
8.0721414223
 30
0.0
 10
7.1834321854
 20
8.0676244524
 30
0.0
 10
7.1813421284
 20
8.0633393068
 30
0.0
 10
7.1790049991
 20
8.0593163268
 30
0.0
 10
7.1768498638
 20
8.0561833415
 30
0.0
 10
7.1750161734
 20
8.0538379522
 30
0.0
 10
7.1731417438
 20
8.0516355219
 30
0.0
 10
7.1706805784
 20
8.0490909292
 30
0.0
 10
7.1675316927
 20
8.0463778507
 30
0.0
 10
7.1642312111
 20
8.0440467067
 30
0.0
 10
7.1613553765
 20
8.042426934
 30
0.0
 10
7.1590060044
 20
8.0413433217
 30
0.0
 10
7.1566515289
 20
8.0404102757
 30
0.0
 10
7.1536521254
 20
8.0395028671
 30
0.0
 10
7.1499843035
 20
8.0388440394
 30
0.0
 10
7.1475167671
 20
8.0386965989
 30
0.0
 10
7.1462888432
 20
8.0386965989
 30
0.0
  0
SPLINE
  5
3D9
100
AcDbEntity
  8
0
100
AcDbSpline
 62
7
  6
CONTINUOUS
 70
0
 71
3
 72
11
 73
7
 74
0
 42
0.0000001
 43
0.0000001
 44
0.0000000001
 40
0.0
 40
0.0
 40
0.0
 40
0.0
 40
0.2639178691
 40
0.5180450849
 40
0.7630030472
 40
1.0
 40
1.0
 40
1.0
 40
1.0
 10
15.1742887749
 20
8.1498336798
 30
0.0
 10
15.1730681095
 20
8.1513339521
 30
0.0
 10
15.1705153387
 20
8.1541562042
 30
0.0
 10
15.166305628
 20
8.157856124
 30
0.0
 10
15.1618345761
 20
8.16089926
 30
0.0
 10
15.1586655254
 20
8.1624883669
 30
0.0
 10
15.1570612796
 20
8.1631539431
 30
0.0
  0
SPLINE
  5
3DA
100
AcDbEntity
  8
0
100
AcDbSpline
 62
7
  6
CONTINUOUS
 70
0
 71
3
 72
26
 73
22
 74
0
 42
0.0000001
 43
0.0000001
 44
0.0000000001
 40
0.0
 40
0.0
 40
0.0
 40
0.0
 40
0.0270635144
 40
0.0547295194
 40
0.1117637289
 40
0.1709689232
 40
0.2013359802
 40
0.2321645945
 40
0.2634187617
 40
0.2950598116
 40
0.3593243492
 40
0.424621795
 40
0.4905828704
 40
0.5568307878
 40
0.6229896666
 40
0.6886988484
 40
0.7536208885
 40
0.8174490265
 40
0.8799193781
 40
0.9408204111
 40
1.0
 40
1.0
 40
1.0
 40
1.0
 10
15.1742887749
 20
8.1498336798
 30
0.0
 10
15.1749223018
 20
8.1490821326
 30
0.0
 10
15.17615939
 20
8.1475245836
 30
0.0
 10
15.1785066167
 20
8.1442107984
 30
0.0
 10
15.1811829627
 20
8.1397099701
 30
0.0
 10
15.1834511172
 20
8.1348835734
 30
0.0
 10
15.1850411635
 20
8.130808712
 30
0.0
 10
15.1861238278
 20
8.1276291149
 30
0.0
 10
15.1870827487
 20
8.1243618589
 30
0.0
 10
15.1881987186
 20
8.1198791516
 30
0.0
 10
15.1892645227
 20
8.1141151932
 30
0.0
 10
15.1900086094
 20
8.1070460798
 30
0.0
 10
15.1902159178
 20
8.0998688046
 30
0.0
 10
15.1898838627
 20
8.0926650562
 30
0.0
 10
15.1890161383
 20
8.0855152234
 30
0.0
 10
15.187622161
 20
8.0784980728
 30
0.0
 10
15.1857168894
 20
8.0716897522
 30
0.0
 10
15.1833204656
 20
8.0651632352
 30
0.0
 10
15.1804580408
 20
8.0589871215
 30
0.0
 10
15.1771597662
 20
8.0532261353
 30
0.0
 10
15.1746542751
 20
8.0496470654
 30
0.0
 10
15.1733371675
 20
8.0479484968
 30
0.0
  0
SPLINE
  5
3DB
100
AcDbEntity
  8
0
100
AcDbSpline
 62
7
  6
CONTINUOUS
 70
0
 71
3
 72
24
 73
20
 74
0
 42
0.0000001
 43
0.0000001
 44
0.0000000001
 40
0.0
 40
0.0
 40
0.0
 40
0.0
 40
0.0528887707
 40
0.1061704708
 40
0.1601514114
 40
0.1875173101
 40
0.2151773419
 40
0.271485154
 40
0.3293084301
 40
0.3888062321
 40
0.4500826326
 40
0.5131826991
 40
0.5781009455
 40
0.6447815065
 40
0.7131280023
 40
0.7830041097
 40
0.8542423477
 40
0.9266470073
 40
1.0
 40
1.0
 40
1.0
 40
1.0
 10
15.1462888432
 20
8.1626965989
 30
0.0
 10
15.1475105017
 20
8.1626965989
 30
0.0
 10
15.1499653363
 20
8.1625506695
 30
0.0
 10
15.1536146256
 20
8.161898572
 30
0.0
 10
15.1565994556
 20
8.1610003423
 30
0.0
 10
15.1589429329
 20
8.1600766378
 30
0.0
 10
15.1612814278
 20
8.1590039303
 30
0.0
 10
15.1641446339
 20
8.1574003541
 30
0.0
 10
15.1674321554
 20
8.1550921305
 30
0.0
 10
15.1705704067
 20
8.1524051748
 30
0.0
 10
15.1735373321
 20
8.1493584132
 30
0.0
 10
15.1763133136
 20
8.1459737411
 30
0.0
 10
15.1788788124
 20
8.1422744115
 30
0.0
 10
15.1812168867
 20
8.1382865942
 30
0.0
 10
15.1833111064
 20
8.134037753
 30
0.0
 10
15.1851474084
 20
8.129557551
 30
0.0
 10
15.1867131186
 20
8.1248769735
 30
0.0
 10
15.1879973055
 20
8.1200287028
 30
0.0
 10
15.1886565597
 20
8.1167245384
 30
0.0
 10
15.1889378089
 20
8.1150536898
 30
0.0
  0
SPLINE
  5
3DC
100
AcDbEntity
  8
0
100
AcDbSpline
 62
7
  6
CONTINUOUS
 70
0
 71
3
 72
25
 73
21
 74
0
 42
0.0000001
 43
0.0000001
 44
0.0000000001
 40
0.0
 40
0.0
 40
0.0
 40
0.0
 40
0.0733498266
 40
0.1457650709
 40
0.2170239282
 40
0.2869272871
 40
0.3553039639
 40
0.4220144458
 40
0.4869592086
 40
0.5187558079
 40
0.5500934252
 40
0.6113821344
 40
0.6708823152
 40
0.728697086
 40
0.7849853129
 40
0.8126316782
 40
0.8399814385
 40
0.8939234712
 40
0.9471598936
 40
1.0
 40
1.0
 40
1.0
 40
1.0
 10
15.1890063073
 20
8.0867527294
 30
0.0
 10
15.1887317353
 20
8.0850704504
 30
0.0
 10
15.1880845881
 20
8.0817429172
 30
0.0
 10
15.1868152648
 20
8.0768586616
 30
0.0
 10
15.1852607645
 20
8.0721414223
 30
0.0
 10
15.1834321854
 20
8.0676244524
 30
0.0
 10
15.1813421284
 20
8.0633393068
 30
0.0
 10
15.1790049991
 20
8.0593163268
 30
0.0
 10
15.1768498638
 20
8.0561833415
 30
0.0
 10
15.1750161734
 20
8.0538379522
 30
0.0
 10
15.1731417438
 20
8.0516355219
 30
0.0
 10
15.1706805784
 20
8.0490909292
 30
0.0
 10
15.1675316927
 20
8.0463778507
 30
0.0
 10
15.1642312111
 20
8.0440467067
 30
0.0
 10
15.1613553765
 20
8.042426934
 30
0.0
 10
15.1590060044
 20
8.0413433217
 30
0.0
 10
15.1566515289
 20
8.0404102757
 30
0.0
 10
15.1536521254
 20
8.0395028671
 30
0.0
 10
15.1499843035
 20
8.0388440394
 30
0.0
 10
15.1475167671
 20
8.0386965989
 30
0.0
 10
15.1462888432
 20
8.0386965989
 30
0.0
  0
LINE
  5
3DD
100
AcDbEntity
  8
0
100
AcDbLine
 62
7
  6
CONTINUOUS
 10
6.7291923427
 20
9.1265829092
 11
6.7296443958
 21
9.126657365
  0
LINE
  5
3DE
100
AcDbEntity
  8
0
100
AcDbLine
 62
7
  6
CONTINUOUS
 10
6.7296443958
 20
9.126657365
 11
6.7351923427
 21
9.127412461
  0
LINE
  5
3DF
100
AcDbEntity
  8
0
100
AcDbLine
 62
7
  6
CONTINUOUS
 10
6.7731923427
 20
9.1319414014
 11
6.7791614965
 21
9.1325431159
  0
SPLINE
  5
3E0
100
AcDbEntity
  8
0
100
AcDbSpline
 62
7
  6
CONTINUOUS
 70
0
 71
3
 72
9
 73
5
 74
0
 42
0.0000001
 43
0.0000001
 44
0.0000000001
 40
0.0
 40
0.0
 40
0.0
 40
0.0
 40
0.3499335396
 40
1.0
 40
1.0
 40
1.0
 40
1.0
 10
6.7791614965
 20
9.1325431159
 30
0.0
 10
6.7791647614
 20
9.1325432563
 30
0.0
 10
6.7791740847
 20
9.1325435458
 30
0.0
 10
6.7791834669
 20
9.1325439898
 30
0.0
 10
6.7791895059
 20
9.1325433685
 30
0.0
  0
LINE
  5
3E1
100
AcDbEntity
  8
0
100
AcDbLine
 62
7
  6
CONTINUOUS
 10
6.8576923427
 20
9.1386316043
 11
6.8580402483
 21
9.138623352
  0
LINE
  5
3E2
100
AcDbEntity
  8
0
100
AcDbLine
 62
7
  6
CONTINUOUS
 10
6.8580402483
 20
9.138623352
 11
6.859570917
 21
9.1385906251
  0
LINE
  5
3E3
100
AcDbEntity
  8
0
100
AcDbLine
 62
7
  6
CONTINUOUS
 10
6.859570917
 20
9.1385906251
 11
6.8930015386
 21
9.1383620306
  0
LINE
  5
3E4
100
AcDbEntity
  8
0
100
AcDbLine
 62
7
  6
CONTINUOUS
 10
6.8930015386
 20
9.1383620306
 11
6.893966978
 21
9.1383619535
  0
LINE
  5
3E5
100
AcDbEntity
  8
0
100
AcDbLine
 62
7
  6
CONTINUOUS
 10
6.893966978
 20
9.1383619535
 11
6.978997027
 21
9.1384578144
  0
LINE
  5
3E6
100
AcDbEntity
  8
0
100
AcDbLine
 62
7
  6
CONTINUOUS
 10
6.978997027
 20
9.1384578144
 11
7.0128299702
 21
9.1387435131
  0
LINE
  5
3E7
100
AcDbEntity
  8
0
100
AcDbLine
 62
7
  6
CONTINUOUS
 10
7.0128299702
 20
9.1387435131
 11
7.0146923428
 21
9.1387836689
  0
SPLINE
  5
3E8
100
AcDbEntity
  8
0
100
AcDbSpline
 62
7
  6
CONTINUOUS
 70
0
 71
3
 72
26
 73
22
 74
0
 42
0.0000001
 43
0.0000001
 44
0.0000000001
 40
0.0
 40
0.0
 40
0.0
 40
0.0
 40
0.0015740036
 40
0.0030108832
 40
0.0049468391
 40
0.0073970725
 40
0.0103683995
 40
0.0178855104
 40
0.0275098021
 40
0.0392419514
 40
0.0690050914
 40
0.1070492118
 40
0.1532035359
 40
0.2072888314
 40
0.2690585161
 40
0.3382152712
 40
0.4144592132
 40
0.4974620355
 40
0.5868595955
 40
0.7833154866
 40
1.0
 40
1.0
 40
1.0
 40
1.0
 10
7.0941923427
 20
9.1324961686
 30
0.0
 10
7.0941923427
 20
9.1324864412
 30
0.0
 10
7.094172399
 20
9.1324734233
 30
0.0
 10
7.0941451323
 20
9.132464227
 30
0.0
 10
7.0941094906
 20
9.1324555006
 30
0.0
 10
7.0940648801
 20
9.132447962
 30
0.0
 10
7.0939854317
 20
9.1324378225
 30
0.0
 10
7.0938615348
 20
9.132428076
 30
0.0
 10
7.0936832421
 20
9.1324198319
 30
0.0
 10
7.0933673988
 20
9.1324123914
 30
0.0
 10
7.0928757769
 20
9.1324127403
 30
0.0
 10
7.092171583
 20
9.1324250164
 30
0.0
 10
7.0913173182
 20
9.1324497221
 30
0.0
 10
7.0903167684
 20
9.1324868174
 30
0.0
 10
7.0891744428
 20
9.1325362267
 30
0.0
 10
7.0878955873
 20
9.1325977328
 30
0.0
 10
7.0864859405
 20
9.1326711115
 30
0.0
 10
7.0849516462
 20
9.1327560673
 30
0.0
 10
7.0826759345
 20
9.1328885437
 30
0.0
 10
7.0795761584
 20
9.1330808676
 30
0.0
 10
7.0770284364
 20
9.1332487413
 30
0.0
 10
7.0756923427
 20
9.1333388369
 30
0.0
  0
LINE
  5
3E9
100
AcDbEntity
  8
0
100
AcDbLine
 62
7
  6
CONTINUOUS
 10
6.9789923427
 20
9.1401465177
 11
6.9781323774
 21
9.1400894513
  0
SPLINE
  5
3EA
100
AcDbEntity
  8
0
100
AcDbSpline
 62
7
  6
CONTINUOUS
 70
0
 71
3
 72
23
 73
19
 74
0
 42
0.0000001
 43
0.0000001
 44
0.0000000001
 40
0.0
 40
0.0
 40
0.0
 40
0.0
 40
0.0185760567
 40
0.0505350398
 40
0.0991238469
 40
0.1657673466
 40
0.2480341062
 40
0.3421558679
 40
0.44476348
 40
0.5509906142
 40
0.6540974509
 40
0.749038997
 40
0.8321332627
 40
0.8989620823
 40
0.9464270484
 40
0.9763577125
 40
0.9928428154
 40
1.0
 40
1.0
 40
1.0
 40
1.0
 10
6.9781323774
 20
9.1400894513
 30
0.0
 10
6.9776128087
 20
9.140060249
 30
0.0
 10
6.976198547
 20
9.1399954347
 30
0.0
 10
6.973423217
 20
9.1399022089
 30
0.0
 10
6.9693008945
 20
9.139804961
 30
0.0
 10
6.9637688423
 20
9.1397165511
 30
0.0
 10
6.9569610057
 20
9.1396373069
 30
0.0
 10
6.9491455173
 20
9.1395683812
 30
0.0
 10
6.9406586294
 20
9.1395196219
 30
0.0
 10
6.9319198871
 20
9.1395083222
 30
0.0
 10
6.9233959527
 20
9.139535684
 30
0.0
 10
6.9155201801
 20
9.1395851273
 30
0.0
 10
6.9086608428
 20
9.1396484525
 30
0.0
 10
6.9031317045
 20
9.1397256855
 30
0.0
 10
6.8990924544
 20
9.1398197856
 30
0.0
 10
6.8964640364
 20
9.1399145791
 30
0.0
 10
6.8949654364
 20
9.1399959952
 30
0.0
 10
6.8943048839
 20
9.1400463747
 30
0.0
 10
6.8941054871
 20
9.1400673877
 30
0.0
  0
LINE
  5
3EB
100
AcDbEntity
  8
0
100
AcDbLine
 62
7
  6
CONTINUOUS
 10
6.8941054871
 20
9.1400673877
 11
6.8939923427
 21
9.1400807151
  0
SPLINE
  5
3EC
100
AcDbEntity
  8
0
100
AcDbSpline
 62
7
  6
CONTINUOUS
 70
0
 71
3
 72
26
 73
22
 74
0
 42
0.0000001
 43
0.0000001
 44
0.0000000001
 40
0.0
 40
0.0
 40
0.0
 40
0.0
 40
0.0007975694
 40
0.0019846981
 40
0.0058548926
 40
0.0118629625
 40
0.020044787
 40
0.0304047461
 40
0.0429375807
 40
0.057632734
 40
0.0744645819
 40
0.114401598
 40
0.1624707332
 40
0.21838002
 40
0.2817448077
 40
0.3521266516
 40
0.4290839843
 40
0.5121425976
 40
0.6008002099
 40
0.7928128341
 40
1.0
 40
1.0
 40
1.0
 40
1.0
 10
6.6891923427
 20
9.1201788617
 30
0.0
 10
6.6891923427
 20
9.1201743713
 30
0.0
 10
6.6891871319
 20
9.1201635806
 30
0.0
 10
6.6891625731
 20
9.1201415219
 30
0.0
 10
6.6891070352
 20
9.1201118303
 30
0.0
 10
6.6890133694
 20
9.1200727702
 30
0.0
 10
6.6888828149
 20
9.1200269012
 30
0.0
 10
6.6887159597
 20
9.1199743813
 30
0.0
 10
6.6885126776
 20
9.1199154483
 30
0.0
 10
6.6882733378
 20
9.1198502461
 30
0.0
 10
6.6878838624
 20
9.1197492492
 30
0.0
 10
6.6873103888
 20
9.119609436
 30
0.0
 10
6.6865209519
 20
9.1194269009
 30
0.0
 10
6.6856011813
 20
9.1192227072
 30
0.0
 10
6.6845572753
 20
9.1189981665
 30
0.0
 10
6.6833962302
 20
9.1187547713
 30
0.0
 10
6.6821255342
 20
9.1184940913
 30
0.0
 10
6.6807530261
 20
9.1182177425
 30
0.0
 10
6.6787442141
 20
9.1178199354
 30
0.0
 10
6.6760475396
 20
9.1172981812
 30
0.0
 10
6.673839002
 20
9.1168813421
 30
0.0
 10
6.6726923427
 20
9.1166672285
 30
0.0
  0
SPLINE
  5
3ED
100
AcDbEntity
  8
0
100
AcDbSpline
 62
7
  6
CONTINUOUS
 70
0
 71
3
 72
26
 73
22
 74
0
 42
0.0000001
 43
0.0000001
 44
0.0000000001
 40
0.0
 40
0.0
 40
0.0
 40
0.0
 40
0.2095880311
 40
0.4032317133
 40
0.4923875571
 40
0.5757314791
 40
0.6527589928
 40
0.7230117929
 40
0.7860687117
 40
0.8415119893
 40
0.8889932605
 40
0.9282568504
 40
0.959058374
 40
0.9712222385
 40
0.9812154215
 40
0.9890372751
 40
0.9921371227
 40
0.9947005372
 40
0.9967355649
 40
0.9982601074
 40
1.0
 40
1.0
 40
1.0
 40
1.0
 10
6.8356923427
 20
9.136135465
 30
0.0
 10
6.8345391882
 20
9.1360743562
 30
0.0
 10
6.8323203624
 20
9.135961304
 30
0.0
 10
6.8296103172
 20
9.1358361247
 30
0.0
 10
6.8275947108
 20
9.1357521939
 30
0.0
 10
6.8262208883
 20
9.1356995746
 30
0.0
 10
6.8249509612
 20
9.1356558355
 30
0.0
 10
6.8237925734
 20
9.1356212143
 30
0.0
 10
6.8227528982
 20
9.1355958608
 30
0.0
 10
6.8218385168
 20
9.1355799295
 30
0.0
 10
6.8210551069
 20
9.1355734375
 30
0.0
 10
6.8204074531
 20
9.1355763507
 30
0.0
 10
6.8199544479
 20
9.1355867907
 30
0.0
 10
6.8196630092
 20
9.1356013348
 30
0.0
 10
6.8194982592
 20
9.1356136724
 30
0.0
 10
6.8193837174
 20
9.1356263441
 30
0.0
 10
6.8193102969
 20
9.1356383982
 30
0.0
 10
6.819268948
 20
9.1356470732
 30
0.0
 10
6.8192360324
 20
9.1356566989
 30
0.0
 10
6.8192101787
 20
9.1356668907
 30
0.0
 10
6.8191923427
 20
9.1356805426
 30
0.0
 10
6.8191923427
 20
9.1356901289
 30
0.0
  0
SPLINE
  5
3EE
100
AcDbEntity
  8
0
100
AcDbSpline
 62
7
  6
CONTINUOUS
 70
0
 71
3
 72
26
 73
22
 74
0
 42
0.0000001
 43
0.0000001
 44
0.0000000001
 40
0.0
 40
0.0
 40
0.0
 40
0.0
 40
0.2150192418
 40
0.4104015083
 40
0.4994659811
 40
0.5822696467
 40
0.6584524882
 40
0.7276756897
 40
0.7896283181
 40
0.8440020274
 40
0.8905245889
 40
0.9290009327
 40
0.945164933
 40
0.9592498435
 40
0.9712388027
 40
0.9811255033
 40
0.988908014
 40
0.9945925071
 40
0.9982121453
 40
0.9992959884
 40
1.0
 40
1.0
 40
1.0
 40
1.0
 10
7.1486923427
 20
9.1250626099
 30
0.0
 10
7.1473602357
 20
9.1252751615
 30
0.0
 10
7.1448182914
 20
9.1256847085
 30
0.0
 10
7.1417265563
 20
9.1261945499
 30
0.0
 10
7.1394546356
 20
9.1265777266
 30
0.0
 10
7.1379208296
 20
9.126840722
 30
0.0
 10
7.1365104896
 20
9.1270871848
 30
0.0
 10
7.1352298726
 20
9.1273160212
 30
0.0
 10
7.1340849113
 20
9.1275261293
 30
0.0
 10
7.1330811281
 20
9.1277164539
 30
0.0
 10
7.1322233565
 20
9.1278860982
 30
0.0
 10
7.1316020976
 20
9.1280159499
 30
0.0
 10
7.1311812637
 20
9.1281097849
 30
0.0
 10
7.1309232907
 20
9.1281703487
 30
0.0
 10
7.1307044201
 20
9.12822518
 30
0.0
 10
7.1305249535
 20
9.1282741675
 30
0.0
 10
7.1303846979
 20
9.12831711
 30
0.0
 10
7.1302842292
 20
9.1283538251
 30
0.0
 10
7.1302246662
 20
9.1283819848
 30
0.0
 10
7.1301981392
 20
9.128403083
 30
0.0
 10
7.1301923427
 20
9.1284137734
 30
0.0
 10
7.1301923427
 20
9.1284181901
 30
0.0
  0
LINE
  5
3EF
100
AcDbEntity
  8
0
100
AcDbLine
 62
7
  6
CONTINUOUS
 10
7.1301923427
 20
9.1274102036
 11
7.1310119489
 21
9.1271416111
  0
SPLINE
  5
3F0
100
AcDbEntity
  8
0
100
AcDbSpline
 62
7
  6
CONTINUOUS
 70
0
 71
3
 72
14
 73
10
 74
0
 42
0.0000001
 43
0.0000001
 44
0.0000000001
 40
0.0
 40
0.0
 40
0.0
 40
0.0
 40
0.0578341316
 40
0.1372766095
 40
0.2374262023
 40
0.3570335902
 40
0.4947296724
 40
0.6490094549
 40
1.0
 40
1.0
 40
1.0
 40
1.0
 10
7.1310119489
 20
9.1271416111
 30
0.0
 10
7.1313454166
 20
9.1270625129
 30
0.0
 10
7.1321411002
 20
9.1268925646
 30
0.0
 10
7.1335217452
 20
9.1266217015
 30
0.0
 10
7.1352652879
 20
9.1262994587
 30
0.0
 10
7.1373509708
 20
9.1259294766
 30
0.0
 10
7.1397547689
 20
9.1255164694
 30
0.0
 10
7.1435125878
 20
9.1248870105
 30
0.0
 10
7.1464682106
 20
9.1244078255
 30
0.0
 10
7.1485220931
 20
9.124079613
 30
0.0
  0
SPLINE
  5
3F1
100
AcDbEntity
  8
0
100
AcDbSpline
 62
7
  6
CONTINUOUS
 70
0
 71
3
 72
26
 73
22
 74
0
 42
0.0000001
 43
0.0000001
 44
0.0000000001
 40
0.0
 40
0.0
 40
0.0
 40
0.0
 40
0.2166842861
 40
0.4131400366
 40
0.5025375396
 40
0.5855403127
 40
0.661784213
 40
0.7309409291
 40
0.7927105782
 40
0.8467958419
 40
0.8929501271
 40
0.9309942005
 40
0.9607572941
 40
0.9724894256
 40
0.9821137093
 40
0.9896308333
 40
0.9926021819
 40
0.9950524533
 40
0.9969884734
 40
0.9984254625
 40
1.0
 40
1.0
 40
1.0
 40
1.0
 10
7.0756923427
 20
9.1323340742
 30
0.0
 10
7.0770284346
 20
9.1322439203
 30
0.0
 10
7.0795761534
 20
9.1320759322
 30
0.0
 10
7.0826759275
 20
9.1318834857
 30
0.0
 10
7.0849516393
 20
9.1317509357
 30
0.0
 10
7.0864859342
 20
9.1316659342
 30
0.0
 10
7.0878955818
 20
9.1315925144
 30
0.0
 10
7.0891744381
 20
9.1315309708
 30
0.0
 10
7.0903167645
 20
9.131481528
 30
0.0
 10
7.0913173152
 20
9.1314444035
 30
0.0
 10
7.0921715809
 20
9.1314196735
 30
0.0
 10
7.0928757755
 20
9.1314073803
 30
0.0
 10
7.093367398
 20
9.1314070238
 30
0.0
 10
7.0936832418
 20
9.1314144646
 30
0.0
 10
7.0938615347
 20
9.1314227116
 30
0.0
 10
7.0939854319
 20
9.1314324627
 30
0.0
 10
7.0940648801
 20
9.1314426078
 30
0.0
 10
7.0941094912
 20
9.1314501507
 30
0.0
 10
7.0941451323
 20
9.1314588824
 30
0.0
 10
7.0941724035
 20
9.1314680852
 30
0.0
 10
7.0941923427
 20
9.1314811133
 30
0.0
 10
7.0941923427
 20
9.1314908441
 30
0.0
  0
SPLINE
  5
3F2
100
AcDbEntity
  8
0
100
AcDbSpline
 62
7
  6
CONTINUOUS
 70
0
 71
3
 72
26
 73
22
 74
0
 42
0.0000001
 43
0.0000001
 44
0.0000000001
 40
0.0
 40
0.0
 40
0.0
 40
0.0
 40
0.2075525236
 40
0.3996907905
 40
0.4883564838
 40
0.5713973173
 40
0.6483149501
 40
0.718641656
 40
0.7819412413
 40
0.8377802358
 40
0.8857790014
 40
0.9256512113
 40
0.9424545643
 40
0.9571247692
 40
0.9696359247
 40
0.9799776604
 40
0.9881453458
 40
0.9941441022
 40
0.9980108717
 40
0.999199127
 40
1.0
 40
1.0
 40
1.0
 40
1.0
 10
6.6728872481
 20
9.1156879193
 30
0.0
 10
6.6740224065
 20
9.1159002906
 30
0.0
 10
6.6762076268
 20
9.11631351
 30
0.0
 10
6.6788752688
 20
9.1168306324
 30
0.0
 10
6.6808610515
 20
9.1172246192
 30
0.0
 10
6.6822171185
 20
9.1174981806
 30
0.0
 10
6.6834722201
 20
9.1177561798
 30
0.0
 10
6.6846186959
 20
9.1179970345
 30
0.0
 10
6.6856492397
 20
9.1182191985
 30
0.0
 10
6.6865570229
 20
9.1184212016
 30
0.0
 10
6.6873360064
 20
9.1186017576
 30
0.0
 10
6.6879017976
 20
9.1187400592
 30
0.0
 10
6.6882860059
 20
9.1188399781
 30
0.0
 10
6.6885220895
 20
9.1189044922
 30
0.0
 10
6.6887225919
 20
9.1189628172
 30
0.0
 10
6.6888871506
 20
9.1190148112
 30
0.0
 10
6.6890158973
 20
9.119060238
 30
0.0
 10
6.6891082624
 20
9.1190989464
 30
0.0
 10
6.6891630239
 20
9.1191283889
 30
0.0
 10
6.689187225
 20
9.1191502883
 30
0.0
 10
6.6891923427
 20
9.1191609877
 30
0.0
 10
6.6891923427
 20
9.1191654439
 30
0.0
  0
LINE
  5
3F3
100
AcDbEntity
  8
0
100
AcDbLine
 62
7
  6
CONTINUOUS
 10
6.8939923427
 20
9.1390803175
 11
6.8963316052
 21
9.1389261694
  0
SPLINE
  5
3F4
100
AcDbEntity
  8
0
100
AcDbSpline
 62
7
  6
CONTINUOUS
 70
0
 71
3
 72
21
 73
17
 74
0
 42
0.0000001
 43
0.0000001
 44
0.0000000001
 40
0.0
 40
0.0
 40
0.0
 40
0.0
 40
0.0252458236
 40
0.0619898357
 40
0.1116227399
 40
0.1735861251
 40
0.2453374335
 40
0.3247049489
 40
0.4982538639
 40
0.6714369693
 40
0.750417232
 40
0.8218206313
 40
0.8837729509
 40
0.9342030316
 40
0.9726011585
 40
1.0
 40
1.0
 40
1.0
 40
1.0
 10
6.8963316052
 20
9.1389261694
 30
0.0
 10
6.897003327
 20
9.1388956638
 30
0.0
 10
6.8986533439
 20
9.1388349503
 30
0.0
 10
6.9016254141
 20
9.1387577951
 30
0.0
 10
6.9055758328
 20
9.1386882151
 30
0.0
 10
6.9104589079
 20
9.13863055
 30
0.0
 10
6.9161340718
 20
9.1385809482
 30
0.0
 10
6.92478132
 20
9.138526476
 30
0.0
 10
6.9361303931
 20
9.1384967865
 30
0.0
 10
6.9474690486
 20
9.1385536921
 30
0.0
 10
6.9560868153
 20
9.1386289753
 30
0.0
 10
6.9617419735
 20
9.1386915575
 30
0.0
 10
6.9666365873
 20
9.1387594265
 30
0.0
 10
6.9706518964
 20
9.1388346393
 30
0.0
 10
6.973746595
 20
9.1389131175
 30
0.0
 10
6.9754981224
 20
9.1389717953
 30
0.0
 10
6.9762273158
 20
9.139000523
 30
0.0
  0
LINE
  5
3F5
100
AcDbEntity
  8
0
100
AcDbLine
 62
7
  6
CONTINUOUS
 10
6.9762273158
 20
9.139000523
 11
6.9789923427
 21
9.1391461626
  0
LINE
  5
3F6
100
AcDbEntity
  8
0
100
AcDbLine
 62
7
  6
CONTINUOUS
 10
6.7291923427
 20
9.1251310145
 11
6.7299253964
 21
9.1250726363
  0
SPLINE
  5
3F7
100
AcDbEntity
  8
0
100
AcDbSpline
 62
7
  6
CONTINUOUS
 70
0
 71
3
 72
14
 73
10
 74
0
 42
0.0000001
 43
0.0000001
 44
0.0000000001
 40
0.0
 40
0.0
 40
0.0
 40
0.0
 40
0.0583794724
 40
0.1391707053
 40
0.2411378147
 40
0.3625466347
 40
0.5014723554
 40
0.6557390829
 40
1.0
 40
1.0
 40
1.0
 40
1.0
 10
6.7299253964
 20
9.1250726363
 30
0.0
 10
6.7302335298
 20
9.1250793494
 30
0.0
 10
6.7309675619
 20
9.125115404
 30
0.0
 10
6.7322376072
 20
9.1252027332
 30
0.0
 10
6.7338381207
 20
9.125333687
 30
0.0
 10
6.7357430811
 20
9.1255059254
 30
0.0
 10
6.7379216984
 20
9.1257172983
 30
0.0
 10
6.7412696216
 20
9.1260594187
 30
0.0
 10
6.7438861359
 20
9.1263439975
 30
0.0
 10
6.7456923427
 20
9.1265461068
 30
0.0
  0
SPLINE
  5
3F8
100
AcDbEntity
  8
0
100
AcDbSpline
 62
7
  6
CONTINUOUS
 70
0
 71
3
 72
25
 73
21
 74
0
 42
0.0000001
 43
0.0000001
 44
0.0000000001
 40
0.0
 40
0.0
 40
0.0
 40
0.0
 40
0.2082843153
 40
0.4010196928
 40
0.4898681196
 40
0.5730085801
 40
0.6499465336
 40
0.7202173637
 40
0.7833986773
 40
0.8390721236
 40
0.886865239
 40
0.9265070932
 40
0.9431921825
 40
0.9577453436
 40
0.9701416274
 40
0.9803716609
 40
0.9884326083
 40
0.9943318511
 40
0.9981105309
 40
1.0
 40
1.0
 40
1.0
 40
1.0
 10
6.7626923427
 20
9.1285750006
 30
0.0
 10
6.7638434308
 20
9.1287209429
 30
0.0
 10
6.7660591122
 20
9.1290063979
 30
0.0
 10
6.7687640406
 20
9.1293677161
 30
0.0
 10
6.7707767314
 20
9.1296456926
 30
0.0
 10
6.7721497821
 20
9.1298398887
 30
0.0
 10
6.7734196796
 20
9.1300243517
 30
0.0
 10
6.7745787885
 20
9.1301979624
 30
0.0
 10
6.7756198946
 20
9.1303596043
 30
0.0
 10
6.7765362909
 20
9.1305082104
 30
0.0
 10
6.7773220684
 20
9.1306428605
 30
0.0
 10
6.7778925645
 20
9.1307477811
 30
0.0
 10
6.7782797966
 20
9.1308249723
 30
0.0
 10
6.7785176054
 20
9.1308754985
 30
0.0
 10
6.7787193954
 20
9.130921818
 30
0.0
 10
6.7788853088
 20
9.1309641842
 30
0.0
 10
6.779014148
 20
9.1310013564
 30
0.0
 10
6.7791087133
 20
9.1310357019
 30
0.0
 10
6.7791643491
 20
9.1310611646
 30
0.0
 10
6.7791923427
 20
9.1310856778
 30
0.0
 10
6.7791923427
 20
9.1310962036
 30
0.0
  0
SPLINE
  5
3F9
100
AcDbEntity
  8
0
100
AcDbSpline
 62
7
  6
CONTINUOUS
 70
0
 71
3
 72
25
 73
21
 74
0
 42
0.0000001
 43
0.0000001
 44
0.0000000001
 40
0.0
 40
0.0
 40
0.0
 40
0.0
 40
0.0018890356
 40
0.0056684451
 40
0.0115689993
 40
0.0196313687
 40
0.0298625082
 40
0.0422591702
 40
0.0568123763
 40
0.0734982439
 40
0.1131423768
 40
0.1609361086
 40
0.2166076899
 40
0.2797877392
 40
0.3500568722
 40
0.4269918256
 40
0.5101290994
 40
0.5989753286
 40
0.7917119477
 40
1.0
 40
1.0
 40
1.0
 40
1.0
 10
6.7791923427
 20
9.1321017807
 30
0.0
 10
6.7791923427
 20
9.1320912575
 30
0.0
 10
6.779164324
 20
9.1320667596
 30
0.0
 10
6.7791086806
 20
9.1320413167
 30
0.0
 10
6.7790140845
 20
9.1320069907
 30
0.0
 10
6.7788852213
 20
9.1319698405
 30
0.0
 10
6.7787192872
 20
9.1319274984
 30
0.0
 10
6.7785174865
 20
9.1318812042
 30
0.0
 10
6.7782796693
 20
9.1318307044
 30
0.0
 10
6.7778924179
 20
9.1317535553
 30
0.0
 10
6.7773218998
 20
9.1316486944
 30
0.0
 10
6.7765361155
 20
9.131514128
 30
0.0
 10
6.7756197322
 20
9.1313656254
 30
0.0
 10
6.7745786522
 20
9.1312041049
 30
0.0
 10
6.7734195772
 20
9.1310306225
 30
0.0
 10
6.7721497271
 20
9.1308462879
 30
0.0
 10
6.7707767286
 20
9.1306522205
 30
0.0
 10
6.7687640707
 20
9.1303744203
 30
0.0
 10
6.7660591407
 20
9.1300133383
 30
0.0
 10
6.7638434442
 20
9.1297280731
 30
0.0
 10
6.7626923427
 20
9.1295822245
 30
0.0
  0
LINE
  5
3FA
100
AcDbEntity
  8
0
100
AcDbLine
 62
7
  6
CONTINUOUS
 10
6.8191923427
 20
9.1346868789
 11
6.8199418612
 21
9.1345856327
  0
SPLINE
  5
3FB
100
AcDbEntity
  8
0
100
AcDbSpline
 62
7
  6
CONTINUOUS
 70
0
 71
3
 72
14
 73
10
 74
0
 42
0.0000001
 43
0.0000001
 44
0.0000000001
 40
0.0
 40
0.0
 40
0.0
 40
0.0
 40
0.0587933518
 40
0.1397828798
 40
0.2417760603
 40
0.363090167
 40
0.5018560477
 40
0.6559543593
 40
1.0
 40
1.0
 40
1.0
 40
1.0
 10
6.8199418612
 20
9.1345856327
 30
0.0
 10
6.8202505749
 20
9.1345746825
 30
0.0
 10
6.8209851556
 20
9.134568017
 30
0.0
 10
6.8222554042
 20
9.1345810852
 30
0.0
 10
6.8238538395
 20
9.1346181247
 30
0.0
 10
6.825755274
 20
9.1346783344
 30
0.0
 10
6.8279298513
 20
9.1347613444
 30
0.0
 10
6.8312731301
 20
9.1349062016
 30
0.0
 10
6.8338872187
 20
9.1350367721
 30
0.0
 10
6.8356923427
 20
9.1351324926
 30
0.0
  0
SPLINE
  5
3FC
100
AcDbEntity
  8
0
100
AcDbSpline
 62
7
  6
CONTINUOUS
 70
0
 71
3
 72
25
 73
21
 74
0
 42
0.0000001
 43
0.0000001
 44
0.0000000001
 40
0.0
 40
0.0
 40
0.0
 40
0.0
 40
0.2093632285
 40
0.4029501981
 40
0.4921396966
 40
0.5755469726
 40
0.6526575127
 40
0.7230015095
 40
0.7861498286
 40
0.8416766208
 40
0.8892203477
 40
0.9285168319
 40
0.9593147485
 40
0.9814191902
 40
0.9891977435
 40
0.9922718754
 40
0.9948071528
 40
0.9968120912
 40
0.9983057376
 40
1.0
 40
1.0
 40
1.0
 40
1.0
 10
6.7456923427
 20
9.1275546598
 30
0.0
 10
6.7445421272
 20
9.1274260384
 30
0.0
 10
6.7423278583
 20
9.1271830251
 30
0.0
 10
6.739622115
 20
9.1268988996
 30
0.0
 10
6.7376079522
 20
9.1266964659
 30
0.0
 10
6.7362340085
 20
9.1265629632
 30
0.0
 10
6.7349632904
 20
9.1264444247
 30
0.0
 10
6.7338036002
 20
9.1263415677
 30
0.0
 10
6.7327622693
 20
9.1262549718
 30
0.0
 10
6.7318460356
 20
9.1261851519
 30
0.0
 10
6.7310607682
 20
9.126132557
 30
0.0
 10
6.7304113612
 20
9.1260972284
 30
0.0
 10
6.729902002
 20
9.1260794393
 30
0.0
 10
6.7295663407
 20
9.1260779682
 30
0.0
 10
6.7293843781
 20
9.1260874254
 30
0.0
 10
6.7293106808
 20
9.1260952835
 30
0.0
 10
6.7292692274
 20
9.1261015684
 30
0.0
 10
6.7292362224
 20
9.1261093955
 30
0.0
 10
6.7292103146
 20
9.1261179575
 30
0.0
 10
6.7291923427
 20
9.1261311306
 30
0.0
 10
6.7291923427
 20
9.1261404966
 30
0.0
  0
LINE
  5
3FD
100
AcDbEntity
  8
0
100
AcDbLine
 62
7
  6
CONTINUOUS
 10
14.5876923427
 20
9.1006812418
 11
14.589204337
 21
9.100948177
  0
LINE
  5
3FE
100
AcDbEntity
  8
0
100
AcDbLine
 62
7
  6
CONTINUOUS
 10
14.589204337
 20
9.100948177
 11
14.6113150172
 21
9.1048456017
  0
LINE
  5
3FF
100
AcDbEntity
  8
0
100
AcDbLine
 62
7
  6
CONTINUOUS
 10
14.7776943061
 20
9.1324200691
 11
14.7820561145
 21
9.1325597572
  0
LINE
  5
400
100
AcDbEntity
  8
0
100
AcDbLine
 62
7
  6
CONTINUOUS
 10
14.7820561145
 20
9.1325597572
 11
14.8126732703
 21
9.1339630287
  0
LINE
  5
401
100
AcDbEntity
  8
0
100
AcDbLine
 62
7
  6
CONTINUOUS
 10
14.8126732703
 20
9.1339630287
 11
14.8140476186
 21
9.1340341096
  0
LINE
  5
402
100
AcDbEntity
  8
0
100
AcDbLine
 62
7
  6
CONTINUOUS
 10
14.8140476186
 20
9.1340341096
 11
14.8990827947
 21
9.1385298441
  0
LINE
  5
403
100
AcDbEntity
  8
0
100
AcDbLine
 62
7
  6
CONTINUOUS
 10
14.8990827947
 20
9.1385298441
 11
14.9306072076
 21
9.1404012393
  0
LINE
  5
404
100
AcDbEntity
  8
0
100
AcDbLine
 62
7
  6
CONTINUOUS
 10
14.9306072076
 20
9.1404012393
 11
14.9343587289
 21
9.1406687725
  0
LINE
  5
405
100
AcDbEntity
  8
0
100
AcDbLine
 62
7
  6
CONTINUOUS
 10
14.9343587289
 20
9.1406687725
 11
14.9346923428
 21
9.1406936969
  0
LINE
  5
406
100
AcDbEntity
  8
0
100
AcDbLine
 62
7
  6
CONTINUOUS
 10
15.0982820933
 20
9.1303496751
 11
15.0984530669
 21
9.1303810748
  0
LINE
  5
407
100
AcDbEntity
  8
0
100
AcDbLine
 62
7
  6
CONTINUOUS
 10
15.2121923427
 20
9.1138383326
 11
15.2534770103
 21
9.106386638
  0
LINE
  5
408
100
AcDbEntity
  8
0
100
AcDbLine
 62
7
  6
CONTINUOUS
 10
15.2534770103
 20
9.106386638
 11
15.2581324544
 21
9.1055445087
  0
LINE
  5
409
100
AcDbEntity
  8
0
100
AcDbLine
 62
7
  6
CONTINUOUS
 10
15.2581324544
 20
9.1055445087
 11
15.2583351374
 21
9.1055078376
  0
LINE
  5
40A
100
AcDbEntity
  8
0
100
AcDbLine
 62
7
  6
CONTINUOUS
 10
15.2583351374
 20
9.1055078376
 11
15.2600408445
 21
9.105199204
  0
LINE
  5
40B
100
AcDbEntity
  8
0
100
AcDbLine
 62
7
  6
CONTINUOUS
 10
15.2600408445
 20
9.105199204
 11
15.2951857628
 21
9.0988365953
  0
LINE
  5
40C
100
AcDbEntity
  8
0
100
AcDbLine
 62
7
  6
CONTINUOUS
 10
15.2951857628
 20
9.0988365953
 11
15.2966923426
 21
9.0985677588
  0
LINE
  5
40D
100
AcDbEntity
  8
0
100
AcDbLine
 62
7
  6
CONTINUOUS
 10
14.7566923427
 20
9.1297832764
 11
14.7523135134
 21
9.1290582081
  0
LINE
  5
40E
100
AcDbEntity
  8
0
100
AcDbLine
 62
7
  6
CONTINUOUS
 10
14.7523135134
 20
9.1290582081
 11
14.7445061359
 21
9.127754005
  0
LINE
  5
40F
100
AcDbEntity
  8
0
100
AcDbLine
 62
7
  6
CONTINUOUS
 10
14.7445061359
 20
9.127754005
 11
14.736124879
 21
9.1263444628
  0
LINE
  5
410
100
AcDbEntity
  8
0
100
AcDbLine
 62
7
  6
CONTINUOUS
 10
14.6691726974
 20
9.1149141271
 11
14.6654245741
 21
9.114267442
  0
LINE
  5
411
100
AcDbEntity
  8
0
100
AcDbLine
 62
7
  6
CONTINUOUS
 10
14.6654245741
 20
9.114267442
 11
14.639997642
 21
9.1098617988
  0
LINE
  5
412
100
AcDbEntity
  8
0
100
AcDbLine
 62
7
  6
CONTINUOUS
 10
14.639997642
 20
9.1098617988
 11
14.635882362
 21
9.1091454957
  0
LINE
  5
413
100
AcDbEntity
  8
0
100
AcDbLine
 62
7
  6
CONTINUOUS
 10
14.635882362
 20
9.1091454957
 11
14.6321167497
 21
9.1084891734
  0
LINE
  5
414
100
AcDbEntity
  8
0
100
AcDbLine
 62
7
  6
CONTINUOUS
 10
14.6321167497
 20
9.1084891734
 11
14.6297698381
 21
9.1080796749
  0
LINE
  5
415
100
AcDbEntity
  8
0
100
AcDbLine
 62
7
  6
CONTINUOUS
 10
14.6297698381
 20
9.1080796749
 11
14.6113150172
 21
9.1048456017
  0
SPLINE
  5
416
100
AcDbEntity
  8
0
100
AcDbSpline
 62
7
  6
CONTINUOUS
 70
0
 71
3
 72
9
 73
5
 74
0
 42
0.0000001
 43
0.0000001
 44
0.0000000001
 40
0.0
 40
0.0
 40
0.0
 40
0.0
 40
0.1226493934
 40
1.0
 40
1.0
 40
1.0
 40
1.0
 10
15.2583532627
 20
9.1071778571
 30
0.0
 10
15.2583532627
 20
9.1071784878
 30
0.0
 10
15.2583497944
 20
9.1071831673
 30
0.0
 10
15.2583433806
 20
9.1071804287
 30
0.0
 10
15.2583389413
 20
9.1071812327
 30
0.0
  0
SPLINE
  5
417
100
AcDbEntity
  8
0
100
AcDbSpline
 62
7
  6
CONTINUOUS
 70
0
 71
3
 72
9
 73
5
 74
0
 42
0.0000001
 43
0.0000001
 44
0.0000000001
 40
0.0
 40
0.0
 40
0.0
 40
0.0
 40
0.2101672474
 40
1.0
 40
1.0
 40
1.0
 40
1.0
 10
15.2583389413
 20
9.1071812327
 30
0.0
 10
15.2583376505
 20
9.1071814665
 30
0.0
 10
15.2583316487
 20
9.1071832384
 30
0.0
 10
15.2583258642
 20
9.1071856981
 30
0.0
 10
15.2583210408
 20
9.1071867175
 30
0.0
  0
LINE
  5
418
100
AcDbEntity
  8
0
100
AcDbLine
 62
7
  6
CONTINUOUS
 10
14.8139923427
 20
9.1347516291
 11
14.8148615621
 21
9.1347221254
  0
LINE
  5
419
100
AcDbEntity
  8
0
100
AcDbLine
 62
7
  6
CONTINUOUS
 10
14.8148615621
 20
9.1347221254
 11
14.8176926125
 21
9.1347338372
  0
LINE
  5
41A
100
AcDbEntity
  8
0
100
AcDbLine
 62
7
  6
CONTINUOUS
 10
14.8945988699
 20
9.1387829962
 11
14.8989923427
 21
9.1392132948
  0
LINE
  5
41B
100
AcDbEntity
  8
0
100
AcDbLine
 62
7
  6
CONTINUOUS
 10
15.0848575327
 20
9.1329582651
 11
15.0591923427
 21
9.1346763283
  0
LINE
  5
41C
100
AcDbEntity
  8
0
100
AcDbLine
 62
7
  6
CONTINUOUS
 10
14.6356613602
 20
9.109669288
 11
14.6324133201
 21
9.1091883053
  0
LINE
  5
41D
100
AcDbEntity
  8
0
100
AcDbLine
 62
7
  6
CONTINUOUS
 10
14.6324133201
 20
9.1091883053
 11
14.6297383983
 21
9.108788254
  0
SPLINE
  5
41E
100
AcDbEntity
  8
0
100
AcDbSpline
 62
7
  6
CONTINUOUS
 70
0
 71
3
 72
8
 73
4
 74
0
 42
0.0000001
 43
0.0000001
 44
0.0000000001
 40
0.0
 40
0.0
 40
0.0
 40
0.0
 40
1.0
 40
1.0
 40
1.0
 40
1.0
 10
14.6297383983
 20
9.108788254
 30
0.0
 10
14.6297238017
 20
9.1087858161
 30
0.0
 10
14.6297092051
 20
9.1087833782
 30
0.0
 10
14.6296946086
 20
9.1087809403
 30
0.0
  0
SPLINE
  5
41F
100
AcDbEntity
  8
0
100
AcDbSpline
 62
7
  6
CONTINUOUS
 70
0
 71
3
 72
28
 73
24
 74
0
 42
0.0000001
 43
0.0000001
 44
0.0000000001
 40
0.0
 40
0.0
 40
0.0
 40
0.0
 40
0.1945726672
 40
0.2895842603
 40
0.3817636325
 40
0.470273989
 40
0.5542916212
 40
0.6330121239
 40
0.7056550846
 40
0.7715382781
 40
0.8300160197
 40
0.8805350355
 40
0.9026547731
 40
0.9226016183
 40
0.9403321003
 40
0.9558083674
 40
0.9689931448
 40
0.9798505882
 40
0.9883580508
 40
0.994511328
 40
0.9983262932
 40
0.9993923893
 40
1.0
 40
1.0
 40
1.0
 40
1.0
 10
15.0351923427
 20
9.1363768318
 30
0.0
 10
15.0332421951
 20
9.1364998237
 30
0.0
 10
15.0303401218
 20
9.1366884897
 30
0.0
 10
15.0265150913
 20
9.1369493428
 30
0.0
 10
15.0237531656
 20
9.1371439052
 30
0.0
 10
15.0211018238
 20
9.137336972
 30
0.0
 10
15.0185857693
 20
9.1375267274
 30
0.0
 10
15.0162291357
 20
9.1377112958
 30
0.0
 10
15.0140546465
 20
9.1378889397
 30
0.0
 10
15.0120834249
 20
9.138057846
 30
0.0
 10
15.0103343351
 20
9.138216419
 30
0.0
 10
15.0090237203
 20
9.1383435807
 30
0.0
 10
15.008098899
 20
9.1384397456
 30
0.0
 10
15.0075019454
 20
9.1385051155
 30
0.0
 10
15.0069717101
 20
9.1385668084
 30
0.0
 10
15.00650943
 20
9.1386246551
 30
0.0
 10
15.0061161728
 20
9.1386785012
 30
0.0
 10
15.0057931753
 20
9.138728074
 30
0.0
 10
15.0055405572
 20
9.1387733054
 30
0.0
 10
15.0053600256
 20
9.1388131152
 30
0.0
 10
15.0052525601
 20
9.138845962
 30
0.0
 10
15.0052043718
 20
9.1388708137
 30
0.0
 10
15.0051923427
 20
9.1388856077
 30
0.0
 10
15.0051923427
 20
9.1388917097
 30
0.0
  0
LINE
  5
420
100
AcDbEntity
  8
0
100
AcDbLine
 62
7
  6
CONTINUOUS
 10
14.6356613602
 20
9.1096692366
 11
14.668980108
 21
9.1150554229
  0
LINE
  5
421
100
AcDbEntity
  8
0
100
AcDbLine
 62
7
  6
CONTINUOUS
 10
14.668980108
 20
9.1150554229
 11
14.7021301159
 21
9.1205708414
  0
LINE
  5
422
100
AcDbEntity
  8
0
100
AcDbLine
 62
7
  6
CONTINUOUS
 10
14.8989923427
 20
9.1402136066
 11
14.8972900138
 21
9.1400256899
  0
SPLINE
  5
423
100
AcDbEntity
  8
0
100
AcDbSpline
 62
7
  6
CONTINUOUS
 70
0
 71
3
 72
23
 73
19
 74
0
 42
0.0000001
 43
0.0000001
 44
0.0000000001
 40
0.0
 40
0.0
 40
0.0
 40
0.0
 40
0.0264339966
 40
0.068233742
 40
0.1277578305
 40
0.204223106
 40
0.2938856315
 40
0.3934270352
 40
0.4989496838
 40
0.6043176192
 40
0.7035295179
 40
0.7926272311
 40
0.8677677766
 40
0.924497356
 40
0.9624284947
 40
0.9849097871
 40
0.9961791963
 40
1.0
 40
1.0
 40
1.0
 40
1.0
 10
14.8972900138
 20
9.1400256899
 30
0.0
 10
14.8965586141
 20
9.1399537508
 30
0.0
 10
14.8946690729
 20
9.1397843108
 30
0.0
 10
14.891128061
 20
9.1395048595
 30
0.0
 10
14.8861972529
 20
9.1391576978
 30
0.0
 10
14.8799366528
 20
9.1387527362
 30
0.0
 10
14.8725644101
 20
9.1382979747
 30
0.0
 10
14.8643844164
 20
9.1378169545
 30
0.0
 10
14.855766735
 20
9.1373414416
 30
0.0
 10
14.8471559686
 20
9.136908798
 30
0.0
 10
14.8389999299
 20
9.1365272886
 30
0.0
 10
14.8316823968
 20
9.1362063806
 30
0.0
 10
14.8255439714
 20
9.1359580286
 30
0.0
 10
14.8208256023
 20
9.1358006523
 30
0.0
 10
14.8175695479
 20
9.1357290179
 30
0.0
 10
14.8155764458
 20
9.1357140208
 30
0.0
 10
14.8145320397
 20
9.1357296265
 30
0.0
 10
14.8141126048
 20
9.1357451779
 30
0.0
 10
14.8140067111
 20
9.1357535929
 30
0.0
  0
SPLINE
  5
424
100
AcDbEntity
  8
0
100
AcDbSpline
 62
7
  6
CONTINUOUS
 70
0
 71
3
 72
8
 73
4
 74
0
 42
0.0000001
 43
0.0000001
 44
0.0000000001
 40
0.0
 40
0.0
 40
0.0
 40
0.0
 40
1.0
 40
1.0
 40
1.0
 40
1.0
 10
14.8140067111
 20
9.1357535929
 30
0.0
 10
14.8140019216
 20
9.1357540047
 30
0.0
 10
14.8139971322
 20
9.1357544165
 30
0.0
 10
14.8139923427
 20
9.1357548283
 30
0.0
  0
SPLINE
  5
425
100
AcDbEntity
  8
0
100
AcDbSpline
 62
7
  6
CONTINUOUS
 70
0
 71
3
 72
24
 73
20
 74
0
 42
0.0000001
 43
0.0000001
 44
0.0000000001
 40
0.0
 40
0.0
 40
0.0
 40
0.0
 40
0.2146644773
 40
0.4104663772
 40
0.5829082722
 40
0.6593264986
 40
0.728717713
 40
0.7907306459
 40
0.8450911188
 40
0.8915486826
 40
0.92985659
 40
0.9598016612
 40
0.9716127175
 40
0.9813143264
 40
0.9889142796
 40
0.9944403711
 40
0.9964525917
 40
0.9979980179
 40
1.0
 40
1.0
 40
1.0
 40
1.0
 10
15.1276923427
 20
9.1267946716
 30
0.0
 10
15.1284074995
 20
9.1267203364
 30
0.0
 10
15.1297753263
 20
9.1265815656
 30
0.0
 10
15.1317188836
 20
9.1263955674
 30
0.0
 10
15.133202445
 20
9.12626386
 30
0.0
 10
15.134264915
 20
9.1261774957
 30
0.0
 10
15.1349590446
 20
9.1261251941
 30
0.0
 10
15.1355798321
 20
9.1260830216
 30
0.0
 10
15.1361242998
 20
9.1260510827
 30
0.0
 10
15.1365898089
 20
9.1260293557
 30
0.0
 10
15.1369738692
 20
9.1260178975
 30
0.0
 10
15.1372421022
 20
9.1260164283
 30
0.0
 10
15.1374143987
 20
9.1260216285
 30
0.0
 10
15.1375117474
 20
9.1260276547
 30
0.0
 10
15.1375877736
 20
9.12603628
 30
0.0
 10
15.137637654
 20
9.126045649
 30
0.0
 10
15.1376666232
 20
9.1260557856
 30
0.0
 10
15.1376829945
 20
9.1260637614
 30
0.0
 10
15.1376923427
 20
9.1260743521
 30
0.0
 10
15.1376923427
 20
9.1260810576
 30
0.0
  0
SPLINE
  5
426
100
AcDbEntity
  8
0
100
AcDbSpline
 62
7
  6
CONTINUOUS
 70
0
 71
3
 72
20
 73
16
 74
0
 42
0.0000001
 43
0.0000001
 44
0.0000000001
 40
0.0
 40
0.0
 40
0.0
 40
0.0
 40
0.0058352607
 40
0.0112678375
 40
0.0186274516
 40
0.0279675453
 40
0.0393098335
 40
0.0680279126
 40
0.1047959581
 40
0.1495808598
 40
0.262657651
 40
0.4059006016
 40
0.5778295957
 40
0.7765701845
 40
1.0
 40
1.0
 40
1.0
 40
1.0
 10
15.1376923427
 20
9.1270899158
 30
0.0
 10
15.1376923427
 20
9.1270783797
 30
0.0
 10
15.1376673665
 20
9.1270635955
 30
0.0
 10
15.1376341963
 20
9.1270542998
 30
0.0
 10
15.1375903381
 20
9.1270457116
 30
0.0
 10
15.1375356025
 20
9.1270391099
 30
0.0
 10
15.1374380862
 20
9.1270312169
 30
0.0
 10
15.1372863149
 20
9.1270262029
 30
0.0
 10
15.1370682579
 20
9.1270259071
 30
0.0
 10
15.1366835589
 20
9.1270339958
 30
0.0
 10
15.1360888097
 20
9.1270607277
 30
0.0
 10
15.1352437814
 20
9.1271130654
 30
0.0
 10
15.1342305487
 20
9.1271881642
 30
0.0
 10
15.1330600305
 20
9.1272850926
 30
0.0
 10
15.1322287247
 20
9.1273594409
 30
0.0
 10
15.1317888667
 20
9.1273998894
 30
0.0
  0
LINE
  5
427
100
AcDbEntity
  8
0
100
AcDbLine
 62
7
  6
CONTINUOUS
 10
15.2583210069
 20
9.1061646076
 11
15.2571007042
 21
9.1063660028
  0
LINE
  5
428
100
AcDbEntity
  8
0
100
AcDbLine
 62
7
  6
CONTINUOUS
 10
15.1739742231
 20
9.1205895615
 11
15.1751004554
 21
9.1202854876
  0
LINE
  5
429
100
AcDbEntity
  8
0
100
AcDbLine
 62
7
  6
CONTINUOUS
 10
15.1751004554
 20
9.1202854876
 11
15.1799742231
 21
9.119423735
  0
LINE
  5
42A
100
AcDbEntity
  8
0
100
AcDbLine
 62
7
  6
CONTINUOUS
 10
15.2078371309
 20
9.1147488369
 11
15.2122400045
 21
9.1139702825
  0
LINE
  5
42B
100
AcDbEntity
  8
0
100
AcDbLine
 62
7
  6
CONTINUOUS
 10
15.2122400045
 20
9.1139702825
 11
15.2533723487
 21
9.1069408761
  0
SPLINE
  5
42C
100
AcDbEntity
  8
0
100
AcDbSpline
 62
7
  6
CONTINUOUS
 70
0
 71
3
 72
25
 73
21
 74
0
 42
0.0000001
 43
0.0000001
 44
0.0000000001
 40
0.0
 40
0.0
 40
0.0
 40
0.0
 40
0.0016147455
 40
0.0051750149
 40
0.010890335
 40
0.0187909605
 40
0.0288798529
 40
0.0411521202
 40
0.0555989709
 40
0.072198355
 40
0.1117269943
 40
0.1594785327
 40
0.2151827196
 40
0.2784734446
 40
0.3489147333
 40
0.4260673626
 40
0.5094530447
 40
0.5985468387
 40
0.791667675
 40
1.0
 40
1.0
 40
1.0
 40
1.0
 10
14.9691923427
 20
9.1400415929
 30
0.0
 10
14.9691923427
 20
9.1400300052
 30
0.0
 10
14.9691524499
 20
9.1400062847
 30
0.0
 10
14.9690830724
 20
9.1399878088
 30
0.0
 10
14.9689588712
 20
9.1399625851
 30
0.0
 10
14.9687917228
 20
9.1399396781
 30
0.0
 10
14.9685753409
 20
9.1399154864
 30
0.0
 10
14.9683124484
 20
9.1398918105
 30
0.0
 10
14.9680024157
 20
9.1398681726
 30
0.0
 10
14.9674970611
 20
9.1398351295
 30
0.0
 10
14.9667525983
 20
9.1397958982
 30
0.0
 10
14.9657274399
 20
9.1397524787
 30
0.0
 10
14.9645315558
 20
9.139710916
 30
0.0
 10
14.9631727043
 20
9.139671483
 30
0.0
 10
14.9616598166
 20
9.1396344743
 30
0.0
 10
14.9600026282
 20
9.1396001936
 30
0.0
 10
14.9582115066
 20
9.1395688808
 30
0.0
 10
14.9555881921
 20
9.1395302925
 30
0.0
 10
14.9520681609
 20
9.1394917888
 30
0.0
 10
14.9491873426
 20
9.1394717973
 30
0.0
 10
14.9476923427
 20
9.1394640573
 30
0.0
  0
LINE
  5
42D
100
AcDbEntity
  8
0
100
AcDbLine
 62
7
  6
CONTINUOUS
 10
14.7401422312
 20
9.1278742515
 11
14.668980108
 21
9.1160715701
  0
LINE
  5
42E
100
AcDbEntity
  8
0
100
AcDbLine
 62
7
  6
CONTINUOUS
 10
14.668980108
 20
9.1160715701
 11
14.6356613602
 21
9.1106889829
  0
LINE
  5
42F
100
AcDbEntity
  8
0
100
AcDbLine
 62
7
  6
CONTINUOUS
 10
15.0981372794
 20
9.1311520811
 11
15.0972478707
 21
9.1312190958
  0
LINE
  5
430
100
AcDbEntity
  8
0
100
AcDbLine
 62
7
  6
CONTINUOUS
 10
15.1009895882
 20
9.130822563
 11
15.0981372794
 21
9.1311520811
  0
SPLINE
  5
431
100
AcDbEntity
  8
0
100
AcDbSpline
 62
7
  6
CONTINUOUS
 70
0
 71
3
 72
25
 73
21
 74
0
 42
0.0000001
 43
0.0000001
 44
0.0000000001
 40
0.0
 40
0.0
 40
0.0
 40
0.0
 40
0.2083285417
 40
0.401443547
 40
0.4905378644
 40
0.5739254837
 40
0.6510800636
 40
0.7215232374
 40
0.7848155987
 40
0.8405209053
 40
0.8882729179
 40
0.9278017238
 40
0.9444012013
 40
0.9588481895
 40
0.9711204069
 40
0.9812090784
 40
0.9891094146
 40
0.9948244919
 40
0.9983847234
 40
1.0
 40
1.0
 40
1.0
 40
1.0
 10
14.9476923427
 20
9.1384632568
 30
0.0
 10
14.949187318
 20
9.1384710018
 30
0.0
 10
14.9520680721
 20
9.1384910078
 30
0.0
 10
14.9555880437
 20
9.1385295393
 30
0.0
 10
14.9582113382
 20
9.13856815
 30
0.0
 10
14.9600024941
 20
9.1385994814
 30
0.0
 10
14.9616597263
 20
9.1386337843
 30
0.0
 10
14.9631726553
 20
9.1386708176
 30
0.0
 10
14.9645315416
 20
9.1387102775
 30
0.0
 10
14.9657274499
 20
9.1387518696
 30
0.0
 10
14.9667526214
 20
9.1387953203
 30
0.0
 10
14.9674970892
 20
9.1388345784
 30
0.0
 10
14.9680024464
 20
9.1388676421
 30
0.0
 10
14.9683124797
 20
9.1388912934
 30
0.0
 10
14.968575371
 20
9.1389149819
 30
0.0
 10
14.9687917468
 20
9.1389391865
 30
0.0
 10
14.968958891
 20
9.1389621055
 30
0.0
 10
14.9690830792
 20
9.138987345
 30
0.0
 10
14.9691524665
 20
9.1390058322
 30
0.0
 10
14.9691923427
 20
9.1390295742
 30
0.0
 10
14.9691923427
 20
9.1390411657
 30
0.0
  0
LINE
  5
432
100
AcDbEntity
  8
0
100
AcDbLine
 62
7
  6
CONTINUOUS
 10
15.0591923427
 20
9.1336724652
 11
15.0848575327
 21
9.1319532828
  0
LINE
  5
433
100
AcDbEntity
  8
0
100
AcDbLine
 62
7
  6
CONTINUOUS
 10
15.2533723487
 20
9.1079624999
 11
15.2583210408
 21
9.1071867175
  0
LINE
  5
434
100
AcDbEntity
  8
0
100
AcDbLine
 62
7
  6
CONTINUOUS
 10
15.0051923427
 20
9.1378904693
 11
15.0057477575
 21
9.1377355981
  0
SPLINE
  5
435
100
AcDbEntity
  8
0
100
AcDbSpline
 62
7
  6
CONTINUOUS
 70
0
 71
3
 72
17
 73
13
 74
0
 42
0.0000001
 43
0.0000001
 44
0.0000000001
 40
0.0
 40
0.0
 40
0.0
 40
0.0
 40
0.0206696597
 40
0.048562667
 40
0.0834916171
 40
0.1251937882
 40
0.2276318639
 40
0.352853259
 40
0.4971535473
 40
0.6562537128
 40
0.8256391044
 40
1.0
 40
1.0
 40
1.0
 40
1.0
 10
15.0057477575
 20
9.1377355981
 30
0.0
 10
15.0059484327
 20
9.1377015023
 30
0.0
 10
15.006421891
 20
9.1376333007
 30
0.0
 10
15.00723791
 20
9.1375325616
 30
0.0
 10
15.0082611038
 20
9.1374200018
 30
0.0
 10
15.0100156293
 20
9.1372427875
 30
0.0
 10
15.0126574687
 20
9.1370031449
 30
0.0
 10
15.0163079539
 20
9.1367004809
 30
0.0
 10
15.0205164834
 20
9.136376079
 30
0.0
 10
15.0251602237
 20
9.1360394657
 30
0.0
 10
15.0301006111
 20
9.1357011909
 30
0.0
 10
15.0334786773
 20
9.1354821402
 30
0.0
 10
15.0351923427
 20
9.1353739803
 30
0.0
  0
LINE
  5
436
100
AcDbEntity
  8
0
100
AcDbLine
 62
7
  6
CONTINUOUS
 10
15.1799742231
 20
9.1204369818
 11
15.1739742231
 21
9.121602037
  0
LINE
  5
437
100
AcDbEntity
  8
0
100
AcDbLine
 62
7
  6
CONTINUOUS
 10
15.2533723487
 20
9.1079624553
 11
15.2124147896
 21
9.1149563289
  0
LINE
  5
438
100
AcDbEntity
  8
0
100
AcDbLine
 62
7
  6
CONTINUOUS
 10
15.2124147896
 20
9.1149563289
 11
15.2078371309
 21
9.1157651883
  0
LINE
  5
439
100
AcDbEntity
  8
0
100
AcDbLine
 62
7
  6
CONTINUOUS
 10
14.6356613602
 20
9.1106889845
 11
14.6296946085
 21
9.1098011832
  0
SPLINE
  5
43A
100
AcDbEntity
  8
0
100
AcDbSpline
 62
7
  6
CONTINUOUS
 70
0
 71
3
 72
23
 73
19
 74
0
 42
0.0000001
 43
0.0000001
 44
0.0000000001
 40
0.0
 40
0.0
 40
0.0
 40
0.0
 40
0.034107692
 40
0.0693591718
 40
0.1067909607
 40
0.1472663964
 40
0.1914525824
 40
0.2398485292
 40
0.2928219977
 40
0.350641017
 40
0.4134900471
 40
0.481493256
 40
0.5547343035
 40
0.6332665434
 40
0.7171009993
 40
0.8062033007
 40
0.9005232293
 40
1.0
 40
1.0
 40
1.0
 40
1.0
 10
11.2701920372
 20
10.591719433
 30
0.0
 10
11.2701919857
 20
10.5923519291
 30
0.0
 10
11.2700684378
 20
10.5936411886
 30
0.0
 10
11.2695185351
 20
10.5955537876
 30
0.0
 10
11.2686084275
 20
10.5974541152
 30
0.0
 10
11.2673433793
 20
10.5993397223
 30
0.0
 10
11.2657279292
 20
10.6012114117
 30
0.0
 10
11.2637647305
 20
10.6030693436
 30
0.0
 10
11.2614556729
 20
10.6049131497
 30
0.0
 10
11.2588024707
 20
10.6067416421
 30
0.0
 10
11.2558075268
 20
10.6085537001
 30
0.0
 10
11.2524735663
 20
10.6103479075
 30
0.0
 10
11.2488034748
 20
10.6121225976
 30
0.0
 10
11.2448005481
 20
10.6138757961
 30
0.0
 10
11.2404691703
 20
10.6156055442
 30
0.0
 10
11.235814809
 20
10.6173100271
 30
0.0
 10
11.2308434514
 20
10.6189870548
 30
0.0
 10
11.2274123239
 20
10.6200571264
 30
0.0
 10
11.2256457895
 20
10.6205884425
 30
0.0
  0
SPLINE
  5
43B
100
AcDbEntity
  8
0
100
AcDbSpline
 62
7
  6
CONTINUOUS
 70
0
 71
3
 72
32
 73
28
 74
0
 42
0.0000001
 43
0.0000001
 44
0.0000000001
 40
0.0
 40
0.0
 40
0.0
 40
0.0
 40
0.0105812609
 40
0.0215177376
 40
0.0331309493
 40
0.0456867392
 40
0.0593929614
 40
0.0744068467
 40
0.0908435498
 40
0.1087830499
 40
0.1282815855
 40
0.1493785053
 40
0.1721000164
 40
0.1964580465
 40
0.2224553727
 40
0.2500893264
 40
0.2793529543
 40
0.3102326479
 40
0.3427085846
 40
0.3767586521
 40
0.4494804166
 40
0.5281597015
 40
0.6125109291
 40
0.7022273624
 40
0.796981128
 40
0.8963967861
 40
1.0
 40
1.0
 40
1.0
 40
1.0
 10
11.3039418701
 20
10.5917194329
 30
0.0
 10
11.3039419447
 20
10.5910227412
 30
0.0
 10
11.3038061455
 20
10.5896025527
 30
0.0
 10
11.3032000622
 20
10.5874958232
 30
0.0
 10
11.3021971673
 20
10.5854028421
 30
0.0
 10
11.3008041585
 20
10.5833257479
 30
0.0
 10
11.2990251827
 20
10.5812639265
 30
0.0
 10
11.2968626598
 20
10.5792173755
 30
0.0
 10
11.2943186448
 20
10.577186659
 30
0.0
 10
11.291395798
 20
10.5751724506
 30
0.0
 10
11.2880967726
 20
10.5731762351
 30
0.0
 10
11.2844244224
 20
10.5711998
 30
0.0
 10
11.2803820302
 20
10.5692453304
 30
0.0
 10
11.2759738052
 20
10.5673145786
 30
0.0
 10
11.2712044297
 20
10.5654095021
 30
0.0
 10
11.2660787727
 20
10.5635321546
 30
0.0
 10
11.2606019563
 20
10.561684739
 30
0.0
 10
11.2547797233
 20
10.5598692428
 30
0.0
 10
11.2486183848
 20
10.5580874142
 30
0.0
 10
11.2397640527
 20
10.5557066864
 30
0.0
 10
11.227890944
 20
10.552846426
 30
0.0
 10
11.2126998989
 20
10.5496477975
 30
0.0
 10
11.196333575
 20
10.546626195
 30
0.0
 10
11.1788604451
 20
10.5437951252
 30
0.0
 10
11.1603534666
 20
10.541166621
 30
0.0
 10
11.1408957138
 20
10.5387532557
 30
0.0
 10
11.1276047638
 20
10.5373218692
 30
0.0
 10
11.1208173427
 20
10.5366413907
 30
0.0
  0
SPLINE
  5
43C
100
AcDbEntity
  8
0
100
AcDbSpline
 62
7
  6
CONTINUOUS
 70
0
 71
3
 72
18
 73
14
 74
0
 42
0.0000001
 43
0.0000001
 44
0.0000000001
 40
0.0
 40
0.0
 40
0.0
 40
0.0
 40
0.0448361732
 40
0.0924202283
 40
0.1426789043
 40
0.1955355503
 40
0.2509118622
 40
0.3087281621
 40
0.4313466635
 40
0.5626483277
 40
0.7017983218
 40
0.8478974541
 40
1.0
 40
1.0
 40
1.0
 40
1.0
 10
11.2256457895
 20
10.6205884425
 30
0.0
 10
11.2232778812
 20
10.6213006323
 30
0.0
 10
11.218376854
 20
10.6227024125
 30
0.0
 10
11.2107628277
 20
10.6246902833
 30
0.0
 10
11.2026790826
 20
10.6266228408
 30
0.0
 10
11.1941409163
 20
10.6284958235
 30
0.0
 10
11.1851636243
 20
10.6303058238
 30
0.0
 10
11.172376507
 20
10.6326780158
 30
0.0
 10
11.1554063264
 20
10.6354455168
 30
0.0
 10
11.1339306533
 20
10.6384106551
 30
0.0
 10
11.1111096452
 20
10.6410593747
 30
0.0
 10
11.0870998968
 20
10.6433737896
 30
0.0
 10
11.0707036054
 20
10.6446594497
 30
0.0
 10
11.0623358334
 20
10.645247024
 30
0.0
  0
SPLINE
  5
43D
100
AcDbEntity
  8
0
100
AcDbSpline
 62
7
  6
CONTINUOUS
 70
0
 71
3
 72
10
 73
6
 74
0
 42
0.0000001
 43
0.0000001
 44
0.0000000001
 40
0.0
 40
0.0
 40
0.0
 40
0.0
 40
0.5157537017
 40
0.7621898134
 40
1.0
 40
1.0
 40
1.0
 40
1.0
 10
10.8045276147
 20
10.644624641
 30
0.0
 10
10.7933308661
 20
10.6437747739
 30
0.0
 10
10.7767970247
 20
10.6423328778
 30
0.0
 10
10.7551484023
 20
10.6400146496
 30
0.0
 10
10.7446814614
 20
10.6387468812
 30
0.0
 10
10.7395463301
 20
10.6380851847
 30
0.0
  0
SPLINE
  5
43E
100
AcDbEntity
  8
0
100
AcDbSpline
 62
7
  6
CONTINUOUS
 70
0
 71
3
 72
31
 73
27
 74
0
 42
0.0000001
 43
0.0000001
 44
0.0000000001
 40
0.0
 40
0.0
 40
0.0
 40
0.0
 40
0.1043062611
 40
0.2038903898
 40
0.2984477042
 40
0.3876886681
 40
0.4713597818
 40
0.5492246194
 40
0.6210867268
 40
0.6867867968
 40
0.717288004
 40
0.7462107612
 40
0.7735511612
 40
0.7993089553
 40
0.8234886901
 40
0.8461038833
 40
0.8671788131
 40
0.8867476509
 40
0.9048574175
 40
0.9215723635
 40
0.9369819946
 40
0.9512064076
 40
0.9644009735
 40
0.9767629523
 40
0.9885348131
 40
1.0
 40
1.0
 40
1.0
 40
1.0
 10
10.7395463301
 20
10.6380851847
 30
0.0
 10
10.7344695372
 20
10.6374310056
 30
0.0
 10
10.7245552108
 20
10.6360774095
 30
0.0
 10
10.7100782769
 20
10.6338527646
 30
0.0
 10
10.6963732953
 20
10.6314867964
 30
0.0
 10
10.68348657
 20
10.6289870006
 30
0.0
 10
10.6714615748
 20
10.6263629347
 30
0.0
 10
10.6603385538
 20
10.6236231752
 30
0.0
 10
10.6501548941
 20
10.6207774659
 30
0.0
 10
10.6422955454
 20
10.6182683054
 30
0.0
 10
10.6365127053
 20
10.6162020261
 30
0.0
 10
10.6325392903
 20
10.6146703842
 30
0.0
 10
10.6288243004
 20
10.6131195553
 30
0.0
 10
10.6253708551
 20
10.6115508189
 30
0.0
 10
10.6221819358
 20
10.6099653583
 30
0.0
 10
10.6192601135
 20
10.6083644154
 30
0.0
 10
10.616607448
 20
10.6067493891
 30
0.0
 10
10.6142258323
 20
10.6051214508
 30
0.0
 10
10.6121170779
 20
10.6034816678
 30
0.0
 10
10.6102829856
 20
10.6018307021
 30
0.0
 10
10.6087250057
 20
10.6001691639
 30
0.0
 10
10.6074443563
 20
10.5984974823
 30
0.0
 10
10.6064428681
 20
10.5968157895
 30
0.0
 10
10.6057232948
 20
10.595124197
 30
0.0
 10
10.6052895581
 20
10.5934246345
 30
0.0
 10
10.6051926024
 20
10.5922820801
 30
0.0
 10
10.6051926482
 20
10.591719433
 30
0.0
  0
SPLINE
  5
43F
100
AcDbEntity
  8
0
100
AcDbSpline
 62
7
  6
CONTINUOUS
 70
0
 71
3
 72
44
 73
40
 74
0
 42
0.0000001
 43
0.0000001
 44
0.0000000001
 40
0.0
 40
0.0
 40
0.0
 40
0.0
 40
0.037605698
 40
0.0764194754
 40
0.1162577491
 40
0.1569537462
 40
0.1983469882
 40
0.2402679152
 40
0.3249874441
 40
0.4097063507
 40
0.4930204293
 40
0.5735500689
 40
0.6123546916
 40
0.6499710442
 40
0.6862468611
 40
0.7210349695
 40
0.7541968006
 40
0.7856019312
 40
0.8151289951
 40
0.8426689361
 40
0.8681225835
 40
0.8800416948
 40
0.8914095182
 40
0.9022178152
 40
0.9124608237
 40
0.9221341073
 40
0.9312343767
 40
0.93975995
 40
0.9477125681
 40
0.9550974514
 40
0.9619230902
 40
0.9682023931
 40
0.9739551073
 40
0.9792104489
 40
0.9840084909
 40
0.9884035538
 40
0.992468204
 40
0.9962961907
 40
1.0
 40
1.0
 40
1.0
 40
1.0
 10
11.1208173427
 20
10.5366413907
 30
0.0
 10
11.1137788186
 20
10.5359357377
 30
0.0
 10
11.0994645355
 20
10.5346109063
 30
0.0
 10
11.0776623514
 20
10.5328994147
 30
0.0
 10
11.0552593552
 20
10.5314387162
 30
0.0
 10
11.0323552556
 20
10.5302349291
 30
0.0
 10
11.0090467908
 20
10.5292933782
 30
0.0
 10
10.9774511919
 20
10.5283895479
 30
0.0
 10
10.9376922784
 20
10.5279410208
 30
0.0
 10
10.8901473615
 20
10.5284776229
 30
0.0
 10
10.8434148267
 20
10.5300781747
 30
0.0
 10
10.8053560868
 20
10.532300723
 30
0.0
 10
10.7759226231
 20
10.5346103606
 30
0.0
 10
10.7548133398
 20
10.5365646611
 30
0.0
 10
10.7344867385
 20
10.5387532447
 30
0.0
 10
10.7150295961
 20
10.5411669581
 30
0.0
 10
10.6965250756
 20
10.5437951295
 30
0.0
 10
10.679052149
 20
10.5466260879
 30
0.0
 10
10.6626851825
 20
10.5496477746
 30
0.0
 10
10.6474939755
 20
10.5528462061
 30
0.0
 10
10.6356210548
 20
10.5557068283
 30
0.0
 10
10.6267666827
 20
10.5580873054
 30
0.0
 10
10.6206052336
 20
10.5598690604
 30
0.0
 10
10.6147831089
 20
10.5616847385
 30
0.0
 10
10.6093063148
 20
10.5635322288
 30
0.0
 10
10.6041804252
 20
10.565409465
 30
0.0
 10
10.5994108648
 20
10.5673144042
 30
0.0
 10
10.5950027871
 20
10.5692452514
 30
0.0
 10
10.5909606313
 20
10.571199926
 30
0.0
 10
10.5872881504
 20
10.5731762599
 30
0.0
 10
10.5839888295
 20
10.5751723172
 30
0.0
 10
10.5810659493
 20
10.5771864846
 30
0.0
 10
10.5785223136
 20
10.5792174996
 30
0.0
 10
10.5763598096
 20
10.5812640248
 30
0.0
 10
10.574580459
 20
10.5833256797
 30
0.0
 10
10.5731871324
 20
10.5854026736
 30
0.0
 10
10.5721847412
 20
10.587495879
 30
0.0
 10
10.5715790147
 20
10.5896026
 30
0.0
 10
10.57144289
 20
10.5910227291
 30
0.0
 10
10.5714428153
 20
10.5917194331
 30
0.0
  0
SPLINE
  5
440
100
AcDbEntity
  8
0
100
AcDbSpline
 62
7
  6
CONTINUOUS
 70
0
 71
3
 72
46
 73
42
 74
0
 42
0.0000001
 43
0.0000001
 44
0.0000000001
 40
0.0
 40
0.0
 40
0.0
 40
0.0
 40
0.0052503758
 40
0.0110748176
 40
0.0175023961
 40
0.024552336
 40
0.0322366334
 40
0.040560127
 40
0.0495232781
 40
0.0591239416
 40
0.0693571885
 40
0.0802143764
 40
0.0916853502
 40
0.1037590301
 40
0.1164222746
 40
0.1296596421
 40
0.1577914825
 40
0.1880142878
 40
0.220168988
 40
0.2540832633
 40
0.2895720056
 40
0.3264393274
 40
0.3644805606
 40
0.4034827103
 40
0.4432272859
 40
0.5240433833
 40
0.6051108185
 40
0.6451679813
 40
0.6846050937
 40
0.7232006905
 40
0.7607384121
 40
0.7970087056
 40
0.8318109861
 40
0.864954202
 40
0.8962586157
 40
0.9255555798
 40
0.9526985457
 40
0.965421143
 40
0.9775559644
 40
0.989087269
 40
1.0
 40
1.0
 40
1.0
 40
1.0
 10
11.2650248511
 20
10.6012759797
 30
0.0
 10
11.2642419504
 20
10.6005137959
 30
0.0
 10
11.2624972683
 20
10.5990008472
 30
0.0
 10
11.2595427877
 20
10.5968647894
 30
0.0
 10
11.2561240666
 20
10.5947502282
 30
0.0
 10
11.2522454016
 20
10.5926599713
 30
0.0
 10
11.2479112211
 20
10.5905968723
 30
0.0
 10
11.2431275336
 20
10.5885634411
 30
0.0
 10
11.2379009771
 20
10.5865624969
 30
0.0
 10
11.2322386441
 20
10.5845971131
 30
0.0
 10
11.2261484124
 20
10.5826703885
 30
0.0
 10
11.219639164
 20
10.5807848417
 30
0.0
 10
11.2127202935
 20
10.5789432638
 30
0.0
 10
11.205401585
 20
10.577148586
 30
0.0
 10
11.1976935807
 20
10.5754034532
 30
0.0
 10
11.1866873434
 20
10.5730988912
 30
0.0
 10
11.1720370783
 20
10.5703774044
 30
0.0
 10
11.1534352111
 20
10.5674087563
 30
0.0
 10
11.1335796993
 20
10.5646924083
 30
0.0
 10
11.1125858324
 20
10.562244648
 30
0.0
 10
11.0905753373
 20
10.5600801972
 30
0.0
 10
11.0676760496
 20
10.5582116986
 30
0.0
 10
11.0440210431
 20
10.5566506447
 30
0.0
 10
11.0197477386
 20
10.5554057186
 30
0.0
 10
10.9865636978
 20
10.5541714345
 30
0.0
 10
10.944604125
 20
10.5534691103
 30
0.0
 10
10.9025756031
 20
10.5538685395
 30
0.0
 10
10.8691754714
 20
10.5548596519
 30
0.0
 10
10.8446225638
 20
10.5559275307
 30
0.0
 10
10.8206108482
 20
10.5573159213
 30
0.0
 10
10.7972799061
 20
10.5590169547
 30
0.0
 10
10.774765314
 20
10.561020357
 30
0.0
 10
10.7531977911
 20
10.5633142258
 30
0.0
 10
10.7327025171
 20
10.5658851845
 30
0.0
 10
10.7133986597
 20
10.5687172458
 30
0.0
 10
10.6953977156
 20
10.571794002
 30
0.0
 10
10.6812789353
 20
10.5746032927
 30
0.0
 10
10.6707200855
 20
10.5769756965
 30
0.0
 10
10.6633615966
 20
10.578766159
 30
0.0
 10
10.6564034106
 20
10.5806029983
 30
0.0
 10
10.6519136706
 20
10.5818924771
 30
0.0
 10
10.6497388959
 20
10.5825465785
 30
0.0
  0
SPLINE
  5
441
100
AcDbEntity
  8
0
100
AcDbSpline
 62
7
  6
CONTINUOUS
 70
0
 71
3
 72
15
 73
11
 74
0
 42
0.0000001
 43
0.0000001
 44
0.0000000001
 40
0.0
 40
0.0
 40
0.0
 40
0.0
 40
0.1669932946
 40
0.3220350264
 40
0.4649516738
 40
0.5956380608
 40
0.7141654077
 40
0.8207599006
 40
0.9158147457
 40
1.0
 40
1.0
 40
1.0
 40
1.0
 10
10.6497388959
 20
10.5825465785
 30
0.0
 10
10.6473560643
 20
10.5832632568
 30
0.0
 10
10.6427794167
 20
10.5847081683
 30
0.0
 10
10.6362428272
 20
10.5870079305
 30
0.0
 10
10.6303008096
 20
10.5893551049
 30
0.0
 10
10.6249665294
 20
10.5917452629
 30
0.0
 10
10.6202500902
 20
10.5941733519
 30
0.0
 10
10.6161583302
 20
10.5966352131
 30
0.0
 10
10.6126980046
 20
10.5991273885
 30
0.0
 10
10.6106998432
 20
10.6009111112
 30
0.0
 10
10.6098257533
 20
10.6018108234
 30
0.0
  0
SPLINE
  5
442
100
AcDbEntity
  8
0
100
AcDbSpline
 62
7
  6
CONTINUOUS
 70
0
 71
3
 72
21
 73
17
 74
0
 42
0.0000001
 43
0.0000001
 44
0.0000000001
 40
0.0
 40
0.0
 40
0.0
 40
0.0
 40
0.0418211391
 40
0.0843364283
 40
0.1282080237
 40
0.1740346914
 40
0.2223370006
 40
0.2735554451
 40
0.3280555271
 40
0.3861368015
 40
0.4480423582
 40
0.5139612817
 40
0.5840394992
 40
0.6583915939
 40
0.8202306654
 40
1.0
 40
1.0
 40
1.0
 40
1.0
 10
10.5714428153
 20
10.5917194331
 30
0.0
 10
10.5714427633
 20
10.5922052794
 30
0.0
 10
10.5715077374
 20
10.5931862324
 30
0.0
 10
10.5717994327
 20
10.5946507393
 30
0.0
 10
10.5722849106
 20
10.5961118782
 30
0.0
 10
10.5729626642
 20
10.597568259
 30
0.0
 10
10.5738313209
 20
10.5990193802
 30
0.0
 10
10.5748897787
 20
10.600464836
 30
0.0
 10
10.5761371978
 20
10.601904319
 30
0.0
 10
10.5775729204
 20
10.603337475
 30
0.0
 10
10.5791963556
 20
10.6047637791
 30
0.0
 10
10.5810066163
 20
10.6061827864
 30
0.0
 10
10.5830026732
 20
10.6075940486
 30
0.0
 10
10.5859959697
 20
10.6095192455
 30
0.0
 10
10.590212903
 20
10.6118880137
 30
0.0
 10
10.5937889218
 20
10.6136139925
 30
0.0
 10
10.5956911599
 20
10.6144759697
 30
0.0
  0
SPLINE
  5
443
100
AcDbEntity
  8
0
100
AcDbSpline
 62
7
  6
CONTINUOUS
 70
0
 71
3
 72
53
 73
49
 74
0
 42
0.0000001
 43
0.0000001
 44
0.0000000001
 40
0.0
 40
0.0
 40
0.0
 40
0.0
 40
0.0115104437
 40
0.023717849
 40
0.0366038953
 40
0.0501494157
 40
0.0643348194
 40
0.0791401882
 40
0.1105275293
 40
0.1441269535
 40
0.1797302725
 40
0.2171134544
 40
0.2560408825
 40
0.2962626331
 40
0.3375205189
 40
0.3795477588
 40
0.4220725188
 40
0.4648190115
 40
0.5075100424
 40
0.549868605
 40
0.5916204168
 40
0.632495351
 40
0.6722297853
 40
0.7105690319
 40
0.7472679077
 40
0.7820956239
 40
0.8148340536
 40
0.84528462
 40
0.8595948679
 40
0.8732679246
 40
0.8862846152
 40
0.8986273994
 40
0.9102821017
 40
0.9212360065
 40
0.9314779787
 40
0.9410010759
 40
0.9498023176
 40
0.9578820419
 40
0.9652463222
 40
0.9719103687
 40
0.9778990658
 40
0.9832512214
 40
0.9880277479
 40
0.9923186321
 40
0.9943223996
 40
0.9962555758
 40
0.9981401619
 40
1.0
 40
1.0
 40
1.0
 40
1.0
 10
10.6497388959
 20
10.5628504235
 30
0.0
 10
10.6520757231
 20
10.5621475819
 30
0.0
 10
10.6569104326
 20
10.5607638467
 30
0.0
 10
10.6644185351
 20
10.5588001483
 30
0.0
 10
10.6723848579
 20
10.5568902771
 30
0.0
 10
10.6807946745
 20
10.5550383295
 30
0.0
 10
10.6896332731
 20
10.5532476405
 30
0.0
 10
10.7022167565
 20
10.5508995242
 30
0.0
 10
10.7189111686
 20
10.5481564312
 30
0.0
 10
10.7400338624
 20
10.545211278
 30
0.0
 10
10.7624773637
 20
10.54257331
 30
0.0
 10
10.7860916243
 20
10.5402599994
 30
0.0
 10
10.8107190658
 20
10.5382879036
 30
0.0
 10
10.8361953389
 20
10.5366698476
 30
0.0
 10
10.8623500642
 20
10.5354174163
 30
0.0
 10
10.8890084731
 20
10.5345388894
 30
0.0
 10
10.9159923029
 20
10.5340402027
 30
0.0
 10
10.9431212056
 20
10.533925072
 30
0.0
 10
10.9702137902
 20
10.534193757
 30
0.0
 10
10.9970889641
 20
10.5348450484
 30
0.0
 10
11.0235670695
 20
10.5358739326
 30
0.0
 10
11.0494711049
 20
10.537273812
 30
0.0
 10
11.0746279826
 20
10.539034984
 30
0.0
 10
11.0988695548
 20
10.5411452509
 30
0.0
 10
11.1220340118
 20
10.5435906215
 30
0.0
 10
11.143966746
 20
10.5463535298
 30
0.0
 10
11.1645214767
 20
10.5494158775
 30
0.0
 10
11.1807068825
 20
10.5522542143
 30
0.0
 10
11.1928565243
 20
10.5546754855
 30
0.0
 10
11.2013521535
 20
10.5565150792
 30
0.0
 10
11.2094070491
 20
10.5584129829
 30
0.0
 10
11.2170077349
 20
10.5603662831
 30
0.0
 10
11.2241417818
 20
10.562371326
 30
0.0
 10
11.2307974801
 20
10.5644246117
 30
0.0
 10
11.2369637215
 20
10.5665229919
 30
0.0
 10
11.2426305528
 20
10.5686628176
 30
0.0
 10
11.2477891586
 20
10.5708402089
 30
0.0
 10
11.2524314083
 20
10.5730517194
 30
0.0
 10
11.256550126
 20
10.5752942886
 30
0.0
 10
11.26013988
 20
10.5775643696
 30
0.0
 10
11.2631962657
 20
10.5798592673
 30
0.0
 10
11.265715212
 20
10.5821787175
 30
0.0
 10
11.2676927367
 20
10.584522245
 30
0.0
 10
11.2689118668
 20
10.5865439904
 30
0.0
 10
11.2695822327
 20
10.5881573534
 30
0.0
 10
11.2699339117
 20
10.5893429921
 30
0.0
 10
11.2701450631
 20
10.5905305382
 30
0.0
 10
11.2701920693
 20
10.5913251439
 30
0.0
 10
11.2701920372
 20
10.591719433
 30
0.0
  0
SPLINE
  5
444
100
AcDbEntity
  8
0
100
AcDbSpline
 62
7
  6
CONTINUOUS
 70
0
 71
3
 72
21
 73
17
 74
0
 42
0.0000001
 43
0.0000001
 44
0.0000000001
 40
0.0
 40
0.0
 40
0.0
 40
0.0
 40
0.1803315932
 40
0.3426113139
 40
0.4171237853
 40
0.4873139621
 40
0.5532952696
 40
0.6152204327
 40
0.6732809983
 40
0.7277154952
 40
0.7788198801
 40
0.82695867
 40
0.8725768261
 40
0.9162064141
 40
0.9584569832
 40
1.0
 40
1.0
 40
1.0
 40
1.0
 10
11.2790546548
 20
10.6147634473
 30
0.0
 10
11.2810058786
 20
10.6138918365
 30
0.0
 10
11.2846740884
 20
10.6121461909
 30
0.0
 10
11.289002277
 20
10.6097491776
 30
0.0
 10
11.2920752026
 20
10.6078001163
 30
0.0
 10
11.2941238455
 20
10.60637137
 30
0.0
 10
11.2959816492
 20
10.6049344582
 30
0.0
 10
11.2976478461
 20
10.6034900241
 30
0.0
 10
11.2991217407
 20
10.6020386066
 30
0.0
 10
11.3004025813
 20
10.6005806388
 30
0.0
 10
11.3014894952
 20
10.5991164734
 30
0.0
 10
11.3023814046
 20
10.5976463717
 30
0.0
 10
11.3030769886
 20
10.5961706795
 30
0.0
 10
11.3035751929
 20
10.5946900615
 30
0.0
 10
11.3038748615
 20
10.5932059813
 30
0.0
 10
11.3039418173
 20
10.5922117453
 30
0.0
 10
11.3039418701
 20
10.5917194329
 30
0.0
  0
SPLINE
  5
445
100
AcDbEntity
  8
0
100
AcDbSpline
 62
7
  6
CONTINUOUS
 70
0
 71
3
 72
23
 73
19
 74
0
 42
0.0000001
 43
0.0000001
 44
0.0000000001
 40
0.0
 40
0.0
 40
0.0
 40
0.0
 40
0.034107692
 40
0.0693591718
 40
0.1067909607
 40
0.1472663964
 40
0.1914525824
 40
0.2398485292
 40
0.2928219977
 40
0.350641017
 40
0.4134900471
 40
0.481493256
 40
0.5547343035
 40
0.6332665434
 40
0.7171009993
 40
0.8062033007
 40
0.9005232293
 40
1.0
 40
1.0
 40
1.0
 40
1.0
 10
10.6051926482
 20
10.591719433
 30
0.0
 10
10.6051926997
 20
10.5910869369
 30
0.0
 10
10.6053162476
 20
10.5897976774
 30
0.0
 10
10.6058661503
 20
10.5878850784
 30
0.0
 10
10.6067762579
 20
10.5859847508
 30
0.0
 10
10.6080413061
 20
10.5840991437
 30
0.0
 10
10.6096567562
 20
10.5822274543
 30
0.0
 10
10.6116199549
 20
10.5803695224
 30
0.0
 10
10.6139290125
 20
10.5785257163
 30
0.0
 10
10.6165822147
 20
10.5766972239
 30
0.0
 10
10.6195771586
 20
10.5748851659
 30
0.0
 10
10.6229111191
 20
10.5730909585
 30
0.0
 10
10.6265812106
 20
10.5713162684
 30
0.0
 10
10.6305841373
 20
10.5695630699
 30
0.0
 10
10.6349155151
 20
10.5678333218
 30
0.0
 10
10.6395698764
 20
10.566128839
 30
0.0
 10
10.644541234
 20
10.5644518112
 30
0.0
 10
10.6479723615
 20
10.5633817396
 30
0.0
 10
10.6497388959
 20
10.5628504235
 30
0.0
  0
SPLINE
  5
446
100
AcDbEntity
  8
0
100
AcDbSpline
 62
7
  6
CONTINUOUS
 70
0
 71
3
 72
32
 73
28
 74
0
 42
0.0000001
 43
0.0000001
 44
0.0000000001
 40
0.0
 40
0.0
 40
0.0
 40
0.0
 40
0.1036031864
 40
0.2030184935
 40
0.2977717682
 40
0.387487952
 40
0.4718390989
 40
0.5505184056
 40
0.6232400807
 40
0.6572901928
 40
0.6897662099
 40
0.720645966
 40
0.7499096201
 40
0.777543683
 40
0.8035411633
 40
0.8278993296
 40
0.8506209032
 40
0.8717179046
 40
0.8912165661
 40
0.909156185
 40
0.9255929539
 40
0.9406068677
 40
0.9543131473
 40
0.9668689919
 40
0.9784822339
 40
0.9894187202
 40
1.0
 40
1.0
 40
1.0
 40
1.0
 10
10.7396923427
 20
10.6394536983
 30
0.0
 10
10.7323535901
 20
10.6387179456
 30
0.0
 10
10.7179830602
 20
10.6371702943
 30
0.0
 10
10.6969448407
 20
10.6345609035
 30
0.0
 10
10.6769346416
 20
10.6317188991
 30
0.0
 10
10.6580422486
 20
10.6286578826
 30
0.0
 10
10.6403465312
 20
10.6253908428
 30
0.0
 10
10.6239215434
 20
10.6219324159
 30
0.0
 10
10.6110840003
 20
10.6188398157
 30
0.0
 10
10.6015104374
 20
10.6162657136
 30
0.0
 10
10.5948486061
 20
10.6143391542
 30
0.0
 10
10.5885534271
 20
10.6123761905
 30
0.0
 10
10.582631724
 20
10.6103787034
 30
0.0
 10
10.5770896948
 20
10.6083488612
 30
0.0
 10
10.5719328788
 20
10.6062890373
 30
0.0
 10
10.5671665518
 20
10.6042014531
 30
0.0
 10
10.5627957846
 20
10.602088213
 30
0.0
 10
10.5588251172
 20
10.5999512259
 30
0.0
 10
10.5552580916
 20
10.5977928565
 30
0.0
 10
10.5520978013
 20
10.5956150331
 30
0.0
 10
10.5493471248
 20
10.5934193573
 30
0.0
 10
10.5470089409
 20
10.5912065544
 30
0.0
 10
10.5450854495
 20
10.5889772513
 30
0.0
 10
10.543579275
 20
10.5867314344
 30
0.0
 10
10.5424949069
 20
10.584468439
 30
0.0
 10
10.5418396058
 20
10.5821905741
 30
0.0
 10
10.5416927747
 20
10.5806550245
 30
0.0
 10
10.541692854
 20
10.57990174
 30
0.0
  0
SPLINE
  5
447
100
AcDbEntity
  8
0
100
AcDbSpline
 62
7
  6
CONTINUOUS
 70
0
 71
3
 72
12
 73
8
 74
0
 42
0.0000001
 43
0.0000001
 44
0.0000000001
 40
0.0
 40
0.0
 40
0.0
 40
0.0
 40
0.277797257
 40
0.5325055521
 40
0.7705177056
 40
0.8858204287
 40
1.0
 40
1.0
 40
1.0
 40
1.0
 10
10.4797487911
 20
10.9407534504
 30
0.0
 10
10.4790256646
 20
10.9398655442
 30
0.0
 10
10.4777370287
 20
10.9380787966
 30
0.0
 10
10.4762762936
 20
10.9352437943
 30
0.0
 10
10.4755316642
 20
10.9328335552
 30
0.0
 10
10.4752410779
 20
10.9309258413
 30
0.0
 10
10.4751928812
 20
10.9299791549
 30
0.0
 10
10.4751928393
 20
10.9295084922
 30
0.0
  0
SPLINE
  5
448
100
AcDbEntity
  8
0
100
AcDbSpline
 62
7
  6
CONTINUOUS
 70
0
 71
3
 72
44
 73
40
 74
0
 42
0.0000001
 43
0.0000001
 44
0.0000000001
 40
0.0
 40
0.0
 40
0.0
 40
0.0
 40
0.0037038086
 40
0.0075317934
 40
0.0115964484
 40
0.0159915162
 40
0.0207895549
 40
0.0260448923
 40
0.0317976123
 40
0.0380769319
 40
0.0449025774
 40
0.0522874636
 40
0.0602400895
 40
0.0687656828
 40
0.0778659663
 40
0.0875392566
 40
0.0977822702
 40
0.1085905766
 40
0.1199584063
 40
0.131877513
 40
0.1573311406
 40
0.1848710529
 40
0.2143980641
 40
0.2458031487
 40
0.2789649145
 40
0.3137529772
 40
0.3500287292
 40
0.3876450103
 40
0.4264495194
 40
0.5069788557
 40
0.5902926349
 40
0.6750114415
 40
0.7597311859
 40
0.8016522737
 40
0.8430456638
 40
0.8837418629
 40
0.9235803619
 40
0.9623942757
 40
1.0
 40
1.0
 40
1.0
 40
1.0
 10
11.3336918315
 20
10.5799017399
 30
0.0
 10
11.3336917522
 20
10.580655036
 30
0.0
 10
11.3335445755
 20
10.5821905201
 30
0.0
 10
11.3328896522
 20
10.5844683701
 30
0.0
 10
11.3318058275
 20
10.586731601
 30
0.0
 10
11.3302993187
 20
10.5889773044
 30
0.0
 10
11.3283754383
 20
10.5912064279
 30
0.0
 10
11.3260372801
 20
10.5934191926
 30
0.0
 10
11.3232870239
 20
10.5956151852
 30
0.0
 10
11.3201267126
 20
10.5977929573
 30
0.0
 10
11.3165593888
 20
10.599951156
 30
0.0
 10
11.3125885949
 20
10.6020880284
 30
0.0
 10
11.3082180949
 20
10.6042014819
 30
0.0
 10
11.3034519447
 20
10.6062891676
 30
0.0
 10
11.2982949512
 20
10.6083488445
 30
0.0
 10
11.2927526875
 20
10.6103785683
 30
0.0
 10
11.2868310167
 20
10.6123761294
 30
0.0
 10
11.2805359638
 20
10.6143392914
 30
0.0
 10
11.2738740255
 20
10.6162657743
 30
0.0
 10
11.2643004281
 20
10.6188396139
 30
0.0
 10
11.2514630961
 20
10.6219325973
 30
0.0
 10
11.235037947
 20
10.6253908256
 30
0.0
 10
11.2173415396
 20
10.6286579585
 30
0.0
 10
11.1984493426
 20
10.6317188622
 30
0.0
 10
11.1784417568
 20
10.6345605182
 30
0.0
 10
11.1574041715
 20
10.6371702853
 30
0.0
 10
11.1354265049
 20
10.639536648
 30
0.0
 10
11.1126025929
 20
10.6416496865
 30
0.0
 10
11.0807783877
 20
10.644146934
 30
0.0
 10
11.0396283325
 20
10.6465500131
 30
0.0
 10
10.9890999191
 20
10.6482805816
 30
0.0
 10
10.9376930292
 20
10.6488607855
 30
0.0
 10
10.8947044957
 20
10.6483758314
 30
0.0
 10
10.8605423211
 20
10.647398597
 30
0.0
 10
10.8353404366
 20
10.6463805632
 30
0.0
 10
10.8105757502
 20
10.6450789935
 30
0.0
 10
10.7863528739
 20
10.6434996373
 30
0.0
 10
10.7627796485
 20
10.6416491184
 30
0.0
 10
10.7473026022
 20
10.6402166711
 30
0.0
 10
10.7396923427
 20
10.6394536983
 30
0.0
  0
LINE
  5
449
100
AcDbEntity
  8
0
100
AcDbLine
 62
7
  6
CONTINUOUS
 10
11.1477740926
 20
10.5169139751
 11
11.1485913266
 21
10.5169961207
  0
SPLINE
  5
44A
100
AcDbEntity
  8
0
100
AcDbSpline
 62
7
  6
CONTINUOUS
 70
0
 71
3
 72
30
 73
26
 74
0
 42
0.0000001
 43
0.0000001
 44
0.0000000001
 40
0.0
 40
0.0
 40
0.0
 40
0.0
 40
0.0951215108
 40
0.1867586854
 40
0.2745387379
 40
0.3581718469
 40
0.4374192893
 40
0.5120608197
 40
0.5819013814
 40
0.646773817
 40
0.7065919956
 40
0.734591382
 40
0.7613166924
 40
0.7867828059
 40
0.8110090516
 40
0.8340184275
 40
0.8558386975
 40
0.8765256581
 40
0.8961821372
 40
0.9149307649
 40
0.9329133521
 40
0.9502792514
 40
0.967137017
 40
0.9836345783
 40
1.0
 40
1.0
 40
1.0
 40
1.0
 10
11.1485913266
 20
10.5169961207
 30
0.0
 10
11.1558210877
 20
10.51772472
 30
0.0
 10
11.1700062209
 20
10.5192525116
 30
0.0
 10
11.1908228138
 20
10.5218088098
 30
0.0
 10
11.2107261941
 20
10.5245810765
 30
0.0
 10
11.2296423485
 20
10.5275595032
 30
0.0
 10
11.2475081756
 20
10.5307344854
 30
0.0
 10
11.2642665654
 20
10.5340968678
 30
0.0
 10
11.2798646965
 20
10.5376363399
 30
0.0
 10
11.2942571763
 20
10.5413449795
 30
0.0
 10
11.3054489111
 20
10.544641785
 30
0.0
 10
11.3137604405
 20
10.5473789217
 30
0.0
 10
11.3195339646
 20
10.5494281838
 30
0.0
 10
11.3249843924
 20
10.5515206456
 30
0.0
 10
11.330111307
 20
10.5536579033
 30
0.0
 10
11.3349142692
 20
10.5558419073
 30
0.0
 10
11.3393949726
 20
10.5580742876
 30
0.0
 10
11.3435571623
 20
10.560363685
 30
0.0
 10
11.3474032247
 20
10.5627308657
 30
0.0
 10
11.3509388235
 20
10.5651961485
 30
0.0
 10
11.3541677304
 20
10.5677805152
 30
0.0
 10
11.3570923305
 20
10.570498136
 30
0.0
 10
11.359686219
 20
10.5733851112
 30
0.0
 10
11.3619091353
 20
10.5764748551
 30
0.0
 10
11.3631132661
 20
10.578687546
 30
0.0
 10
11.3636340656
 20
10.5798240651
 30
0.0
  0
SPLINE
  5
44B
100
AcDbEntity
  8
0
100
AcDbSpline
 62
7
  6
CONTINUOUS
 70
0
 71
3
 72
43
 73
39
 74
0
 42
0.0000001
 43
0.0000001
 44
0.0000000001
 40
0.0
 40
0.0
 40
0.0
 40
0.0
 40
0.0060021134
 40
0.0120565424
 40
0.0182500101
 40
0.0214174747
 40
0.0246379065
 40
0.0312672228
 40
0.038202126
 40
0.04549788
 40
0.0532014
 40
0.0613439571
 40
0.069940498
 40
0.0790028439
 40
0.0885410368
 40
0.0985628302
 40
0.1090699281
 40
0.1315343882
 40
0.1559175063
 40
0.1821705409
 40
0.2102261006
 40
0.2400016179
 40
0.2714009759
 40
0.3043189653
 40
0.338638949
 40
0.374238707
 40
0.4109867042
 40
0.4487477281
 40
0.52673539
 40
0.6070250621
 40
0.6883939962
 40
0.7696000126
 40
0.8097543983
 40
0.8494027384
 40
0.888395289
 40
0.9265915822
 40
0.9638467461
 40
1.0
 40
1.0
 40
1.0
 40
1.0
 10
10.5117506198
 20
10.5798240651
 30
0.0
 10
10.5122922243
 20
10.5786421441
 30
0.0
 10
10.5135520333
 20
10.5763433726
 30
0.0
 10
10.515889583
 20
10.5731445375
 30
0.0
 10
10.5181497493
 20
10.5706783811
 30
0.0
 10
10.5201235277
 20
10.5687984602
 30
0.0
 10
10.5222433064
 20
10.5669381092
 30
0.0
 10
10.5251130653
 20
10.5647002696
 30
0.0
 10
10.5288566415
 20
10.5621651217
 30
0.0
 10
10.5329383467
 20
10.5597292447
 30
0.0
 10
10.5373614302
 20
10.5573672485
 30
0.0
 10
10.5421290475
 20
10.5550619431
 30
0.0
 10
10.5472454497
 20
10.552810516
 30
0.0
 10
10.5527109096
 20
10.5506095814
 30
0.0
 10
10.5585256771
 20
10.5484566091
 30
0.0
 10
10.5646886902
 20
10.5463491179
 30
0.0
 10
10.573566995
 20
10.5435358719
 30
0.0
 10
10.5855246621
 20
10.5401539374
 30
0.0
 10
10.6008998084
 20
10.5363592058
 30
0.0
 10
10.617560567
 20
10.5327495913
 30
0.0
 10
10.6354527288
 20
10.5293359316
 30
0.0
 10
10.654514153
 20
10.5261286127
 30
0.0
 10
10.6746760224
 20
10.5231383546
 30
0.0
 10
10.6958633176
 20
10.5203759163
 30
0.0
 10
10.7179961156
 20
10.5178510724
 30
0.0
 10
10.7409894876
 20
10.5155739243
 30
0.0
 10
10.7647548312
 20
10.5135523732
 30
0.0
 10
10.7977025694
 20
10.5111839201
 30
0.0
 10
10.8401108836
 20
10.5089349608
 30
0.0
 10
10.8920009413
 20
10.5073758493
 30
0.0
 10
10.9446097359
 20
10.506953968
 30
0.0
 10
10.9885222263
 20
10.5075574841
 30
0.0
 10
11.0233823862
 20
10.5086208318
 30
0.0
 10
11.0490924096
 20
10.5096982145
 30
0.0
 10
11.0743644809
 20
10.5110545867
 30
0.0
 10
11.0991009681
 20
10.5126844851
 30
0.0
 10
11.1232014984
 20
10.5145818802
 30
0.0
 10
11.139035692
 20
10.5160428703
 30
0.0
 10
11.1468281729
 20
10.5168194258
 30
0.0
  0
LINE
  5
44C
100
AcDbEntity
  8
0
100
AcDbLine
 62
7
  6
CONTINUOUS
 10
11.1468281729
 20
10.5168194258
 11
11.1477740926
 21
10.5169139751
  0
SPLINE
  5
44D
100
AcDbEntity
  8
0
100
AcDbSpline
 62
7
  6
CONTINUOUS
 70
0
 71
3
 72
9
 73
5
 74
0
 42
0.0000001
 43
0.0000001
 44
0.0000000001
 40
0.0
 40
0.0
 40
0.0
 40
0.0
 40
0.4959767906
 40
1.0
 40
1.0
 40
1.0
 40
1.0
 10
11.4001918461
 20
10.9295084923
 30
0.0
 10
11.4001919002
 20
10.9301148885
 30
0.0
 10
11.4001117926
 20
10.9313388113
 30
0.0
 10
11.3998749248
 20
10.9325419557
 30
0.0
 10
11.399719557
 20
10.933138282
 30
0.0
  0
SPLINE
  5
44E
100
AcDbEntity
  8
0
100
AcDbSpline
 62
7
  6
CONTINUOUS
 70
0
 71
3
 72
11
 73
7
 74
0
 42
0.0000001
 43
0.0000001
 44
0.0000000001
 40
0.0
 40
0.0
 40
0.0
 40
0.0
 40
0.2313597353
 40
0.4733006031
 40
0.7287046422
 40
1.0
 40
1.0
 40
1.0
 40
1.0
 10
11.399719557
 20
10.933138282
 30
0.0
 10
11.3995532227
 20
10.9337766991
 30
0.0
 10
11.3991278915
 20
10.9350618047
 30
0.0
 10
11.398246059
 20
10.9369478572
 30
0.0
 10
11.3971107826
 20
10.9388269511
 30
0.0
 10
11.3962150073
 20
10.9400353108
 30
0.0
 10
11.3957296497
 20
10.9406377198
 30
0.0
  0
SPLINE
  5
44F
100
AcDbEntity
  8
0
100
AcDbSpline
 62
9
  6
CONTINUOUS
 70
0
 71
3
 72
69
 73
65
 74
0
 42
0.0000001
 43
0.0000001
 44
0.0000000001
 40
0.0
 40
0.0
 40
0.0
 40
0.0
 40
0.0421456581
 40
0.0861502103
 40
0.1315850069
 40
0.1780419914
 40
0.2250872334
 40
0.2722819825
 40
0.3191879465
 40
0.3653681927
 40
0.410394157
 40
0.4538492656
 40
0.4953335863
 40
0.5344696737
 40
0.5530463013
 40
0.5709067373
 40
0.5880111446
 40
0.6043236389
 40
0.619810443
 40
0.6344394375
 40
0.6481836102
 40
0.6610187067
 40
0.6729235838
 40
0.6838841487
 40
0.6938911451
 40
0.7029422722
 40
0.7071126796
 40
0.7110489276
 40
0.7147543199
 40
0.7182333328
 40
0.7214922186
 40
0.7245394597
 40
0.7273858154
 40
0.7300448571
 40
0.7325336236
 40
0.7348733222
 40
0.737090082
 40
0.7392149426
 40
0.7412831694
 40
0.7433330322
 40
0.7454038998
 40
0.7475340379
 40
0.7521002873
 40
0.7545998943
 40
0.7572709694
 40
0.7601305501
 40
0.7631922103
 40
0.766466268
 40
0.7699606233
 40
0.7736813759
 40
0.7776332064
 40
0.7862421376
 40
0.7958038214
 40
0.8063203915
 40
0.8177871113
 40
0.8301912013
 40
0.8435142747
 40
0.8577351182
 40
0.872826496
 40
0.8887576347
 40
0.9054965097
 40
0.9230086711
 40
0.9602064477
 40
1.0
 40
1.0
 40
1.0
 40
1.0
 10
11.1467765356
 20
10.517016017
 30
0.0
 10
11.1346422153
 20
10.5157994808
 30
0.0
 10
11.10980923
 20
10.5135972479
 30
0.0
 10
11.0718204562
 20
10.5110021201
 30
0.0
 10
11.0325435416
 20
10.5090615537
 30
0.0
 10
10.992359055
 20
10.5077941634
 30
0.0
 10
10.9516495456
 20
10.507212381
 30
0.0
 10
10.9108061335
 20
10.5073219321
 30
0.0
 10
10.8702207134
 20
10.5081218789
 30
0.0
 10
10.8302823721
 20
10.5096043488
 30
0.0
 10
10.7913742775
 20
10.5117545024
 30
0.0
 10
10.7538694456
 20
10.5145512449
 30
0.0
 10
10.7181274546
 20
10.5179672478
 30
0.0
 10
10.689621632
 20
10.5213569349
 30
0.0
 10
10.6679626598
 20
10.5243750899
 30
0.0
 10
10.6526497301
 20
10.526731603
 30
0.0
 10
10.6380209478
 20
10.529215196
 30
0.0
 10
10.624111268
 20
10.5318194964
 30
0.0
 10
10.6109539236
 20
10.5345378826
 30
0.0
 10
10.5985804185
 20
10.5373643625
 30
0.0
 10
10.5870201031
 20
10.5402914697
 30
0.0
 10
10.5763002914
 20
10.5433118176
 30
0.0
 10
10.5664464175
 20
10.546418733
 30
0.0
 10
10.5574810457
 20
10.5496038473
 30
0.0
 10
10.5494249303
 20
10.5528593675
 30
0.0
 10
10.5433275212
 20
10.5556975385
 30
0.0
 10
10.5389341123
 20
10.558011688
 30
0.0
 10
10.5359686006
 20
10.5597127188
 30
0.0
 10
10.5332435068
 20
10.5614258166
 30
0.0
 10
10.5307605324
 20
10.5631502311
 30
0.0
 10
10.5285210971
 20
10.5648851642
 30
0.0
 10
10.5265261981
 20
10.5666297175
 30
0.0
 10
10.5247767864
 20
10.5683832345
 30
0.0
 10
10.5232739173
 20
10.5701452029
 30
0.0
 10
10.5220188328
 20
10.5719152365
 30
0.0
 10
10.5210132119
 20
10.5736931106
 30
0.0
 10
10.5202587659
 20
10.5754782299
 30
0.0
 10
10.5197571103
 20
10.5772694158
 30
0.0
 10
10.5195099665
 20
10.5790647937
 30
0.0
 10
10.5195184736
 20
10.5808615991
 30
0.0
 10
10.5197828885
 20
10.5826569324
 30
0.0
 10
10.5204910886
 20
10.5850998989
 30
0.0
 10
10.5217230197
 20
10.5874896168
 30
0.0
 10
10.5233687605
 20
10.5897787064
 30
0.0
 10
10.5248883931
 20
10.5915407047
 30
0.0
 10
10.5266544551
 20
10.5932935405
 30
0.0
 10
10.5286664332
 20
10.5950373818
 30
0.0
 10
10.5309228926
 20
10.5967714777
 30
0.0
 10
10.5334224927
 20
10.5984951553
 30
0.0
 10
10.5361638041
 20
10.6002076001
 30
0.0
 10
10.5402573794
 20
10.6025416312
 30
0.0
 10
10.5459878364
 20
10.6054055252
 30
0.0
 10
10.5536142376
 20
10.6086913884
 30
0.0
 10
10.5621584536
 20
10.6119106604
 30
0.0
 10
10.571601105
 20
10.6150547039
 30
0.0
 10
10.5819205357
 20
10.6181162212
 30
0.0
 10
10.5930926332
 20
10.6210880165
 30
0.0
 10
10.6050911858
 20
10.623961985
 30
0.0
 10
10.6178873261
 20
10.6267315302
 30
0.0
 10
10.6314501322
 20
10.6293899978
 30
0.0
 10
10.6457474714
 20
10.6319303723
 30
0.0
 10
10.6661592694
 20
10.6352187628
 30
0.0
 10
10.6932512602
 20
10.6389592565
 30
0.0
 10
10.7153920623
 20
10.6414485329
 30
0.0
 10
10.7268478864
 20
10.642609993
 30
0.0
  0
SPLINE
  5
450
100
AcDbEntity
  8
0
100
AcDbSpline
 62
7
  6
CONTINUOUS
 70
0
 71
3
 72
32
 73
28
 74
0
 42
0.0000001
 43
0.0000001
 44
0.0000000001
 40
0.0
 40
0.0
 40
0.0
 40
0.0
 40
0.1036031864
 40
0.2030184935
 40
0.2977717682
 40
0.387487952
 40
0.4718390989
 40
0.5505184056
 40
0.6232400807
 40
0.6572901928
 40
0.6897662099
 40
0.720645966
 40
0.7499096201
 40
0.777543683
 40
0.8035411633
 40
0.8278993296
 40
0.8506209032
 40
0.8717179046
 40
0.8912165661
 40
0.909156185
 40
0.9255929539
 40
0.9406068677
 40
0.9543131473
 40
0.9668689919
 40
0.9784822339
 40
0.9894187202
 40
1.0
 40
1.0
 40
1.0
 40
1.0
 10
11.1356923427
 20
10.5203497816
 30
0.0
 10
11.1430310953
 20
10.5210855343
 30
0.0
 10
11.1574016252
 20
10.5226331856
 30
0.0
 10
11.1784398447
 20
10.5252425764
 30
0.0
 10
11.1984500438
 20
10.5280845808
 30
0.0
 10
11.2173424368
 20
10.5311455973
 30
0.0
 10
11.2350381542
 20
10.5344126371
 30
0.0
 10
11.251463142
 20
10.5378710641
 30
0.0
 10
11.2643006851
 20
10.5409636643
 30
0.0
 10
11.273874248
 20
10.5435377664
 30
0.0
 10
11.2805360793
 20
10.5454643257
 30
0.0
 10
11.2868312583
 20
10.5474272895
 30
0.0
 10
11.2927529614
 20
10.5494247765
 30
0.0
 10
11.2982949906
 20
10.5514546187
 30
0.0
 10
11.3034518066
 20
10.5535144427
 30
0.0
 10
11.3082181336
 20
10.5556020268
 30
0.0
 10
11.3125889008
 20
10.5577152669
 30
0.0
 10
11.3165595682
 20
10.559852254
 30
0.0
 10
11.3201265938
 20
10.5620106234
 30
0.0
 10
11.3232868841
 20
10.5641884468
 30
0.0
 10
11.3260375606
 20
10.5663841226
 30
0.0
 10
11.3283757445
 20
10.5685969256
 30
0.0
 10
11.3302992359
 20
10.5708262287
 30
0.0
 10
11.3318054104
 20
10.5730720455
 30
0.0
 10
11.3328897785
 20
10.5753350409
 30
0.0
 10
11.3335450797
 20
10.5776129058
 30
0.0
 10
11.3336919107
 20
10.5791484554
 30
0.0
 10
11.3336918315
 20
10.5799017399
 30
0.0
  0
LINE
  5
451
100
AcDbEntity
  8
0
100
AcDbLine
 62
9
  6
CONTINUOUS
 10
11.1467765356
 20
10.517016017
 11
11.1479510103
 21
10.5171340409
  0
LINE
  5
452
100
AcDbEntity
  8
0
100
AcDbLine
 62
9
  6
CONTINUOUS
 10
11.1479510103
 20
10.5171340409
 11
11.148536799
 21
10.517193487
  0
SPLINE
  5
453
100
AcDbEntity
  8
0
100
AcDbSpline
 62
7
  6
CONTINUOUS
 70
0
 71
3
 72
44
 73
40
 74
0
 42
0.0000001
 43
0.0000001
 44
0.0000000001
 40
0.0
 40
0.0
 40
0.0
 40
0.0
 40
0.0037038086
 40
0.0075317934
 40
0.0115964484
 40
0.0159915162
 40
0.0207895549
 40
0.0260448923
 40
0.0317976123
 40
0.0380769319
 40
0.0449025774
 40
0.0522874636
 40
0.0602400895
 40
0.0687656828
 40
0.0778659663
 40
0.0875392566
 40
0.0977822702
 40
0.1085905766
 40
0.1199584063
 40
0.131877513
 40
0.1573311406
 40
0.1848710529
 40
0.2143980641
 40
0.2458031487
 40
0.2789649145
 40
0.3137529772
 40
0.3500287292
 40
0.3876450103
 40
0.4264495194
 40
0.5069788557
 40
0.5902926349
 40
0.6750114415
 40
0.7597311859
 40
0.8016522737
 40
0.8430456638
 40
0.8837418629
 40
0.9235803619
 40
0.9623942757
 40
1.0
 40
1.0
 40
1.0
 40
1.0
 10
10.541692854
 20
10.57990174
 30
0.0
 10
10.5416929332
 20
10.5791484439
 30
0.0
 10
10.5418401099
 20
10.5776129598
 30
0.0
 10
10.5424950332
 20
10.5753351098
 30
0.0
 10
10.5435788579
 20
10.573071879
 30
0.0
 10
10.5450853668
 20
10.5708261756
 30
0.0
 10
10.5470092471
 20
10.568597052
 30
0.0
 10
10.5493474053
 20
10.5663842873
 30
0.0
 10
10.5520976615
 20
10.5641882948
 30
0.0
 10
10.5552579728
 20
10.5620105226
 30
0.0
 10
10.5588252966
 20
10.5598523239
 30
0.0
 10
10.5627960905
 20
10.5577154516
 30
0.0
 10
10.5671665906
 20
10.555601998
 30
0.0
 10
10.5719327407
 20
10.5535143123
 30
0.0
 10
10.5770897342
 20
10.5514546354
 30
0.0
 10
10.5826319979
 20
10.5494249116
 30
0.0
 10
10.5885536687
 20
10.5474273505
 30
0.0
 10
10.5948487216
 20
10.5454641885
 30
0.0
 10
10.6015106599
 20
10.5435377056
 30
0.0
 10
10.6110842573
 20
10.540963866
 30
0.0
 10
10.6239215893
 20
10.5378708827
 30
0.0
 10
10.6403467384
 20
10.5344126543
 30
0.0
 10
10.6580431458
 20
10.5311455215
 30
0.0
 10
10.6769353428
 20
10.5280846178
 30
0.0
 10
10.6969429286
 20
10.5252429617
 30
0.0
 10
10.7179805139
 20
10.5226331946
 30
0.0
 10
10.7399581805
 20
10.520266832
 30
0.0
 10
10.7627820925
 20
10.5181537934
 30
0.0
 10
10.7946062977
 20
10.5156565459
 30
0.0
 10
10.8357563529
 20
10.5132534669
 30
0.0
 10
10.8862847663
 20
10.5115228983
 30
0.0
 10
10.9376916562
 20
10.5109426944
 30
0.0
 10
10.9806801897
 20
10.5114276486
 30
0.0
 10
11.0148423643
 20
10.5124048829
 30
0.0
 10
11.0400442488
 20
10.5134229167
 30
0.0
 10
11.0648089352
 20
10.5147244864
 30
0.0
 10
11.0890318115
 20
10.5163038426
 30
0.0
 10
11.1126050369
 20
10.5181543616
 30
0.0
 10
11.1280820833
 20
10.5195868088
 30
0.0
 10
11.1356923427
 20
10.5203497816
 30
0.0
  0
SPLINE
  5
454
100
AcDbEntity
  8
0
100
AcDbSpline
 62
9
  6
CONTINUOUS
 70
0
 71
3
 72
47
 73
43
 74
0
 42
0.0000001
 43
0.0000001
 44
0.0000000001
 40
0.0
 40
0.0
 40
0.0
 40
0.0
 40
0.0040231392
 40
0.0078649558
 40
0.0116595662
 40
0.0155461677
 40
0.0196541891
 40
0.0240928881
 40
0.0289478175
 40
0.0342829795
 40
0.0401446516
 40
0.0465657024
 40
0.0535688147
 40
0.0611691167
 40
0.0693759944
 40
0.0781943457
 40
0.0876256509
 40
0.0976684356
 40
0.1083190483
 40
0.1195716748
 40
0.1314190215
 40
0.1438520723
 40
0.1704326556
 40
0.1992190924
 40
0.2300999547
 40
0.2629500736
 40
0.2976322574
 40
0.3339986993
 40
0.3718922019
 40
0.4111472938
 40
0.451591282
 40
0.4930452694
 40
0.5353251513
 40
0.578242603
 40
0.6652201802
 40
0.7524259133
 40
0.7956274724
 40
0.8383030727
 40
0.8802624476
 40
0.9213187254
 40
0.9612902453
 40
1.0
 40
1.0
 40
1.0
 40
1.0
 10
11.3636340369
 20
10.5798240655
 30
0.0
 10
11.3640052323
 20
10.5806341085
 30
0.0
 10
11.3646076142
 20
10.5822795512
 30
0.0
 10
11.3650353521
 20
10.584841957
 30
0.0
 10
11.3649524555
 20
10.58740961
 30
0.0
 10
11.3643597431
 20
10.5899683362
 30
0.0
 10
11.3632657209
 20
10.5925093979
 30
0.0
 10
11.3616791551
 20
10.5950297912
 30
0.0
 10
11.3596066475
 20
10.5975300068
 30
0.0
 10
11.3570520802
 20
10.600010606
 30
0.0
 10
11.3540184683
 20
10.6024714905
 30
0.0
 10
11.3505086082
 20
10.6049114691
 30
0.0
 10
11.3465258051
 20
10.6073287739
 30
0.0
 10
11.3420739462
 20
10.6097211577
 30
0.0
 10
11.3371576012
 20
10.6120861395
 30
0.0
 10
11.331782005
 20
10.6144211579
 30
0.0
 10
11.3259530121
 20
10.6167235207
 30
0.0
 10
11.3196770976
 20
10.6189906421
 30
0.0
 10
11.3129612966
 20
10.6212198142
 30
0.0
 10
11.3058132114
 20
10.6234085102
 30
0.0
 10
11.2982409684
 20
10.625554137
 30
0.0
 10
11.2873459468
 20
10.6284183374
 30
0.0
 10
11.2727244185
 20
10.6318514449
 30
0.0
 10
11.2540070239
 20
10.6356766778
 30
0.0
 10
11.2338328651
 20
10.6392752881
 30
0.0
 10
11.2122945792
 20
10.6426302704
 30
0.0
 10
11.1894909568
 20
10.6457256509
 30
0.0
 10
11.1655268704
 20
10.6485468109
 30
0.0
 10
11.1405126081
 20
10.6510804531
 30
0.0
 10
11.1145633748
 20
10.6533146698
 30
0.0
 10
11.087798726
 20
10.6552389853
 30
0.0
 10
11.0603420229
 20
10.6568443705
 30
0.0
 10
11.0323197892
 20
10.6581233818
 30
0.0
 10
10.994206877
 20
10.6593908568
 30
0.0
 10
10.9461242578
 20
10.6601187157
 30
0.0
 10
10.8979749163
 20
10.6597203753
 30
0.0
 10
10.8596529832
 20
10.6587172906
 30
0.0
 10
10.8313599044
 20
10.6576319314
 30
0.0
 10
10.8035571602
 20
10.6562165103
 30
0.0
 10
10.7763727894
 20
10.6544775919
 30
0.0
 10
10.7499322695
 20
10.6524233161
 30
0.0
 10
10.7325789428
 20
10.6508220053
 30
0.0
 10
10.7240482991
 20
10.6499667586
 30
0.0
  0
SPLINE
  5
455
100
AcDbEntity
  8
0
100
AcDbSpline
 62
9
  6
CONTINUOUS
 70
0
 71
3
 72
32
 73
28
 74
0
 42
0.0000001
 43
0.0000001
 44
0.0000000001
 40
0.0
 40
0.0
 40
0.0
 40
0.0
 40
0.0105814211
 40
0.0215178836
 40
0.033130644
 40
0.0456863245
 40
0.0593933802
 40
0.0744077928
 40
0.0908437434
 40
0.1087827749
 40
0.128282007
 40
0.1493799882
 40
0.1721008772
 40
0.196458017
 40
0.2224555115
 40
0.2500908158
 40
0.2793548198
 40
0.3102340588
 40
0.3427100092
 40
0.3767610622
 40
0.4494810208
 40
0.5281588884
 40
0.6125154984
 40
0.7022367454
 40
0.7969766809
 40
0.8963641251
 40
1.0
 40
1.0
 40
1.0
 40
1.0
 10
10.4751923427
 20
10.747319058
 30
0.0
 10
10.4751923427
 20
10.7481988542
 30
0.0
 10
10.4753642187
 20
10.7499922351
 30
0.0
 10
10.4761294123
 20
10.7526525953
 30
0.0
 10
10.4773955416
 20
10.7552957273
 30
0.0
 10
10.4791546167
 20
10.7579187458
 30
0.0
 10
10.4814014555
 20
10.76052226
 30
0.0
 10
10.4841324073
 20
10.7631065741
 30
0.0
 10
10.4873447672
 20
10.7656711481
 30
0.0
 10
10.4910356593
 20
10.7682147453
 30
0.0
 10
10.4952018437
 20
10.7707354957
 30
0.0
 10
10.49983948
 20
10.7732311791
 30
0.0
 10
10.5049441027
 20
10.775699424
 30
0.0
 10
10.5105106626
 20
10.7781376482
 30
0.0
 10
10.516533493
 20
10.7805433773
 30
0.0
 10
10.5230063998
 20
10.7829139412
 30
0.0
 10
10.5299226222
 20
10.7852469028
 30
0.0
 10
10.5372749068
 20
10.7875396087
 30
0.0
 10
10.5450554855
 20
10.7897897463
 30
0.0
 10
10.5562367336
 20
10.7927959049
 30
0.0
 10
10.5712298713
 20
10.7964079984
 30
0.0
 10
10.5904133107
 20
10.8004472855
 30
0.0
 10
10.6110814812
 20
10.8042628411
 30
0.0
 10
10.6331462581
 20
10.8078379029
 30
0.0
 10
10.6565138198
 20
10.8111567251
 30
0.0
 10
10.6810842513
 20
10.8142047137
 30
0.0
 10
10.6978684803
 20
10.8160119549
 30
0.0
 10
10.7064423427
 20
10.8168715346
 30
0.0
  0
SPLINE
  5
456
100
AcDbEntity
  8
0
100
AcDbSpline
 62
9
  6
CONTINUOUS
 70
0
 71
3
 72
44
 73
40
 74
0
 42
0.0000001
 43
0.0000001
 44
0.0000000001
 40
0.0
 40
0.0
 40
0.0
 40
0.0
 40
0.0376164917
 40
0.0764211266
 40
0.1162542105
 40
0.1569523475
 40
0.2402662825
 40
0.3249855319
 40
0.4097047823
 40
0.4930187289
 40
0.5337168175
 40
0.5735500211
 40
0.6123544246
 40
0.6499710635
 40
0.6862467657
 40
0.7210350159
 40
0.7541968543
 40
0.7856018386
 40
0.8151291105
 40
0.8426686349
 40
0.8681227264
 40
0.8800415798
 40
0.8914091022
 40
0.9022177295
 40
0.9124609778
 40
0.9221341339
 40
0.9312340092
 40
0.939759713
 40
0.9477126816
 40
0.9550975855
 40
0.961922881
 40
0.9682020611
 40
0.9739551194
 40
0.9792105983
 40
0.9840084644
 40
0.9884033159
 40
0.9924681181
 40
0.9962961964
 40
1.0
 40
1.0
 40
1.0
 40
1.0
 10
10.7064423427
 20
10.8168715346
 30
0.0
 10
10.7153331405
 20
10.8177628888
 30
0.0
 10
10.7334095765
 20
10.8194362534
 30
0.0
 10
10.7609405628
 20
10.8215969908
 30
0.0
 10
10.7892281897
 20
10.8234414591
 30
0.0
 10
10.828094946
 20
10.8254839337
 30
0.0
 10
10.8776526951
 20
10.8271806818
 30
0.0
 10
10.9376923429
 20
10.8278585462
 30
0.0
 10
10.9977319945
 20
10.8271806825
 30
0.0
 10
11.0472897324
 20
10.8254839313
 30
0.0
 10
11.0861565136
 20
10.8234414612
 30
0.0
 10
11.1144440875
 20
10.8215969885
 30
0.0
 10
11.1419751353
 20
10.819436257
 30
0.0
 10
11.1686319157
 20
10.8169685799
 30
0.0
 10
11.1943004127
 20
10.8142047173
 30
0.0
 10
11.2188708973
 20
10.8111567166
 30
0.0
 10
11.2422384112
 20
10.8078379089
 30
0.0
 10
11.2643032107
 20
10.8042628378
 30
0.0
 10
11.2849713725
 20
10.8004472871
 30
0.0
 10
11.3041548149
 20
10.7964079977
 30
0.0
 10
11.3191479515
 20
10.7927959051
 30
0.0
 10
11.3303291999
 20
10.7897897462
 30
0.0
 10
11.3381097786
 20
10.7875396087
 30
0.0
 10
11.3454620632
 20
10.7852469028
 30
0.0
 10
11.3523782856
 20
10.7829139412
 30
0.0
 10
11.3588511924
 20
10.7805433773
 30
0.0
 10
11.3648740228
 20
10.7781376482
 30
0.0
 10
11.3704405827
 20
10.775699424
 30
0.0
 10
11.3755452054
 20
10.7732311791
 30
0.0
 10
11.3801828417
 20
10.7707354957
 30
0.0
 10
11.3843490261
 20
10.7682147453
 30
0.0
 10
11.3880399182
 20
10.7656711481
 30
0.0
 10
11.3912522781
 20
10.7631065741
 30
0.0
 10
11.3939832299
 20
10.76052226
 30
0.0
 10
11.3962300687
 20
10.7579187458
 30
0.0
 10
11.3979891438
 20
10.7552957273
 30
0.0
 10
11.3992552731
 20
10.7526525953
 30
0.0
 10
11.4000204667
 20
10.7499922351
 30
0.0
 10
11.4001923427
 20
10.7481988542
 30
0.0
 10
11.4001923427
 20
10.747319058
 30
0.0
  0
LINE
  5
457
100
AcDbEntity
  8
0
100
AcDbLine
 62
9
  6
CONTINUOUS
 10
10.7240482991
 20
10.6499667586
 11
10.7222496466
 21
10.6497854182
  0
SPLINE
  5
458
100
AcDbEntity
  8
0
100
AcDbSpline
 62
9
  6
CONTINUOUS
 70
0
 71
3
 72
33
 73
29
 74
0
 42
0.0000001
 43
0.0000001
 44
0.0000000001
 40
0.0
 40
0.0
 40
0.0
 40
0.0
 40
0.108522383
 40
0.2121912692
 40
0.3105321678
 40
0.4031037632
 40
0.4895008501
 40
0.5693603121
 40
0.6067393709
 40
0.6423706723
 40
0.6762237544
 40
0.7082731902
 40
0.7384980519
 40
0.7668837987
 40
0.7934222821
 40
0.8181141531
 40
0.840969893
 40
0.8620133821
 40
0.8812849687
 40
0.8988475907
 40
0.9147938261
 40
0.9292568147
 40
0.942423009
 40
0.954546292
 40
0.9659559982
 40
0.9770489928
 40
0.988257378
 40
1.0
 40
1.0
 40
1.0
 40
1.0
 10
10.7222496466
 20
10.6497854182
 30
0.0
 10
10.7138024931
 20
10.6489289952
 30
0.0
 10
10.697298789
 20
10.6471241198
 30
0.0
 10
10.6731963534
 20
10.6440602373
 30
0.0
 10
10.6503919921
 20
10.6407128326
 30
0.0
 10
10.6289972859
 20
10.6370988905
 30
0.0
 10
10.6091168827
 20
10.6332365924
 30
0.0
 10
10.5935671001
 20
10.6297553382
 30
0.0
 10
10.5819666483
 20
10.6268422155
 30
0.0
 10
10.5738964101
 20
10.6246556708
 30
0.0
 10
10.5662726649
 20
10.6224217349
 30
0.0
 10
10.5591046601
 20
10.6201432143
 30
0.0
 10
10.5524010537
 20
10.6178228775
 30
0.0
 10
10.5461698729
 20
10.6154636829
 30
0.0
 10
10.540418519
 20
10.6130684569
 30
0.0
 10
10.5351536916
 20
10.61064019
 30
0.0
 10
10.5303814129
 20
10.6081816754
 30
0.0
 10
10.526106916
 20
10.6056957497
 30
0.0
 10
10.5223347151
 20
10.6031848692
 30
0.0
 10
10.5190685224
 20
10.6006511962
 30
0.0
 10
10.5163115479
 20
10.5980960363
 30
0.0
 10
10.5140668582
 20
10.5955197375
 30
0.0
 10
10.5123386215
 20
10.5929214341
 30
0.0
 10
10.5111335972
 20
10.5903002538
 30
0.0
 10
10.510461943
 20
10.5876585741
 30
0.0
 10
10.5103336762
 20
10.5850056562
 30
0.0
 10
10.5107509282
 20
10.582357649
 30
0.0
 10
10.5113679286
 20
10.5806592635
 30
0.0
 10
10.5117506372
 20
10.5798240653
 30
0.0
  0
SPLINE
  5
459
100
AcDbEntity
  8
0
100
AcDbSpline
 62
9
  6
CONTINUOUS
 70
0
 71
3
 72
69
 73
65
 74
0
 42
0.0000001
 43
0.0000001
 44
0.0000000001
 40
0.0
 40
0.0
 40
0.0
 40
0.0
 40
0.0421456581
 40
0.0861502103
 40
0.1315850069
 40
0.1780419914
 40
0.2250872334
 40
0.2722819825
 40
0.3191879465
 40
0.3653681927
 40
0.410394157
 40
0.4538492656
 40
0.4953335863
 40
0.5344696737
 40
0.5530463013
 40
0.5709067373
 40
0.5880111446
 40
0.6043236389
 40
0.619810443
 40
0.6344394375
 40
0.6481836102
 40
0.6610187067
 40
0.6729235838
 40
0.6838841487
 40
0.6938911451
 40
0.7029422722
 40
0.7071126796
 40
0.7110489276
 40
0.7147543199
 40
0.7182333328
 40
0.7214922186
 40
0.7245394597
 40
0.7273858154
 40
0.7300448571
 40
0.7325336236
 40
0.7348733222
 40
0.737090082
 40
0.7392149426
 40
0.7412831694
 40
0.7433330322
 40
0.7454038998
 40
0.7475340379
 40
0.7521002873
 40
0.7545998943
 40
0.7572709694
 40
0.7601305501
 40
0.7631922103
 40
0.766466268
 40
0.7699606233
 40
0.7736813759
 40
0.7776332064
 40
0.7862421376
 40
0.7958038214
 40
0.8063203915
 40
0.8177871113
 40
0.8301912013
 40
0.8435142747
 40
0.8577351182
 40
0.872826496
 40
0.8887576347
 40
0.9054965097
 40
0.9230086711
 40
0.9602064477
 40
1.0
 40
1.0
 40
1.0
 40
1.0
 10
10.7286081498
 20
10.6427874629
 30
0.0
 10
10.7407424702
 20
10.6440039992
 30
0.0
 10
10.7655754554
 20
10.646206232
 30
0.0
 10
10.8035642293
 20
10.6488013599
 30
0.0
 10
10.8428411438
 20
10.6507419262
 30
0.0
 10
10.8830256304
 20
10.6520093166
 30
0.0
 10
10.9237351398
 20
10.6525910989
 30
0.0
 10
10.9645785519
 20
10.6524815478
 30
0.0
 10
11.0051639721
 20
10.651681601
 30
0.0
 10
11.0451023133
 20
10.6501991311
 30
0.0
 10
11.0840104079
 20
10.6480489775
 30
0.0
 10
11.1215152398
 20
10.645252235
 30
0.0
 10
11.1572572308
 20
10.6418362322
 30
0.0
 10
11.1857630534
 20
10.638446545
 30
0.0
 10
11.2074220256
 20
10.63542839
 30
0.0
 10
11.2227349553
 20
10.633071877
 30
0.0
 10
11.2373637376
 20
10.6305882839
 30
0.0
 10
11.2512734174
 20
10.6279839836
 30
0.0
 10
11.2644307618
 20
10.6252655973
 30
0.0
 10
11.2768042669
 20
10.6224391175
 30
0.0
 10
11.2883645824
 20
10.6195120102
 30
0.0
 10
11.2990843941
 20
10.6164916624
 30
0.0
 10
11.3089382679
 20
10.6133847469
 30
0.0
 10
11.3179036397
 20
10.6101996326
 30
0.0
 10
11.3259597551
 20
10.6069441124
 30
0.0
 10
11.3320571642
 20
10.6041059414
 30
0.0
 10
11.3364505731
 20
10.6017917919
 30
0.0
 10
11.3394160848
 20
10.6000907612
 30
0.0
 10
11.3421411786
 20
10.5983776633
 30
0.0
 10
11.344624153
 20
10.5966532488
 30
0.0
 10
11.3468635883
 20
10.5949183157
 30
0.0
 10
11.3488584873
 20
10.5931737624
 30
0.0
 10
11.350607899
 20
10.5914202454
 30
0.0
 10
11.3521107681
 20
10.589658277
 30
0.0
 10
11.3533658526
 20
10.5878882434
 30
0.0
 10
11.3543714735
 20
10.5861103693
 30
0.0
 10
11.3551259195
 20
10.58432525
 30
0.0
 10
11.3556275751
 20
10.5825340641
 30
0.0
 10
11.3558747189
 20
10.5807386862
 30
0.0
 10
11.3558662118
 20
10.5789418809
 30
0.0
 10
11.3556017969
 20
10.5771465475
 30
0.0
 10
11.3548935968
 20
10.5747035811
 30
0.0
 10
11.3536616657
 20
10.5723138631
 30
0.0
 10
11.3520159249
 20
10.5700247736
 30
0.0
 10
11.3504962923
 20
10.5682627753
 30
0.0
 10
11.3487302303
 20
10.5665099395
 30
0.0
 10
11.3467182522
 20
10.5647660981
 30
0.0
 10
11.3444617928
 20
10.5630320022
 30
0.0
 10
11.3419621927
 20
10.5613083246
 30
0.0
 10
11.3392208813
 20
10.5595958798
 30
0.0
 10
11.335127306
 20
10.5572618487
 30
0.0
 10
11.329396849
 20
10.5543979547
 30
0.0
 10
11.3217704478
 20
10.5511120916
 30
0.0
 10
11.3132262319
 20
10.5478928195
 30
0.0
 10
11.3037835804
 20
10.544748776
 30
0.0
 10
11.2934641498
 20
10.5416872588
 30
0.0
 10
11.2822920522
 20
10.5387154634
 30
0.0
 10
11.2702934996
 20
10.5358414949
 30
0.0
 10
11.2574973593
 20
10.5330719497
 30
0.0
 10
11.2439345532
 20
10.5304134821
 30
0.0
 10
11.229637214
 20
10.5278731076
 30
0.0
 10
11.209225416
 20
10.5245847171
 30
0.0
 10
11.1821334252
 20
10.5208442234
 30
0.0
 10
11.1599926231
 20
10.518354947
 30
0.0
 10
11.148536799
 20
10.517193487
 30
0.0
  0
SPLINE
  5
45A
100
AcDbEntity
  8
0
100
AcDbSpline
 62
7
  6
CONTINUOUS
 70
0
 71
3
 72
19
 73
15
 74
0
 42
0.0000001
 43
0.0000001
 44
0.0000000001
 40
0.0
 40
0.0
 40
0.0
 40
0.0
 40
0.0057110083
 40
0.0222600895
 40
0.049191218
 40
0.0858069071
 40
0.1312852466
 40
0.1847470003
 40
0.3123333802
 40
0.3849862906
 40
0.4626663704
 40
0.6307726082
 40
0.8118277896
 40
1.0
 40
1.0
 40
1.0
 40
1.0
 10
15.4951921502
 20
8.8446962586
 30
0.0
 10
15.4949812754
 20
8.8443407828
 30
0.0
 10
15.4941651887
 20
8.8429517651
 30
0.0
 10
15.492369666
 20
8.8398776386
 30
0.0
 10
15.4894855676
 20
8.8348492349
 30
0.0
 10
15.4856344179
 20
8.8279623063
 30
0.0
 10
15.4809751339
 20
8.8193282634
 30
0.0
 10
15.4734599957
 20
8.804757303
 30
0.0
 10
15.4656370583
 20
8.7881343845
 30
0.0
 10
15.4579091466
 20
8.7695606128
 30
0.0
 10
15.4498394282
 20
8.747968965
 30
0.0
 10
15.4408987342
 20
8.718347865
 30
0.0
 10
15.4336054643
 20
8.6800682205
 30
0.0
 10
15.4318583065
 20
8.6533150054
 30
0.0
 10
15.4318583065
 20
8.6396965989
 30
0.0
  0
SPLINE
  5
45B
100
AcDbEntity
  8
0
100
AcDbSpline
 62
7
  6
CONTINUOUS
 70
0
 71
3
 72
45
 73
41
 74
0
 42
0.0000001
 43
0.0000001
 44
0.0000000001
 40
0.0
 40
0.0
 40
0.0
 40
0.0
 40
0.04736223
 40
0.0946496269
 40
0.1417154017
 40
0.1884199741
 40
0.2346633433
 40
0.2803524795
 40
0.3253895336
 40
0.3696888563
 40
0.4557605695
 40
0.537935056
 40
0.6156499842
 40
0.6883228484
 40
0.7553119483
 40
0.8159100845
 40
0.8435705803
 40
0.8693370119
 40
0.8931016268
 40
0.9147533719
 40
0.934180163
 40
0.9512730642
 40
0.9659376895
 40
0.9723309069
 40
0.9780828127
 40
0.9831819477
 40
0.9876173769
 40
0.9913825498
 40
0.9944730451
 40
0.9957639106
 40
0.9968844526
 40
0.9978341194
 40
0.9986123589
 40
0.9992186192
 40
0.9994570845
 40
0.9996523478
 40
0.9998043401
 40
0.9999129923
 40
0.9999782353
 40
1.0
 40
1.0
 40
1.0
 40
1.0
 10
15.4318583065
 20
8.6396965989
 30
0.0
 10
15.4318583065
 20
8.6362679532
 30
0.0
 10
15.4319713376
 20
8.6294155676
 30
0.0
 10
15.4324717865
 20
8.6191670587
 30
0.0
 10
15.4332953919
 20
8.608987096
 30
0.0
 10
15.4344357285
 20
8.5989138911
 30
0.0
 10
15.435871556
 20
8.5889793746
 30
0.0
 10
15.4375805373
 20
8.5792108421
 30
0.0
 10
15.4395419389
 20
8.5696335026
 30
0.0
 10
15.4424332285
 20
8.5572675702
 30
0.0
 10
15.446518196
 20
8.5424258063
 30
0.0
 10
15.4520523886
 20
8.5254960471
 30
0.0
 10
15.4579522306
 20
8.5097233597
 30
0.0
 10
15.4640021113
 20
8.4951931232
 30
0.0
 10
15.4699988264
 20
8.4819920332
 30
0.0
 10
15.4749228859
 20
8.4718880757
 30
0.0
 10
15.4786707053
 20
8.4645333003
 30
0.0
 10
15.4812590298
 20
8.4595807314
 30
0.0
 10
15.4836887053
 20
8.4550363462
 30
0.0
 10
15.4859371792
 20
8.4509157094
 30
0.0
 10
15.4879819137
 20
8.4472342587
 30
0.0
 10
15.489801004
 20
8.4440061688
 30
0.0
 10
15.4911703631
 20
8.4416077284
 30
0.0
 10
15.4921391037
 20
8.4399259753
 30
0.0
 10
15.4927645584
 20
8.4388456159
 30
0.0
 10
15.4933207897
 20
8.4378889493
 30
0.0
 10
15.4938058381
 20
8.4370572635
 30
0.0
 10
15.4942184657
 20
8.4363516737
 30
0.0
 10
15.4945167894
 20
8.4358429491
 30
0.0
 10
15.4947185917
 20
8.4354995634
 30
0.0
 10
15.4948419979
 20
8.4352898661
 30
0.0
 10
15.4949466837
 20
8.4351122105
 30
0.0
 10
15.495032566
 20
8.4349666896
 30
0.0
 10
15.4950923132
 20
8.4348655225
 30
0.0
 10
15.4951306736
 20
8.4348007467
 30
0.0
 10
15.4951522062
 20
8.4347642084
 30
0.0
 10
15.4951691942
 20
8.4347359398
 30
0.0
 10
15.4951808407
 20
8.4347153547
 30
0.0
 10
15.4951887364
 20
8.4347036814
 30
0.0
 10
15.4951912562
 20
8.4346977369
 30
0.0
 10
15.4951923459
 20
8.4346965989
 30
0.0
  0
SPLINE
  5
45C
100
AcDbEntity
  8
0
100
AcDbSpline
 62
7
  6
CONTINUOUS
 70
0
 71
3
 72
46
 73
42
 74
0
 42
0.0000001
 43
0.0000001
 44
0.0000000001
 40
0.0
 40
0.0
 40
0.0
 40
0.0
 40
0.0000217209
 40
0.0000868628
 40
0.0001953616
 40
0.0003471534
 40
0.0005421742
 40
0.0007803602
 40
0.0013859716
 40
0.0021634761
 40
0.0031123625
 40
0.0042321196
 40
0.0055222366
 40
0.0086115064
 40
0.0123760872
 40
0.0168116069
 40
0.0219098331
 40
0.0276597964
 40
0.0340504862
 40
0.0410709114
 40
0.0487101024
 40
0.0658008207
 40
0.0852255306
 40
0.1068732534
 40
0.1306326783
 40
0.1563937177
 40
0.18405054
 40
0.2135009038
 40
0.2446443674
 40
0.3116286261
 40
0.3842986683
 40
0.4620109921
 40
0.5441936879
 40
0.6302661332
 40
0.6745674701
 40
0.7196110165
 40
0.7653054486
 40
0.8115559447
 40
0.8582733857
 40
0.9053519476
 40
1.0
 40
1.0
 40
1.0
 40
1.0
 10
14.3801923558
 20
8.4346965989
 30
0.0
 10
14.3801912683
 20
8.4346954632
 30
0.0
 10
14.3801990725
 20
8.4347069316
 30
0.0
 10
14.3802018376
 20
8.4347132496
 30
0.0
 10
14.3802163677
 20
8.4347368567
 30
0.0
 10
14.3802320313
 20
8.434763753
 30
0.0
 10
14.3802540157
 20
8.4348007774
 30
0.0
 10
14.3802920637
 20
8.4348652504
 30
0.0
 10
14.3803518599
 20
8.434966501
 30
0.0
 10
14.3804375394
 20
8.4351118466
 30
0.0
 10
14.3805421086
 20
8.4352894146
 30
0.0
 10
14.3806653682
 20
8.4354989868
 30
0.0
 10
14.3808670072
 20
8.435842237
 30
0.0
 10
14.3811651896
 20
8.4363508174
 30
0.0
 10
14.3815777788
 20
8.4370562747
 30
0.0
 10
14.3820629279
 20
8.4378877697
 30
0.0
 10
14.3826191251
 20
8.4388442097
 30
0.0
 10
14.3832444137
 20
8.4399241979
 30
0.0
 10
14.3839367866
 20
8.4411261324
 30
0.0
 10
14.3846942186
 20
8.4424484168
 30
0.0
 10
14.3858314232
 20
8.4444458179
 30
0.0
 10
14.3874011075
 20
8.4472302748
 30
0.0
 10
14.3894455877
 20
8.4509111238
 30
0.0
 10
14.3916933265
 20
8.4550311664
 30
0.0
 10
14.3941222206
 20
8.4595746997
 30
0.0
 10
14.3967103344
 20
8.4645261312
 30
0.0
 10
14.3994340307
 20
8.4698712186
 30
0.0
 10
14.4022689338
 20
8.475596528
 30
0.0
 10
14.4062632316
 20
8.483923836
 30
0.0
 10
14.4113780201
 20
8.4951826474
 30
0.0
 10
14.417427756
 20
8.5097118693
 30
0.0
 10
14.4233280029
 20
8.5254844334
 30
0.0
 10
14.4288620722
 20
8.5424144583
 30
0.0
 10
14.4329493532
 20
8.5572562088
 30
0.0
 10
14.4358409552
 20
8.5696226194
 30
0.0
 10
14.4378016825
 20
8.5792009914
 30
0.0
 10
14.4395111484
 20
8.5889707094
 30
0.0
 10
14.4409474839
 20
8.5989068457
 30
0.0
 10
14.4420871888
 20
8.6089825635
 30
0.0
 10
14.4431875701
 20
8.6225812713
 30
0.0
 10
14.443526379
 20
8.6328449214
 30
0.0
 10
14.443526379
 20
8.6396965989
 30
0.0
  0
SPLINE
  5
45D
100
AcDbEntity
  8
0
100
AcDbSpline
 62
7
  6
CONTINUOUS
 70
0
 71
3
 72
25
 73
21
 74
0
 42
0.0000001
 43
0.0000001
 44
0.0000000001
 40
0.0
 40
0.0
 40
0.0
 40
0.0
 40
0.0472911333
 40
0.094509013
 40
0.1415073122
 40
0.1881455254
 40
0.279937894
 40
0.3249139511
 40
0.3691546291
 40
0.4551195522
 40
0.5372044619
 40
0.6148472812
 40
0.6874704924
 40
0.815028199
 40
0.8684953753
 40
0.9139919065
 40
0.9506353762
 40
0.977614052
 40
0.9942181897
 40
1.0
 40
1.0
 40
1.0
 40
1.0
 10
14.443526379
 20
8.6396965989
 30
0.0
 10
14.443526379
 20
8.6431200055
 30
0.0
 10
14.4434135277
 20
8.6499620319
 30
0.0
 10
14.4429141671
 20
8.6601952
 30
0.0
 10
14.4420929038
 20
8.670360394
 30
0.0
 10
14.4405851495
 20
8.6837003934
 30
0.0
 10
14.4384897401
 20
8.6968202819
 30
0.0
 10
14.4358646777
 20
8.7096592133
 30
0.0
 10
14.4329810309
 20
8.7220098729
 30
0.0
 10
14.4289060325
 20
8.7368347303
 30
0.0
 10
14.4233845427
 20
8.7537476486
 30
0.0
 10
14.417496348
 20
8.7695080163
 30
0.0
 10
14.409771568
 20
8.7880805832
 30
0.0
 10
14.4019501207
 20
8.8047051599
 30
0.0
 10
14.394435312
 20
8.8192804608
 30
0.0
 10
14.3897727013
 20
8.8279197055
 30
0.0
 10
14.3859187195
 20
8.8348150551
 30
0.0
 10
14.3830290567
 20
8.8398528075
 30
0.0
 10
14.3812276811
 20
8.8429390786
 30
0.0
 10
14.380406339
 20
8.8443360405
 30
0.0
 10
14.3801927182
 20
8.8446959661
 30
0.0
  0
SPLINE
  5
45E
100
AcDbEntity
  8
0
100
AcDbSpline
 62
7
  6
CONTINUOUS
 70
0
 71
3
 72
12
 73
8
 74
0
 42
0.0000001
 43
0.0000001
 44
0.0000000001
 40
0.0
 40
0.0
 40
0.0
 40
0.0
 40
0.2398037788
 40
0.3615206726
 40
0.4848393728
 40
0.7374368285
 40
1.0
 40
1.0
 40
1.0
 40
1.0
 10
15.14738256
 20
8.035695311
 30
0.0
 10
15.1497127999
 20
8.0358642869
 30
0.0
 10
15.1532122473
 20
8.0364475515
 30
0.0
 10
15.1577298889
 20
8.0378417047
 30
0.0
 10
15.1622250987
 20
8.0396737996
 30
0.0
 10
15.1676644382
 20
8.042752091
 30
0.0
 10
15.1716066878
 20
8.0458931902
 30
0.0
 10
15.1734908087
 20
8.0476234955
 30
0.0
  0
SPLINE
  5
45F
100
AcDbEntity
  8
0
100
AcDbSpline
 62
7
  6
CONTINUOUS
 70
0
 71
3
 72
28
 73
24
 74
0
 42
0.0000001
 43
0.0000001
 44
0.0000000001
 40
0.0
 40
0.0
 40
0.0
 40
0.0
 40
0.0619699583
 40
0.0939995733
 40
0.1266808672
 40
0.1937968828
 40
0.262877961
 40
0.3332841229
 40
0.4042573903
 40
0.4749816416
 40
0.5446224169
 40
0.6123818674
 40
0.677550334
 40
0.7395527042
 40
0.7980267208
 40
0.8259187604
 40
0.8529158659
 40
0.8790520443
 40
0.904393537
 40
0.9290372328
 40
0.9531010363
 40
0.9767140579
 40
1.0
 40
1.0
 40
1.0
 40
1.0
 10
15.1734908087
 20
8.0476234955
 30
0.0
 10
15.1756403237
 20
8.0495975287
 30
0.0
 10
15.178665145
 20
8.0528596248
 30
0.0
 10
15.1822357075
 20
8.0576426762
 30
0.0
 10
15.185605322
 20
8.0628623706
 30
0.0
 10
15.1892465842
 20
8.0699589156
 30
0.0
 10
15.1926215007
 20
8.0791076038
 30
0.0
 10
15.1949753127
 20
8.0887569846
 30
0.0
 10
15.1962683673
 20
8.0986815013
 30
0.0
 10
15.1964851065
 20
8.1086513687
 30
0.0
 10
15.1956307321
 20
8.1184354664
 30
0.0
 10
15.1937396525
 20
8.1278072491
 30
0.0
 10
15.1908666736
 20
8.1365508814
 30
0.0
 10
15.1870876347
 20
8.1444625338
 30
0.0
 10
15.1832018339
 20
8.1503050834
 30
0.0
 10
15.1797247119
 20
8.1543633125
 30
0.0
 10
15.1770030222
 20
8.1570448644
 30
0.0
 10
15.174143202
 20
8.1593941455
 30
0.0
 10
15.1711627397
 20
8.1613966535
 30
0.0
 10
15.1680806309
 20
8.1630415385
 30
0.0
 10
15.1649149758
 20
8.1643167566
 30
0.0
 10
15.1616883599
 20
8.1652128729
 30
0.0
 10
15.159500849
 20
8.1655576517
 30
0.0
 10
15.1584094273
 20
8.1656644418
 30
0.0
  0
SPLINE
  5
460
100
AcDbEntity
  8
0
100
AcDbSpline
 62
7
  6
CONTINUOUS
 70
0
 71
3
 72
14
 73
10
 74
0
 42
0.0000001
 43
0.0000001
 44
0.0000000001
 40
0.0
 40
0.0
 40
0.0
 40
0.0
 40
0.1114220669
 40
0.2261601835
 40
0.344637088
 40
0.4672225172
 40
0.7251539358
 40
0.8607032474
 40
1.0
 40
1.0
 40
1.0
 40
1.0
 10
15.1479226318
 20
8.1637514237
 30
0.0
 10
15.1464399234
 20
8.1632130484
 30
0.0
 10
15.143500505
 20
8.1619175242
 30
0.0
 10
15.1393051979
 20
8.1594047006
 30
0.0
 10
15.1353092034
 20
8.156319253
 30
0.0
 10
15.1302152187
 20
8.1514085667
 30
0.0
 10
15.1257720433
 20
8.145540989
 30
0.0
 10
15.1220459872
 20
8.1389770828
 30
0.0
 10
15.1204124903
 20
8.1354391432
 30
0.0
 10
15.1196573968
 20
8.1336173777
 30
0.0
  0
SPLINE
  5
461
100
AcDbEntity
  8
0
100
AcDbSpline
 62
7
  6
CONTINUOUS
 70
0
 71
3
 72
9
 73
5
 74
0
 42
0.0000001
 43
0.0000001
 44
0.0000000001
 40
0.0
 40
0.0
 40
0.0
 40
0.0
 40
0.2455633541
 40
1.0
 40
1.0
 40
1.0
 40
1.0
 10
15.1196573968
 20
8.1336173777
 30
0.0
 10
15.1193459968
 20
8.1328777969
 30
0.0
 10
15.1181296122
 20
8.1298444153
 30
0.0
 10
15.117115709
 20
8.1267306031
 30
0.0
 10
15.116459422
 20
8.1243541726
 30
0.0
  0
SPLINE
  5
462
100
AcDbEntity
  8
0
100
AcDbSpline
 62
7
  6
CONTINUOUS
 70
0
 71
3
 72
9
 73
5
 74
0
 42
0.0000001
 43
0.0000001
 44
0.0000000001
 40
0.0
 40
0.0
 40
0.0
 40
0.0
 40
0.245753081
 40
1.0
 40
1.0
 40
1.0
 40
1.0
 10
15.116459422
 20
8.1243541726
 30
0.0
 10
15.1160674057
 20
8.1229346724
 30
0.0
 10
15.1146295277
 20
8.1171158422
 30
0.0
 10
15.113812314
 20
8.1111470369
 30
0.0
 10
15.1135256117
 20
8.1066364346
 30
0.0
  0
SPLINE
  5
463
100
AcDbEntity
  8
0
100
AcDbSpline
 62
7
  6
CONTINUOUS
 70
0
 71
3
 72
15
 73
11
 74
0
 42
0.0000001
 43
0.0000001
 44
0.0000000001
 40
0.0
 40
0.0
 40
0.0
 40
0.0
 40
0.1370061242
 40
0.2722743014
 40
0.4046637252
 40
0.5332216203
 40
0.6572445894
 40
0.7763399973
 40
0.8904794299
 40
1.0
 40
1.0
 40
1.0
 40
1.0
 10
15.1138204647
 20
8.0911411923
 30
0.0
 10
15.1141345788
 20
8.0880346281
 30
0.0
 10
15.1150651391
 20
8.0818873704
 30
0.0
 10
15.1173537179
 20
8.072937748
 30
0.0
 10
15.1204930466
 20
8.0644528131
 30
0.0
 10
15.1244232334
 20
8.0565880834
 30
0.0
 10
15.1290766675
 20
8.0494855249
 30
0.0
 10
15.134374229
 20
8.0432715099
 30
0.0
 10
15.1402209909
 20
8.0380539802
 30
0.0
 10
15.1445053178
 20
8.035247911
 30
0.0
 10
15.1466976662
 20
8.0340547504
 30
0.0
  0
SPLINE
  5
464
100
AcDbEntity
  8
0
100
AcDbSpline
 62
7
  6
CONTINUOUS
 70
0
 71
3
 72
11
 73
7
 74
0
 42
0.0000001
 43
0.0000001
 44
0.0000000001
 40
0.0
 40
0.0
 40
0.0
 40
0.0
 40
0.2561698686
 40
0.507469653
 40
0.7550343735
 40
1.0
 40
1.0
 40
1.0
 40
1.0
 10
15.1466976662
 20
8.0340547504
 30
0.0
 10
15.1480644584
 20
8.0333108894
 30
0.0
 10
15.1508492667
 20
8.0319734887
 30
0.0
 10
15.1551818052
 20
8.0304417074
 30
0.0
 10
15.1595905068
 20
8.0294120357
 30
0.0
 10
15.1625693214
 20
8.0290612549
 30
0.0
 10
15.1640546779
 20
8.0289719145
 30
0.0
  0
SPLINE
  5
465
100
AcDbEntity
  8
0
100
AcDbSpline
 62
7
  6
CONTINUOUS
 70
0
 71
3
 72
11
 73
7
 74
0
 42
0.0000001
 43
0.0000001
 44
0.0000000001
 40
0.0
 40
0.0
 40
0.0
 40
0.0
 40
0.2635390745
 40
0.5187255907
 40
0.7644283215
 40
1.0
 40
1.0
 40
1.0
 40
1.0
 10
15.1183792293
 20
8.1341381305
 30
0.0
 10
15.1193555483
 20
8.1372289968
 30
0.0
 10
15.1215677714
 20
8.1432263357
 30
0.0
 10
15.125715817
 20
8.1516830568
 30
0.0
 10
15.1305794528
 20
8.1593467289
 30
0.0
 10
15.1343357348
 20
8.1639452639
 30
0.0
 10
15.1363128369
 20
8.1660632969
 30
0.0
  0
SPLINE
  5
466
100
AcDbEntity
  8
0
100
AcDbSpline
 62
7
  6
CONTINUOUS
 70
0
 71
3
 72
13
 73
9
 74
0
 42
0.0000001
 43
0.0000001
 44
0.0000000001
 40
0.0
 40
0.0
 40
0.0
 40
0.0
 40
0.2655557258
 40
0.519266378
 40
0.6423234447
 40
0.7632051548
 40
0.8822967035
 40
1.0
 40
1.0
 40
1.0
 40
1.0
 10
15.1363128369
 20
8.1660632969
 30
0.0
 10
15.1383093111
 20
8.1682020831
 30
0.0
 10
15.1425003182
 20
8.1721290333
 30
0.0
 10
15.14836019
 20
8.176153357
 30
0.0
 10
15.1532380938
 20
8.1786699114
 30
0.0
 10
15.1569422198
 20
8.180192906
 30
0.0
 10
15.1607089499
 20
8.181367506
 30
0.0
 10
15.1632632444
 20
8.1819189685
 30
0.0
 10
15.164542048
 20
8.1821343495
 30
0.0
  0
SPLINE
  5
467
100
AcDbEntity
  8
0
100
AcDbSpline
 62
7
  6
CONTINUOUS
 70
0
 71
3
 72
35
 73
31
 74
0
 42
0.0000001
 43
0.0000001
 44
0.0000000001
 40
0.0
 40
0.0
 40
0.0
 40
0.0
 40
0.0267802722
 40
0.0537376563
 40
0.0810761506
 40
0.1090046914
 40
0.1377045254
 40
0.1673029428
 40
0.1978688219
 40
0.2294277717
 40
0.2953492064
 40
0.3645798621
 40
0.4361057658
 40
0.5086500844
 40
0.5448975888
 40
0.5808845633
 40
0.6164431818
 40
0.6514196885
 40
0.685669562
 40
0.7190725348
 40
0.7515261443
 40
0.7829565232
 40
0.8133204972
 40
0.8426048303
 40
0.8708386161
 40
0.8980841484
 40
0.9244581784
 40
0.9501185871
 40
0.9752419586
 40
1.0
 40
1.0
 40
1.0
 40
1.0
 10
15.1640546779
 20
8.0289719145
 30
0.0
 10
15.1659029517
 20
8.0288607456
 30
0.0
 10
15.1696331072
 20
8.0289055178
 30
0.0
 10
15.1751901019
 20
8.0297656896
 30
0.0
 10
15.180651262
 20
8.0314081314
 30
0.0
 10
15.1859562094
 20
8.0338056504
 30
0.0
 10
15.1910517022
 20
8.0369288701
 30
0.0
 10
15.1958888622
 20
8.0407383891
 30
0.0
 10
15.2004229189
 20
8.0451896525
 30
0.0
 10
15.2060853399
 20
8.0520119134
 30
0.0
 10
15.2121360256
 20
8.0619020347
 30
0.0
 10
15.2174962755
 20
8.0752096059
 30
0.0
 10
15.2209095351
 20
8.0896097486
 30
0.0
 10
15.2220508236
 20
8.1020689161
 30
0.0
 10
15.2219251487
 20
8.1120847601
 30
0.0
 10
15.2213158977
 20
8.1195191045
 30
0.0
 10
15.2201987134
 20
8.1268050672
 30
0.0
 10
15.2185911913
 20
8.1338759681
 30
0.0
 10
15.2165083631
 20
8.1406663183
 30
0.0
 10
15.213975084
 20
8.1471151399
 30
0.0
 10
15.2110168424
 20
8.1531647912
 30
0.0
 10
15.207662939
 20
8.15876146
 30
0.0
 10
15.2039482493
 20
8.1638577098
 30
0.0
 10
15.199905655
 20
8.1684074437
 30
0.0
 10
15.1955768026
 20
8.1723745119
 30
0.0
 10
15.1909989722
 20
8.1757228337
 30
0.0
 10
15.186214493
 20
8.1784250464
 30
0.0
 10
15.1812651527
 20
8.1804553431
 30
0.0
 10
15.176202031
 20
8.1817953901
 30
0.0
 10
15.1727681515
 20
8.1822288981
 30
0.0
 10
15.171059178
 20
8.1823271423
 30
0.0
  0
SPLINE
  5
468
100
AcDbEntity
  8
0
100
AcDbSpline
 62
7
  6
CONTINUOUS
 70
0
 71
3
 72
23
 73
19
 74
0
 42
0.0000001
 43
0.0000001
 44
0.0000000001
 40
0.0
 40
0.0
 40
0.0
 40
0.0
 40
0.0674353482
 40
0.1366835227
 40
0.2070670987
 40
0.2780167904
 40
0.4189586868
 40
0.4878688441
 40
0.5549383436
 40
0.6197086429
 40
0.6511280608
 40
0.6818551084
 40
0.7411220261
 40
0.7974956409
 40
0.8511124313
 40
0.9023445274
 40
0.9517659047
 40
1.0
 40
1.0
 40
1.0
 40
1.0
 10
14.6763555968
 20
8.1337476792
 30
0.0
 10
14.6750685452
 20
8.1312039523
 30
0.0
 10
14.672762843
 20
8.125890133
 30
0.0
 10
14.6701460857
 20
8.1175217247
 30
0.0
 10
14.6683558956
 20
8.1087852982
 30
0.0
 10
14.6671006906
 20
8.0969051527
 30
0.0
 10
14.6675356982
 20
8.0849553929
 30
0.0
 10
14.6696536771
 20
8.0734269619
 30
0.0
 10
14.6720151449
 20
8.0652598703
 30
0.0
 10
14.6746199758
 20
8.058852661
 30
0.0
 10
14.6770584294
 20
8.0540703369
 30
0.0
 10
14.6796533361
 20
8.0496391721
 30
0.0
 10
14.683258968
 20
8.0445887665
 30
0.0
 10
14.6881656134
 20
8.0393497349
 30
0.0
 10
14.6935163487
 20
8.035085984
 30
0.0
 10
14.6992235096
 20
8.0318668691
 30
0.0
 10
14.7051868936
 20
8.0297566854
 30
0.0
 10
14.7092901484
 20
8.02909834
 30
0.0
 10
14.7113248312
 20
8.028964594
 30
0.0
  0
SPLINE
  5
469
100
AcDbEntity
  8
0
100
AcDbSpline
 62
7
  6
CONTINUOUS
 70
0
 71
3
 72
11
 73
7
 74
0
 42
0.0000001
 43
0.0000001
 44
0.0000000001
 40
0.0
 40
0.0
 40
0.0
 40
0.0
 40
0.2454343894
 40
0.4926635579
 40
0.743543832
 40
1.0
 40
1.0
 40
1.0
 40
1.0
 10
14.7113248312
 20
8.028964594
 30
0.0
 10
14.7128304737
 20
8.0288656234
 30
0.0
 10
14.7158707748
 20
8.0288793429
 30
0.0
 10
14.7204092563
 20
8.029529157
 30
0.0
 10
14.7248843908
 20
8.0308002309
 30
0.0
 10
14.7277584704
 20
8.032036314
 30
0.0
 10
14.7291668982
 20
8.0327449483
 30
0.0
  0
SPLINE
  5
46A
100
AcDbEntity
  8
0
100
AcDbSpline
 62
7
  6
CONTINUOUS
 70
0
 71
3
 72
13
 73
9
 74
0
 42
0.0000001
 43
0.0000001
 44
0.0000000001
 40
0.0
 40
0.0
 40
0.0
 40
0.0
 40
0.1081368972
 40
0.2208133051
 40
0.3384911694
 40
0.4613616615
 40
0.7219203948
 40
1.0
 40
1.0
 40
1.0
 40
1.0
 10
14.7291668982
 20
8.0327449483
 30
0.0
 10
14.7309452086
 20
8.0336396849
 30
0.0
 10
14.7344417741
 20
8.0357455544
 30
0.0
 10
14.7392994996
 20
8.03967518
 30
0.0
 10
14.7438146637
 20
8.0443771333
 30
0.0
 10
14.7494048234
 20
8.0517370973
 30
0.0
 10
14.7551669888
 20
8.0625608484
 30
0.0
 10
14.7581976165
 20
8.0720578577
 30
0.0
 10
14.7593655323
 20
8.0770420747
 30
0.0
  0
SPLINE
  5
46B
100
AcDbEntity
  8
0
100
AcDbSpline
 62
7
  6
CONTINUOUS
 70
0
 71
3
 72
11
 73
7
 74
0
 42
0.0000001
 43
0.0000001
 44
0.0000000001
 40
0.0
 40
0.0
 40
0.0
 40
0.0
 40
0.2459732496
 40
0.4337927231
 40
0.6229930031
 40
1.0
 40
1.0
 40
1.0
 40
1.0
 10
14.7593655323
 20
8.0770420747
 30
0.0
 10
14.7602573759
 20
8.0808481216
 30
0.0
 10
14.7614253983
 20
8.0876619718
 30
0.0
 10
14.762125824
 20
8.0975489378
 30
0.0
 10
14.7619761727
 20
8.1095408171
 30
0.0
 10
14.7607500168
 20
8.1185109805
 30
0.0
 10
14.7594361537
 20
8.1243567509
 30
0.0
  0
SPLINE
  5
46C
100
AcDbEntity
  8
0
100
AcDbSpline
 62
7
  6
CONTINUOUS
 70
0
 71
3
 72
9
 73
5
 74
0
 42
0.0000001
 43
0.0000001
 44
0.0000000001
 40
0.0
 40
0.0
 40
0.0
 40
0.0
 40
0.5085381564
 40
1.0
 40
1.0
 40
1.0
 40
1.0
 10
14.7594361537
 20
8.1243567509
 30
0.0
 10
14.7584420237
 20
8.1287799326
 30
0.0
 10
14.7559235118
 20
8.1373622253
 30
0.0
 10
14.7522449847
 20
8.1455213932
 30
0.0
 10
14.7501455166
 20
8.1493669028
 30
0.0
  0
SPLINE
  5
46D
100
AcDbEntity
  8
0
100
AcDbSpline
 62
7
  6
CONTINUOUS
 70
0
 71
3
 72
9
 73
5
 74
0
 42
0.0000001
 43
0.0000001
 44
0.0000000001
 40
0.0
 40
0.0
 40
0.0
 40
0.0
 40
0.2567010271
 40
1.0
 40
1.0
 40
1.0
 40
1.0
 10
14.7501455166
 20
8.1493669028
 30
0.0
 10
14.7494538834
 20
8.150633739
 30
0.0
 10
14.7466353478
 20
8.1554992034
 30
0.0
 10
14.7433115301
 20
8.160077916
 30
0.0
 10
14.7405632189
 20
8.1632264741
 30
0.0
  0
SPLINE
  5
46E
100
AcDbEntity
  8
0
100
AcDbSpline
 62
7
  6
CONTINUOUS
 70
0
 71
3
 72
11
 73
7
 74
0
 42
0.0000001
 43
0.0000001
 44
0.0000000001
 40
0.0
 40
0.0
 40
0.0
 40
0.0
 40
0.2643859097
 40
0.5179070272
 40
0.7622723376
 40
1.0
 40
1.0
 40
1.0
 40
1.0
 10
14.7385632115
 20
8.1654200338
 30
0.0
 10
14.7365215239
 20
8.1675630311
 30
0.0
 10
14.7322371081
 20
8.1715030201
 30
0.0
 10
14.7251473555
 20
8.1763115908
 30
0.0
 10
14.7176517963
 20
8.1798094585
 30
0.0
 10
14.7124123946
 20
8.1812333247
 30
0.0
 10
14.7097924285
 20
8.1817013332
 30
0.0
  0
SPLINE
  5
46F
100
AcDbEntity
  8
0
100
AcDbSpline
 62
7
  6
CONTINUOUS
 70
0
 71
3
 72
14
 73
10
 74
0
 42
0.0000001
 43
0.0000001
 44
0.0000000001
 40
0.0
 40
0.0
 40
0.0
 40
0.0
 40
0.1178828635
 40
0.2369026449
 40
0.3575497113
 40
0.4803333042
 40
0.605705136
 40
0.7340250157
 40
1.0
 40
1.0
 40
1.0
 40
1.0
 10
14.7196105845
 20
8.1656984705
 30
0.0
 10
14.7210010575
 20
8.1655979384
 30
0.0
 10
14.7237865335
 20
8.1652409759
 30
0.0
 10
14.7279054096
 20
8.1642508374
 30
0.0
 10
14.7319501126
 20
8.1628077292
 30
0.0
 10
14.735892261
 20
8.1609248207
 30
0.0
 10
14.7397080298
 20
8.1586166562
 30
0.0
 10
14.7446487956
 20
8.1549507542
 30
0.0
 10
14.7480067264
 20
8.1516724542
 30
0.0
 10
14.7500779828
 20
8.1493052098
 30
0.0
  0
SPLINE
  5
470
100
AcDbEntity
  8
0
100
AcDbSpline
 62
7
  6
CONTINUOUS
 70
0
 71
3
 72
9
 73
5
 74
0
 42
0.0000001
 43
0.0000001
 44
0.0000000001
 40
0.0
 40
0.0
 40
0.0
 40
0.0
 40
0.4958983142
 40
1.0
 40
1.0
 40
1.0
 40
1.0
 10
14.7169379338
 20
8.1656975322
 30
0.0
 10
14.7149095173
 20
8.1655502724
 30
0.0
 10
14.7108367452
 20
8.1649223462
 30
0.0
 10
14.7069149071
 20
8.1636622167
 30
0.0
 10
14.7049989262
 20
8.1628855879
 30
0.0
  0
SPLINE
  5
471
100
AcDbEntity
  8
0
100
AcDbSpline
 62
7
  6
CONTINUOUS
 70
0
 71
3
 72
14
 73
10
 74
0
 42
0.0000001
 43
0.0000001
 44
0.0000000001
 40
0.0
 40
0.0
 40
0.0
 40
0.0
 40
0.1143130889
 40
0.2313025625
 40
0.3513217676
 40
0.4745786973
 40
0.7309058302
 40
0.8640678193
 40
1.0
 40
1.0
 40
1.0
 40
1.0
 10
14.7049989262
 20
8.1628855879
 30
0.0
 10
14.7035239952
 20
8.1622877354
 30
0.0
 10
14.7006062262
 20
8.1609067087
 30
0.0
 10
14.6964304385
 20
8.1583436026
 30
0.0
 10
14.6924392481
 20
8.1552915124
 30
0.0
 10
14.6873422731
 20
8.1505459359
 30
0.0
 10
14.6828140167
 20
8.1449716573
 30
0.0
 10
14.6789202638
 20
8.1387738384
 30
0.0
 10
14.6771745184
 20
8.1354537984
 30
0.0
 10
14.6763555968
 20
8.1337476792
 30
0.0
  0
SPLINE
  5
472
100
AcDbEntity
  8
0
100
AcDbSpline
 62
7
  6
CONTINUOUS
 70
0
 71
3
 72
39
 73
35
 74
0
 42
0.0000001
 43
0.0000001
 44
0.0000000001
 40
0.0
 40
0.0
 40
0.0
 40
0.0
 40
0.025923047
 40
0.051565184
 40
0.0773526195
 40
0.1036831012
 40
0.1308772758
 40
0.1591565103
 40
0.1886452079
 40
0.2193856914
 40
0.251356285
 40
0.2844869325
 40
0.3186710749
 40
0.3537742264
 40
0.3896395472
 40
0.4260925591
 40
0.462945166
 40
0.4999999407
 40
0.5370547609
 40
0.5739073406
 40
0.6103603522
 40
0.6462257089
 40
0.6813288125
 40
0.7155130023
 40
0.7486436286
 40
0.780614224
 40
0.8113547277
 40
0.8408434064
 40
0.8691226752
 40
0.8963168442
 40
0.9226473565
 40
0.9484348102
 40
0.9740769562
 40
1.0
 40
1.0
 40
1.0
 40
1.0
 10
15.1805835221
 20
8.0055965989
 30
0.0
 10
15.1826453845
 20
8.0055965989
 30
0.0
 10
15.1867563251
 20
8.0059403599
 30
0.0
 10
15.1927337051
 20
8.0075193877
 30
0.0
 10
15.1983810328
 20
8.0101127977
 30
0.0
 10
15.2036344618
 20
8.0136502519
 30
0.0
 10
15.2084577349
 20
8.0180479229
 30
0.0
 10
15.2128335727
 20
8.0232189151
 30
0.0
 10
15.2167578912
 20
8.0290787081
 30
0.0
 10
15.220234224
 20
8.0355469839
 30
0.0
 10
15.2232702435
 20
8.0425478247
 30
0.0
 10
15.2258755245
 20
8.0500091898
 30
0.0
 10
15.2280600659
 20
8.057862136
 30
0.0
 10
15.2298333315
 20
8.0660398993
 30
0.0
 10
15.231203569
 20
8.0744770421
 30
0.0
 10
15.2321774278
 20
8.0831087127
 30
0.0
 10
15.2327597689
 20
8.0918701742
 30
0.0
 10
15.2329535469
 20
8.1006965883
 30
0.0
 10
15.2327597694
 20
8.1095230002
 30
0.0
 10
15.2321774304
 20
8.1182844633
 30
0.0
 10
15.2312035713
 20
8.1269161346
 30
0.0
 10
15.2298333361
 20
8.1353532767
 30
0.0
 10
15.2280600706
 20
8.1435310429
 30
0.0
 10
15.2258755299
 20
8.1513839875
 30
0.0
 10
15.2232702517
 20
8.158845356
 30
0.0
 10
15.2202342308
 20
8.1658461962
 30
0.0
 10
15.2167579021
 20
8.1723144745
 30
0.0
 10
15.2128335812
 20
8.1781742693
 30
0.0
 10
15.2084577456
 20
8.1833452644
 30
0.0
 10
15.2036344697
 20
8.1877429394
 30
0.0
 10
15.1983810389
 20
8.191280397
 30
0.0
 10
15.1927337072
 20
8.1938738095
 30
0.0
 10
15.1867563253
 20
8.1954528379
 30
0.0
 10
15.1826453842
 20
8.1957965989
 30
0.0
 10
15.1805835221
 20
8.1957965989
 30
0.0
  0
SPLINE
  5
473
100
AcDbEntity
  8
0
100
AcDbSpline
 62
7
  6
CONTINUOUS
 70
0
 71
3
 72
15
 73
11
 74
0
 42
0.0000001
 43
0.0000001
 44
0.0000000001
 40
0.0
 40
0.0
 40
0.0
 40
0.0
 40
0.1096068442
 40
0.2230740646
 40
0.3411210574
 40
0.4640321796
 40
0.5917401854
 40
0.7239403107
 40
0.860192592
 40
1.0
 40
1.0
 40
1.0
 40
1.0
 10
15.1805835221
 20
8.1957965989
 30
0.0
 10
15.1785264038
 20
8.1957965989
 30
0.0
 10
15.1743331967
 20
8.1954472137
 30
0.0
 10
15.168088465
 20
8.1939407703
 30
0.0
 10
15.1618837587
 20
8.1914883541
 30
0.0
 10
15.1558050616
 20
8.1881490767
 30
0.0
 10
15.1499281249
 20
8.1839918052
 30
0.0
 10
15.1443214215
 20
8.1790901456
 30
0.0
 10
15.1390457489
 20
8.1735194958
 30
0.0
 10
15.1358211847
 20
8.1694547486
 30
0.0
 10
15.1342756898
 20
8.1673342676
 30
0.0
  0
SPLINE
  5
474
100
AcDbEntity
  8
0
100
AcDbSpline
 62
7
  6
CONTINUOUS
 70
0
 71
3
 72
10
 73
6
 74
0
 42
0.0000001
 43
0.0000001
 44
0.0000000001
 40
0.0
 40
0.0
 40
0.0
 40
0.0
 40
0.2438043771
 40
0.4924227166
 40
1.0
 40
1.0
 40
1.0
 40
1.0
 10
15.1342756898
 20
8.1673342676
 30
0.0
 10
15.1325014906
 20
8.1648999951
 30
0.0
 10
15.1291464986
 20
8.1598121021
 30
0.0
 10
15.1232732689
 20
8.1489308836
 30
0.0
 10
15.1199016175
 20
8.1401557423
 30
0.0
 10
15.1181318056
 20
8.1341395053
 30
0.0
  0
SPLINE
  5
475
100
AcDbEntity
  8
0
100
AcDbSpline
 62
7
  6
CONTINUOUS
 70
0
 71
3
 72
19
 73
15
 74
0
 42
0.0000001
 43
0.0000001
 44
0.0000000001
 40
0.0
 40
0.0
 40
0.0
 40
0.0
 40
0.1396545733
 40
0.2776698808
 40
0.4129104048
 40
0.5440243188
 40
0.6076022524
 40
0.6695530572
 40
0.7296770488
 40
0.7878052749
 40
0.8438318604
 40
0.8977513639
 40
0.9497045872
 40
1.0
 40
1.0
 40
1.0
 40
1.0
 10
15.1138626398
 20
8.0895076064
 30
0.0
 10
15.1143686433
 20
8.084129399
 30
0.0
 10
15.1161041758
 20
8.073490094
 30
0.0
 10
15.120820165
 20
8.0581792283
 30
0.0
 10
15.1274816494
 20
8.0439705498
 30
0.0
 10
15.1345534478
 20
8.0332812668
 30
0.0
 10
15.1409947501
 20
8.0257146734
 30
0.0
 10
15.146104335
 20
8.020655108
 30
0.0
 10
15.1514931766
 20
8.0162173825
 30
0.0
 10
15.15710817
 20
8.0124647415
 30
0.0
 10
15.1628891094
 20
8.0094592069
 30
0.0
 10
15.1687701898
 20
8.0072576527
 30
0.0
 10
15.1746773912
 20
8.005908547
 30
0.0
 10
15.1786380525
 20
8.0055965989
 30
0.0
 10
15.1805835221
 20
8.0055965989
 30
0.0
  0
SPLINE
  5
476
100
AcDbEntity
  8
0
100
AcDbSpline
 62
7
  6
CONTINUOUS
 70
0
 71
3
 72
9
 73
5
 74
0
 42
0.0000001
 43
0.0000001
 44
0.0000000001
 40
0.0
 40
0.0
 40
0.0
 40
0.0
 40
0.502975927
 40
1.0
 40
1.0
 40
1.0
 40
1.0
 10
14.70456668
 20
8.1637514237
 30
0.0
 10
14.7065595285
 20
8.1644221733
 30
0.0
 10
14.710632759
 20
8.1654490602
 30
0.0
 10
14.7148204195
 20
8.1657965989
 30
0.0
 10
14.7168982383
 20
8.1657965989
 30
0.0
  0
SPLINE
  5
477
100
AcDbEntity
  8
0
100
AcDbSpline
 62
7
  6
CONTINUOUS
 70
0
 71
3
 72
14
 73
10
 74
0
 42
0.0000001
 43
0.0000001
 44
0.0000000001
 40
0.0
 40
0.0
 40
0.0
 40
0.0
 40
0.1114603901
 40
0.2262261298
 40
0.3447184294
 40
0.4673064156
 40
0.7252095085
 40
0.8607318927
 40
1.0
 40
1.0
 40
1.0
 40
1.0
 10
14.70456668
 20
8.1637514237
 30
0.0
 10
14.7030883809
 20
8.1632146494
 30
0.0
 10
14.7001576525
 20
8.1619236585
 30
0.0
 10
14.6959739608
 20
8.1594208851
 30
0.0
 10
14.6919881472
 20
8.1563486889
 30
0.0
 10
14.6869058105
 20
8.1514600238
 30
0.0
 10
14.6824695783
 20
8.1456190232
 30
0.0
 10
14.6787455754
 20
8.1390841272
 30
0.0
 10
14.6771114489
 20
8.1355616088
 30
0.0
 10
14.6763555968
 20
8.1337476792
 30
0.0
  0
SPLINE
  5
478
100
AcDbEntity
  8
0
100
AcDbSpline
 62
7
  6
CONTINUOUS
 70
0
 71
3
 72
19
 73
15
 74
0
 42
0.0000001
 43
0.0000001
 44
0.0000000001
 40
0.0
 40
0.0
 40
0.0
 40
0.0
 40
0.0555708211
 40
0.111679152
 40
0.1685189552
 40
0.226315898
 40
0.2852484831
 40
0.3454179287
 40
0.4068526753
 40
0.4695332557
 40
0.5982194318
 40
0.7305210429
 40
0.8650306866
 40
1.0
 40
1.0
 40
1.0
 40
1.0
 10
14.70456668
 20
8.1637514237
 30
0.0
 10
14.702717427
 20
8.1635900506
 30
0.0
 10
14.6990176938
 20
8.1630315951
 30
0.0
 10
14.6935809665
 20
8.1615246021
 30
0.0
 10
14.6882878153
 20
8.1593668919
 30
0.0
 10
14.6831828867
 20
8.1565950179
 30
0.0
 10
14.6783025382
 20
8.1532456281
 30
0.0
 10
14.6736794307
 20
8.149359364
 30
0.0
 10
14.6693441704
 20
8.1449773006
 30
0.0
 10
14.6639381039
 20
8.1384788009
 30
0.0
 10
14.6580551303
 20
8.1293529433
 30
0.0
 10
14.6525358275
 20
8.1173061438
 30
0.0
 10
14.6485794166
 20
8.1044452204
 30
0.0
 10
14.6469963233
 20
8.0955584611
 30
0.0
 10
14.6464673384
 20
8.0910811037
 30
0.0
  0
SPLINE
  5
479
100
AcDbEntity
  8
0
100
AcDbSpline
 62
7
  6
CONTINUOUS
 70
0
 71
3
 72
21
 73
17
 74
0
 42
0.0000001
 43
0.0000001
 44
0.0000000001
 40
0.0
 40
0.0
 40
0.0
 40
0.0
 40
0.070764177
 40
0.1416926325
 40
0.2822441074
 40
0.3513159236
 40
0.4191778094
 40
0.5501204224
 40
0.6129133327
 40
0.6737136995
 40
0.732481701
 40
0.7892411981
 40
0.8441224014
 40
0.8973598592
 40
0.9492355916
 40
1.0
 40
1.0
 40
1.0
 40
1.0
 10
14.6464673384
 20
8.0910811037
 30
0.0
 10
14.6462446713
 20
8.0937483334
 30
0.0
 10
14.6459867133
 20
8.0991068493
 30
0.0
 10
14.6462085074
 20
8.1097855222
 30
0.0
 10
14.6475316822
 20
8.1203565412
 30
0.0
 10
14.6499541325
 20
8.1305768205
 30
0.0
 10
14.653016541
 20
8.140241702
 30
0.0
 10
14.6570803845
 20
8.1493201363
 30
0.0
 10
14.6621232755
 20
8.1575333867
 30
0.0
 10
14.6662607869
 20
8.1630652841
 30
0.0
 10
14.6707619414
 20
8.168001571
 30
0.0
 10
14.6755863595
 20
8.1722945701
 30
0.0
 10
14.6806905912
 20
8.175901636
 30
0.0
 10
14.6860308576
 20
8.1787817464
 30
0.0
 10
14.6915489229
 20
8.1809019016
 30
0.0
 10
14.6953362035
 20
8.1818139984
 30
0.0
 10
14.697229051
 20
8.1821361044
 30
0.0
  0
SPLINE
  5
47A
100
AcDbEntity
  8
0
100
AcDbSpline
 62
7
  6
CONTINUOUS
 70
0
 71
3
 72
31
 73
27
 74
0
 42
0.0000001
 43
0.0000001
 44
0.0000000001
 40
0.0
 40
0.0
 40
0.0
 40
0.0
 40
0.0234235793
 40
0.0470966484
 40
0.0712033105
 40
0.0959182147
 40
0.1213995141
 40
0.147775331
 40
0.1751342787
 40
0.2035211389
 40
0.2633694098
 40
0.327184564
 40
0.3944005913
 40
0.4290489683
 40
0.4642183461
 40
0.5355673734
 40
0.6074106543
 40
0.6431999705
 40
0.6787180564
 40
0.7484350545
 40
0.8157879075
 40
0.8802243174
 40
0.9112935177
 40
0.941584863
 40
0.9711310453
 40
1.0
 40
1.0
 40
1.0
 40
1.0
 10
14.7279467873
 20
8.0355965989
 30
0.0
 10
14.7267122558
 20
8.0355965989
 30
0.0
 10
14.7242269815
 20
8.0357643132
 30
0.0
 10
14.720538763
 20
8.036510041
 30
0.0
 10
14.7169120892
 20
8.037745105
 30
0.0
 10
14.7133816154
 20
8.0394614326
 30
0.0
 10
14.7099748151
 20
8.0416409419
 30
0.0
 10
14.7067197178
 20
8.0442678823
 30
0.0
 10
14.7036422384
 20
8.0473214818
 30
0.0
 10
14.699739388
 20
8.0520096307
 30
0.0
 10
14.6954709828
 20
8.0588413902
 30
0.0
 10
14.6915147096
 20
8.0681279091
 30
0.0
 10
14.6892390116
 20
8.076588095
 30
0.0
 10
14.6880456308
 20
8.0837151013
 30
0.0
 10
14.687283057
 20
8.0911205717
 30
0.0
 10
14.6871999964
 20
8.1005459271
 30
0.0
 10
14.6882674373
 20
8.1099439017
 30
0.0
 10
14.6898149646
 20
8.1173327796
 30
0.0
 10
14.6917957261
 20
8.1245008476
 30
0.0
 10
14.6950651473
 20
8.1330208681
 30
0.0
 10
14.7002184967
 20
8.1423468325
 30
0.0
 10
14.7054823694
 20
8.1491788551
 30
0.0
 10
14.7101738873
 20
8.1538740587
 30
0.0
 10
14.7138535644
 20
8.1569534549
 30
0.0
 10
14.717711569
 20
8.1596064219
 30
0.0
 10
14.7204147562
 20
8.1610931801
 30
0.0
 10
14.7217845221
 20
8.1617555918
 30
0.0
  0
SPLINE
  5
47B
100
AcDbEntity
  8
0
100
AcDbSpline
 62
7
  6
CONTINUOUS
 70
0
 71
3
 72
20
 73
16
 74
0
 42
0.0000001
 43
0.0000001
 44
0.0000000001
 40
0.0
 40
0.0
 40
0.0
 40
0.0
 40
0.0504813881
 40
0.1025587579
 40
0.1565276239
 40
0.2125340826
 40
0.2705863975
 40
0.3305974623
 40
0.3924170217
 40
0.4558620345
 40
0.5867618173
 40
0.6539332683
 40
0.7219907024
 40
0.8600771021
 40
1.0
 40
1.0
 40
1.0
 40
1.0
 10
14.6948011634
 20
8.0055965989
 30
0.0
 10
14.6966792897
 20
8.0055965989
 30
0.0
 10
14.700499999
 20
8.0058870322
 30
0.0
 10
14.7062032155
 20
8.0071452994
 30
0.0
 10
14.7118875639
 20
8.0092014832
 30
0.0
 10
14.7174857883
 20
8.0120128559
 30
0.0
 10
14.7229377422
 20
8.0155291108
 30
0.0
 10
14.7281880603
 20
8.0196947478
 30
0.0
 10
14.7331877369
 20
8.0244529982
 30
0.0
 10
14.7395247066
 20
8.0315828661
 30
0.0
 10
14.7451078833
 20
8.0396042568
 30
0.0
 10
14.7498726407
 20
8.0482899496
 30
0.0
 10
14.7541342276
 20
8.0575308448
 30
0.0
 10
14.7583141341
 20
8.0697512347
 30
0.0
 10
14.7603423249
 20
8.0799289753
 30
0.0
 10
14.7610230745
 20
8.0850900108
 30
0.0
  0
SPLINE
  5
47C
100
AcDbEntity
  8
0
100
AcDbSpline
 62
7
  6
CONTINUOUS
 70
0
 71
3
 72
11
 73
7
 74
0
 42
0.0000001
 43
0.0000001
 44
0.0000000001
 40
0.0
 40
0.0
 40
0.0
 40
0.0
 40
0.2558324441
 40
0.5093607724
 40
0.7583170572
 40
1.0
 40
1.0
 40
1.0
 40
1.0
 10
14.7620222615
 20
8.1031283872
 30
0.0
 10
14.7619033721
 20
8.1089681994
 30
0.0
 10
14.7608123088
 20
8.1205958867
 30
0.0
 10
14.7566690517
 20
8.1374694122
 30
0.0
 10
14.7501910907
 20
8.1532429229
 30
0.0
 10
14.7443593348
 20
8.1628746242
 30
0.0
 10
14.7411092696
 20
8.1673338906
 30
0.0
  0
SPLINE
  5
47D
100
AcDbEntity
  8
0
100
AcDbSpline
 62
7
  6
CONTINUOUS
 70
0
 71
3
 72
15
 73
11
 74
0
 42
0.0000001
 43
0.0000001
 44
0.0000000001
 40
0.0
 40
0.0
 40
0.0
 40
0.0
 40
0.1398074156
 40
0.2760596737
 40
0.4082599345
 40
0.5359679204
 40
0.6588791435
 40
0.7769261496
 40
0.8903932974
 40
1.0
 40
1.0
 40
1.0
 40
1.0
 10
14.7411092696
 20
8.1673338906
 30
0.0
 10
14.7395637725
 20
8.1694543969
 30
0.0
 10
14.7363392023
 20
8.173519194
 30
0.0
 10
14.7310635065
 20
8.1790899123
 30
0.0
 10
14.7254567767
 20
8.1839916379
 30
0.0
 10
14.7195798022
 20
8.1881489663
 30
0.0
 10
14.713501064
 20
8.1914882919
 30
0.0
 10
14.7072963114
 20
8.1939407437
 30
0.0
 10
14.7010515339
 20
8.1954472087
 30
0.0
 10
14.696858296
 20
8.1957965989
 30
0.0
 10
14.6948011634
 20
8.1957965989
 30
0.0
  0
SPLINE
  5
47E
100
AcDbEntity
  8
0
100
AcDbSpline
 62
7
  6
CONTINUOUS
 70
0
 71
3
 72
39
 73
35
 74
0
 42
0.0000001
 43
0.0000001
 44
0.0000000001
 40
0.0
 40
0.0
 40
0.0
 40
0.0
 40
0.025923047
 40
0.051565184
 40
0.0773526195
 40
0.1036831012
 40
0.1308772758
 40
0.1591565103
 40
0.1886452079
 40
0.2193856914
 40
0.251356285
 40
0.2844869325
 40
0.3186710749
 40
0.3537742264
 40
0.3896395472
 40
0.4260925591
 40
0.462945166
 40
0.4999999407
 40
0.5370547609
 40
0.5739073406
 40
0.6103603522
 40
0.6462257089
 40
0.6813288125
 40
0.7155130023
 40
0.7486436286
 40
0.780614224
 40
0.8113547277
 40
0.8408434064
 40
0.8691226752
 40
0.8963168442
 40
0.9226473565
 40
0.9484348102
 40
0.9740769562
 40
1.0
 40
1.0
 40
1.0
 40
1.0
 10
14.6948011634
 20
8.1957965989
 30
0.0
 10
14.692739301
 20
8.1957965989
 30
0.0
 10
14.6886283604
 20
8.1954528379
 30
0.0
 10
14.6826509803
 20
8.1938738101
 30
0.0
 10
14.6770036527
 20
8.1912804001
 30
0.0
 10
14.6717502236
 20
8.1877429459
 30
0.0
 10
14.6669269506
 20
8.1833452749
 30
0.0
 10
14.6625511128
 20
8.1781742827
 30
0.0
 10
14.6586267942
 20
8.1723144897
 30
0.0
 10
14.6551504615
 20
8.1658462139
 30
0.0
 10
14.652114442
 20
8.158845373
 30
0.0
 10
14.649509161
 20
8.151384008
 30
0.0
 10
14.6473246196
 20
8.1435310617
 30
0.0
 10
14.645551354
 20
8.1353532985
 30
0.0
 10
14.6441811164
 20
8.1269161557
 30
0.0
 10
14.6432072576
 20
8.118284485
 30
0.0
 10
14.6426249166
 20
8.1095230235
 30
0.0
 10
14.6424311386
 20
8.1006966095
 30
0.0
 10
14.6426249161
 20
8.0918701976
 30
0.0
 10
14.643207255
 20
8.0831087345
 30
0.0
 10
14.6441811142
 20
8.0744770632
 30
0.0
 10
14.6455513494
 20
8.066039921
 30
0.0
 10
14.6473246148
 20
8.0578621548
 30
0.0
 10
14.6495091556
 20
8.0500092103
 30
0.0
 10
14.6521144338
 20
8.0425478418
 30
0.0
 10
14.6551504547
 20
8.0355470016
 30
0.0
 10
14.6586267834
 20
8.0290787232
 30
0.0
 10
14.6625511043
 20
8.0232189285
 30
0.0
 10
14.6669269399
 20
8.0180479333
 30
0.0
 10
14.6717502157
 20
8.0136502584
 30
0.0
 10
14.6770036466
 20
8.0101128007
 30
0.0
 10
14.6826509783
 20
8.0075193882
 30
0.0
 10
14.6886283602
 20
8.0059403599
 30
0.0
 10
14.6927393013
 20
8.0055965989
 30
0.0
 10
14.6948011634
 20
8.0055965989
 30
0.0
  0
SPLINE
  5
47F
100
AcDbEntity
  8
0
100
AcDbSpline
 62
7
  6
CONTINUOUS
 70
0
 71
3
 72
15
 73
11
 74
0
 42
0.0000001
 43
0.0000001
 44
0.0000000001
 40
0.0
 40
0.0
 40
0.0
 40
0.0
 40
0.1034194246
 40
0.2111074583
 40
0.3245392975
 40
0.4447968751
 40
0.572466803
 40
0.7077161699
 40
0.8503769147
 40
1.0
 40
1.0
 40
1.0
 40
1.0
 10
15.1479226318
 20
8.1637514237
 30
0.0
 10
15.1464283514
 20
8.163564414
 30
0.0
 10
15.1434109034
 20
8.1628646042
 30
0.0
 10
15.1390665889
 20
8.1609449228
 30
0.0
 10
15.1349069752
 20
8.1581841688
 30
0.0
 10
15.1309912574
 20
8.1546438211
 30
0.0
 10
15.1273700389
 20
8.1503803639
 30
0.0
 10
15.1240869529
 20
8.1454568816
 30
0.0
 10
15.1211843798
 20
8.1399385222
 30
0.0
 10
15.119560411
 20
8.1359972765
 30
0.0
 10
15.1188158416
 20
8.1339497222
 30
0.0
  0
SPLINE
  5
480
100
AcDbEntity
  8
0
100
AcDbSpline
 62
7
  6
CONTINUOUS
 70
0
 71
3
 72
30
 73
26
 74
0
 42
0.0000001
 43
0.0000001
 44
0.0000000001
 40
0.0
 40
0.0
 40
0.0
 40
0.0
 40
0.0233620252
 40
0.0469830802
 40
0.0710221642
 40
0.0956356875
 40
0.1209787795
 40
0.1471801776
 40
0.1743319139
 40
0.2024808812
 40
0.2617780333
 40
0.3249823424
 40
0.3579260749
 40
0.3916344359
 40
0.4608996353
 40
0.531886
 40
0.603581713
 40
0.6749615548
 40
0.7450629191
 40
0.8130637591
 40
0.8460971436
 40
0.8784015234
 40
0.9406664631
 40
0.9706906057
 40
1.0
 40
1.0
 40
1.0
 40
1.0
 10
15.1584864472
 20
8.1657965989
 30
0.0
 10
15.1596907163
 20
8.1657965989
 30
0.0
 10
15.1621154416
 20
8.1656366616
 30
0.0
 10
15.1657165008
 20
8.1649263791
 30
0.0
 10
15.1692616611
 20
8.1637498641
 30
0.0
 10
15.1727169771
 20
8.1621134461
 30
0.0
 10
15.1760563815
 20
8.160034028
 30
0.0
 10
15.1792545163
 20
8.1575263993
 30
0.0
 10
15.182286945
 20
8.154608856
 30
0.0
 10
15.186146305
 20
8.1501267757
 30
0.0
 10
15.1904011024
 20
8.1435837613
 30
0.0
 10
15.1936979005
 20
8.1362487057
 30
0.0
 10
15.1958014924
 20
8.1298895689
 30
0.0
 10
15.1975556354
 20
8.1231016739
 30
0.0
 10
15.1989479157
 20
8.1142170777
 30
0.0
 10
15.1993173019
 20
8.1032723631
 30
0.0
 10
15.1983729447
 20
8.092251847
 30
0.0
 10
15.196122101
 20
8.0814678226
 30
0.0
 10
15.1926108267
 20
8.0712261328
 30
0.0
 10
15.1886613787
 20
8.0633033559
 30
0.0
 10
15.1849389165
 20
8.0575180516
 30
0.0
 10
15.1809709634
 20
8.0522665307
 30
0.0
 10
15.1764955873
 20
8.0476092514
 30
0.0
 10
15.1715829471
 20
8.0437053461
 30
0.0
 10
15.1690163059
 20
8.0420312647
 30
0.0
 10
15.1677114515
 20
8.0412696825
 30
0.0
  0
SPLINE
  5
481
100
AcDbEntity
  8
0
100
AcDbSpline
 62
7
  6
CONTINUOUS
 70
0
 71
3
 72
11
 73
7
 74
0
 42
0.0000001
 43
0.0000001
 44
0.0000000001
 40
0.0
 40
0.0
 40
0.0
 40
0.0
 40
0.2568877229
 40
0.5081438568
 40
0.7553704992
 40
1.0
 40
1.0
 40
1.0
 40
1.0
 10
15.1677114515
 20
8.0412696825
 30
0.0
 10
15.1661372494
 20
8.0403508948
 30
0.0
 10
15.1629107156
 20
8.0387175632
 30
0.0
 10
15.1578440499
 20
8.0369241178
 30
0.0
 10
15.1526680324
 20
8.035841072
 30
0.0
 10
15.1491736346
 20
8.0355965989
 30
0.0
 10
15.1474378982
 20
8.0355965989
 30
0.0
  0
SPLINE
  5
482
100
AcDbEntity
  8
0
100
AcDbSpline
 62
7
  6
CONTINUOUS
 70
0
 71
3
 72
28
 73
24
 74
0
 42
0.0000001
 43
0.0000001
 44
0.0000000001
 40
0.0
 40
0.0
 40
0.0
 40
0.0
 40
0.0632107843
 40
0.1287013129
 40
0.1960657244
 40
0.2303067609
 40
0.2648241623
 40
0.2995510242
 40
0.3344190457
 40
0.4042503179
 40
0.4736824247
 40
0.5080458832
 40
0.5420563358
 40
0.5756348359
 40
0.608710543
 40
0.6412293539
 40
0.6731418496
 40
0.7349319393
 40
0.7937711857
 40
0.8494613552
 40
0.9020982821
 40
0.9520894817
 40
1.0
 40
1.0
 40
1.0
 40
1.0
 10
15.1977726811
 20
8.0422919152
 30
0.0
 10
15.1998552633
 20
8.0449637377
 30
0.0
 10
15.2037351618
 20
8.0506920934
 30
0.0
 10
15.2085798511
 20
8.0600384941
 30
0.0
 10
15.211831431
 20
8.0684016323
 30
0.0
 10
15.213949399
 20
8.0753850496
 30
0.0
 10
15.2152890034
 20
8.0807693748
 30
0.0
 10
15.2163613813
 20
8.0862474147
 30
0.0
 10
15.2174269972
 20
8.0936458159
 30
0.0
 10
15.2180807107
 20
8.1029702333
 30
0.0
 10
15.2178488098
 20
8.1122873976
 30
0.0
 10
15.2171306718
 20
8.119640203
 30
0.0
 10
15.2163316288
 20
8.1250476747
 30
0.0
 10
15.215272351
 20
8.130339955
 30
0.0
 10
15.2139535061
 20
8.1354911974
 30
0.0
 10
15.2123857651
 20
8.1404789506
 30
0.0
 10
15.2100056393
 20
8.146813674
 30
0.0
 10
15.2064939616
 20
8.1542179929
 30
0.0
 10
15.2014269541
 20
8.1622238582
 30
0.0
 10
15.1956295635
 20
8.1690959646
 30
0.0
 10
15.189190474
 20
8.1746788855
 30
0.0
 10
15.182265534
 20
8.1788928366
 30
0.0
 10
15.1773254119
 20
8.1807703127
 30
0.0
 10
15.1748456259
 20
8.1814361485
 30
0.0
  0
SPLINE
  5
483
100
AcDbEntity
  8
0
100
AcDbSpline
 62
7
  6
CONTINUOUS
 70
0
 71
3
 72
11
 73
7
 74
0
 42
0.0000001
 43
0.0000001
 44
0.0000000001
 40
0.0
 40
0.0
 40
0.0
 40
0.0
 40
0.2521802307
 40
0.5044620479
 40
0.7545045256
 40
1.0
 40
1.0
 40
1.0
 40
1.0
 10
15.1939717588
 20
8.0848687468
 30
0.0
 10
15.1946238485
 20
8.0884520866
 30
0.0
 10
15.1955804493
 20
8.0956878787
 30
0.0
 10
15.1960004402
 20
8.1065918188
 30
0.0
 10
15.1954174566
 20
8.1173917229
 30
0.0
 10
15.1943497794
 20
8.1244825869
 30
0.0
 10
15.1936411722
 20
8.1279566997
 30
0.0
  0
SPLINE
  5
484
100
AcDbEntity
  8
0
100
AcDbSpline
 62
7
  6
CONTINUOUS
 70
0
 71
3
 72
21
 73
17
 74
0
 42
0.0000001
 43
0.0000001
 44
0.0000000001
 40
0.0
 40
0.0
 40
0.0
 40
0.0
 40
0.0527586017
 40
0.1065640218
 40
0.1616543792
 40
0.2182422312
 40
0.276476606
 40
0.3363894651
 40
0.3979388794
 40
0.4610323057
 40
0.591236917
 40
0.6581282714
 40
0.7258933943
 40
0.7942629588
 40
0.8629474859
 40
1.0
 40
1.0
 40
1.0
 40
1.0
 10
14.6975531074
 20
8.180988248
 30
0.0
 10
14.695673216
 20
8.1804694979
 30
0.0
 10
14.6919351257
 20
8.1791947151
 30
0.0
 10
14.6865248205
 20
8.1766308048
 30
0.0
 10
14.6813065506
 20
8.1734161932
 30
0.0
 10
14.6763297366
 20
8.1695666876
 30
0.0
 10
14.6716357819
 20
8.165115484
 30
0.0
 10
14.6672516041
 20
8.1601141688
 30
0.0
 10
14.6632078789
 20
8.15460967
 30
0.0
 10
14.6582611401
 20
8.1465836221
 30
0.0
 10
14.6541922786
 20
8.1378205141
 30
0.0
 10
14.6510597919
 20
8.1285389332
 30
0.0
 10
14.6491560377
 20
8.1212734727
 30
0.0
 10
14.6477286829
 20
8.1138324113
 30
0.0
 10
14.6464720708
 20
8.1037740609
 30
0.0
 10
14.6462633385
 20
8.0961429597
 30
0.0
 10
14.6464673384
 20
8.0910811033
 30
0.0
  0
SPLINE
  5
485
100
AcDbEntity
  8
0
100
AcDbSpline
 62
7
  6
CONTINUOUS
 70
0
 71
3
 72
15
 73
11
 74
0
 42
0.0000001
 43
0.0000001
 44
0.0000000001
 40
0.0
 40
0.0
 40
0.0
 40
0.0
 40
0.1271909149
 40
0.2550601291
 40
0.3829265847
 40
0.5101312474
 40
0.6360613011
 40
0.7600956423
 40
0.8816077243
 40
1.0
 40
1.0
 40
1.0
 40
1.0
 10
14.6717202027
 20
8.1228786842
 30
0.0
 10
14.6710593251
 20
8.120155264
 30
0.0
 10
14.6699373042
 20
8.1146424386
 30
0.0
 10
14.6688577596
 20
8.1062675878
 30
0.0
 10
14.6683866483
 20
8.0978355449
 30
0.0
 10
14.6685421957
 20
8.0894344243
 30
0.0
 10
14.6693122329
 20
8.0811522516
 30
0.0
 10
14.670672029
 20
8.073073229
 30
0.0
 10
14.6725997783
 20
8.0652818313
 30
0.0
 10
14.6742737983
 20
8.0602605443
 30
0.0
 10
14.6752044246
 20
8.0578235995
 30
0.0
  0
SPLINE
  5
486
100
AcDbEntity
  8
0
100
AcDbSpline
 62
7
  6
CONTINUOUS
 70
0
 71
3
 72
19
 73
15
 74
0
 42
0.0000001
 43
0.0000001
 44
0.0000000001
 40
0.0
 40
0.0
 40
0.0
 40
0.0
 40
0.0057110083
 40
0.0222600895
 40
0.049191218
 40
0.0858069071
 40
0.1312852466
 40
0.1847470003
 40
0.3123333802
 40
0.3849862906
 40
0.4626663704
 40
0.6307726082
 40
0.8118277896
 40
1.0
 40
1.0
 40
1.0
 40
1.0
 10
7.4951921502
 20
8.8446962586
 30
0.0
 10
7.4949812754
 20
8.8443407828
 30
0.0
 10
7.4941651887
 20
8.8429517651
 30
0.0
 10
7.492369666
 20
8.8398776386
 30
0.0
 10
7.4894855676
 20
8.8348492349
 30
0.0
 10
7.4856344179
 20
8.8279623063
 30
0.0
 10
7.4809751339
 20
8.8193282634
 30
0.0
 10
7.4734599957
 20
8.804757303
 30
0.0
 10
7.4656370583
 20
8.7881343845
 30
0.0
 10
7.4579091466
 20
8.7695606128
 30
0.0
 10
7.4498394282
 20
8.747968965
 30
0.0
 10
7.4408987342
 20
8.718347865
 30
0.0
 10
7.4336054643
 20
8.6800682205
 30
0.0
 10
7.4318583065
 20
8.6533150054
 30
0.0
 10
7.4318583065
 20
8.6396965989
 30
0.0
  0
SPLINE
  5
487
100
AcDbEntity
  8
0
100
AcDbSpline
 62
7
  6
CONTINUOUS
 70
0
 71
3
 72
45
 73
41
 74
0
 42
0.0000001
 43
0.0000001
 44
0.0000000001
 40
0.0
 40
0.0
 40
0.0
 40
0.0
 40
0.04736223
 40
0.0946496269
 40
0.1417154017
 40
0.1884199741
 40
0.2346633433
 40
0.2803524795
 40
0.3253895336
 40
0.3696888563
 40
0.4557605695
 40
0.537935056
 40
0.6156499842
 40
0.6883228484
 40
0.7553119483
 40
0.8159100845
 40
0.8435705803
 40
0.8693370119
 40
0.8931016268
 40
0.9147533719
 40
0.934180163
 40
0.9512730642
 40
0.9659376895
 40
0.9723309069
 40
0.9780828127
 40
0.9831819477
 40
0.9876173769
 40
0.9913825498
 40
0.9944730451
 40
0.9957639106
 40
0.9968844526
 40
0.9978341194
 40
0.9986123589
 40
0.9992186192
 40
0.9994570845
 40
0.9996523478
 40
0.9998043401
 40
0.9999129923
 40
0.9999782353
 40
1.0
 40
1.0
 40
1.0
 40
1.0
 10
7.4318583065
 20
8.6396965989
 30
0.0
 10
7.4318583065
 20
8.6362679532
 30
0.0
 10
7.4319713376
 20
8.6294155676
 30
0.0
 10
7.4324717865
 20
8.6191670587
 30
0.0
 10
7.4332953919
 20
8.608987096
 30
0.0
 10
7.4344357285
 20
8.5989138911
 30
0.0
 10
7.435871556
 20
8.5889793746
 30
0.0
 10
7.4375805373
 20
8.5792108421
 30
0.0
 10
7.4395419389
 20
8.5696335026
 30
0.0
 10
7.4424332285
 20
8.5572675702
 30
0.0
 10
7.446518196
 20
8.5424258063
 30
0.0
 10
7.4520523886
 20
8.5254960471
 30
0.0
 10
7.4579522306
 20
8.5097233597
 30
0.0
 10
7.4640021113
 20
8.4951931232
 30
0.0
 10
7.4699988264
 20
8.4819920332
 30
0.0
 10
7.4749228859
 20
8.4718880757
 30
0.0
 10
7.4786707053
 20
8.4645333003
 30
0.0
 10
7.4812590298
 20
8.4595807314
 30
0.0
 10
7.4836887053
 20
8.4550363462
 30
0.0
 10
7.4859371792
 20
8.4509157094
 30
0.0
 10
7.4879819137
 20
8.4472342587
 30
0.0
 10
7.489801004
 20
8.4440061688
 30
0.0
 10
7.4911703631
 20
8.4416077284
 30
0.0
 10
7.4921391037
 20
8.4399259753
 30
0.0
 10
7.4927645584
 20
8.4388456159
 30
0.0
 10
7.4933207897
 20
8.4378889493
 30
0.0
 10
7.4938058381
 20
8.4370572635
 30
0.0
 10
7.4942184657
 20
8.4363516737
 30
0.0
 10
7.4945167894
 20
8.4358429491
 30
0.0
 10
7.4947185917
 20
8.4354995634
 30
0.0
 10
7.4948419979
 20
8.4352898661
 30
0.0
 10
7.4949466837
 20
8.4351122105
 30
0.0
 10
7.495032566
 20
8.4349666896
 30
0.0
 10
7.4950923132
 20
8.4348655225
 30
0.0
 10
7.4951306736
 20
8.4348007467
 30
0.0
 10
7.4951522062
 20
8.4347642084
 30
0.0
 10
7.4951691942
 20
8.4347359398
 30
0.0
 10
7.4951808407
 20
8.4347153547
 30
0.0
 10
7.4951887364
 20
8.4347036814
 30
0.0
 10
7.4951912562
 20
8.4346977369
 30
0.0
 10
7.4951923459
 20
8.4346965989
 30
0.0
  0
SPLINE
  5
488
100
AcDbEntity
  8
0
100
AcDbSpline
 62
7
  6
CONTINUOUS
 70
0
 71
3
 72
46
 73
42
 74
0
 42
0.0000001
 43
0.0000001
 44
0.0000000001
 40
0.0
 40
0.0
 40
0.0
 40
0.0
 40
0.0000217209
 40
0.0000868628
 40
0.0001953616
 40
0.0003471534
 40
0.0005421742
 40
0.0007803602
 40
0.0013859716
 40
0.0021634761
 40
0.0031123625
 40
0.0042321196
 40
0.0055222366
 40
0.0086115064
 40
0.0123760872
 40
0.0168116069
 40
0.0219098331
 40
0.0276597964
 40
0.0340504862
 40
0.0410709114
 40
0.0487101024
 40
0.0658008207
 40
0.0852255306
 40
0.1068732534
 40
0.1306326783
 40
0.1563937177
 40
0.18405054
 40
0.2135009038
 40
0.2446443674
 40
0.3116286261
 40
0.3842986683
 40
0.4620109921
 40
0.5441936879
 40
0.6302661332
 40
0.6745674701
 40
0.7196110165
 40
0.7653054486
 40
0.8115559447
 40
0.8582733857
 40
0.9053519476
 40
1.0
 40
1.0
 40
1.0
 40
1.0
 10
6.3801923558
 20
8.4346965989
 30
0.0
 10
6.3801912683
 20
8.4346954632
 30
0.0
 10
6.3801990725
 20
8.4347069316
 30
0.0
 10
6.3802018376
 20
8.4347132496
 30
0.0
 10
6.3802163677
 20
8.4347368567
 30
0.0
 10
6.3802320313
 20
8.434763753
 30
0.0
 10
6.3802540157
 20
8.4348007774
 30
0.0
 10
6.3802920637
 20
8.4348652504
 30
0.0
 10
6.3803518599
 20
8.434966501
 30
0.0
 10
6.3804375394
 20
8.4351118466
 30
0.0
 10
6.3805421086
 20
8.4352894146
 30
0.0
 10
6.3806653682
 20
8.4354989868
 30
0.0
 10
6.3808670072
 20
8.435842237
 30
0.0
 10
6.3811651896
 20
8.4363508174
 30
0.0
 10
6.3815777788
 20
8.4370562747
 30
0.0
 10
6.3820629279
 20
8.4378877697
 30
0.0
 10
6.3826191251
 20
8.4388442097
 30
0.0
 10
6.3832444137
 20
8.4399241979
 30
0.0
 10
6.3839367866
 20
8.4411261324
 30
0.0
 10
6.3846942186
 20
8.4424484168
 30
0.0
 10
6.3858314232
 20
8.4444458179
 30
0.0
 10
6.3874011075
 20
8.4472302748
 30
0.0
 10
6.3894455877
 20
8.4509111238
 30
0.0
 10
6.3916933265
 20
8.4550311664
 30
0.0
 10
6.3941222206
 20
8.4595746997
 30
0.0
 10
6.3967103344
 20
8.4645261312
 30
0.0
 10
6.3994340307
 20
8.4698712186
 30
0.0
 10
6.4022689338
 20
8.475596528
 30
0.0
 10
6.4062632316
 20
8.483923836
 30
0.0
 10
6.4113780201
 20
8.4951826474
 30
0.0
 10
6.417427756
 20
8.5097118693
 30
0.0
 10
6.4233280029
 20
8.5254844334
 30
0.0
 10
6.4288620722
 20
8.5424144583
 30
0.0
 10
6.4329493532
 20
8.5572562088
 30
0.0
 10
6.4358409552
 20
8.5696226194
 30
0.0
 10
6.4378016825
 20
8.5792009914
 30
0.0
 10
6.4395111484
 20
8.5889707094
 30
0.0
 10
6.4409474839
 20
8.5989068457
 30
0.0
 10
6.4420871888
 20
8.6089825635
 30
0.0
 10
6.4431875701
 20
8.6225812713
 30
0.0
 10
6.443526379
 20
8.6328449214
 30
0.0
 10
6.443526379
 20
8.6396965989
 30
0.0
  0
SPLINE
  5
489
100
AcDbEntity
  8
0
100
AcDbSpline
 62
7
  6
CONTINUOUS
 70
0
 71
3
 72
25
 73
21
 74
0
 42
0.0000001
 43
0.0000001
 44
0.0000000001
 40
0.0
 40
0.0
 40
0.0
 40
0.0
 40
0.0472911333
 40
0.094509013
 40
0.1415073122
 40
0.1881455254
 40
0.279937894
 40
0.3249139511
 40
0.3691546291
 40
0.4551195522
 40
0.5372044619
 40
0.6148472812
 40
0.6874704924
 40
0.815028199
 40
0.8684953753
 40
0.9139919065
 40
0.9506353762
 40
0.977614052
 40
0.9942181897
 40
1.0
 40
1.0
 40
1.0
 40
1.0
 10
6.443526379
 20
8.6396965989
 30
0.0
 10
6.443526379
 20
8.6431200055
 30
0.0
 10
6.4434135277
 20
8.6499620319
 30
0.0
 10
6.4429141671
 20
8.6601952
 30
0.0
 10
6.4420929038
 20
8.670360394
 30
0.0
 10
6.4405851495
 20
8.6837003934
 30
0.0
 10
6.4384897401
 20
8.6968202819
 30
0.0
 10
6.4358646777
 20
8.7096592133
 30
0.0
 10
6.4329810309
 20
8.7220098729
 30
0.0
 10
6.4289060325
 20
8.7368347303
 30
0.0
 10
6.4233845427
 20
8.7537476486
 30
0.0
 10
6.417496348
 20
8.7695080163
 30
0.0
 10
6.409771568
 20
8.7880805832
 30
0.0
 10
6.4019501207
 20
8.8047051599
 30
0.0
 10
6.394435312
 20
8.8192804608
 30
0.0
 10
6.3897727013
 20
8.8279197055
 30
0.0
 10
6.3859187195
 20
8.8348150551
 30
0.0
 10
6.3830290567
 20
8.8398528075
 30
0.0
 10
6.3812276811
 20
8.8429390786
 30
0.0
 10
6.380406339
 20
8.8443360405
 30
0.0
 10
6.3801927182
 20
8.8446959661
 30
0.0
  0
SPLINE
  5
48A
100
AcDbEntity
  8
0
100
AcDbSpline
 62
7
  6
CONTINUOUS
 70
0
 71
3
 72
12
 73
8
 74
0
 42
0.0000001
 43
0.0000001
 44
0.0000000001
 40
0.0
 40
0.0
 40
0.0
 40
0.0
 40
0.2398037788
 40
0.3615206726
 40
0.4848393728
 40
0.7374368285
 40
1.0
 40
1.0
 40
1.0
 40
1.0
 10
7.14738256
 20
8.035695311
 30
0.0
 10
7.1497127999
 20
8.0358642869
 30
0.0
 10
7.1532122473
 20
8.0364475515
 30
0.0
 10
7.1577298889
 20
8.0378417047
 30
0.0
 10
7.1622250987
 20
8.0396737996
 30
0.0
 10
7.1676644382
 20
8.042752091
 30
0.0
 10
7.1716066878
 20
8.0458931902
 30
0.0
 10
7.1734908087
 20
8.0476234955
 30
0.0
  0
SPLINE
  5
48B
100
AcDbEntity
  8
0
100
AcDbSpline
 62
7
  6
CONTINUOUS
 70
0
 71
3
 72
28
 73
24
 74
0
 42
0.0000001
 43
0.0000001
 44
0.0000000001
 40
0.0
 40
0.0
 40
0.0
 40
0.0
 40
0.0619699583
 40
0.0939995733
 40
0.1266808672
 40
0.1937968828
 40
0.262877961
 40
0.3332841229
 40
0.4042573903
 40
0.4749816416
 40
0.5446224169
 40
0.6123818674
 40
0.677550334
 40
0.7395527042
 40
0.7980267208
 40
0.8259187604
 40
0.8529158659
 40
0.8790520443
 40
0.904393537
 40
0.9290372328
 40
0.9531010363
 40
0.9767140579
 40
1.0
 40
1.0
 40
1.0
 40
1.0
 10
7.1734908087
 20
8.0476234955
 30
0.0
 10
7.1756403237
 20
8.0495975287
 30
0.0
 10
7.178665145
 20
8.0528596248
 30
0.0
 10
7.1822357075
 20
8.0576426762
 30
0.0
 10
7.185605322
 20
8.0628623706
 30
0.0
 10
7.1892465842
 20
8.0699589156
 30
0.0
 10
7.1926215007
 20
8.0791076038
 30
0.0
 10
7.1949753127
 20
8.0887569846
 30
0.0
 10
7.1962683673
 20
8.0986815013
 30
0.0
 10
7.1964851065
 20
8.1086513687
 30
0.0
 10
7.1956307321
 20
8.1184354664
 30
0.0
 10
7.1937396525
 20
8.1278072491
 30
0.0
 10
7.1908666736
 20
8.1365508814
 30
0.0
 10
7.1870876347
 20
8.1444625338
 30
0.0
 10
7.1832018339
 20
8.1503050834
 30
0.0
 10
7.1797247119
 20
8.1543633125
 30
0.0
 10
7.1770030222
 20
8.1570448644
 30
0.0
 10
7.174143202
 20
8.1593941455
 30
0.0
 10
7.1711627397
 20
8.1613966535
 30
0.0
 10
7.1680806309
 20
8.1630415385
 30
0.0
 10
7.1649149758
 20
8.1643167566
 30
0.0
 10
7.1616883599
 20
8.1652128729
 30
0.0
 10
7.159500849
 20
8.1655576517
 30
0.0
 10
7.1584094273
 20
8.1656644418
 30
0.0
  0
SPLINE
  5
48C
100
AcDbEntity
  8
0
100
AcDbSpline
 62
7
  6
CONTINUOUS
 70
0
 71
3
 72
14
 73
10
 74
0
 42
0.0000001
 43
0.0000001
 44
0.0000000001
 40
0.0
 40
0.0
 40
0.0
 40
0.0
 40
0.1114220669
 40
0.2261601835
 40
0.344637088
 40
0.4672225172
 40
0.7251539358
 40
0.8607032474
 40
1.0
 40
1.0
 40
1.0
 40
1.0
 10
7.1479226318
 20
8.1637514237
 30
0.0
 10
7.1464399234
 20
8.1632130484
 30
0.0
 10
7.143500505
 20
8.1619175242
 30
0.0
 10
7.1393051979
 20
8.1594047006
 30
0.0
 10
7.1353092034
 20
8.156319253
 30
0.0
 10
7.1302152187
 20
8.1514085667
 30
0.0
 10
7.1257720433
 20
8.145540989
 30
0.0
 10
7.1220459872
 20
8.1389770828
 30
0.0
 10
7.1204124903
 20
8.1354391432
 30
0.0
 10
7.1196573968
 20
8.1336173777
 30
0.0
  0
SPLINE
  5
48D
100
AcDbEntity
  8
0
100
AcDbSpline
 62
7
  6
CONTINUOUS
 70
0
 71
3
 72
9
 73
5
 74
0
 42
0.0000001
 43
0.0000001
 44
0.0000000001
 40
0.0
 40
0.0
 40
0.0
 40
0.0
 40
0.2455633541
 40
1.0
 40
1.0
 40
1.0
 40
1.0
 10
7.1196573968
 20
8.1336173777
 30
0.0
 10
7.1193459968
 20
8.1328777969
 30
0.0
 10
7.1181296122
 20
8.1298444153
 30
0.0
 10
7.117115709
 20
8.1267306031
 30
0.0
 10
7.116459422
 20
8.1243541726
 30
0.0
  0
SPLINE
  5
48E
100
AcDbEntity
  8
0
100
AcDbSpline
 62
7
  6
CONTINUOUS
 70
0
 71
3
 72
9
 73
5
 74
0
 42
0.0000001
 43
0.0000001
 44
0.0000000001
 40
0.0
 40
0.0
 40
0.0
 40
0.0
 40
0.245753081
 40
1.0
 40
1.0
 40
1.0
 40
1.0
 10
7.116459422
 20
8.1243541726
 30
0.0
 10
7.1160674057
 20
8.1229346724
 30
0.0
 10
7.1146295277
 20
8.1171158422
 30
0.0
 10
7.113812314
 20
8.1111470369
 30
0.0
 10
7.1135256117
 20
8.1066364346
 30
0.0
  0
SPLINE
  5
48F
100
AcDbEntity
  8
0
100
AcDbSpline
 62
7
  6
CONTINUOUS
 70
0
 71
3
 72
15
 73
11
 74
0
 42
0.0000001
 43
0.0000001
 44
0.0000000001
 40
0.0
 40
0.0
 40
0.0
 40
0.0
 40
0.1370061242
 40
0.2722743014
 40
0.4046637252
 40
0.5332216203
 40
0.6572445894
 40
0.7763399973
 40
0.8904794299
 40
1.0
 40
1.0
 40
1.0
 40
1.0
 10
7.1138204647
 20
8.0911411923
 30
0.0
 10
7.1141345788
 20
8.0880346281
 30
0.0
 10
7.1150651391
 20
8.0818873704
 30
0.0
 10
7.1173537179
 20
8.072937748
 30
0.0
 10
7.1204930466
 20
8.0644528131
 30
0.0
 10
7.1244232334
 20
8.0565880834
 30
0.0
 10
7.1290766675
 20
8.0494855249
 30
0.0
 10
7.134374229
 20
8.0432715099
 30
0.0
 10
7.1402209909
 20
8.0380539802
 30
0.0
 10
7.1445053178
 20
8.035247911
 30
0.0
 10
7.1466976662
 20
8.0340547504
 30
0.0
  0
SPLINE
  5
490
100
AcDbEntity
  8
0
100
AcDbSpline
 62
7
  6
CONTINUOUS
 70
0
 71
3
 72
11
 73
7
 74
0
 42
0.0000001
 43
0.0000001
 44
0.0000000001
 40
0.0
 40
0.0
 40
0.0
 40
0.0
 40
0.2561698686
 40
0.507469653
 40
0.7550343735
 40
1.0
 40
1.0
 40
1.0
 40
1.0
 10
7.1466976662
 20
8.0340547504
 30
0.0
 10
7.1480644584
 20
8.0333108894
 30
0.0
 10
7.1508492667
 20
8.0319734887
 30
0.0
 10
7.1551818052
 20
8.0304417074
 30
0.0
 10
7.1595905068
 20
8.0294120357
 30
0.0
 10
7.1625693214
 20
8.0290612549
 30
0.0
 10
7.1640546779
 20
8.0289719145
 30
0.0
  0
SPLINE
  5
491
100
AcDbEntity
  8
0
100
AcDbSpline
 62
7
  6
CONTINUOUS
 70
0
 71
3
 72
11
 73
7
 74
0
 42
0.0000001
 43
0.0000001
 44
0.0000000001
 40
0.0
 40
0.0
 40
0.0
 40
0.0
 40
0.2635390745
 40
0.5187255907
 40
0.7644283215
 40
1.0
 40
1.0
 40
1.0
 40
1.0
 10
7.1183792293
 20
8.1341381305
 30
0.0
 10
7.1193555483
 20
8.1372289968
 30
0.0
 10
7.1215677714
 20
8.1432263357
 30
0.0
 10
7.125715817
 20
8.1516830568
 30
0.0
 10
7.1305794528
 20
8.1593467289
 30
0.0
 10
7.1343357348
 20
8.1639452639
 30
0.0
 10
7.1363128369
 20
8.1660632969
 30
0.0
  0
SPLINE
  5
492
100
AcDbEntity
  8
0
100
AcDbSpline
 62
7
  6
CONTINUOUS
 70
0
 71
3
 72
13
 73
9
 74
0
 42
0.0000001
 43
0.0000001
 44
0.0000000001
 40
0.0
 40
0.0
 40
0.0
 40
0.0
 40
0.2655557258
 40
0.519266378
 40
0.6423234447
 40
0.7632051548
 40
0.8822967035
 40
1.0
 40
1.0
 40
1.0
 40
1.0
 10
7.1363128369
 20
8.1660632969
 30
0.0
 10
7.1383093111
 20
8.1682020831
 30
0.0
 10
7.1425003182
 20
8.1721290333
 30
0.0
 10
7.14836019
 20
8.176153357
 30
0.0
 10
7.1532380938
 20
8.1786699114
 30
0.0
 10
7.1569422198
 20
8.180192906
 30
0.0
 10
7.1607089499
 20
8.181367506
 30
0.0
 10
7.1632632444
 20
8.1819189685
 30
0.0
 10
7.164542048
 20
8.1821343495
 30
0.0
  0
SPLINE
  5
493
100
AcDbEntity
  8
0
100
AcDbSpline
 62
7
  6
CONTINUOUS
 70
0
 71
3
 72
35
 73
31
 74
0
 42
0.0000001
 43
0.0000001
 44
0.0000000001
 40
0.0
 40
0.0
 40
0.0
 40
0.0
 40
0.0267802722
 40
0.0537376563
 40
0.0810761506
 40
0.1090046914
 40
0.1377045254
 40
0.1673029428
 40
0.1978688219
 40
0.2294277717
 40
0.2953492064
 40
0.3645798621
 40
0.4361057658
 40
0.5086500844
 40
0.5448975888
 40
0.5808845633
 40
0.6164431818
 40
0.6514196885
 40
0.685669562
 40
0.7190725348
 40
0.7515261443
 40
0.7829565232
 40
0.8133204972
 40
0.8426048303
 40
0.8708386161
 40
0.8980841484
 40
0.9244581784
 40
0.9501185871
 40
0.9752419586
 40
1.0
 40
1.0
 40
1.0
 40
1.0
 10
7.1640546779
 20
8.0289719145
 30
0.0
 10
7.1659029517
 20
8.0288607456
 30
0.0
 10
7.1696331072
 20
8.0289055178
 30
0.0
 10
7.1751901019
 20
8.0297656896
 30
0.0
 10
7.180651262
 20
8.0314081314
 30
0.0
 10
7.1859562094
 20
8.0338056504
 30
0.0
 10
7.1910517022
 20
8.0369288701
 30
0.0
 10
7.1958888622
 20
8.0407383891
 30
0.0
 10
7.2004229189
 20
8.0451896525
 30
0.0
 10
7.2060853399
 20
8.0520119134
 30
0.0
 10
7.2121360256
 20
8.0619020347
 30
0.0
 10
7.2174962755
 20
8.0752096059
 30
0.0
 10
7.2209095351
 20
8.0896097486
 30
0.0
 10
7.2220508236
 20
8.1020689161
 30
0.0
 10
7.2219251487
 20
8.1120847601
 30
0.0
 10
7.2213158977
 20
8.1195191045
 30
0.0
 10
7.2201987134
 20
8.1268050672
 30
0.0
 10
7.2185911913
 20
8.1338759681
 30
0.0
 10
7.2165083631
 20
8.1406663183
 30
0.0
 10
7.213975084
 20
8.1471151399
 30
0.0
 10
7.2110168424
 20
8.1531647912
 30
0.0
 10
7.207662939
 20
8.15876146
 30
0.0
 10
7.2039482493
 20
8.1638577098
 30
0.0
 10
7.199905655
 20
8.1684074437
 30
0.0
 10
7.1955768026
 20
8.1723745119
 30
0.0
 10
7.1909989722
 20
8.1757228337
 30
0.0
 10
7.186214493
 20
8.1784250464
 30
0.0
 10
7.1812651527
 20
8.1804553431
 30
0.0
 10
7.176202031
 20
8.1817953901
 30
0.0
 10
7.1727681515
 20
8.1822288981
 30
0.0
 10
7.171059178
 20
8.1823271423
 30
0.0
  0
SPLINE
  5
494
100
AcDbEntity
  8
0
100
AcDbSpline
 62
7
  6
CONTINUOUS
 70
0
 71
3
 72
23
 73
19
 74
0
 42
0.0000001
 43
0.0000001
 44
0.0000000001
 40
0.0
 40
0.0
 40
0.0
 40
0.0
 40
0.0674353482
 40
0.1366835227
 40
0.2070670987
 40
0.2780167904
 40
0.4189586868
 40
0.4878688441
 40
0.5549383436
 40
0.6197086429
 40
0.6511280608
 40
0.6818551084
 40
0.7411220261
 40
0.7974956409
 40
0.8511124313
 40
0.9023445274
 40
0.9517659047
 40
1.0
 40
1.0
 40
1.0
 40
1.0
 10
6.6763555968
 20
8.1337476792
 30
0.0
 10
6.6750685452
 20
8.1312039523
 30
0.0
 10
6.672762843
 20
8.125890133
 30
0.0
 10
6.6701460857
 20
8.1175217247
 30
0.0
 10
6.6683558956
 20
8.1087852982
 30
0.0
 10
6.6671006906
 20
8.0969051527
 30
0.0
 10
6.6675356982
 20
8.0849553929
 30
0.0
 10
6.6696536771
 20
8.0734269619
 30
0.0
 10
6.6720151449
 20
8.0652598703
 30
0.0
 10
6.6746199758
 20
8.058852661
 30
0.0
 10
6.6770584294
 20
8.0540703369
 30
0.0
 10
6.6796533361
 20
8.0496391721
 30
0.0
 10
6.683258968
 20
8.0445887665
 30
0.0
 10
6.6881656134
 20
8.0393497349
 30
0.0
 10
6.6935163487
 20
8.035085984
 30
0.0
 10
6.6992235096
 20
8.0318668691
 30
0.0
 10
6.7051868936
 20
8.0297566854
 30
0.0
 10
6.7092901484
 20
8.02909834
 30
0.0
 10
6.7113248312
 20
8.028964594
 30
0.0
  0
SPLINE
  5
495
100
AcDbEntity
  8
0
100
AcDbSpline
 62
7
  6
CONTINUOUS
 70
0
 71
3
 72
11
 73
7
 74
0
 42
0.0000001
 43
0.0000001
 44
0.0000000001
 40
0.0
 40
0.0
 40
0.0
 40
0.0
 40
0.2454343894
 40
0.4926635579
 40
0.743543832
 40
1.0
 40
1.0
 40
1.0
 40
1.0
 10
6.7113248312
 20
8.028964594
 30
0.0
 10
6.7128304737
 20
8.0288656234
 30
0.0
 10
6.7158707748
 20
8.0288793429
 30
0.0
 10
6.7204092563
 20
8.029529157
 30
0.0
 10
6.7248843908
 20
8.0308002309
 30
0.0
 10
6.7277584704
 20
8.032036314
 30
0.0
 10
6.7291668982
 20
8.0327449483
 30
0.0
  0
SPLINE
  5
496
100
AcDbEntity
  8
0
100
AcDbSpline
 62
7
  6
CONTINUOUS
 70
0
 71
3
 72
13
 73
9
 74
0
 42
0.0000001
 43
0.0000001
 44
0.0000000001
 40
0.0
 40
0.0
 40
0.0
 40
0.0
 40
0.1081368972
 40
0.2208133051
 40
0.3384911694
 40
0.4613616615
 40
0.7219203948
 40
1.0
 40
1.0
 40
1.0
 40
1.0
 10
6.7291668982
 20
8.0327449483
 30
0.0
 10
6.7309452086
 20
8.0336396849
 30
0.0
 10
6.7344417741
 20
8.0357455544
 30
0.0
 10
6.7392994996
 20
8.03967518
 30
0.0
 10
6.7438146637
 20
8.0443771333
 30
0.0
 10
6.7494048234
 20
8.0517370973
 30
0.0
 10
6.7551669888
 20
8.0625608484
 30
0.0
 10
6.7581976165
 20
8.0720578577
 30
0.0
 10
6.7593655323
 20
8.0770420747
 30
0.0
  0
SPLINE
  5
497
100
AcDbEntity
  8
0
100
AcDbSpline
 62
7
  6
CONTINUOUS
 70
0
 71
3
 72
11
 73
7
 74
0
 42
0.0000001
 43
0.0000001
 44
0.0000000001
 40
0.0
 40
0.0
 40
0.0
 40
0.0
 40
0.2459732496
 40
0.4337927231
 40
0.6229930031
 40
1.0
 40
1.0
 40
1.0
 40
1.0
 10
6.7593655323
 20
8.0770420747
 30
0.0
 10
6.7602573759
 20
8.0808481216
 30
0.0
 10
6.7614253983
 20
8.0876619718
 30
0.0
 10
6.762125824
 20
8.0975489378
 30
0.0
 10
6.7619761727
 20
8.1095408171
 30
0.0
 10
6.7607500168
 20
8.1185109805
 30
0.0
 10
6.7594361537
 20
8.1243567509
 30
0.0
  0
SPLINE
  5
498
100
AcDbEntity
  8
0
100
AcDbSpline
 62
7
  6
CONTINUOUS
 70
0
 71
3
 72
9
 73
5
 74
0
 42
0.0000001
 43
0.0000001
 44
0.0000000001
 40
0.0
 40
0.0
 40
0.0
 40
0.0
 40
0.5085381564
 40
1.0
 40
1.0
 40
1.0
 40
1.0
 10
6.7594361537
 20
8.1243567509
 30
0.0
 10
6.7584420237
 20
8.1287799326
 30
0.0
 10
6.7559235118
 20
8.1373622253
 30
0.0
 10
6.7522449847
 20
8.1455213932
 30
0.0
 10
6.7501455166
 20
8.1493669028
 30
0.0
  0
SPLINE
  5
499
100
AcDbEntity
  8
0
100
AcDbSpline
 62
7
  6
CONTINUOUS
 70
0
 71
3
 72
9
 73
5
 74
0
 42
0.0000001
 43
0.0000001
 44
0.0000000001
 40
0.0
 40
0.0
 40
0.0
 40
0.0
 40
0.2567010271
 40
1.0
 40
1.0
 40
1.0
 40
1.0
 10
6.7501455166
 20
8.1493669028
 30
0.0
 10
6.7494538834
 20
8.150633739
 30
0.0
 10
6.7466353478
 20
8.1554992034
 30
0.0
 10
6.7433115301
 20
8.160077916
 30
0.0
 10
6.7405632189
 20
8.1632264741
 30
0.0
  0
SPLINE
  5
49A
100
AcDbEntity
  8
0
100
AcDbSpline
 62
7
  6
CONTINUOUS
 70
0
 71
3
 72
11
 73
7
 74
0
 42
0.0000001
 43
0.0000001
 44
0.0000000001
 40
0.0
 40
0.0
 40
0.0
 40
0.0
 40
0.2643859097
 40
0.5179070272
 40
0.7622723376
 40
1.0
 40
1.0
 40
1.0
 40
1.0
 10
6.7385632115
 20
8.1654200338
 30
0.0
 10
6.7365215239
 20
8.1675630311
 30
0.0
 10
6.7322371081
 20
8.1715030201
 30
0.0
 10
6.7251473555
 20
8.1763115908
 30
0.0
 10
6.7176517963
 20
8.1798094585
 30
0.0
 10
6.7124123946
 20
8.1812333247
 30
0.0
 10
6.7097924285
 20
8.1817013332
 30
0.0
  0
SPLINE
  5
49B
100
AcDbEntity
  8
0
100
AcDbSpline
 62
7
  6
CONTINUOUS
 70
0
 71
3
 72
14
 73
10
 74
0
 42
0.0000001
 43
0.0000001
 44
0.0000000001
 40
0.0
 40
0.0
 40
0.0
 40
0.0
 40
0.1178828635
 40
0.2369026449
 40
0.3575497113
 40
0.4803333042
 40
0.605705136
 40
0.7340250157
 40
1.0
 40
1.0
 40
1.0
 40
1.0
 10
6.7196105845
 20
8.1656984705
 30
0.0
 10
6.7210010575
 20
8.1655979384
 30
0.0
 10
6.7237865335
 20
8.1652409759
 30
0.0
 10
6.7279054096
 20
8.1642508374
 30
0.0
 10
6.7319501126
 20
8.1628077292
 30
0.0
 10
6.735892261
 20
8.1609248207
 30
0.0
 10
6.7397080298
 20
8.1586166562
 30
0.0
 10
6.7446487956
 20
8.1549507542
 30
0.0
 10
6.7480067264
 20
8.1516724542
 30
0.0
 10
6.7500779828
 20
8.1493052098
 30
0.0
  0
SPLINE
  5
49C
100
AcDbEntity
  8
0
100
AcDbSpline
 62
7
  6
CONTINUOUS
 70
0
 71
3
 72
9
 73
5
 74
0
 42
0.0000001
 43
0.0000001
 44
0.0000000001
 40
0.0
 40
0.0
 40
0.0
 40
0.0
 40
0.4958983142
 40
1.0
 40
1.0
 40
1.0
 40
1.0
 10
6.7169379338
 20
8.1656975322
 30
0.0
 10
6.7149095173
 20
8.1655502724
 30
0.0
 10
6.7108367452
 20
8.1649223462
 30
0.0
 10
6.7069149071
 20
8.1636622167
 30
0.0
 10
6.7049989262
 20
8.1628855879
 30
0.0
  0
SPLINE
  5
49D
100
AcDbEntity
  8
0
100
AcDbSpline
 62
7
  6
CONTINUOUS
 70
0
 71
3
 72
14
 73
10
 74
0
 42
0.0000001
 43
0.0000001
 44
0.0000000001
 40
0.0
 40
0.0
 40
0.0
 40
0.0
 40
0.1143130889
 40
0.2313025625
 40
0.3513217676
 40
0.4745786973
 40
0.7309058302
 40
0.8640678193
 40
1.0
 40
1.0
 40
1.0
 40
1.0
 10
6.7049989262
 20
8.1628855879
 30
0.0
 10
6.7035239952
 20
8.1622877354
 30
0.0
 10
6.7006062262
 20
8.1609067087
 30
0.0
 10
6.6964304385
 20
8.1583436026
 30
0.0
 10
6.6924392481
 20
8.1552915124
 30
0.0
 10
6.6873422731
 20
8.1505459359
 30
0.0
 10
6.6828140167
 20
8.1449716573
 30
0.0
 10
6.6789202638
 20
8.1387738384
 30
0.0
 10
6.6771745184
 20
8.1354537984
 30
0.0
 10
6.6763555968
 20
8.1337476792
 30
0.0
  0
SPLINE
  5
49E
100
AcDbEntity
  8
0
100
AcDbSpline
 62
7
  6
CONTINUOUS
 70
0
 71
3
 72
39
 73
35
 74
0
 42
0.0000001
 43
0.0000001
 44
0.0000000001
 40
0.0
 40
0.0
 40
0.0
 40
0.0
 40
0.025923047
 40
0.051565184
 40
0.0773526195
 40
0.1036831012
 40
0.1308772758
 40
0.1591565103
 40
0.1886452079
 40
0.2193856914
 40
0.251356285
 40
0.2844869325
 40
0.3186710749
 40
0.3537742264
 40
0.3896395472
 40
0.4260925591
 40
0.462945166
 40
0.4999999407
 40
0.5370547609
 40
0.5739073406
 40
0.6103603522
 40
0.6462257089
 40
0.6813288125
 40
0.7155130023
 40
0.7486436286
 40
0.780614224
 40
0.8113547277
 40
0.8408434064
 40
0.8691226752
 40
0.8963168442
 40
0.9226473565
 40
0.9484348102
 40
0.9740769562
 40
1.0
 40
1.0
 40
1.0
 40
1.0
 10
7.1805835221
 20
8.0055965989
 30
0.0
 10
7.1826453845
 20
8.0055965989
 30
0.0
 10
7.1867563251
 20
8.0059403599
 30
0.0
 10
7.1927337051
 20
8.0075193877
 30
0.0
 10
7.1983810328
 20
8.0101127977
 30
0.0
 10
7.2036344618
 20
8.0136502519
 30
0.0
 10
7.2084577349
 20
8.0180479229
 30
0.0
 10
7.2128335727
 20
8.0232189151
 30
0.0
 10
7.2167578912
 20
8.0290787081
 30
0.0
 10
7.220234224
 20
8.0355469839
 30
0.0
 10
7.2232702435
 20
8.0425478247
 30
0.0
 10
7.2258755245
 20
8.0500091898
 30
0.0
 10
7.2280600659
 20
8.057862136
 30
0.0
 10
7.2298333315
 20
8.0660398993
 30
0.0
 10
7.231203569
 20
8.0744770421
 30
0.0
 10
7.2321774278
 20
8.0831087127
 30
0.0
 10
7.2327597689
 20
8.0918701742
 30
0.0
 10
7.2329535469
 20
8.1006965883
 30
0.0
 10
7.2327597694
 20
8.1095230002
 30
0.0
 10
7.2321774304
 20
8.1182844633
 30
0.0
 10
7.2312035713
 20
8.1269161346
 30
0.0
 10
7.2298333361
 20
8.1353532767
 30
0.0
 10
7.2280600706
 20
8.1435310429
 30
0.0
 10
7.2258755299
 20
8.1513839875
 30
0.0
 10
7.2232702517
 20
8.158845356
 30
0.0
 10
7.2202342308
 20
8.1658461962
 30
0.0
 10
7.2167579021
 20
8.1723144745
 30
0.0
 10
7.2128335812
 20
8.1781742693
 30
0.0
 10
7.2084577456
 20
8.1833452644
 30
0.0
 10
7.2036344697
 20
8.1877429394
 30
0.0
 10
7.1983810389
 20
8.191280397
 30
0.0
 10
7.1927337072
 20
8.1938738095
 30
0.0
 10
7.1867563253
 20
8.1954528379
 30
0.0
 10
7.1826453842
 20
8.1957965989
 30
0.0
 10
7.1805835221
 20
8.1957965989
 30
0.0
  0
SPLINE
  5
49F
100
AcDbEntity
  8
0
100
AcDbSpline
 62
7
  6
CONTINUOUS
 70
0
 71
3
 72
15
 73
11
 74
0
 42
0.0000001
 43
0.0000001
 44
0.0000000001
 40
0.0
 40
0.0
 40
0.0
 40
0.0
 40
0.1096068442
 40
0.2230740646
 40
0.3411210574
 40
0.4640321796
 40
0.5917401854
 40
0.7239403107
 40
0.860192592
 40
1.0
 40
1.0
 40
1.0
 40
1.0
 10
7.1805835221
 20
8.1957965989
 30
0.0
 10
7.1785264038
 20
8.1957965989
 30
0.0
 10
7.1743331967
 20
8.1954472137
 30
0.0
 10
7.168088465
 20
8.1939407703
 30
0.0
 10
7.1618837587
 20
8.1914883541
 30
0.0
 10
7.1558050616
 20
8.1881490767
 30
0.0
 10
7.1499281249
 20
8.1839918052
 30
0.0
 10
7.1443214215
 20
8.1790901456
 30
0.0
 10
7.1390457489
 20
8.1735194958
 30
0.0
 10
7.1358211847
 20
8.1694547486
 30
0.0
 10
7.1342756898
 20
8.1673342676
 30
0.0
  0
SPLINE
  5
4A0
100
AcDbEntity
  8
0
100
AcDbSpline
 62
7
  6
CONTINUOUS
 70
0
 71
3
 72
10
 73
6
 74
0
 42
0.0000001
 43
0.0000001
 44
0.0000000001
 40
0.0
 40
0.0
 40
0.0
 40
0.0
 40
0.2438043771
 40
0.4924227166
 40
1.0
 40
1.0
 40
1.0
 40
1.0
 10
7.1342756898
 20
8.1673342676
 30
0.0
 10
7.1325014906
 20
8.1648999951
 30
0.0
 10
7.1291464986
 20
8.1598121021
 30
0.0
 10
7.1232732689
 20
8.1489308836
 30
0.0
 10
7.1199016175
 20
8.1401557423
 30
0.0
 10
7.1181318056
 20
8.1341395053
 30
0.0
  0
SPLINE
  5
4A1
100
AcDbEntity
  8
0
100
AcDbSpline
 62
7
  6
CONTINUOUS
 70
0
 71
3
 72
19
 73
15
 74
0
 42
0.0000001
 43
0.0000001
 44
0.0000000001
 40
0.0
 40
0.0
 40
0.0
 40
0.0
 40
0.1396545733
 40
0.2776698808
 40
0.4129104048
 40
0.5440243188
 40
0.6076022524
 40
0.6695530572
 40
0.7296770488
 40
0.7878052749
 40
0.8438318604
 40
0.8977513639
 40
0.9497045872
 40
1.0
 40
1.0
 40
1.0
 40
1.0
 10
7.1138626398
 20
8.0895076064
 30
0.0
 10
7.1143686433
 20
8.084129399
 30
0.0
 10
7.1161041758
 20
8.073490094
 30
0.0
 10
7.120820165
 20
8.0581792283
 30
0.0
 10
7.1274816494
 20
8.0439705498
 30
0.0
 10
7.1345534478
 20
8.0332812668
 30
0.0
 10
7.1409947501
 20
8.0257146734
 30
0.0
 10
7.146104335
 20
8.020655108
 30
0.0
 10
7.1514931766
 20
8.0162173825
 30
0.0
 10
7.15710817
 20
8.0124647415
 30
0.0
 10
7.1628891094
 20
8.0094592069
 30
0.0
 10
7.1687701898
 20
8.0072576527
 30
0.0
 10
7.1746773912
 20
8.005908547
 30
0.0
 10
7.1786380525
 20
8.0055965989
 30
0.0
 10
7.1805835221
 20
8.0055965989
 30
0.0
  0
SPLINE
  5
4A2
100
AcDbEntity
  8
0
100
AcDbSpline
 62
7
  6
CONTINUOUS
 70
0
 71
3
 72
9
 73
5
 74
0
 42
0.0000001
 43
0.0000001
 44
0.0000000001
 40
0.0
 40
0.0
 40
0.0
 40
0.0
 40
0.502975927
 40
1.0
 40
1.0
 40
1.0
 40
1.0
 10
6.70456668
 20
8.1637514237
 30
0.0
 10
6.7065595285
 20
8.1644221733
 30
0.0
 10
6.710632759
 20
8.1654490602
 30
0.0
 10
6.7148204195
 20
8.1657965989
 30
0.0
 10
6.7168982383
 20
8.1657965989
 30
0.0
  0
SPLINE
  5
4A3
100
AcDbEntity
  8
0
100
AcDbSpline
 62
7
  6
CONTINUOUS
 70
0
 71
3
 72
14
 73
10
 74
0
 42
0.0000001
 43
0.0000001
 44
0.0000000001
 40
0.0
 40
0.0
 40
0.0
 40
0.0
 40
0.1114603901
 40
0.2262261298
 40
0.3447184294
 40
0.4673064156
 40
0.7252095085
 40
0.8607318927
 40
1.0
 40
1.0
 40
1.0
 40
1.0
 10
6.70456668
 20
8.1637514237
 30
0.0
 10
6.7030883809
 20
8.1632146494
 30
0.0
 10
6.7001576525
 20
8.1619236585
 30
0.0
 10
6.6959739608
 20
8.1594208851
 30
0.0
 10
6.6919881472
 20
8.1563486889
 30
0.0
 10
6.6869058105
 20
8.1514600238
 30
0.0
 10
6.6824695783
 20
8.1456190232
 30
0.0
 10
6.6787455754
 20
8.1390841272
 30
0.0
 10
6.6771114489
 20
8.1355616088
 30
0.0
 10
6.6763555968
 20
8.1337476792
 30
0.0
  0
SPLINE
  5
4A4
100
AcDbEntity
  8
0
100
AcDbSpline
 62
7
  6
CONTINUOUS
 70
0
 71
3
 72
19
 73
15
 74
0
 42
0.0000001
 43
0.0000001
 44
0.0000000001
 40
0.0
 40
0.0
 40
0.0
 40
0.0
 40
0.0555708211
 40
0.111679152
 40
0.1685189552
 40
0.226315898
 40
0.2852484831
 40
0.3454179287
 40
0.4068526753
 40
0.4695332557
 40
0.5982194318
 40
0.7305210429
 40
0.8650306866
 40
1.0
 40
1.0
 40
1.0
 40
1.0
 10
6.70456668
 20
8.1637514237
 30
0.0
 10
6.702717427
 20
8.1635900506
 30
0.0
 10
6.6990176938
 20
8.1630315951
 30
0.0
 10
6.6935809665
 20
8.1615246021
 30
0.0
 10
6.6882878153
 20
8.1593668919
 30
0.0
 10
6.6831828867
 20
8.1565950179
 30
0.0
 10
6.6783025382
 20
8.1532456281
 30
0.0
 10
6.6736794307
 20
8.149359364
 30
0.0
 10
6.6693441704
 20
8.1449773006
 30
0.0
 10
6.6639381039
 20
8.1384788009
 30
0.0
 10
6.6580551303
 20
8.1293529433
 30
0.0
 10
6.6525358275
 20
8.1173061438
 30
0.0
 10
6.6485794166
 20
8.1044452204
 30
0.0
 10
6.6469963233
 20
8.0955584611
 30
0.0
 10
6.6464673384
 20
8.0910811037
 30
0.0
  0
SPLINE
  5
4A5
100
AcDbEntity
  8
0
100
AcDbSpline
 62
7
  6
CONTINUOUS
 70
0
 71
3
 72
21
 73
17
 74
0
 42
0.0000001
 43
0.0000001
 44
0.0000000001
 40
0.0
 40
0.0
 40
0.0
 40
0.0
 40
0.070764177
 40
0.1416926325
 40
0.2822441074
 40
0.3513159236
 40
0.4191778094
 40
0.5501204224
 40
0.6129133327
 40
0.6737136995
 40
0.732481701
 40
0.7892411981
 40
0.8441224014
 40
0.8973598592
 40
0.9492355916
 40
1.0
 40
1.0
 40
1.0
 40
1.0
 10
6.6464673384
 20
8.0910811037
 30
0.0
 10
6.6462446713
 20
8.0937483334
 30
0.0
 10
6.6459867133
 20
8.0991068493
 30
0.0
 10
6.6462085074
 20
8.1097855222
 30
0.0
 10
6.6475316822
 20
8.1203565412
 30
0.0
 10
6.6499541325
 20
8.1305768205
 30
0.0
 10
6.653016541
 20
8.140241702
 30
0.0
 10
6.6570803845
 20
8.1493201363
 30
0.0
 10
6.6621232755
 20
8.1575333867
 30
0.0
 10
6.6662607869
 20
8.1630652841
 30
0.0
 10
6.6707619414
 20
8.168001571
 30
0.0
 10
6.6755863595
 20
8.1722945701
 30
0.0
 10
6.6806905912
 20
8.175901636
 30
0.0
 10
6.6860308576
 20
8.1787817464
 30
0.0
 10
6.6915489229
 20
8.1809019016
 30
0.0
 10
6.6953362035
 20
8.1818139984
 30
0.0
 10
6.697229051
 20
8.1821361044
 30
0.0
  0
SPLINE
  5
4A6
100
AcDbEntity
  8
0
100
AcDbSpline
 62
7
  6
CONTINUOUS
 70
0
 71
3
 72
31
 73
27
 74
0
 42
0.0000001
 43
0.0000001
 44
0.0000000001
 40
0.0
 40
0.0
 40
0.0
 40
0.0
 40
0.0234235793
 40
0.0470966484
 40
0.0712033105
 40
0.0959182147
 40
0.1213995141
 40
0.147775331
 40
0.1751342787
 40
0.2035211389
 40
0.2633694098
 40
0.327184564
 40
0.3944005913
 40
0.4290489683
 40
0.4642183461
 40
0.5355673734
 40
0.6074106543
 40
0.6431999705
 40
0.6787180564
 40
0.7484350545
 40
0.8157879075
 40
0.8802243174
 40
0.9112935177
 40
0.941584863
 40
0.9711310453
 40
1.0
 40
1.0
 40
1.0
 40
1.0
 10
6.7279467873
 20
8.0355965989
 30
0.0
 10
6.7267122558
 20
8.0355965989
 30
0.0
 10
6.7242269815
 20
8.0357643132
 30
0.0
 10
6.720538763
 20
8.036510041
 30
0.0
 10
6.7169120892
 20
8.037745105
 30
0.0
 10
6.7133816154
 20
8.0394614326
 30
0.0
 10
6.7099748151
 20
8.0416409419
 30
0.0
 10
6.7067197178
 20
8.0442678823
 30
0.0
 10
6.7036422384
 20
8.0473214818
 30
0.0
 10
6.699739388
 20
8.0520096307
 30
0.0
 10
6.6954709828
 20
8.0588413902
 30
0.0
 10
6.6915147096
 20
8.0681279091
 30
0.0
 10
6.6892390116
 20
8.076588095
 30
0.0
 10
6.6880456308
 20
8.0837151013
 30
0.0
 10
6.687283057
 20
8.0911205717
 30
0.0
 10
6.6871999964
 20
8.1005459271
 30
0.0
 10
6.6882674373
 20
8.1099439017
 30
0.0
 10
6.6898149646
 20
8.1173327796
 30
0.0
 10
6.6917957261
 20
8.1245008476
 30
0.0
 10
6.6950651473
 20
8.1330208681
 30
0.0
 10
6.7002184967
 20
8.1423468325
 30
0.0
 10
6.7054823694
 20
8.1491788551
 30
0.0
 10
6.7101738873
 20
8.1538740587
 30
0.0
 10
6.7138535644
 20
8.1569534549
 30
0.0
 10
6.717711569
 20
8.1596064219
 30
0.0
 10
6.7204147562
 20
8.1610931801
 30
0.0
 10
6.7217845221
 20
8.1617555918
 30
0.0
  0
SPLINE
  5
4A7
100
AcDbEntity
  8
0
100
AcDbSpline
 62
7
  6
CONTINUOUS
 70
0
 71
3
 72
20
 73
16
 74
0
 42
0.0000001
 43
0.0000001
 44
0.0000000001
 40
0.0
 40
0.0
 40
0.0
 40
0.0
 40
0.0504813881
 40
0.1025587579
 40
0.1565276239
 40
0.2125340826
 40
0.2705863975
 40
0.3305974623
 40
0.3924170217
 40
0.4558620345
 40
0.5867618173
 40
0.6539332683
 40
0.7219907024
 40
0.8600771021
 40
1.0
 40
1.0
 40
1.0
 40
1.0
 10
6.6948011634
 20
8.0055965989
 30
0.0
 10
6.6966792897
 20
8.0055965989
 30
0.0
 10
6.700499999
 20
8.0058870322
 30
0.0
 10
6.7062032155
 20
8.0071452994
 30
0.0
 10
6.7118875639
 20
8.0092014832
 30
0.0
 10
6.7174857883
 20
8.0120128559
 30
0.0
 10
6.7229377422
 20
8.0155291108
 30
0.0
 10
6.7281880603
 20
8.0196947478
 30
0.0
 10
6.7331877369
 20
8.0244529982
 30
0.0
 10
6.7395247066
 20
8.0315828661
 30
0.0
 10
6.7451078833
 20
8.0396042568
 30
0.0
 10
6.7498726407
 20
8.0482899496
 30
0.0
 10
6.7541342276
 20
8.0575308448
 30
0.0
 10
6.7583141341
 20
8.0697512347
 30
0.0
 10
6.7603423249
 20
8.0799289753
 30
0.0
 10
6.7610230745
 20
8.0850900108
 30
0.0
  0
SPLINE
  5
4A8
100
AcDbEntity
  8
0
100
AcDbSpline
 62
7
  6
CONTINUOUS
 70
0
 71
3
 72
11
 73
7
 74
0
 42
0.0000001
 43
0.0000001
 44
0.0000000001
 40
0.0
 40
0.0
 40
0.0
 40
0.0
 40
0.2558324441
 40
0.5093607724
 40
0.7583170572
 40
1.0
 40
1.0
 40
1.0
 40
1.0
 10
6.7620222615
 20
8.1031283872
 30
0.0
 10
6.7619033721
 20
8.1089681994
 30
0.0
 10
6.7608123088
 20
8.1205958867
 30
0.0
 10
6.7566690517
 20
8.1374694122
 30
0.0
 10
6.7501910907
 20
8.1532429229
 30
0.0
 10
6.7443593348
 20
8.1628746242
 30
0.0
 10
6.7411092696
 20
8.1673338906
 30
0.0
  0
SPLINE
  5
4A9
100
AcDbEntity
  8
0
100
AcDbSpline
 62
7
  6
CONTINUOUS
 70
0
 71
3
 72
15
 73
11
 74
0
 42
0.0000001
 43
0.0000001
 44
0.0000000001
 40
0.0
 40
0.0
 40
0.0
 40
0.0
 40
0.1398074156
 40
0.2760596737
 40
0.4082599345
 40
0.5359679204
 40
0.6588791435
 40
0.7769261496
 40
0.8903932974
 40
1.0
 40
1.0
 40
1.0
 40
1.0
 10
6.7411092696
 20
8.1673338906
 30
0.0
 10
6.7395637725
 20
8.1694543969
 30
0.0
 10
6.7363392023
 20
8.173519194
 30
0.0
 10
6.7310635065
 20
8.1790899123
 30
0.0
 10
6.7254567767
 20
8.1839916379
 30
0.0
 10
6.7195798022
 20
8.1881489663
 30
0.0
 10
6.713501064
 20
8.1914882919
 30
0.0
 10
6.7072963114
 20
8.1939407437
 30
0.0
 10
6.7010515339
 20
8.1954472087
 30
0.0
 10
6.696858296
 20
8.1957965989
 30
0.0
 10
6.6948011634
 20
8.1957965989
 30
0.0
  0
SPLINE
  5
4AA
100
AcDbEntity
  8
0
100
AcDbSpline
 62
7
  6
CONTINUOUS
 70
0
 71
3
 72
39
 73
35
 74
0
 42
0.0000001
 43
0.0000001
 44
0.0000000001
 40
0.0
 40
0.0
 40
0.0
 40
0.0
 40
0.025923047
 40
0.051565184
 40
0.0773526195
 40
0.1036831012
 40
0.1308772758
 40
0.1591565103
 40
0.1886452079
 40
0.2193856914
 40
0.251356285
 40
0.2844869325
 40
0.3186710749
 40
0.3537742264
 40
0.3896395472
 40
0.4260925591
 40
0.462945166
 40
0.4999999407
 40
0.5370547609
 40
0.5739073406
 40
0.6103603522
 40
0.6462257089
 40
0.6813288125
 40
0.7155130023
 40
0.7486436286
 40
0.780614224
 40
0.8113547277
 40
0.8408434064
 40
0.8691226752
 40
0.8963168442
 40
0.9226473565
 40
0.9484348102
 40
0.9740769562
 40
1.0
 40
1.0
 40
1.0
 40
1.0
 10
6.6948011634
 20
8.1957965989
 30
0.0
 10
6.692739301
 20
8.1957965989
 30
0.0
 10
6.6886283604
 20
8.1954528379
 30
0.0
 10
6.6826509803
 20
8.1938738101
 30
0.0
 10
6.6770036527
 20
8.1912804001
 30
0.0
 10
6.6717502236
 20
8.1877429459
 30
0.0
 10
6.6669269506
 20
8.1833452749
 30
0.0
 10
6.6625511128
 20
8.1781742827
 30
0.0
 10
6.6586267942
 20
8.1723144897
 30
0.0
 10
6.6551504615
 20
8.1658462139
 30
0.0
 10
6.652114442
 20
8.158845373
 30
0.0
 10
6.649509161
 20
8.151384008
 30
0.0
 10
6.6473246196
 20
8.1435310617
 30
0.0
 10
6.645551354
 20
8.1353532985
 30
0.0
 10
6.6441811164
 20
8.1269161557
 30
0.0
 10
6.6432072576
 20
8.118284485
 30
0.0
 10
6.6426249166
 20
8.1095230235
 30
0.0
 10
6.6424311386
 20
8.1006966095
 30
0.0
 10
6.6426249161
 20
8.0918701976
 30
0.0
 10
6.643207255
 20
8.0831087345
 30
0.0
 10
6.6441811142
 20
8.0744770632
 30
0.0
 10
6.6455513494
 20
8.066039921
 30
0.0
 10
6.6473246148
 20
8.0578621548
 30
0.0
 10
6.6495091556
 20
8.0500092103
 30
0.0
 10
6.6521144338
 20
8.0425478418
 30
0.0
 10
6.6551504547
 20
8.0355470016
 30
0.0
 10
6.6586267834
 20
8.0290787232
 30
0.0
 10
6.6625511043
 20
8.0232189285
 30
0.0
 10
6.6669269399
 20
8.0180479333
 30
0.0
 10
6.6717502157
 20
8.0136502584
 30
0.0
 10
6.6770036466
 20
8.0101128007
 30
0.0
 10
6.6826509783
 20
8.0075193882
 30
0.0
 10
6.6886283602
 20
8.0059403599
 30
0.0
 10
6.6927393013
 20
8.0055965989
 30
0.0
 10
6.6948011634
 20
8.0055965989
 30
0.0
  0
SPLINE
  5
4AB
100
AcDbEntity
  8
0
100
AcDbSpline
 62
7
  6
CONTINUOUS
 70
0
 71
3
 72
15
 73
11
 74
0
 42
0.0000001
 43
0.0000001
 44
0.0000000001
 40
0.0
 40
0.0
 40
0.0
 40
0.0
 40
0.1034194246
 40
0.2111074583
 40
0.3245392975
 40
0.4447968751
 40
0.572466803
 40
0.7077161699
 40
0.8503769147
 40
1.0
 40
1.0
 40
1.0
 40
1.0
 10
7.1479226318
 20
8.1637514237
 30
0.0
 10
7.1464283514
 20
8.163564414
 30
0.0
 10
7.1434109034
 20
8.1628646042
 30
0.0
 10
7.1390665889
 20
8.1609449228
 30
0.0
 10
7.1349069752
 20
8.1581841688
 30
0.0
 10
7.1309912574
 20
8.1546438211
 30
0.0
 10
7.1273700389
 20
8.1503803639
 30
0.0
 10
7.1240869529
 20
8.1454568816
 30
0.0
 10
7.1211843798
 20
8.1399385222
 30
0.0
 10
7.119560411
 20
8.1359972765
 30
0.0
 10
7.1188158416
 20
8.1339497222
 30
0.0
  0
SPLINE
  5
4AC
100
AcDbEntity
  8
0
100
AcDbSpline
 62
7
  6
CONTINUOUS
 70
0
 71
3
 72
30
 73
26
 74
0
 42
0.0000001
 43
0.0000001
 44
0.0000000001
 40
0.0
 40
0.0
 40
0.0
 40
0.0
 40
0.0233620252
 40
0.0469830802
 40
0.0710221642
 40
0.0956356875
 40
0.1209787795
 40
0.1471801776
 40
0.1743319139
 40
0.2024808812
 40
0.2617780333
 40
0.3249823424
 40
0.3579260749
 40
0.3916344359
 40
0.4608996353
 40
0.531886
 40
0.603581713
 40
0.6749615548
 40
0.7450629191
 40
0.8130637591
 40
0.8460971436
 40
0.8784015234
 40
0.9406664631
 40
0.9706906057
 40
1.0
 40
1.0
 40
1.0
 40
1.0
 10
7.1584864472
 20
8.1657965989
 30
0.0
 10
7.1596907163
 20
8.1657965989
 30
0.0
 10
7.1621154416
 20
8.1656366616
 30
0.0
 10
7.1657165008
 20
8.1649263791
 30
0.0
 10
7.1692616611
 20
8.1637498641
 30
0.0
 10
7.1727169771
 20
8.1621134461
 30
0.0
 10
7.1760563815
 20
8.160034028
 30
0.0
 10
7.1792545163
 20
8.1575263993
 30
0.0
 10
7.182286945
 20
8.154608856
 30
0.0
 10
7.186146305
 20
8.1501267757
 30
0.0
 10
7.1904011024
 20
8.1435837613
 30
0.0
 10
7.1936979005
 20
8.1362487057
 30
0.0
 10
7.1958014924
 20
8.1298895689
 30
0.0
 10
7.1975556354
 20
8.1231016739
 30
0.0
 10
7.1989479157
 20
8.1142170777
 30
0.0
 10
7.1993173019
 20
8.1032723631
 30
0.0
 10
7.1983729447
 20
8.092251847
 30
0.0
 10
7.196122101
 20
8.0814678226
 30
0.0
 10
7.1926108267
 20
8.0712261328
 30
0.0
 10
7.1886613787
 20
8.0633033559
 30
0.0
 10
7.1849389165
 20
8.0575180516
 30
0.0
 10
7.1809709634
 20
8.0522665307
 30
0.0
 10
7.1764955873
 20
8.0476092514
 30
0.0
 10
7.1715829471
 20
8.0437053461
 30
0.0
 10
7.1690163059
 20
8.0420312647
 30
0.0
 10
7.1677114515
 20
8.0412696825
 30
0.0
  0
SPLINE
  5
4AD
100
AcDbEntity
  8
0
100
AcDbSpline
 62
7
  6
CONTINUOUS
 70
0
 71
3
 72
11
 73
7
 74
0
 42
0.0000001
 43
0.0000001
 44
0.0000000001
 40
0.0
 40
0.0
 40
0.0
 40
0.0
 40
0.2568877229
 40
0.5081438568
 40
0.7553704992
 40
1.0
 40
1.0
 40
1.0
 40
1.0
 10
7.1677114515
 20
8.0412696825
 30
0.0
 10
7.1661372494
 20
8.0403508948
 30
0.0
 10
7.1629107156
 20
8.0387175632
 30
0.0
 10
7.1578440499
 20
8.0369241178
 30
0.0
 10
7.1526680324
 20
8.035841072
 30
0.0
 10
7.1491736346
 20
8.0355965989
 30
0.0
 10
7.1474378982
 20
8.0355965989
 30
0.0
  0
SPLINE
  5
4AE
100
AcDbEntity
  8
0
100
AcDbSpline
 62
7
  6
CONTINUOUS
 70
0
 71
3
 72
28
 73
24
 74
0
 42
0.0000001
 43
0.0000001
 44
0.0000000001
 40
0.0
 40
0.0
 40
0.0
 40
0.0
 40
0.0632107843
 40
0.1287013129
 40
0.1960657244
 40
0.2303067609
 40
0.2648241623
 40
0.2995510242
 40
0.3344190457
 40
0.4042503179
 40
0.4736824247
 40
0.5080458832
 40
0.5420563358
 40
0.5756348359
 40
0.608710543
 40
0.6412293539
 40
0.6731418496
 40
0.7349319393
 40
0.7937711857
 40
0.8494613552
 40
0.9020982821
 40
0.9520894817
 40
1.0
 40
1.0
 40
1.0
 40
1.0
 10
7.1977726811
 20
8.0422919152
 30
0.0
 10
7.1998552633
 20
8.0449637377
 30
0.0
 10
7.2037351618
 20
8.0506920934
 30
0.0
 10
7.2085798511
 20
8.0600384941
 30
0.0
 10
7.211831431
 20
8.0684016323
 30
0.0
 10
7.213949399
 20
8.0753850496
 30
0.0
 10
7.2152890034
 20
8.0807693748
 30
0.0
 10
7.2163613813
 20
8.0862474147
 30
0.0
 10
7.2174269972
 20
8.0936458159
 30
0.0
 10
7.2180807107
 20
8.1029702333
 30
0.0
 10
7.2178488098
 20
8.1122873976
 30
0.0
 10
7.2171306718
 20
8.119640203
 30
0.0
 10
7.2163316288
 20
8.1250476747
 30
0.0
 10
7.215272351
 20
8.130339955
 30
0.0
 10
7.2139535061
 20
8.1354911974
 30
0.0
 10
7.2123857651
 20
8.1404789506
 30
0.0
 10
7.2100056393
 20
8.146813674
 30
0.0
 10
7.2064939616
 20
8.1542179929
 30
0.0
 10
7.2014269541
 20
8.1622238582
 30
0.0
 10
7.1956295635
 20
8.1690959646
 30
0.0
 10
7.189190474
 20
8.1746788855
 30
0.0
 10
7.182265534
 20
8.1788928366
 30
0.0
 10
7.1773254119
 20
8.1807703127
 30
0.0
 10
7.1748456259
 20
8.1814361485
 30
0.0
  0
SPLINE
  5
4AF
100
AcDbEntity
  8
0
100
AcDbSpline
 62
7
  6
CONTINUOUS
 70
0
 71
3
 72
11
 73
7
 74
0
 42
0.0000001
 43
0.0000001
 44
0.0000000001
 40
0.0
 40
0.0
 40
0.0
 40
0.0
 40
0.2521802307
 40
0.5044620479
 40
0.7545045256
 40
1.0
 40
1.0
 40
1.0
 40
1.0
 10
7.1939717588
 20
8.0848687468
 30
0.0
 10
7.1946238485
 20
8.0884520866
 30
0.0
 10
7.1955804493
 20
8.0956878787
 30
0.0
 10
7.1960004402
 20
8.1065918188
 30
0.0
 10
7.1954174566
 20
8.1173917229
 30
0.0
 10
7.1943497794
 20
8.1244825869
 30
0.0
 10
7.1936411722
 20
8.1279566997
 30
0.0
  0
SPLINE
  5
4B0
100
AcDbEntity
  8
0
100
AcDbSpline
 62
7
  6
CONTINUOUS
 70
0
 71
3
 72
21
 73
17
 74
0
 42
0.0000001
 43
0.0000001
 44
0.0000000001
 40
0.0
 40
0.0
 40
0.0
 40
0.0
 40
0.0527586017
 40
0.1065640218
 40
0.1616543792
 40
0.2182422312
 40
0.276476606
 40
0.3363894651
 40
0.3979388794
 40
0.4610323057
 40
0.591236917
 40
0.6581282714
 40
0.7258933943
 40
0.7942629588
 40
0.8629474859
 40
1.0
 40
1.0
 40
1.0
 40
1.0
 10
6.6975531074
 20
8.180988248
 30
0.0
 10
6.695673216
 20
8.1804694979
 30
0.0
 10
6.6919351257
 20
8.1791947151
 30
0.0
 10
6.6865248205
 20
8.1766308048
 30
0.0
 10
6.6813065506
 20
8.1734161932
 30
0.0
 10
6.6763297366
 20
8.1695666876
 30
0.0
 10
6.6716357819
 20
8.165115484
 30
0.0
 10
6.6672516041
 20
8.1601141688
 30
0.0
 10
6.6632078789
 20
8.15460967
 30
0.0
 10
6.6582611401
 20
8.1465836221
 30
0.0
 10
6.6541922786
 20
8.1378205141
 30
0.0
 10
6.6510597919
 20
8.1285389332
 30
0.0
 10
6.6491560377
 20
8.1212734727
 30
0.0
 10
6.6477286829
 20
8.1138324113
 30
0.0
 10
6.6464720708
 20
8.1037740609
 30
0.0
 10
6.6462633385
 20
8.0961429597
 30
0.0
 10
6.6464673384
 20
8.0910811033
 30
0.0
  0
SPLINE
  5
4B1
100
AcDbEntity
  8
0
100
AcDbSpline
 62
7
  6
CONTINUOUS
 70
0
 71
3
 72
15
 73
11
 74
0
 42
0.0000001
 43
0.0000001
 44
0.0000000001
 40
0.0
 40
0.0
 40
0.0
 40
0.0
 40
0.1271909149
 40
0.2550601291
 40
0.3829265847
 40
0.5101312474
 40
0.6360613011
 40
0.7600956423
 40
0.8816077243
 40
1.0
 40
1.0
 40
1.0
 40
1.0
 10
6.6717202027
 20
8.1228786842
 30
0.0
 10
6.6710593251
 20
8.120155264
 30
0.0
 10
6.6699373042
 20
8.1146424386
 30
0.0
 10
6.6688577596
 20
8.1062675878
 30
0.0
 10
6.6683866483
 20
8.0978355449
 30
0.0
 10
6.6685421957
 20
8.0894344243
 30
0.0
 10
6.6693122329
 20
8.0811522516
 30
0.0
 10
6.670672029
 20
8.073073229
 30
0.0
 10
6.6725997783
 20
8.0652818313
 30
0.0
 10
6.6742737983
 20
8.0602605443
 30
0.0
 10
6.6752044246
 20
8.0578235995
 30
0.0
  0
LINE
  5
4B2
100
AcDbEntity
  8
0
100
AcDbLine
 62
7
  6
CONTINUOUS
 10
6.9376923427
 20
6.6004647256
 11
6.9376923427
 21
7.4128884487
  0
LINE
  5
4B3
100
AcDbEntity
  8
0
100
AcDbLine
 62
7
  6
CONTINUOUS
 10
14.9376923427
 20
6.6004647256
 11
14.9376923427
 21
7.4128884487
  0
SPLINE
  5
4B4
100
AcDbEntity
  8
0
100
AcDbSpline
 62
7
  6
CONTINUOUS
 70
0
 71
3
 72
20
 73
16
 74
0
 42
0.0000001
 43
0.0000001
 44
0.0000000001
 40
0.0
 40
0.0
 40
0.0
 40
0.0
 40
0.1986218393
 40
0.3758155478
 40
0.5306169245
 40
0.5995436177
 40
0.662873674
 40
0.7207004285
 40
0.7731745847
 40
0.820540063
 40
0.8631592591
 40
0.9015506155
 40
0.9364453034
 40
0.9688404529
 40
1.0
 40
1.0
 40
1.0
 40
1.0
 10
10.4524334382
 20
10.8575269558
 30
0.0
 10
10.4440999303
 20
10.8596288311
 30
0.0
 10
10.4283995587
 20
10.8638865554
 30
0.0
 10
10.4065333352
 20
10.8709179004
 30
0.0
 10
10.3903495786
 20
10.8772126855
 30
0.0
 10
10.3790767031
 20
10.8824380452
 30
0.0
 10
10.3717862019
 20
10.8862539942
 30
0.0
 10
10.3653353049
 20
10.8901148282
 30
0.0
 10
10.3597314742
 20
10.894017421
 30
0.0
 10
10.3549799841
 20
10.8979582848
 30
0.0
 10
10.3510849292
 20
10.901935822
 30
0.0
 10
10.3480523189
 20
10.9059512696
 30
0.0
 10
10.3458937652
 20
10.9100091097
 30
0.0
 10
10.3446305984
 20
10.9141068627
 30
0.0
 10
10.3443992901
 20
10.9168734779
 30
0.0
 10
10.344437057
 20
10.9182212416
 30
0.0
  0
SPLINE
  5
4B5
100
AcDbEntity
  8
0
100
AcDbSpline
 62
7
  6
CONTINUOUS
 70
0
 71
3
 72
11
 73
7
 74
0
 42
0.0000001
 43
0.0000001
 44
0.0000000001
 40
0.0
 40
0.0
 40
0.0
 40
0.0
 40
0.2596917635
 40
0.5157185484
 40
0.7637031158
 40
1.0
 40
1.0
 40
1.0
 40
1.0
 10
10.937692343
 20
11.0000571168
 30
0.0
 10
10.9176473466
 20
11.0000571168
 30
0.0
 10
10.8778389142
 20
10.9996232935
 30
0.0
 10
10.818917341
 20
10.9976902839
 30
0.0
 10
10.7618589208
 20
10.9944962463
 30
0.0
 10
10.7245951047
 20
10.9914792509
 30
0.0
 10
10.7064385099
 20
10.9897453226
 30
0.0
  0
SPLINE
  5
4B6
100
AcDbEntity
  8
0
100
AcDbSpline
 62
7
  6
CONTINUOUS
 70
0
 71
3
 72
14
 73
10
 74
0
 42
0.0000001
 43
0.0000001
 44
0.0000000001
 40
0.0
 40
0.0
 40
0.0
 40
0.0
 40
0.3046377046
 40
0.4450607715
 40
0.5765130305
 40
0.6983082247
 40
0.8098042676
 40
0.9105047144
 40
1.0
 40
1.0
 40
1.0
 40
1.0
 10
10.7064385099
 20
10.9897453226
 30
0.0
 10
10.6857557877
 20
10.9877701529
 30
0.0
 10
10.6555799605
 20
10.9843968049
 30
0.0
 10
10.6166610841
 20
10.9787819359
 30
0.0
 10
10.5901822215
 20
10.9743212784
 30
0.0
 10
10.5657689562
 20
10.9695268969
 30
0.0
 10
10.5435641596
 20
10.9644236854
 30
0.0
 10
10.5236975698
 20
10.959047341
 30
0.0
 10
10.5113437026
 20
10.9550659875
 30
0.0
 10
10.5055988582
 20
10.9530038692
 30
0.0
  0
SPLINE
  5
4B7
100
AcDbEntity
  8
0
100
AcDbSpline
 62
7
  6
CONTINUOUS
 70
0
 71
3
 72
11
 73
7
 74
0
 42
0.0000001
 43
0.0000001
 44
0.0000000001
 40
0.0
 40
0.0
 40
0.0
 40
0.0
 40
0.293519988
 40
0.5578160594
 40
0.7931079518
 40
1.0
 40
1.0
 40
1.0
 40
1.0
 10
10.5055988582
 20
10.9530038692
 30
0.0
 10
10.5020722465
 20
10.9517379879
 30
0.0
 10
10.4954177591
 20
10.9491952502
 30
0.0
 10
10.4861552697
 20
10.9450933165
 30
0.0
 10
10.4781552946
 20
10.9409152274
 30
0.0
 10
10.4733741472
 20
10.937895121
 30
0.0
 10
10.4712263539
 20
10.9363581524
 30
0.0
  0
SPLINE
  5
4B8
100
AcDbEntity
  8
0
100
AcDbSpline
 62
7
  6
CONTINUOUS
 70
0
 71
3
 72
9
 73
5
 74
0
 42
0.0000001
 43
0.0000001
 44
0.0000000001
 40
0.0
 40
0.0
 40
0.0
 40
0.0
 40
0.2658624659
 40
1.0
 40
1.0
 40
1.0
 40
1.0
 10
10.4712263539
 20
10.9363581524
 30
0.0
 10
10.4706646912
 20
10.9359562245
 30
0.0
 10
10.4685758886
 20
10.9344120633
 30
0.0
 10
10.466585087
 20
10.9327307482
 30
0.0
 10
10.4652160802
 20
10.9314029542
 30
0.0
  0
LINE
  5
4B9
100
AcDbEntity
  8
0
100
AcDbLine
 62
7
  6
CONTINUOUS
 10
11.5076744881
 20
11.5855912763
 11
11.5091874226
 21
11.4917886641
  0
SPLINE
  5
4BA
100
AcDbEntity
  8
0
100
AcDbSpline
 62
7
  6
CONTINUOUS
 70
0
 71
3
 72
11
 73
7
 74
0
 42
0.0000001
 43
0.0000001
 44
0.0000000001
 40
0.0
 40
0.0
 40
0.0
 40
0.0
 40
0.2732374096
 40
0.5314236203
 40
0.7738952547
 40
1.0
 40
1.0
 40
1.0
 40
1.0
 10
11.6250634856
 20
9.9119198861
 30
0.0
 10
11.6138164659
 20
10.0014140546
 30
0.0
 10
11.592158299
 20
10.1754999668
 30
0.0
 10
11.561474829
 20
10.4291210595
 30
0.0
 10
11.5337022808
 20
10.6674198738
 30
0.0
 10
11.5166623808
 20
10.8211610045
 30
0.0
 10
11.5087143229
 20
10.8953758264
 30
0.0
  0
SPLINE
  5
4BB
100
AcDbEntity
  8
0
100
AcDbSpline
 62
7
  6
CONTINUOUS
 70
0
 71
3
 72
11
 73
7
 74
0
 42
0.0000001
 43
0.0000001
 44
0.0000000001
 40
0.0
 40
0.0
 40
0.0
 40
0.0
 40
0.273232118
 40
0.531422398
 40
0.7738986835
 40
1.0
 40
1.0
 40
1.0
 40
1.0
 10
10.2489806334
 20
9.9113041379
 30
0.0
 10
10.2602383209
 20
10.0009020234
 30
0.0
 10
10.2819256658
 20
10.1751916031
 30
0.0
 10
10.3126774778
 20
10.4291079088
 30
0.0
 10
10.3405402185
 20
10.6676817369
 30
0.0
 10
10.3576564109
 20
10.8215976266
 30
0.0
 10
10.3656462265
 20
10.8958950353
 30
0.0
  0
SPLINE
  5
4BC
100
AcDbEntity
  8
0
100
AcDbSpline
 62
7
  6
CONTINUOUS
 70
0
 71
3
 72
10
 73
6
 74
0
 42
0.0000001
 43
0.0000001
 44
0.0000000001
 40
0.0
 40
0.0
 40
0.0
 40
0.0
 40
0.2441262208
 40
0.4927472512
 40
1.0
 40
1.0
 40
1.0
 40
1.0
 10
9.9565051784
 20
7.6971155174
 30
0.0
 10
9.959640448
 20
7.7120613174
 30
0.0
 10
9.9655453333
 20
7.7423179337
 30
0.0
 10
9.9761435574
 20
7.8039710217
 30
0.0
 10
9.9828324586
 20
7.8507904166
 30
0.0
 10
9.9868774949
 20
7.8822623018
 30
0.0
  0
SPLINE
  5
4BD
100
AcDbEntity
  8
0
100
AcDbSpline
 62
7
  6
CONTINUOUS
 70
0
 71
3
 72
11
 73
7
 74
0
 42
0.0000001
 43
0.0000001
 44
0.0000000001
 40
0.0
 40
0.0
 40
0.0
 40
0.0
 40
0.2665736726
 40
0.5241668773
 40
0.7697103008
 40
1.0
 40
1.0
 40
1.0
 40
1.0
 10
9.9868774949
 20
7.8822623018
 30
0.0
 10
10.0100527452
 20
8.0625735478
 30
0.0
 10
10.0559797874
 20
8.4170756737
 30
0.0
 10
10.1238500138
 20
8.9375866111
 30
0.0
 10
10.1882693589
 20
9.4335935272
 30
0.0
 10
10.229401744
 20
9.7554793204
 30
0.0
 10
10.2489806335
 20
9.9113041389
 30
0.0
  0
SPLINE
  5
4BE
100
AcDbEntity
  8
0
100
AcDbSpline
 62
7
  6
CONTINUOUS
 70
0
 71
3
 72
9
 73
5
 74
0
 42
0.0000001
 43
0.0000001
 44
0.0000000001
 40
0.0
 40
0.0
 40
0.0
 40
0.0
 40
0.2348662535
 40
1.0
 40
1.0
 40
1.0
 40
1.0
 10
11.4101687227
 20
10.9314029577
 30
0.0
 10
11.4097390357
 20
10.9318197073
 30
0.0
 10
11.4078705337
 20
10.933553868
 30
0.0
 10
11.4058619234
 20
10.9351334992
 30
0.0
 10
11.4042785789
 20
10.9362718032
 30
0.0
  0
SPLINE
  5
4BF
100
AcDbEntity
  8
0
100
AcDbSpline
 62
7
  6
CONTINUOUS
 70
0
 71
3
 72
9
 73
5
 74
0
 42
0.0000001
 43
0.0000001
 44
0.0000000001
 40
0.0
 40
0.0
 40
0.0
 40
0.0
 40
0.2365587596
 40
1.0
 40
1.0
 40
1.0
 40
1.0
 10
11.4042785789
 20
10.9362718032
 30
0.0
 10
11.4037330792
 20
10.9366639759
 30
0.0
 10
11.401402011
 20
10.9382868608
 30
0.0
 10
11.3989801742
 20
10.9397773034
 30
0.0
 10
11.3970992906
 20
10.9408559315
 30
0.0
  0
SPLINE
  5
4C0
100
AcDbEntity
  8
0
100
AcDbSpline
 62
7
  6
CONTINUOUS
 70
0
 71
3
 72
9
 73
5
 74
0
 42
0.0000001
 43
0.0000001
 44
0.0000000001
 40
0.0
 40
0.0
 40
0.0
 40
0.0
 40
0.4604549781
 40
1.0
 40
1.0
 40
1.0
 40
1.0
 10
11.3970992906
 20
10.9408559315
 30
0.0
 10
11.3932443431
 20
10.9430666236
 30
0.0
 10
11.3845721642
 20
10.947344633
 30
0.0
 10
11.3755914061
 20
10.9508982666
 30
0.0
 10
11.3706967593
 20
10.9526750025
 30
0.0
  0
SPLINE
  5
4C1
100
AcDbEntity
  8
0
100
AcDbSpline
 62
7
  6
CONTINUOUS
 70
0
 71
3
 72
18
 73
14
 74
0
 42
0.0000001
 43
0.0000001
 44
0.0000000001
 40
0.0
 40
0.0
 40
0.0
 40
0.0
 40
0.0387165612
 40
0.0816348562
 40
0.1286168792
 40
0.1794979512
 40
0.2340649894
 40
0.2920900824
 40
0.417517262
 40
0.5535315089
 40
0.6977155983
 40
0.84753818
 40
1.0
 40
1.0
 40
1.0
 40
1.0
 10
11.3657805756
 20
10.9544075225
 30
0.0
 10
11.3605068025
 20
10.956212857
 30
0.0
 10
11.3492823468
 20
10.9597163555
 30
0.0
 10
11.3313898342
 20
10.9645018211
 30
0.0
 10
11.3116382592
 20
10.9690678231
 30
0.0
 10
11.290119152
 20
10.9733890967
 30
0.0
 10
11.2669335338
 20
10.9774480356
 30
0.0
 10
11.2330544598
 20
10.9826167953
 30
0.0
 10
11.1873874855
 20
10.9881925847
 30
0.0
 10
11.1292138552
 20
10.9934186436
 30
0.0
 10
11.0674111736
 20
10.9972267288
 30
0.0
 10
11.0031662702
 20
10.999538708
 30
0.0
 10
10.9596430413
 20
11.0000571168
 30
0.0
 10
10.937692343
 20
11.0000571168
 30
0.0
  0
LINE
  5
4C2
100
AcDbEntity
  8
0
100
AcDbLine
 62
7
  6
CONTINUOUS
 10
11.4013352299
 20
10.9246807735
 11
11.4021969986
 21
10.9265040428
  0
SPLINE
  5
4C3
100
AcDbEntity
  8
0
100
AcDbSpline
 62
7
  6
CONTINUOUS
 70
0
 71
3
 72
11
 73
7
 74
0
 42
0.0000001
 43
0.0000001
 44
0.0000000001
 40
0.0
 40
0.0
 40
0.0
 40
0.0
 40
0.2508257982
 40
0.4929120729
 40
0.7386965757
 40
1.0
 40
1.0
 40
1.0
 40
1.0
 10
11.4021969986
 20
10.9265040428
 30
0.0
 10
11.4025782691
 20
10.9274570749
 30
0.0
 10
11.403144899
 20
10.9294125314
 30
0.0
 10
11.4032996348
 20
10.932459045
 30
0.0
 10
11.402730913
 20
10.9354982309
 30
0.0
 10
11.4019146182
 20
10.9374234172
 30
0.0
 10
11.4014132157
 20
10.9383679265
 30
0.0
  0
SPLINE
  5
4C4
100
AcDbEntity
  8
0
100
AcDbSpline
 62
7
  6
CONTINUOUS
 70
0
 71
3
 72
11
 73
7
 74
0
 42
0.0000001
 43
0.0000001
 44
0.0000000001
 40
0.0
 40
0.0
 40
0.0
 40
0.0
 40
0.2666142881
 40
0.524219252
 40
0.7697471504
 40
1.0
 40
1.0
 40
1.0
 40
1.0
 10
11.8875235639
 20
7.8852958727
 30
0.0
 10
11.8642655551
 20
8.0654136474
 30
0.0
 10
11.8182016895
 20
8.4195195951
 30
0.0
 10
11.7502038672
 20
8.939430655
 30
0.0
 10
11.6857366299
 20
9.4348236673
 30
0.0
 10
11.6446207851
 20
9.7562996109
 30
0.0
 10
11.6250634846
 20
9.9119198904
 30
0.0
  0
SPLINE
  5
4C5
100
AcDbEntity
  8
0
100
AcDbSpline
 62
7
  6
CONTINUOUS
 70
0
 71
3
 72
10
 73
6
 74
0
 42
0.0000001
 43
0.0000001
 44
0.0000000001
 40
0.0
 40
0.0
 40
0.0
 40
0.0
 40
0.5069455212
 40
0.7556152747
 40
1.0
 40
1.0
 40
1.0
 40
1.0
 10
11.8875236282
 20
7.885295395
 30
0.0
 10
11.8915999471
 20
7.8537268387
 30
0.0
 10
11.8983616608
 20
7.8067543646
 30
0.0
 10
11.9090876515
 20
7.7448848819
 30
0.0
 10
11.9150639299
 20
7.7145046438
 30
0.0
 10
11.9182346892
 20
7.6994911189
 30
0.0
  0
SPLINE
  5
4C6
100
AcDbEntity
  8
0
100
AcDbSpline
 62
7
  6
CONTINUOUS
 70
0
 71
3
 72
10
 73
6
 74
0
 42
0.0000001
 43
0.0000001
 44
0.0000000001
 40
0.0
 40
0.0
 40
0.0
 40
0.0
 40
0.2517992994
 40
0.6279098149
 40
1.0
 40
1.0
 40
1.0
 40
1.0
 10
12.0436125341
 20
7.2167316114
 30
0.0
 10
12.0335549652
 20
7.2459985116
 30
0.0
 10
12.0099407595
 20
7.3194931661
 30
0.0
 10
11.9784236383
 20
7.4383671077
 30
0.0
 10
11.9604715005
 20
7.5286288994
 30
0.0
 10
11.9530309108
 20
7.5737504425
 30
0.0
  0
LINE
  5
4C7
100
AcDbEntity
  8
0
100
AcDbLine
 62
7
  6
CONTINUOUS
 10
11.6070726892
 20
10.1318203031
 11
11.6070887225
 21
10.1572765989
  0
LINE
  5
4C8
100
AcDbEntity
  8
0
100
AcDbLine
 62
7
  6
CONTINUOUS
 10
10.2682958763
 20
10.1572765989
 11
10.2683119095
 21
10.1318149841
  0
SPLINE
  5
4C9
100
AcDbEntity
  8
0
100
AcDbSpline
 62
7
  6
CONTINUOUS
 70
0
 71
3
 72
11
 73
7
 74
0
 42
0.0000001
 43
0.0000001
 44
0.0000000001
 40
0.0
 40
0.0
 40
0.0
 40
0.0
 40
0.2475302586
 40
0.4346325338
 40
0.6226028709
 40
1.0
 40
1.0
 40
1.0
 40
1.0
 10
9.9225372267
 20
7.5738991298
 30
0.0
 10
9.9175487026
 20
7.5437721752
 30
0.0
 10
9.9076103996
 20
7.4910608297
 30
0.0
 10
9.8906092245
 20
7.4161453949
 30
0.0
 10
9.8672521746
 20
7.3262899018
 30
0.0
 10
9.846522579
 20
7.2596333337
 30
0.0
 10
9.8313847185
 20
7.2156044777
 30
0.0
  0
SPLINE
  5
4CA
100
AcDbEntity
  8
0
100
AcDbSpline
 62
7
  6
CONTINUOUS
 70
0
 71
3
 72
18
 73
14
 74
0
 42
0.0000001
 43
0.0000001
 44
0.0000000001
 40
0.0
 40
0.0
 40
0.0
 40
0.0
 40
0.021799978
 40
0.0487693567
 40
0.081055033
 40
0.1187869635
 40
0.1620861853
 40
0.211068614
 40
0.3265215648
 40
0.4650785988
 40
0.6248857394
 40
0.8038821084
 40
1.0
 40
1.0
 40
1.0
 40
1.0
 10
10.4216342387
 20
11.8396258778
 30
0.0
 10
10.4208635293
 20
11.8379001501
 30
0.0
 10
10.4192983019
 20
11.8339688419
 30
0.0
 10
10.4170090965
 20
11.8273235461
 30
0.0
 10
10.4145395666
 20
11.8192844227
 30
0.0
 10
10.4118911516
 20
11.8098230803
 30
0.0
 10
10.4090651384
 20
11.7989106047
 30
0.0
 10
10.4048245303
 20
11.7814062558
 30
0.0
 10
10.3991546305
 20
11.7557542394
 30
0.0
 10
10.3920218305
 20
11.7205924293
 30
0.0
 10
10.3842893128
 20
11.6799343162
 30
0.0
 10
10.376049928
 20
11.6342951534
 30
0.0
 10
10.3705120965
 20
11.6022482743
 30
0.0
 10
10.3676677343
 20
11.5854849058
 30
0.0
  0
SPLINE
  5
4CB
100
AcDbEntity
  8
0
100
AcDbSpline
 62
7
  6
CONTINUOUS
 70
0
 71
3
 72
18
 73
14
 74
0
 42
0.0000001
 43
0.0000001
 44
0.0000000001
 40
0.0
 40
0.0
 40
0.0
 40
0.0
 40
0.0219037624
 40
0.0489645003
 40
0.0813287286
 40
0.1191260677
 40
0.1624772113
 40
0.2114977147
 40
0.3269832493
 40
0.4655064786
 40
0.6252187255
 40
0.8040691489
 40
1.0
 40
1.0
 40
1.0
 40
1.0
 10
11.4538046123
 20
11.8395272936
 30
0.0
 10
11.4545782723
 20
11.83779489
 30
0.0
 10
11.4561490729
 20
11.8338516895
 30
0.0
 10
11.4584453605
 20
11.8271903958
 30
0.0
 10
11.4609200344
 20
11.8191393947
 30
0.0
 10
11.4635715915
 20
11.8096704328
 30
0.0
 10
11.4663986908
 20
11.7987547458
 30
0.0
 10
11.4706370605
 20
11.7812555031
 30
0.0
 10
11.4762982978
 20
11.7556223458
 30
0.0
 10
11.4834132532
 20
11.7204981514
 30
0.0
 10
11.4911193512
 20
11.6798969128
 30
0.0
 10
11.4993243719
 20
11.6343313692
 30
0.0
 10
11.5048358871
 20
11.6023387411
 30
0.0
 10
11.507665914
 20
11.585604806
 30
0.0
  0
SPLINE
  5
4CC
100
AcDbEntity
  8
0
100
AcDbSpline
 62
7
  6
CONTINUOUS
 70
0
 71
3
 72
20
 73
16
 74
0
 42
0.0000001
 43
0.0000001
 44
0.0000000001
 40
0.0
 40
0.0
 40
0.0
 40
0.0
 40
0.0311636317
 40
0.0635618435
 40
0.098458629
 40
0.1368511743
 40
0.1794708013
 40
0.2268360978
 40
0.2793095751
 40
0.3371352212
 40
0.40046405
 40
0.4693897814
 40
0.6241914278
 40
0.8013856608
 40
1.0
 40
1.0
 40
1.0
 40
1.0
 10
11.5309746627
 20
10.9182211644
 30
0.0
 10
11.5310125978
 20
10.9168739526
 30
0.0
 10
11.5307818267
 20
10.9141084809
 30
0.0
 10
11.5295199259
 20
10.9100123244
 30
0.0
 10
11.5273630812
 20
10.9059560541
 30
0.0
 10
11.5243326433
 20
10.9019421442
 30
0.0
 10
11.5204402156
 20
10.8979661236
 30
0.0
 10
11.5156918115
 20
10.8940267528
 30
0.0
 10
11.5100915252
 20
10.8901256283
 30
0.0
 10
11.5036446273
 20
10.8862662183
 30
0.0
 10
11.4963585392
 20
10.8824516634
 30
0.0
 10
11.4850922385
 20
10.8772281644
 30
0.0
 10
11.4689175727
 20
10.8709357034
 30
0.0
 10
11.4470637589
 20
10.8639069825
 30
0.0
 10
11.431372411
 20
10.8596505071
 30
0.0
 10
11.4230438594
 20
10.8575491637
 30
0.0
  0
SPLINE
  5
4CD
100
AcDbEntity
  8
0
100
AcDbSpline
 62
7
  6
CONTINUOUS
 70
0
 71
3
 72
10
 73
6
 74
0
 42
0.0000001
 43
0.0000001
 44
0.0000000001
 40
0.0
 40
0.0
 40
0.0
 40
0.0
 40
0.505080336
 40
0.7544682835
 40
1.0
 40
1.0
 40
1.0
 40
1.0
 10
10.9377242672
 20
11.0197530263
 30
0.0
 10
10.9670568185
 20
11.0197529882
 30
0.0
 10
11.010875511
 20
11.0192199876
 30
0.0
 10
11.0689227128
 20
11.0173898157
 30
0.0
 10
11.0976378138
 20
11.0161101382
 30
0.0
 10
11.1118779876
 20
11.0153726181
 30
0.0
  0
SPLINE
  5
4CE
100
AcDbEntity
  8
0
100
AcDbSpline
 62
7
  6
CONTINUOUS
 70
0
 71
3
 72
11
 73
7
 74
0
 42
0.0000001
 43
0.0000001
 44
0.0000000001
 40
0.0
 40
0.0
 40
0.0
 40
0.0
 40
0.2635521894
 40
0.5172459112
 40
0.7622942499
 40
1.0
 40
1.0
 40
1.0
 40
1.0
 10
11.1259447254
 20
11.436785418
 30
0.0
 10
11.1354784872
 20
11.4429812666
 30
0.0
 10
11.153541843
 20
11.4561704318
 30
0.0
 10
11.1779872189
 20
11.4782495503
 30
0.0
 10
11.1993839912
 20
11.5018009411
 30
0.0
 10
11.2119079977
 20
11.5184833723
 30
0.0
 10
11.2176923427
 20
11.5269514772
 30
0.0
  0
SPLINE
  5
4CF
100
AcDbEntity
  8
0
100
AcDbSpline
 62
9
  6
CONTINUOUS
 70
0
 71
3
 72
11
 73
7
 74
0
 42
0.0000001
 43
0.0000001
 44
0.0000000001
 40
0.0
 40
0.0
 40
0.0
 40
0.0
 40
0.2872247505
 40
0.549577281
 40
0.7871344556
 40
1.0
 40
1.0
 40
1.0
 40
1.0
 10
11.1259447254
 20
11.436785418
 30
0.0
 10
11.1248301871
 20
11.4831141991
 30
0.0
 10
11.1221479147
 20
11.5717483221
 30
0.0
 10
11.1163543053
 20
11.6986221432
 30
0.0
 10
11.1089774065
 20
11.8133948936
 30
0.0
 10
11.1026647661
 20
11.8858033547
 30
0.0
 10
11.0991614138
 20
11.9199689299
 30
0.0
  0
SPLINE
  5
4D0
100
AcDbEntity
  8
0
100
AcDbSpline
 62
7
  6
CONTINUOUS
 70
0
 71
3
 72
19
 73
15
 74
0
 42
0.0000001
 43
0.0000001
 44
0.0000000001
 40
0.0
 40
0.0
 40
0.0
 40
0.0
 40
0.1694626459
 40
0.3306467379
 40
0.4809537711
 40
0.6182103191
 40
0.6812998506
 40
0.7403614785
 40
0.7951722439
 40
0.8455500208
 40
0.8913309124
 40
0.9323800741
 40
0.968611799
 40
1.0
 40
1.0
 40
1.0
 40
1.0
 10
11.1118779876
 20
11.0153726181
 30
0.0
 10
11.1346383027
 20
11.0141938274
 30
0.0
 10
11.1790235806
 20
11.0114021645
 30
0.0
 10
11.2434669808
 20
11.0057573179
 30
0.0
 10
11.3034255273
 20
10.99880708
 30
0.0
 10
11.3500783831
 20
10.9918336401
 30
0.0
 10
11.3844047232
 20
10.9855872713
 30
0.0
 10
11.4077150888
 20
10.9807747607
 30
0.0
 10
11.4292218477
 20
10.9757192722
 30
0.0
 10
11.4488320225
 20
10.9704419748
 30
0.0
 10
11.4664583027
 20
10.9649627259
 30
0.0
 10
11.4820191637
 20
10.9593014623
 30
0.0
 10
11.4954388686
 20
10.9534901527
 30
0.0
 10
11.5034918028
 20
10.9492304126
 30
0.0
 10
11.5071029666
 20
10.9470442339
 30
0.0
  0
SPLINE
  5
4D1
100
AcDbEntity
  8
0
100
AcDbSpline
 62
7
  6
CONTINUOUS
 70
0
 71
3
 72
11
 73
7
 74
0
 42
0.0000001
 43
0.0000001
 44
0.0000000001
 40
0.0
 40
0.0
 40
0.0
 40
0.0
 40
0.2953852093
 40
0.5621029353
 40
0.7968493542
 40
1.0
 40
1.0
 40
1.0
 40
1.0
 10
11.5110044719
 20
11.3815626702
 30
0.0
 10
11.5107605178
 20
11.377462707
 30
0.0
 10
11.510175623
 20
11.3696665567
 30
0.0
 10
11.5087501386
 20
11.3586694936
 30
0.0
 10
11.5066864499
 20
11.3490790902
 30
0.0
 10
11.5046571161
 20
11.3433046448
 30
0.0
 10
11.5034520886
 20
11.3407498445
 30
0.0
  0
SPLINE
  5
4D2
100
AcDbEntity
  8
0
100
AcDbSpline
 62
7
  6
CONTINUOUS
 70
0
 71
3
 72
14
 73
10
 74
0
 42
0.0000001
 43
0.0000001
 44
0.0000000001
 40
0.0
 40
0.0
 40
0.0
 40
0.0
 40
0.2685226451
 40
0.3987226031
 40
0.5259052864
 40
0.6498413027
 40
0.7703053681
 40
0.8870890029
 40
1.0
 40
1.0
 40
1.0
 40
1.0
 10
11.3537000657
 20
9.4157439786
 30
0.0
 10
11.3442404079
 20
9.5159498228
 30
0.0
 10
11.3302603789
 20
9.6647497534
 30
0.0
 10
11.3127280768
 20
9.8610960902
 30
0.0
 10
11.3006586381
 20
10.0035173648
 30
0.0
 10
11.2897387606
 20
10.1423714967
 30
0.0
 10
11.2801773439
 20
10.277419063
 30
0.0
 10
11.2721698529
 20
10.4084281088
 30
0.0
 10
11.2679161723
 20
10.4944231116
 30
0.0
 10
11.2661245257
 20
10.5367080287
 30
0.0
  0
SPLINE
  5
4D3
100
AcDbEntity
  8
0
100
AcDbSpline
 62
9
  6
CONTINUOUS
 70
0
 71
3
 72
11
 73
7
 74
0
 42
0.0000001
 43
0.0000001
 44
0.0000000001
 40
0.0
 40
0.0
 40
0.0
 40
0.0
 40
0.2456165579
 40
0.4939637377
 40
0.7453379014
 40
1.0
 40
1.0
 40
1.0
 40
1.0
 10
11.6250634372
 20
9.9119202707
 30
0.0
 10
11.6081714808
 20
9.8686885649
 30
0.0
 10
11.5713223004
 20
9.7828403566
 30
0.0
 10
11.5075627676
 20
9.6571494966
 30
0.0
 10
11.4352216597
 20
9.5342091112
 30
0.0
 10
11.3817562894
 20
9.4548434262
 30
0.0
 10
11.3537000657
 20
9.4157439786
 30
0.0
  0
SPLINE
  5
4D4
100
AcDbEntity
  8
0
100
AcDbSpline
 62
7
  6
CONTINUOUS
 70
0
 71
3
 72
14
 73
10
 74
0
 42
0.0000001
 43
0.0000001
 44
0.0000000001
 40
0.0
 40
0.0
 40
0.0
 40
0.0
 40
0.2685184885
 40
0.3987189992
 40
0.5259031296
 40
0.6498408482
 40
0.7703062697
 40
0.8870902705
 40
1.0
 40
1.0
 40
1.0
 40
1.0
 10
10.5201035847
 20
9.41574406
 30
0.0
 10
10.5296502018
 20
9.5159558843
 30
0.0
 10
10.5437787015
 20
9.6647638347
 30
0.0
 10
10.561532554
 20
9.8611203502
 30
0.0
 10
10.5737715961
 20
10.0035509378
 30
0.0
 10
10.5848618052
 20
10.1424150805
 30
0.0
 10
10.5945899383
 20
10.2774732311
 30
0.0
 10
10.6027561921
 20
10.408493202
 30
0.0
 10
10.6071092754
 20
10.4944963906
 30
0.0
 10
10.6089477711
 20
10.536785438
 30
0.0
  0
SPLINE
  5
4D5
100
AcDbEntity
  8
0
100
AcDbSpline
 62
7
  6
CONTINUOUS
 70
0
 71
3
 72
29
 73
25
 74
0
 42
0.0000001
 43
0.0000001
 44
0.0000000001
 40
0.0
 40
0.0
 40
0.0
 40
0.0
 40
0.0139853595
 40
0.0268396815
 40
0.0389987204
 40
0.0510374148
 40
0.0635849315
 40
0.0772165446
 40
0.0923866101
 40
0.1094136053
 40
0.1284984347
 40
0.1497512119
 40
0.1732042002
 40
0.1988332384
 40
0.2265676868
 40
0.2563037493
 40
0.32133019
 40
0.3929800308
 40
0.4702336304
 40
0.5520514555
 40
0.6374522659
 40
0.7255911263
 40
0.8157762025
 40
1.0
 40
1.0
 40
1.0
 40
1.0
 10
11.5034520886
 20
11.3407498445
 30
0.0
 10
11.502731551
 20
11.33922222
 30
0.0
 10
11.5011650306
 20
11.3363692675
 30
0.0
 10
11.4982332541
 20
11.3326499623
 30
0.0
 10
11.4947851872
 20
11.3297428768
 30
0.0
 10
11.4908040735
 20
11.3276969843
 30
0.0
 10
11.4863010865
 20
11.3265376439
 30
0.0
 10
11.4812894401
 20
11.3262529749
 30
0.0
 10
11.4757654681
 20
11.3268196159
 30
0.0
 10
11.4697192066
 20
11.3282173831
 30
0.0
 10
11.4631446746
 20
11.330428493
 30
0.0
 10
11.4560450132
 20
11.3334344723
 30
0.0
 10
11.4484308506
 20
11.3372089271
 30
0.0
 10
11.440321125
 20
11.3417200069
 30
0.0
 10
11.4317403007
 20
11.3469286352
 30
0.0
 10
11.4193328743
 20
11.3549892582
 30
0.0
 10
11.4029104166
 20
11.3665874623
 30
0.0
 10
11.382363823
 20
11.3822577755
 30
0.0
 10
11.3606796031
 20
11.3997613737
 30
0.0
 10
11.3380902912
 20
11.4187756444
 30
0.0
 10
11.3147891116
 20
11.4389794977
 30
0.0
 10
11.2909466114
 20
11.4600983359
 30
0.0
 10
11.2584057613
 20
11.489394697
 30
0.0
 10
11.2340123752
 20
11.5118296325
 30
0.0
 10
11.2176923427
 20
11.5269514772
 30
0.0
  0
SPLINE
  5
4D6
100
AcDbEntity
  8
0
100
AcDbSpline
 62
9
  6
CONTINUOUS
 70
0
 71
3
 72
11
 73
7
 74
0
 42
0.0000001
 43
0.0000001
 44
0.0000000001
 40
0.0
 40
0.0
 40
0.0
 40
0.0
 40
0.2547211837
 40
0.5061107693
 40
0.7544357877
 40
1.0
 40
1.0
 40
1.0
 40
1.0
 10
10.5201035788
 20
9.4157439975
 30
0.0
 10
10.492009176
 20
9.4547645478
 30
0.0
 10
10.4384939633
 20
9.5339885499
 30
0.0
 10
10.3661606442
 20
9.656765379
 30
0.0
 10
10.3025036165
 20
9.7823243793
 30
0.0
 10
10.2657877621
 20
9.8681047619
 30
0.0
 10
10.2489806334
 20
9.9113041379
 30
0.0
  0
SPLINE
  5
4D7
100
AcDbEntity
  8
0
100
AcDbSpline
 62
7
  6
CONTINUOUS
 70
0
 71
3
 72
11
 73
7
 74
0
 42
0.0000001
 43
0.0000001
 44
0.0000000001
 40
0.0
 40
0.0
 40
0.0
 40
0.0
 40
0.2814768743
 40
0.5419136238
 40
0.7813879716
 40
1.0
 40
1.0
 40
1.0
 40
1.0
 10
11.2176923427
 20
11.5269514772
 30
0.0
 10
11.2192080635
 20
11.5626170892
 30
0.0
 10
11.221676126
 20
11.6313028052
 30
0.0
 10
11.2236703159
 20
11.7303857045
 30
0.0
 10
11.2238149111
 20
11.8215165786
 30
0.0
 10
11.2226268863
 20
11.8796073856
 30
0.0
 10
11.2216723893
 20
11.9073160329
 30
0.0
  0
SPLINE
  5
4D8
100
AcDbEntity
  8
0
100
AcDbSpline
 62
7
  6
CONTINUOUS
 70
0
 71
3
 72
13
 73
9
 74
0
 42
0.0000001
 43
0.0000001
 44
0.0000000001
 40
0.0
 40
0.0
 40
0.0
 40
0.0
 40
0.2477480885
 40
0.3715704505
 40
0.4952870842
 40
0.6195182891
 40
0.7449440366
 40
1.0
 40
1.0
 40
1.0
 40
1.0
 10
11.5076744672
 20
11.5855913797
 30
0.0
 10
11.501265421
 20
11.5950273842
 30
0.0
 10
11.491498687
 20
11.6090758431
 30
0.0
 10
11.478122517
 20
11.6275452829
 30
0.0
 10
11.4678964415
 20
11.6412723778
 30
0.0
 10
11.4574831447
 20
11.6549505732
 30
0.0
 10
11.4432743812
 20
11.6733384415
 30
0.0
 10
11.4324397175
 20
11.6871048037
 30
0.0
 10
11.4251167707
 20
11.6962850931
 30
0.0
  0
SPLINE
  5
4D9
100
AcDbEntity
  8
0
100
AcDbSpline
 62
7
  6
CONTINUOUS
 70
0
 71
3
 72
12
 73
8
 74
0
 42
0.0000001
 43
0.0000001
 44
0.0000000001
 40
0.0
 40
0.0
 40
0.0
 40
0.0
 40
0.2456067844
 40
0.3694279367
 40
0.4939077381
 40
0.7452103739
 40
1.0
 40
1.0
 40
1.0
 40
1.0
 10
11.4251167707
 20
11.6962850931
 30
0.0
 10
11.4099721528
 20
11.7149342028
 30
0.0
 10
11.3865811503
 20
11.7424967861
 30
0.0
 10
11.3541466356
 20
11.7783052256
 30
0.0
 10
11.3205636625
 20
11.8138110494
 30
0.0
 10
11.2767951062
 20
11.8572935667
 30
0.0
 10
11.2403408458
 20
11.8908053821
 30
0.0
 10
11.2216723893
 20
11.9073160329
 30
0.0
  0
SPLINE
  5
4DA
100
AcDbEntity
  8
0
100
AcDbSpline
 62
7
  6
CONTINUOUS
 70
0
 71
3
 72
21
 73
17
 74
0
 42
0.0000001
 43
0.0000001
 44
0.0000000001
 40
0.0
 40
0.0
 40
0.0
 40
0.0
 40
0.2253026954
 40
0.4309125787
 40
0.6078179619
 40
0.6839910018
 40
0.7513879994
 40
0.8097108923
 40
0.8592346806
 40
0.9003778436
 40
0.9335597769
 40
0.9592769001
 40
0.9783291514
 40
0.9915998555
 40
0.9963503418
 40
1.0
 40
1.0
 40
1.0
 40
1.0
 10
11.2216723893
 20
11.9073160329
 30
0.0
 10
11.2219240708
 20
11.9327718352
 30
0.0
 10
11.222235783
 20
11.98146037
 30
0.0
 10
11.2221206244
 20
12.050138761
 30
0.0
 10
11.2214742847
 20
12.1019636139
 30
0.0
 10
11.2206418032
 20
12.1381649876
 30
0.0
 10
11.2199382995
 20
12.1609663926
 30
0.0
 10
11.2191373543
 20
12.1807514117
 30
0.0
 10
11.2182653679
 20
12.1975636433
 30
0.0
 10
11.2173489552
 20
12.2115279498
 30
0.0
 10
11.2164135205
 20
12.2227935329
 30
0.0
 10
11.2154811995
 20
12.231553359
 30
0.0
 10
11.2145691891
 20
12.2380482363
 30
0.0
 10
11.2137862833
 20
12.2421679173
 30
0.0
 10
11.2131532351
 20
12.2445341654
 30
0.0
 10
11.2128474801
 20
12.2454342053
 30
0.0
 10
11.2126923432
 20
12.2458162876
 30
0.0
  0
SPLINE
  5
4DB
100
AcDbEntity
  8
0
100
AcDbSpline
 62
7
  6
CONTINUOUS
 70
0
 71
3
 72
11
 73
7
 74
0
 42
0.0000001
 43
0.0000001
 44
0.0000000001
 40
0.0
 40
0.0
 40
0.0
 40
0.0
 40
0.3004131756
 40
0.568463832
 40
0.8011732984
 40
1.0
 40
1.0
 40
1.0
 40
1.0
 10
10.3644223583
 20
11.3820475324
 30
0.0
 10
10.3646422133
 20
11.3778049031
 30
0.0
 10
10.3652033424
 20
11.3697825257
 30
0.0
 10
10.3666119921
 20
11.3585321914
 30
0.0
 10
10.3686807073
 20
11.348839288
 30
0.0
 10
10.3707942827
 20
11.343078959
 30
0.0
 10
10.3720162202
 20
11.3405466325
 30
0.0
  0
LINE
  5
4DC
100
AcDbEntity
  8
0
100
AcDbLine
 62
9
  6
CONTINUOUS
 10
10.9376724852
 20
11.925965175
 11
10.9376924347
 21
12.2566424053
  0
SPLINE
  5
4DD
100
AcDbEntity
  8
0
100
AcDbSpline
 62
9
  6
CONTINUOUS
 70
0
 71
3
 72
10
 73
6
 74
0
 42
0.0000001
 43
0.0000001
 44
0.0000000001
 40
0.0
 40
0.0
 40
0.0
 40
0.0
 40
0.2515389498
 40
0.6255313489
 40
1.0
 40
1.0
 40
1.0
 40
1.0
 10
10.3706593955
 20
7.3782312767
 30
0.0
 10
10.3574757037
 20
7.3876835184
 30
0.0
 10
10.3246153957
 20
7.4110849874
 30
0.0
 10
10.2720371261
 20
7.4484293011
 30
0.0
 10
10.2329950105
 20
7.4768179218
 30
0.0
 10
10.2136280133
 20
7.4912449136
 30
0.0
  0
SPLINE
  5
4DE
100
AcDbEntity
  8
0
100
AcDbSpline
 62
9
  6
CONTINUOUS
 70
0
 71
3
 72
13
 73
9
 74
0
 42
0.0000001
 43
0.0000001
 44
0.0000000001
 40
0.0
 40
0.0
 40
0.0
 40
0.0
 40
0.2535785097
 40
0.5047344108
 40
0.62931758
 40
0.7534058409
 40
0.8770391892
 40
1.0
 40
1.0
 40
1.0
 40
1.0
 10
9.9565051882
 20
7.6971155178
 30
0.0
 10
9.9781105802
 20
7.6795497882
 30
0.0
 10
10.0207565501
 20
7.6441485305
 30
0.0
 10
10.0740958367
 20
7.6002111853
 30
0.0
 10
10.1168776778
 20
7.5658282145
 30
0.0
 10
10.1489442847
 20
7.5404683613
 30
0.0
 10
10.1811040581
 20
7.5155156931
 30
0.0
 10
10.2027506387
 20
7.4992445485
 30
0.0
 10
10.2136280361
 20
7.4912451754
 30
0.0
  0
SPLINE
  5
4DF
100
AcDbEntity
  8
0
100
AcDbSpline
 62
9
  6
CONTINUOUS
 70
0
 71
3
 72
11
 73
7
 74
0
 42
0.0000001
 43
0.0000001
 44
0.0000000001
 40
0.0
 40
0.0
 40
0.0
 40
0.0
 40
0.252844724
 40
0.5047898252
 40
0.7543052799
 40
1.0
 40
1.0
 40
1.0
 40
1.0
 10
10.0699571579
 20
6.9612749216
 30
0.0
 10
10.0895050159
 20
7.0034595824
 30
0.0
 10
10.1250298885
 20
7.0893516631
 30
0.0
 10
10.1671572456
 20
7.2216745929
 30
0.0
 10
10.197383002
 20
7.3558680447
 30
0.0
 10
10.2096059573
 20
7.4462453595
 30
0.0
 10
10.2136280127
 20
7.491244914
 30
0.0
  0
SPLINE
  5
4E0
100
AcDbEntity
  8
0
100
AcDbSpline
 62
9
  6
CONTINUOUS
 70
0
 71
3
 72
12
 73
8
 74
0
 42
0.0000001
 43
0.0000001
 44
0.0000000001
 40
0.0
 40
0.0
 40
0.0
 40
0.0
 40
0.1358495075
 40
0.2682850039
 40
0.5230957655
 40
0.7665152004
 40
1.0
 40
1.0
 40
1.0
 40
1.0
 10
10.9376046641
 20
7.3465299431
 30
0.0
 10
10.9118695644
 20
7.3465385154
 30
0.0
 10
10.8610461651
 20
7.3467437979
 30
0.0
 10
10.7619549285
 20
7.3475218704
 30
0.0
 10
10.6424857462
 20
7.3484429235
 30
0.0
 10
10.5038691079
 20
7.3484099409
 30
0.0
 10
10.4135276112
 20
7.3475224793
 30
0.0
 10
10.3693019629
 20
7.3468366362
 30
0.0
  0
SPLINE
  5
4E1
100
AcDbEntity
  8
0
100
AcDbSpline
 62
7
  6
CONTINUOUS
 70
0
 71
3
 72
15
 73
11
 74
0
 42
0.0000001
 43
0.0000001
 44
0.0000000001
 40
0.0
 40
0.0
 40
0.0
 40
0.0
 40
0.1301425002
 40
0.2589440301
 40
0.3863892782
 40
0.5124573636
 40
0.6370331679
 40
0.7599387311
 40
0.8809901049
 40
1.0
 40
1.0
 40
1.0
 40
1.0
 10
10.3706593326
 20
7.3782299401
 30
0.0
 10
10.3735430546
 20
7.4668252895
 30
0.0
 10
10.3805720917
 20
7.6430631034
 30
0.0
 10
10.3944656136
 20
7.9058784803
 30
0.0
 10
10.4112186096
 20
8.1657454819
 30
0.0
 10
10.4304100382
 20
8.4225560386
 30
0.0
 10
10.4514894196
 20
8.6761144598
 30
0.0
 10
10.4738448437
 20
8.9261319916
 30
0.0
 10
10.4968752689
 20
9.1722801569
 30
0.0
 10
10.5124162895
 20
9.3350497335
 30
0.0
 10
10.5201035843
 20
9.4157440599
 30
0.0
  0
SPLINE
  5
4E2
100
AcDbEntity
  8
0
100
AcDbSpline
 62
7
  6
CONTINUOUS
 70
0
 71
3
 72
9
 73
5
 74
0
 42
0.0000001
 43
0.0000001
 44
0.0000000001
 40
0.0
 40
0.0
 40
0.0
 40
0.0
 40
0.5014213489
 40
1.0
 40
1.0
 40
1.0
 40
1.0
 10
10.3489240309
 20
7.1057460104
 30
0.0
 10
10.3534367278
 20
7.1459374022
 30
0.0
 10
10.3614576637
 20
7.2262065632
 30
0.0
 10
10.3671360641
 20
7.3066803506
 30
0.0
 10
10.3693019576
 20
7.3468366362
 30
0.0
  0
SPLINE
  5
4E3
100
AcDbEntity
  8
0
100
AcDbSpline
 62
7
  6
CONTINUOUS
 70
0
 71
3
 72
17
 73
13
 74
0
 42
0.0000001
 43
0.0000001
 44
0.0000000001
 40
0.0
 40
0.0
 40
0.0
 40
0.0
 40
0.1229773539
 40
0.2463042247
 40
0.370104992
 40
0.4945418249
 40
0.6197464451
 40
0.745782513
 40
0.8091400356
 40
0.8726575497
 40
0.9363019535
 40
1.0
 40
1.0
 40
1.0
 40
1.0
 10
11.4266570378
 20
6.8549047125
 30
0.0
 10
11.4120583501
 20
6.8356212633
 30
0.0
 10
11.3816006734
 20
6.797899375
 30
0.0
 10
11.3318672434
 20
6.7446535757
 30
0.0
 10
11.2776276075
 20
6.6955347502
 30
0.0
 10
11.2185402855
 20
6.6516825492
 30
0.0
 10
11.1544513805
 20
6.6145639069
 30
0.0
 10
11.097101685
 20
6.5907484955
 30
0.0
 10
11.0492921727
 20
6.5768733431
 30
0.0
 10
11.0125646033
 20
6.5692470796
 30
0.0
 10
10.9752770698
 20
6.5645977516
 30
0.0
 10
10.9502199728
 20
6.563555012
 30
0.0
 10
10.9376923428
 20
6.563555012
 30
0.0
  0
SPLINE
  5
4E4
100
AcDbEntity
  8
0
100
AcDbSpline
 62
9
  6
CONTINUOUS
 70
0
 71
3
 72
19
 73
15
 74
0
 42
0.0000001
 43
0.0000001
 44
0.0000000001
 40
0.0
 40
0.0
 40
0.0
 40
0.0
 40
0.1278316531
 40
0.2543042843
 40
0.3172557893
 40
0.3801328333
 40
0.442942609
 40
0.5056364315
 40
0.5681633039
 40
0.6304718703
 40
0.6925119741
 40
0.7542790316
 40
0.8772653056
 40
1.0
 40
1.0
 40
1.0
 40
1.0
 10
11.9182346892
 20
7.6994911189
 30
0.0
 10
11.9063655561
 20
7.6903890272
 30
0.0
 10
11.882763646
 20
7.6722683116
 30
0.0
 10
11.8534467156
 20
7.6494961679
 30
0.0
 10
11.8302690183
 20
7.6312117543
 30
0.0
 10
11.8130278956
 20
7.617429958
 30
0.0
 10
11.7958845777
 20
7.6035747387
 30
0.0
 10
11.778814536
 20
7.5896942776
 30
0.0
 10
11.7618024064
 20
7.5758355875
 30
0.0
 10
11.7448327214
 20
7.5620458951
 30
0.0
 10
11.7278823716
 20
7.5483735164
 30
0.0
 10
11.7053170598
 20
7.5303542855
 30
0.0
 10
11.6770793093
 20
7.5080581647
 30
0.0
 10
11.6544515054
 20
7.4903203318
 30
0.0
 10
11.643151601
 20
7.481457411
 30
0.0
  0
SPLINE
  5
4E5
100
AcDbEntity
  8
0
100
AcDbSpline
 62
7
  6
CONTINUOUS
 70
0
 71
3
 72
15
 73
11
 74
0
 42
0.0000001
 43
0.0000001
 44
0.0000000001
 40
0.0
 40
0.0
 40
0.0
 40
0.0
 40
0.1301432316
 40
0.258945303
 40
0.3863912208
 40
0.512460554
 40
0.6370375411
 40
0.7599432975
 40
0.880993306
 40
1.0
 40
1.0
 40
1.0
 40
1.0
 10
11.5038920065
 20
7.3789908516
 30
0.0
 10
11.5008360098
 20
7.4675490328
 30
0.0
 10
11.4935071107
 20
7.6437115815
 30
0.0
 10
11.4792844291
 20
7.9064154846
 30
0.0
 10
11.4623157482
 20
8.1661759497
 30
0.0
 10
11.4430133854
 20
8.4228871542
 30
0.0
 10
11.4219167625
 20
8.6763539266
 30
0.0
 10
11.3996253941
 20
8.9262864452
 30
0.0
 10
11.3767283506
 20
9.1723547249
 30
0.0
 10
11.361315465
 20
9.3350743006
 30
0.0
 10
11.3537000654
 20
9.415743979
 30
0.0
  0
SPLINE
  5
4E6
100
AcDbEntity
  8
0
100
AcDbSpline
 62
9
  6
CONTINUOUS
 70
0
 71
3
 72
13
 73
9
 74
0
 42
0.0000001
 43
0.0000001
 44
0.0000000001
 40
0.0
 40
0.0
 40
0.0
 40
0.0
 40
0.2499981777
 40
0.3749934612
 40
0.4999818817
 40
0.6249739278
 40
0.7499840359
 40
1.0
 40
1.0
 40
1.0
 40
1.0
 10
10.4487453431
 20
6.8548814052
 30
0.0
 10
10.4895121969
 20
6.8561099701
 30
0.0
 10
10.5506394891
 20
6.8586881052
 30
0.0
 10
10.6321034221
 20
6.8628065622
 30
0.0
 10
10.6931931164
 20
6.8660265886
 30
0.0
 10
10.7542935075
 20
6.8690990497
 30
0.0
 10
10.8357886577
 20
6.8726574052
 30
0.0
 10
10.896969174
 20
6.8742272224
 30
0.0
 10
10.9377574016
 20
6.8742814111
 30
0.0
  0
SPLINE
  5
4E7
100
AcDbEntity
  8
0
100
AcDbSpline
 62
9
  6
CONTINUOUS
 70
0
 71
3
 72
11
 73
7
 74
0
 42
0.0000001
 43
0.0000001
 44
0.0000000001
 40
0.0
 40
0.0
 40
0.0
 40
0.0
 40
0.2528483647
 40
0.5047621765
 40
0.7542613759
 40
1.0
 40
1.0
 40
1.0
 40
1.0
 10
11.7886288576
 20
6.961274467
 30
0.0
 10
11.7691608564
 20
7.0026545474
 30
0.0
 10
11.7336819684
 20
7.0869028762
 30
0.0
 10
11.6912772187
 20
7.2167278136
 30
0.0
 10
11.660420735
 20
7.348454083
 30
0.0
 10
11.6475517446
 20
7.4372307613
 30
0.0
 10
11.6431516042
 20
7.4814574135
 30
0.0
  0
SPLINE
  5
4E8
100
AcDbEntity
  8
0
100
AcDbSpline
 62
9
  6
CONTINUOUS
 70
0
 71
3
 72
13
 73
9
 74
0
 42
0.0000001
 43
0.0000001
 44
0.0000000001
 40
0.0
 40
0.0
 40
0.0
 40
0.0
 40
0.2500160723
 40
0.375026265
 40
0.5000180682
 40
0.6250065537
 40
0.7500021856
 40
1.0
 40
1.0
 40
1.0
 40
1.0
 10
10.9377574016
 20
6.8742814111
 30
0.0
 10
10.9785362764
 20
6.8742398719
 30
0.0
 10
11.0397033631
 20
6.8726883628
 30
0.0
 10
11.1211800135
 20
6.8691360195
 30
0.0
 10
11.1822661333
 20
6.8660602247
 30
0.0
 10
11.2433415389
 20
6.8628360213
 30
0.0
 10
11.3247866197
 20
6.8587161858
 30
0.0
 10
11.3858996905
 20
6.8561352142
 30
0.0
 10
11.4266570378
 20
6.8549047125
 30
0.0
  0
SPLINE
  5
4E9
100
AcDbEntity
  8
0
100
AcDbSpline
 62
7
  6
CONTINUOUS
 70
0
 71
3
 72
11
 73
7
 74
0
 42
0.0000001
 43
0.0000001
 44
0.0000000001
 40
0.0
 40
0.0
 40
0.0
 40
0.0
 40
0.2465316257
 40
0.4953657515
 40
0.7466713137
 40
1.0
 40
1.0
 40
1.0
 40
1.0
 10
11.4266570428
 20
6.8549046995
 30
0.0
 10
11.4401631069
 20
6.8727448944
 30
0.0
 10
11.4648048231
 20
6.910553917
 30
0.0
 10
11.493871148
 20
6.9719868651
 30
0.0
 10
11.5149003875
 20
7.03724858
 30
0.0
 10
11.5234705601
 20
7.0823774661
 30
0.0
 10
11.5263972438
 20
7.1051833869
 30
0.0
  0
SPLINE
  5
4EA
100
AcDbEntity
  8
0
100
AcDbSpline
 62
7
  6
CONTINUOUS
 70
0
 71
3
 72
12
 73
8
 74
0
 42
0.0000001
 43
0.0000001
 44
0.0000000001
 40
0.0
 40
0.0
 40
0.0
 40
0.0
 40
0.1282635282
 40
0.2560777748
 40
0.6342780549
 40
0.8193147006
 40
1.0
 40
1.0
 40
1.0
 40
1.0
 10
11.5263972438
 20
7.1051833869
 30
0.0
 10
11.5291363866
 20
7.092323688
 30
0.0
 10
11.5351548667
 20
7.0667603732
 30
0.0
 10
11.5528387662
 20
7.0041871986
 30
0.0
 10
11.5783555508
 20
6.937756341
 30
0.0
 10
11.6139909134
 20
6.8702632909
 30
0.0
 10
11.6342637369
 20
6.8386553764
 30
0.0
 10
11.6449819502
 20
6.8235497311
 30
0.0
  0
SPLINE
  5
4EB
100
AcDbEntity
  8
0
100
AcDbSpline
 62
9
  6
CONTINUOUS
 70
0
 71
3
 72
13
 73
9
 74
0
 42
0.0000001
 43
0.0000001
 44
0.0000000001
 40
0.0
 40
0.0
 40
0.0
 40
0.0
 40
0.2554971181
 40
0.5097418194
 40
0.6354480864
 40
0.7594499377
 40
0.8811337688
 40
1.0
 40
1.0
 40
1.0
 40
1.0
 10
11.7886288657
 20
6.9612744755
 30
0.0
 10
11.8099989599
 20
6.9833977227
 30
0.0
 10
11.8520950227
 20
7.0280532001
 30
0.0
 10
11.9044667551
 20
7.0838181908
 30
0.0
 10
11.9466917654
 20
7.1273866975
 30
0.0
 10
11.9784453331
 20
7.1588708926
 30
0.0
 10
12.0105311966
 20
7.1888268077
 30
0.0
 10
12.0325068892
 20
7.2077080587
 30
0.0
 10
12.0436114173
 20
7.2167341853
 30
0.0
  0
SPLINE
  5
4EC
100
AcDbEntity
  8
0
100
AcDbSpline
 62
7
  6
CONTINUOUS
 70
0
 71
3
 72
39
 73
35
 74
0
 42
0.0000001
 43
0.0000001
 44
0.0000000001
 40
0.0
 40
0.0
 40
0.0
 40
0.0
 40
0.073838779
 40
0.1097271564
 40
0.1448357277
 40
0.1790838353
 40
0.2123939668
 40
0.2446721814
 40
0.2758233522
 40
0.3057487176
 40
0.3343559095
 40
0.3615671075
 40
0.3873418355
 40
0.4116995438
 40
0.4347629019
 40
0.4567966087
 40
0.4675681336
 40
0.4782599597
 40
0.4889494768
 40
0.4997200491
 40
0.510654916
 40
0.5218343409
 40
0.5451885479
 40
0.5702626511
 40
0.597315328
 40
0.6264260275
 40
0.6575405453
 40
0.6905194546
 40
0.725180581
 40
0.7613309557
 40
0.7987778249
 40
0.8373478026
 40
0.91724179
 40
1.0
 40
1.0
 40
1.0
 40
1.0
 10
12.1172314161
 20
6.9612749224
 30
0.0
 10
12.1168080777
 20
6.9394966422
 30
0.0
 10
12.1157226719
 20
6.9071372865
 30
0.0
 10
12.1130681499
 20
6.864490944
 30
0.0
 10
12.110467399
 20
6.8335499074
 30
0.0
 10
12.1071673963
 20
6.8034398759
 30
0.0
 10
12.1031034542
 20
6.7742649647
 30
0.0
 10
12.0981943481
 20
6.746145562
 30
0.0
 10
12.0923572105
 20
6.7192225099
 30
0.0
 10
12.0855009974
 20
6.6936568847
 30
0.0
 10
12.0775282363
 20
6.6696336937
 30
0.0
 10
12.0683367036
 20
6.6473613734
 30
0.0
 10
12.0578207343
 20
6.6270738296
 30
0.0
 10
12.0458700873
 20
6.6090291024
 30
0.0
 10
12.0323868578
 20
6.5935123556
 30
0.0
 10
12.0196905781
 20
6.5828654002
 30
0.0
 10
12.0088097304
 20
6.5760328477
 30
0.0
 10
12.0003204141
 20
6.5717683294
 30
0.0
 10
11.9914546749
 20
6.5683546493
 30
0.0
 10
11.9822240895
 20
6.5658204858
 30
0.0
 10
11.9726469331
 20
6.5641801492
 30
0.0
 10
11.9592528088
 20
6.5631869169
 30
0.0
 10
11.9416095887
 20
6.5643374181
 30
0.0
 10
11.9198278142
 20
6.5693090323
 30
0.0
 10
11.8973187054
 20
6.5777030976
 30
0.0
 10
11.8742799025
 20
6.5892893699
 30
0.0
 10
11.8508918644
 20
6.6038027194
 30
0.0
 10
11.827322178
 20
6.6209622672
 30
0.0
 10
11.8037142453
 20
6.6404848401
 30
0.0
 10
11.7801890805
 20
6.6621012261
 30
0.0
 10
11.7568411544
 20
6.6855620463
 30
0.0
 10
11.7256807509
 20
6.7194043951
 30
0.0
 10
11.6877416117
 20
6.7651105884
 30
0.0
 10
11.659109579
 20
6.803639056
 30
0.0
 10
11.6449819493
 20
6.8235497308
 30
0.0
  0
SPLINE
  5
4ED
100
AcDbEntity
  8
0
100
AcDbSpline
 62
9
  6
CONTINUOUS
 70
0
 71
3
 72
9
 73
5
 74
0
 42
0.0000001
 43
0.0000001
 44
0.0000000001
 40
0.0
 40
0.0
 40
0.0
 40
0.0
 40
0.4966802553
 40
1.0
 40
1.0
 40
1.0
 40
1.0
 10
11.6449818632
 20
6.8235499065
 30
0.0
 10
11.6698031319
 20
6.8452266305
 30
0.0
 10
11.7185435532
 20
6.8902906056
 30
0.0
 10
11.7653806268
 20
6.9373013801
 30
0.0
 10
11.7886285745
 20
6.961275049
 30
0.0
  0
SPLINE
  5
4EE
100
AcDbEntity
  8
0
100
AcDbSpline
 62
9
  6
CONTINUOUS
 70
0
 71
3
 72
13
 73
9
 74
0
 42
0.0000001
 43
0.0000001
 44
0.0000000001
 40
0.0
 40
0.0
 40
0.0
 40
0.0
 40
0.2500756435
 40
0.3749218122
 40
0.4996702571
 40
0.6244725694
 40
0.7494697595
 40
1.0
 40
1.0
 40
1.0
 40
1.0
 10
11.5038920032
 20
7.3789908519
 30
0.0
 10
11.5156620259
 20
7.3873098726
 30
0.0
 10
11.5332343286
 20
7.3998863935
 30
0.0
 10
11.5565638495
 20
7.4167711121
 30
0.0
 10
11.5739998296
 20
7.4294840827
 30
0.0
 10
11.5913760758
 20
7.4422933759
 30
0.0
 10
11.6144693362
 20
7.4595637095
 30
0.0
 10
11.6316884244
 20
7.4726772649
 30
0.0
 10
11.6431516042
 20
7.4814574135
 30
0.0
  0
SPLINE
  5
4EF
100
AcDbEntity
  8
0
100
AcDbSpline
 62
7
  6
CONTINUOUS
 70
0
 71
3
 72
9
 73
5
 74
0
 42
0.0000001
 43
0.0000001
 44
0.0000000001
 40
0.0
 40
0.0
 40
0.0
 40
0.0
 40
0.5014152331
 40
1.0
 40
1.0
 40
1.0
 40
1.0
 10
11.5263972437
 20
7.1051833869
 30
0.0
 10
11.5217773467
 20
7.1454684005
 30
0.0
 10
11.5135205491
 20
7.2259250486
 30
0.0
 10
11.5076134994
 20
7.3065940441
 30
0.0
 10
11.505349973
 20
7.3468506144
 30
0.0
  0
SPLINE
  5
4F0
100
AcDbEntity
  8
0
100
AcDbSpline
 62
9
  6
CONTINUOUS
 70
0
 71
3
 72
11
 73
7
 74
0
 42
0.0000001
 43
0.0000001
 44
0.0000000001
 40
0.0
 40
0.0
 40
0.0
 40
0.0
 40
0.233445254
 40
0.4768513819
 40
0.7316856329
 40
1.0
 40
1.0
 40
1.0
 40
1.0
 10
11.5053499774
 20
7.3468508346
 30
0.0
 10
11.4611753258
 20
7.3475435388
 30
0.0
 10
11.3709324158
 20
7.3484303157
 30
0.0
 10
11.2324571661
 20
7.3484431964
 30
0.0
 10
11.0873893415
 20
7.3472995607
 30
0.0
 10
10.9883838355
 20
7.346536295
 30
0.0
 10
10.9376046889
 20
7.346530362
 30
0.0
  0
LINE
  5
4F1
100
AcDbEntity
  8
0
100
AcDbLine
 62
9
  6
CONTINUOUS
 10
10.937718612
 20
7.3465297631
 11
10.9377101782
 21
9.3890270557
  0
SPLINE
  5
4F2
100
AcDbEntity
  8
0
100
AcDbSpline
 62
7
  6
CONTINUOUS
 70
0
 71
3
 72
12
 73
8
 74
0
 42
0.0000001
 43
0.0000001
 44
0.0000000001
 40
0.0
 40
0.0
 40
0.0
 40
0.0
 40
0.1198453933
 40
0.2418947865
 40
0.4906525802
 40
0.743954774
 40
1.0
 40
1.0
 40
1.0
 40
1.0
 10
10.2292212286
 20
6.8218867564
 30
0.0
 10
10.2364024724
 20
6.8319811018
 30
0.0
 10
10.2502675819
 20
6.8528107468
 30
0.0
 10
10.2758994085
 20
6.8965998743
 30
0.0
 10
10.3037960853
 20
6.9549199262
 30
0.0
 10
10.3303305525
 20
7.0287751253
 30
0.0
 10
10.3434540315
 20
7.0798506265
 30
0.0
 10
10.3489240309
 20
7.1057460104
 30
0.0
  0
SPLINE
  5
4F3
100
AcDbEntity
  8
0
100
AcDbSpline
 62
7
  6
CONTINUOUS
 70
0
 71
3
 72
11
 73
7
 74
0
 42
0.0000001
 43
0.0000001
 44
0.0000000001
 40
0.0
 40
0.0
 40
0.0
 40
0.0
 40
0.253332873
 40
0.5046413254
 40
0.7534739255
 40
1.0
 40
1.0
 40
1.0
 40
1.0
 10
10.3489240309
 20
7.1057460104
 30
0.0
 10
10.3518339724
 20
7.0828871526
 30
0.0
 10
10.360382501
 20
7.037651341
 30
0.0
 10
10.3814134974
 20
6.9722322851
 30
0.0
 10
10.4105184745
 20
6.9106535807
 30
0.0
 10
10.4352097426
 20
6.8727596428
 30
0.0
 10
10.4487453427
 20
6.8548814044
 30
0.0
  0
SPLINE
  5
4F4
100
AcDbEntity
  8
0
100
AcDbSpline
 62
7
  6
CONTINUOUS
 70
0
 71
3
 72
19
 73
15
 74
0
 42
0.0000001
 43
0.0000001
 44
0.0000000001
 40
0.0
 40
0.0
 40
0.0
 40
0.0
 40
0.1228988251
 40
0.1844898522
 40
0.2461883695
 40
0.3699358102
 40
0.4943589123
 40
0.6195712816
 40
0.6825199439
 40
0.7456850645
 40
0.809053981
 40
0.8726116843
 40
0.9363123044
 40
1.0
 40
1.0
 40
1.0
 40
1.0
 10
10.4487453427
 20
6.8548814044
 30
0.0
 10
10.4633359457
 20
6.8356096479
 30
0.0
 10
10.486151816
 20
6.8073479965
 30
0.0
 10
10.5185683622
 20
6.7713664545
 30
0.0
 10
10.552466795
 20
6.7365433259
 30
0.0
 10
10.5977099977
 20
6.6955764841
 30
0.0
 10
10.6567794407
 20
6.6517287077
 30
0.0
 10
10.7101288536
 20
6.6208313713
 30
0.0
 10
10.7551506524
 20
6.6003423698
 30
0.0
 10
10.79010368
 20
6.5873164208
 30
0.0
 10
10.8260416192
 20
6.5768778376
 30
0.0
 10
10.8627917388
 20
6.5692492486
 30
0.0
 10
10.9000994131
 20
6.5646103451
 30
0.0
 10
10.925166105
 20
6.563555012
 30
0.0
 10
10.9376923428
 20
6.563555012
 30
0.0
  0
SPLINE
  5
4F5
100
AcDbEntity
  8
0
100
AcDbSpline
 62
7
  6
CONTINUOUS
 70
0
 71
3
 72
12
 73
8
 74
0
 42
0.0000001
 43
0.0000001
 44
0.0000000001
 40
0.0
 40
0.0
 40
0.0
 40
0.0
 40
0.2623995961
 40
0.5189293778
 40
0.6435539506
 40
0.765399434
 40
1.0
 40
1.0
 40
1.0
 40
1.0
 10
10.937692343
 20
11.3808100647
 30
0.0
 10
10.9203070604
 20
11.380810603
 30
0.0
 10
10.885873038
 20
11.3833509786
 30
0.0
 10
10.8441251073
 20
11.3928282502
 30
0.0
 10
10.8126682337
 20
11.4039197367
 30
0.0
 10
10.7834183503
 20
11.4166273612
 30
0.0
 10
10.7627156878
 20
11.4281750646
 30
0.0
 10
10.7496742619
 20
11.4366320323
 30
0.0
  0
SPLINE
  5
4F6
100
AcDbEntity
  8
0
100
AcDbSpline
 62
9
  6
CONTINUOUS
 70
0
 71
3
 72
11
 73
7
 74
0
 42
0.0000001
 43
0.0000001
 44
0.0000000001
 40
0.0
 40
0.0
 40
0.0
 40
0.0
 40
0.2487303817
 40
0.5001592043
 40
0.7511406953
 40
1.0
 40
1.0
 40
1.0
 40
1.0
 10
9.8313846977
 20
7.2156044347
 30
0.0
 10
9.8513150924
 20
7.1946561475
 30
0.0
 10
9.890702327
 20
7.1518794628
 30
0.0
 10
9.9492723734
 20
7.0871187344
 30
0.0
 10
10.0087125523
 20
7.0231274917
 30
0.0
 10
10.0493386182
 20
6.9815676119
 30
0.0
 10
10.0699571346
 20
6.9612748775
 30
0.0
  0
SPLINE
  5
4F7
100
AcDbEntity
  8
0
100
AcDbSpline
 62
7
  6
CONTINUOUS
 70
0
 71
3
 72
39
 73
35
 74
0
 42
0.0000001
 43
0.0000001
 44
0.0000000001
 40
0.0
 40
0.0
 40
0.0
 40
0.0
 40
0.0827414435
 40
0.1625992121
 40
0.2011425983
 40
0.2385563332
 40
0.2746668513
 40
0.3092815377
 40
0.3422079538
 40
0.3732655822
 40
0.4023178094
 40
0.4293145322
 40
0.4543405025
 40
0.4776603454
 40
0.4888292496
 40
0.4997585618
 40
0.5105285219
 40
0.5212222659
 40
0.5319227395
 40
0.5427067916
 40
0.5647746035
 40
0.5878791296
 40
0.612280677
 40
0.6380990278
 40
0.6653519531
 40
0.6939980963
 40
0.7239598085
 40
0.7551444599
 40
0.7874538678
 40
0.8207929261
 40
0.8550682499
 40
0.8902025569
 40
0.9261153383
 40
1.0
 40
1.0
 40
1.0
 40
1.0
 10
10.229221228
 20
6.8218867574
 30
0.0
 10
10.2151044567
 20
6.8020434343
 30
0.0
 10
10.1864976131
 20
6.7636533945
 30
0.0
 10
10.1485924838
 20
6.7181269907
 30
0.0
 10
10.1174650322
 20
6.6844367727
 30
0.0
 10
10.0941471571
 20
6.6610949712
 30
0.0
 10
10.0706564293
 20
6.6396018123
 30
0.0
 10
10.0470877694
 20
6.6202065179
 30
0.0
 10
10.0235626915
 20
6.6031775937
 30
0.0
 10
10.0002248511
 20
6.5887970482
 30
0.0
 10
9.9772416917
 20
6.5773441471
 30
0.0
 10
9.9547934043
 20
6.5690815707
 30
0.0
 10
9.9330769601
 20
6.5642369556
 30
0.0
 10
9.915495335
 20
6.5631873935
 30
0.0
 10
9.9021527808
 20
6.5642538137
 30
0.0
 10
9.8926121186
 20
6.5659445043
 30
0.0
 10
9.8834180017
 20
6.5685252964
 30
0.0
 10
9.8745883407
 20
6.5719811862
 30
0.0
 10
9.8661343736
 20
6.5762834692
 30
0.0
 10
9.855298341
 20
6.5831618059
 30
0.0
 10
9.8426570804
 20
6.5938536971
 30
0.0
 10
9.8292336687
 20
6.609405028
 30
0.0
 10
9.8173353012
 20
6.6274692626
 30
0.0
 10
9.8068642502
 20
6.6477631767
 30
0.0
 10
9.7977111944
 20
6.6700306233
 30
0.0
 10
9.7897707935
 20
6.6940392219
 30
0.0
 10
9.782941791
 20
6.7195820369
 30
0.0
 10
9.777126876
 20
6.7464753044
 30
0.0
 10
9.77223602
 20
6.7745590424
 30
0.0
 10
9.7681864266
 20
6.8036933397
 30
0.0
 10
9.7648976586
 20
6.8337586083
 30
0.0
 10
9.7623052872
 20
6.8646513783
 30
0.0
 10
9.7596587206
 20
6.9072278661
 30
0.0
 10
9.7585758947
 20
6.9395333268
 30
0.0
 10
9.7581532695
 20
6.9612749224
 30
0.0
  0
SPLINE
  5
4F8
100
AcDbEntity
  8
0
100
AcDbSpline
 62
9
  6
CONTINUOUS
 70
0
 71
3
 72
9
 73
5
 74
0
 42
0.0000001
 43
0.0000001
 44
0.0000000001
 40
0.0
 40
0.0
 40
0.0
 40
0.0
 40
0.5054315104
 40
1.0
 40
1.0
 40
1.0
 40
1.0
 10
10.069957157
 20
6.9612749224
 30
0.0
 10
10.0954309524
 20
6.9363002258
 30
0.0
 10
10.1470206834
 20
6.8880752795
 30
0.0
 10
10.2015184714
 20
6.8431256336
 30
0.0
 10
10.229221228
 20
6.8218867574
 30
0.0
  0
SPLINE
  5
4F9
100
AcDbEntity
  8
0
100
AcDbSpline
 62
9
  6
CONTINUOUS
 70
0
 71
3
 72
11
 73
7
 74
0
 42
0.0000001
 43
0.0000001
 44
0.0000000001
 40
0.0
 40
0.0
 40
0.0
 40
0.0
 40
0.2872317074
 40
0.5495867473
 40
0.7871417196
 40
1.0
 40
1.0
 40
1.0
 40
1.0
 10
10.7496742619
 20
11.4366320323
 30
0.0
 10
10.7507807052
 20
11.4829760587
 30
0.0
 10
10.7534466743
 20
11.571638846
 30
0.0
 10
10.759214117
 20
11.6985532121
 30
0.0
 10
10.7665642197
 20
11.8133611592
 30
0.0
 10
10.7728576058
 20
11.8857916513
 30
0.0
 10
10.776351143
 20
11.9199674262
 30
0.0
  0
SPLINE
  5
4FA
100
AcDbEntity
  8
0
100
AcDbSpline
 62
7
  6
CONTINUOUS
 70
0
 71
3
 72
21
 73
17
 74
0
 42
0.0000001
 43
0.0000001
 44
0.0000000001
 40
0.0
 40
0.0
 40
0.0
 40
0.0
 40
0.2253018532
 40
0.43091143
 40
0.6078163143
 40
0.6839889634
 40
0.7513854608
 40
0.8097077588
 40
0.8592309406
 40
0.9003735869
 40
0.9335552038
 40
0.9592723461
 40
0.9783251399
 40
0.9915971844
 40
0.9963487944
 40
1.0
 40
1.0
 40
1.0
 40
1.0
 10
10.6536723906
 20
11.9072891758
 30
0.0
 10
10.6534186196
 20
11.9327472418
 30
0.0
 10
10.6531038578
 20
11.9814401842
 30
0.0
 10
10.6532177998
 20
12.0501248201
 30
0.0
 10
10.6538663308
 20
12.1019543717
 30
0.0
 10
10.6547024464
 20
12.1381588932
 30
0.0
 10
10.6554092229
 20
12.1609621654
 30
0.0
 10
10.6562140509
 20
12.1807486908
 30
0.0
 10
10.65709038
 20
12.1975620823
 30
0.0
 10
10.658011443
 20
12.2115272371
 30
0.0
 10
10.6589516875
 20
12.2227933939
 30
0.0
 10
10.6598888553
 20
12.2315535745
 30
0.0
 10
10.6608056406
 20
12.2380486238
 30
0.0
 10
10.6615926851
 20
12.242168306
 30
0.0
 10
10.6622290539
 20
12.2445343794
 30
0.0
 10
10.6625364116
 20
12.2454342994
 30
0.0
 10
10.6626923427
 20
12.2458162888
 30
0.0
  0
SPLINE
  5
4FB
100
AcDbEntity
  8
0
100
AcDbSpline
 62
7
  6
CONTINUOUS
 70
0
 71
3
 72
9
 73
5
 74
0
 42
0.0000001
 43
0.0000001
 44
0.0000000001
 40
0.0
 40
0.0
 40
0.0
 40
0.0
 40
0.4936074861
 40
1.0
 40
1.0
 40
1.0
 40
1.0
 10
10.4515022631
 20
11.6977653956
 30
0.0
 10
10.4818170021
 20
11.7349105454
 30
0.0
 10
10.5464994456
 20
11.8075439283
 30
0.0
 10
10.6168297471
 20
11.8747010933
 30
0.0
 10
10.6536723931
 20
11.907289246
 30
0.0
  0
SPLINE
  5
4FC
100
AcDbEntity
  8
0
100
AcDbSpline
 62
7
  6
CONTINUOUS
 70
0
 71
3
 72
17
 73
13
 74
0
 42
0.0000001
 43
0.0000001
 44
0.0000000001
 40
0.0
 40
0.0
 40
0.0
 40
0.0
 40
0.1334573381
 40
0.2492470175
 40
0.3025653266
 40
0.354099732
 40
0.4050140889
 40
0.4565213143
 40
0.5656021867
 40
0.6893737044
 40
0.8330857937
 40
1.0
 40
1.0
 40
1.0
 40
1.0
 10
10.4652160802
 20
10.9314029542
 30
0.0
 10
10.4637930522
 20
10.9300227653
 30
0.0
 10
10.4613093268
 20
10.9272490657
 30
0.0
 10
10.4590516533
 20
10.9233062044
 30
0.0
 10
10.4580504988
 20
10.9201739021
 30
0.0
 10
10.4576811824
 20
10.9178803889
 30
0.0
 10
10.4576773455
 20
10.9155837861
 30
0.0
 10
10.4581666748
 20
10.9124683801
 30
0.0
 10
10.4597825805
 20
10.9085015345
 30
0.0
 10
10.4631067927
 20
10.9039550168
 30
0.0
 10
10.4678008332
 20
10.899491399
 30
0.0
 10
10.4715460406
 20
10.8967767046
 30
0.0
 10
10.4736181749
 20
10.8954152388
 30
0.0
  0
SPLINE
  5
4FD
100
AcDbEntity
  8
0
100
AcDbSpline
 62
7
  6
CONTINUOUS
 70
0
 71
3
 72
11
 73
7
 74
0
 42
0.0000001
 43
0.0000001
 44
0.0000000001
 40
0.0
 40
0.0
 40
0.0
 40
0.0
 40
0.2814633727
 40
0.541895699
 40
0.7813745963
 40
1.0
 40
1.0
 40
1.0
 40
1.0
 10
10.6576813364
 20
11.526961509
 30
0.0
 10
10.6561638208
 20
11.5626218835
 30
0.0
 10
10.6536919482
 20
11.6312985487
 30
0.0
 10
10.6516910403
 20
11.7303700454
 30
0.0
 10
10.6515388931
 20
11.8214938187
 30
0.0
 10
10.6527210413
 20
11.8795814005
 30
0.0
 10
10.6536723907
 20
11.9072891765
 30
0.0
  0
SPLINE
  5
4FE
100
AcDbEntity
  8
0
100
AcDbSpline
 62
7
  6
CONTINUOUS
 70
0
 71
3
 72
18
 73
14
 74
0
 42
0.0000001
 43
0.0000001
 44
0.0000000001
 40
0.0
 40
0.0
 40
0.0
 40
0.0
 40
0.0325053979
 40
0.0695308244
 40
0.1110658052
 40
0.1570515782
 40
0.2073908252
 40
0.2619558403
 40
0.3831686782
 40
0.5192940685
 40
0.6686615622
 40
0.8295181979
 40
1.0
 40
1.0
 40
1.0
 40
1.0
 10
10.3682004807
 20
10.9469851541
 30
0.0
 10
10.3713903445
 20
10.9489213333
 30
0.0
 10
10.378428629
 20
10.9527106537
 30
0.0
 10
10.3900691923
 20
10.9579301378
 30
0.0
 10
10.4034315764
 20
10.963033816
 30
0.0
 10
10.4184629424
 20
10.9679988748
 30
0.0
 10
10.4351070653
 20
10.9728082955
 30
0.0
 10
10.4602631068
 20
10.9792221333
 30
0.0
 10
10.4953105871
 20
10.9866235345
 30
0.0
 10
10.5413535818
 20
10.9944132955
 30
0.0
 10
10.5921373962
 20
11.0012896924
 30
0.0
 10
10.6470116015
 20
11.0071751102
 30
0.0
 10
10.6849221684
 20
11.0103134649
 30
0.0
 10
10.7044420774
 20
11.011721599
 30
0.0
  0
LINE
  5
4FF
100
AcDbEntity
  8
0
100
AcDbLine
 62
7
  6
CONTINUOUS
 10
11.4016662688
 20
10.8953493475
 11
11.4054885608
 21
10.8980315053
  0
SPLINE
  5
500
100
AcDbEntity
  8
0
100
AcDbSpline
 62
7
  6
CONTINUOUS
 70
0
 71
3
 72
16
 73
12
 74
0
 42
0.0000001
 43
0.0000001
 44
0.0000000001
 40
0.0
 40
0.0
 40
0.0
 40
0.0
 40
0.158485549
 40
0.2298177432
 40
0.2963587994
 40
0.4170180462
 40
0.5260968358
 40
0.6310975004
 40
0.74045298
 40
0.861605712
 40
1.0
 40
1.0
 40
1.0
 40
1.0
 10
11.4054885608
 20
10.8980315053
 30
0.0
 10
11.4071749633
 20
10.8993053416
 30
0.0
 10
11.4095322497
 20
10.9012813423
 30
0.0
 10
11.4122596291
 20
10.9041469786
 30
0.0
 10
11.4144200667
 20
10.9068371757
 30
0.0
 10
11.416459989
 20
10.9102588845
 30
0.0
 10
11.4177504334
 20
10.9145902833
 30
0.0
 10
11.4177279255
 20
10.9189682387
 30
0.0
 10
11.4163944387
 20
10.9232973452
 30
0.0
 10
11.41382513
 20
10.9275360746
 30
0.0
 10
11.4114934904
 20
10.9301180777
 30
0.0
 10
11.4101687227
 20
10.9314029577
 30
0.0
  0
SPLINE
  5
501
100
AcDbEntity
  8
0
100
AcDbSpline
 62
7
  6
CONTINUOUS
 70
0
 71
3
 72
15
 73
11
 74
0
 42
0.0000001
 43
0.0000001
 44
0.0000000001
 40
0.0
 40
0.0
 40
0.0
 40
0.0
 40
0.1668325141
 40
0.3196563343
 40
0.4590194358
 40
0.5857543162
 40
0.7010902432
 40
0.8068073522
 40
0.9054074193
 40
1.0
 40
1.0
 40
1.0
 40
1.0
 10
11.5071029666
 20
10.9470442339
 30
0.0
 10
11.5089536159
 20
10.945923861
 30
0.0
 10
11.5124432499
 20
10.9436813808
 30
0.0
 10
11.5172297574
 20
10.9401347358
 30
0.0
 10
11.5213272092
 20
10.9365574983
 30
0.0
 10
11.5247261334
 20
10.9329512509
 30
0.0
 10
11.5274164584
 20
10.9293157793
 30
0.0
 10
11.5293834465
 20
10.9256473424
 30
0.0
 10
11.5306147392
 20
10.9219506524
 30
0.0
 10
11.5309401373
 20
10.9194472862
 30
0.0
 10
11.5309746627
 20
10.9182211644
 30
0.0
  0
SPLINE
  5
502
100
AcDbEntity
  8
0
100
AcDbSpline
 62
7
  6
CONTINUOUS
 70
0
 71
3
 72
13
 73
9
 74
0
 42
0.0000001
 43
0.0000001
 44
0.0000000001
 40
0.0
 40
0.0
 40
0.0
 40
0.0
 40
0.131609202
 40
0.262575364
 40
0.519049303
 40
0.6436774728
 40
0.7655119953
 40
1.0
 40
1.0
 40
1.0
 40
1.0
 10
10.937692343
 20
11.3808100647
 30
0.0
 10
10.9464260138
 20
11.3808097942
 30
0.0
 10
10.9638590607
 20
11.3814631122
 30
0.0
 10
10.9981102588
 20
11.385300229
 30
0.0
 10
11.0314028871
 20
11.3928565888
 30
0.0
 10
11.0628962833
 20
11.4039830646
 30
0.0
 10
11.0921772439
 20
11.4167284697
 30
0.0
 10
11.1128972082
 20
11.4283060326
 30
0.0
 10
11.1259447254
 20
11.436785418
 30
0.0
  0
LINE
  5
503
100
AcDbEntity
  8
0
100
AcDbLine
 62
9
  6
CONTINUOUS
 10
10.3681159391
 20
10.9469485237
 11
10.3720162233
 21
11.3405469176
  0
SPLINE
  5
504
100
AcDbEntity
  8
0
100
AcDbSpline
 62
7
  6
CONTINUOUS
 70
0
 71
3
 72
29
 73
25
 74
0
 42
0.0000001
 43
0.0000001
 44
0.0000000001
 40
0.0
 40
0.0
 40
0.0
 40
0.0
 40
0.013956618
 40
0.0268197827
 40
0.0389183317
 40
0.0509314695
 40
0.0635004883
 40
0.0771691572
 40
0.0923917394
 40
0.1094637931
 40
0.1285724837
 40
0.1498465878
 40
0.1733357626
 40
0.1990207478
 40
0.2268200312
 40
0.2565998925
 40
0.3216548957
 40
0.3933569078
 40
0.4706209391
 40
0.5523729412
 40
0.6376844122
 40
0.7257554226
 40
0.8158872809
 40
1.0
 40
1.0
 40
1.0
 40
1.0
 10
10.3720162233
 20
11.3405469176
 30
0.0
 10
10.3727483294
 20
11.3390297077
 30
0.0
 10
10.374319121
 20
11.3361867428
 30
0.0
 10
10.3772392428
 20
11.3324699721
 30
0.0
 10
10.3807279252
 20
11.3296235202
 30
0.0
 10
10.3847335986
 20
11.3276560869
 30
0.0
 10
10.3892421172
 20
11.3265231624
 30
0.0
 10
10.3942669008
 20
11.3262655016
 30
0.0
 10
10.399799456
 20
11.3268708456
 30
0.0
 10
10.4058526063
 20
11.328283373
 30
0.0
 10
10.4124358186
 20
11.3304901825
 30
0.0
 10
10.4195420614
 20
11.3334953004
 30
0.0
 10
10.4271611556
 20
11.3372803916
 30
0.0
 10
10.4352722822
 20
11.3418175138
 30
0.0
 10
10.4438498194
 20
11.3470587677
 30
0.0
 10
10.456252438
 20
11.3551414023
 30
0.0
 10
10.4726806989
 20
11.3667379247
 30
0.0
 10
10.4931968233
 20
11.3824430619
 30
0.0
 10
10.5148508777
 20
11.3999576305
 30
0.0
 10
10.5374344512
 20
11.4189254737
 30
0.0
 10
10.5607316879
 20
11.439066389
 30
0.0
 10
10.5845532936
 20
11.4601436611
 30
0.0
 10
10.6170470086
 20
11.489413881
 30
0.0
 10
10.6413850064
 20
11.5118522068
 30
0.0
 10
10.6576813364
 20
11.526961509
 30
0.0
  0
SPLINE
  5
505
100
AcDbEntity
  8
0
100
AcDbSpline
 62
7
  6
CONTINUOUS
 70
0
 71
3
 72
9
 73
5
 74
0
 42
0.0000001
 43
0.0000001
 44
0.0000000001
 40
0.0
 40
0.0
 40
0.0
 40
0.0
 40
0.5431295438
 40
1.0
 40
1.0
 40
1.0
 40
1.0
 10
11.3935978361
 20
10.9196957528
 30
0.0
 10
11.3956227673
 20
10.920996382
 30
0.0
 10
11.3992340075
 20
10.923584151
 30
0.0
 10
11.4024176376
 20
10.9267106939
 30
0.0
 10
11.4036854334
 20
10.9282889904
 30
0.0
  0
LINE
  5
506
100
AcDbEntity
  8
0
100
AcDbLine
 62
9
  6
CONTINUOUS
 10
11.5071871675
 20
10.947007731
 11
11.5034520886
 21
11.3407498445
  0
LINE
  5
507
100
AcDbEntity
  8
0
100
AcDbLine
 62
7
  6
CONTINUOUS
 10
11.5091874226
 20
11.4917886641
 11
11.5110044719
 21
11.3815626702
  0
SPLINE
  5
508
100
AcDbEntity
  8
0
100
AcDbSpline
 62
7
  6
CONTINUOUS
 70
0
 71
3
 72
11
 73
7
 74
0
 42
0.0000001
 43
0.0000001
 44
0.0000000001
 40
0.0
 40
0.0
 40
0.0
 40
0.0
 40
0.237680562
 40
0.4827230552
 40
0.7364204078
 40
1.0
 40
1.0
 40
1.0
 40
1.0
 10
10.6576813364
 20
11.526961509
 30
0.0
 10
10.6634798002
 20
11.5184761051
 30
0.0
 10
10.6760341817
 20
11.5017588007
 30
0.0
 10
10.6974844246
 20
11.4781595612
 30
0.0
 10
10.7219958556
 20
11.4560397462
 30
0.0
 10
10.740111631
 20
11.4428331073
 30
0.0
 10
10.7496742619
 20
11.4366320323
 30
0.0
  0
SPLINE
  5
509
100
AcDbEntity
  8
0
100
AcDbSpline
 62
7
  6
CONTINUOUS
 70
0
 71
3
 72
14
 73
10
 74
0
 42
0.0000001
 43
0.0000001
 44
0.0000000001
 40
0.0
 40
0.0
 40
0.0
 40
0.0
 40
0.0947001344
 40
0.1933933265
 40
0.2991809549
 40
0.4145594288
 40
0.5413064087
 40
0.6806508991
 40
1.0
 40
1.0
 40
1.0
 40
1.0
 10
10.344437057
 20
10.9182212416
 30
0.0
 10
10.3444713411
 20
10.9194447181
 30
0.0
 10
10.3447950425
 20
10.9219424667
 30
0.0
 10
10.3460204717
 20
10.9256312116
 30
0.0
 10
10.3479784062
 20
10.9292919444
 30
0.0
 10
10.3506565249
 20
10.9329198374
 30
0.0
 10
10.3540400534
 20
10.9365190705
 30
0.0
 10
10.3597413641
 20
10.9415069855
 30
0.0
 10
10.3646721358
 20
10.9448435247
 30
0.0
 10
10.3682004807
 20
10.9469851541
 30
0.0
  0
ELLIPSE
  5
50A
100
AcDbEntity
  8
0
100
AcDbEllipse
 62
7
  6
CONTINUOUS
 10
6.9376923427
 20
7.5881953693
 30
0.0
 11
-1.0411369379
 21
0.9898582626
 31
0.0
 40
0.5769821704
 41
-4.2106486927
 42
-3.1634511416
  0
ELLIPSE
  5
50B
100
AcDbEntity
  8
0
100
AcDbEllipse
 62
7
  6
CONTINUOUS
 10
6.9376923427
 20
7.5881953693
 30
0.0
 11
1.0411369379
 21
0.9898582626
 31
0.0
 40
0.5769821704
 41
-3.1197341656
 42
-2.0725366144
  0
ELLIPSE
  5
50C
100
AcDbEntity
  8
0
100
AcDbEllipse
 62
7
  6
CONTINUOUS
 10
14.9376923427
 20
7.5881953693
 30
0.0
 11
-1.0411369379
 21
0.9898582626
 31
0.0
 40
0.5769821704
 41
-4.2106486927
 42
-3.1634511416
  0
ELLIPSE
  5
50D
100
AcDbEntity
  8
0
100
AcDbEllipse
 62
7
  6
CONTINUOUS
 10
14.9376923427
 20
7.5881953693
 30
0.0
 11
1.0411369379
 21
0.9898582626
 31
0.0
 40
0.5769821704
 41
-3.1197341656
 42
-2.0725366144
  0
ENDSEC
  0
SECTION
  2
OBJECTS
  0
DICTIONARY
  5
C
100
AcDbDictionary
280
0
281
1
  3
ACAD_GROUP
350
D
  3
ACAD_MLINESTYLE
350
17
  3
ACAD_LAYOUT
350
1A
  3
ACAD_PLOTSETTINGS
350
19
  3
ACAD_PLOTSTYLENAME
350
E
  0
DICTIONARY
  5
D
102
{ACAD_REACTORS
330
C
102
}
100
AcDbDictionary
280
0
281
1
  0
ACDBDICTIONARYWDFLT
  5
E
102
{ACAD_REACTORS
330
C
102
}
100
AcDbDictionary
281
1
  3
Normal
350
F
100
AcDbDictionaryWithDefault
340
F
  0
DICTIONARY
  5
17
102
{ACAD_REACTORS
330
C
102
}
100
AcDbDictionary
280
0
281
1
  3
Standard
350
18
  0
DICTIONARY
  5
19
102
{ACAD_REACTORS
330
C
102
}
100
AcDbDictionary
281
1
  0
DICTIONARY
  5
1A
102
{ACAD_REACTORS
330
C
102
}
100
AcDbDictionary
281
1
  3
Model
350
50E
  3
Layout1
350
50F
  0
ACDBPLACEHOLDER
  5
F
102
{ACAD_REACTORS
330
E
102
}
  0
MLINESTYLE
  5
18
102
{ACAD_REACTORS
330
17
102
}
100
AcDbMlineStyle
  2
STANDARD
 70
0
  3

 62
256
 51
90.0
 52
90.0
 71
2
 49
0.5
 62
256
  6
BYLAYER
 49
-0.5
 62
256
  6
BYLAYER
  0
LAYOUT
  5
50E
102
{ACAD_REACTORS
330
1A
102
}
100
AcDbPlotSettings
  1

  2
none_device
  4
ANSI_C_(22.00_x_17.00_Inches)
  6

 40
0.0
 41
0.0
 42
0.0
 43
0.0
 44
558.8
 45
431.8
 46
0.0
 47
0.0
 48
0.0
 49
0.0
140
0.0
141
0.0
142
1.0
143
1.0
 70
1024
 72
0
 73
0
 74
0
  7

 75
0
147
1.0
148
0.0
149
0.0
100
AcDbLayout
  1
Model
 70
0
 71
0
 10
0.0
 20
0.0
 11
22.0
 21
17.0
 12
0.0
 22
0.0
 32
0.0
 14
0.0
 24
0.0
 34
0.0
 15
0.0
 25
0.0
 35
0.0
146
0.0
 13
0.0
 23
0.0
 33
0.0
 16
1.0
 26
0.0
 36
0.0
 17
0.0
 27
1.0
 37
0.0
 76
0
330
202
345
0
346
0
  0
LAYOUT
  5
50F
102
{ACAD_REACTORS
330
1A
102
}
100
AcDbPlotSettings
  1

  2
none_device
  4
ANSI_C_(22.00_x_17.00_Inches)
  6

 40
0.0
 41
0.0
 42
0.0
 43
0.0
 44
558.8
 45
431.8
 46
0.0
 47
0.0
 48
0.0
 49
0.0
140
0.0
141
0.0
142
1.0
143
1.0
 70
0
 72
0
 73
0
 74
0
  7

 75
0
147
1.0
148
0.0
149
0.0
100
AcDbLayout
  1
Layout1
 70
0
 71
1
 10
0.0
 20
0.0
 11
22.0
 21
17.0
 12
0.0
 22
0.0
 32
0.0
 14
0.0
 24
0.0
 34
0.0
 15
0.0
 25
0.0
 35
0.0
146
0.0
 13
0.0
 23
0.0
 33
0.0
 16
1.0
 26
0.0
 36
0.0
 17
0.0
 27
1.0
 37
0.0
 76
0
330
203
345
0
346
0
  0
ENDSEC
  0
EOF
