999
DXF file: E:\BRASSTECH\RAY\EN-4300m\Webdata\1220\CAD\1200_FRONT.dxf
999
Pro/ENGINEER 2018400 by Parametric Technology Corporation
  0
SECTION
  2
HEADER
  9
$ACADVER
  1
AC1018
  9
$DWGCODEPAGE
  3
ANSI_1252
  9
$EXTMAX
 10
22.0
 20
17.0
 30
0.0
  9
$EXTMIN
 10
0.0
 20
0.0
 30
0.0
  9
$LIMMIN
 10
0.0
 20
0.0
  9
$LIMMAX
 10
22.0
 20
17.0
  9
$VIEWCTR
 10
11.0
 20
8.5
  9
$VIEWSIZE
 40
17.0
  9
$CLAYER
  8
0
  9
$LTSCALE
 40
1.21
  9
$CELTYPE
  6
BYLAYER
  9
$DIMSCALE
 40
1.0
  9
$DIMASZ
 40
0.1
  9
$DIMEXO
 40
0.0625
  9
$DIMDLI
 40
0.836
  9
$DIMEXE
 40
0.125
  9
$DIMCEN
 40
0.198
  9
$DIMLFAC
 40
1.0
  9
$DIMBLK
  1
_FILLED
  9
$DIMALT
 70
1
  9
$DIMALTD
 70
2
  9
$DIMALTTD
 70
2
  9
$DIMALTF
 40
25.4
  9
$DIMTXT
 40
0.08
  9
$DIMTOL
 70
1
  9
$DIMLIM
 70
0
  9
$DIMTFAC
 40
1.0
  9
$DIMTP
 40
0.001
  9
$DIMTM
 40
0.001
  9
$DIMGAP
 40
0.09
  9
$DIMDSEP
 70
46
  9
$AUNITS
 70
0
  9
$PDMODE
 70
3
  9
$PDSIZE
 40
0.06
  9
$HANDSEED
  5
539
  9
$TILEMODE
 70
1
  9
$MEASUREMENT
 70
0
  9
$INSUNITS
 70
1
  0
ENDSEC
  0
SECTION
  2
CLASSES
  0
CLASS
  1
ACDBDICTIONARYWDFLT
  2
AcDbDictionaryWithDefault
  3
AutoCAD 2000
 90
0
 91
1
280
0
281
0
  0
CLASS
  1
ACDBPLACEHOLDER
  2
AcDbPlaceHolder
  3
AutoCAD 2000
 90
0
 91
1
280
0
281
0
  0
CLASS
  1
LAYOUT
  2
AcDbLayout
  3
AutoCAD 2000
 90
0
 91
0
280
0
281
0
  0
ENDSEC
  0
SECTION
  2
TABLES
  0
TABLE
  2
VPORT
  5
8
100
AcDbSymbolTable
 70
2
  0
VPORT
  5
1F4
100
AcDbSymbolTableRecord
100
AcDbViewportTableRecord
  2
*ACTIVE
 70
0
 10
0.0
 20
0.0
 11
1.0
 21
1.0
 12
11.0
 22
8.5
 13
0.0
 23
0.0
 14
1.0
 24
1.0
 15
0.0
 25
0.0
 16
0.0
 26
0.0
 36
1.0
 17
0.0
 27
0.0
 37
0.0
 40
17.0
 41
1.2941176471
 42
50.0
 43
0.0
 44
0.0
 50
0.0
 51
0.0
 71
0
 72
100
 73
1
 74
1
 75
0
 76
0
 77
0
 78
0
  0
ENDTAB
  0
TABLE
  2
LTYPE
  5
5
100
AcDbSymbolTable
 70
6
  0
LTYPE
  5
14
100
AcDbSymbolTableRecord
100
AcDbLinetypeTableRecord
  2
BYBLOCK
 70
0
  3

 72
65
 73
0
 40
0.0
  0
LTYPE
  5
15
100
AcDbSymbolTableRecord
100
AcDbLinetypeTableRecord
  2
BYLAYER
 70
0
  3

 72
65
 73
0
 40
0.0
  0
LTYPE
  5
16
100
AcDbSymbolTableRecord
100
AcDbLinetypeTableRecord
  2
CONTINUOUS
 70
64
  3
Solid line
 72
65
 73
0
 40
0.0
  0
LTYPE
  5
1F5
100
AcDbSymbolTableRecord
100
AcDbLinetypeTableRecord
  2
CENTER
 70
64
  3
____ _ ____ _ ____ _ ____ _ ____ _ ____ _ ____
 72
65
 73
4
 40
0.6
 49
0.375
 74
0
 49
-0.075
 74
0
 49
0.075
 74
0
 49
-0.075
 74
0
  0
LTYPE
  5
1F6
100
AcDbSymbolTableRecord
100
AcDbLinetypeTableRecord
  2
HIDDEN
 70
64
  3
- - - - - - - - - - - - - - - - - - - -
 72
65
 73
2
 40
0.2
 49
0.1
 74
0
 49
-0.1
 74
0
  0
LTYPE
  5
1F7
100
AcDbSymbolTableRecord
100
AcDbLinetypeTableRecord
  2
PHANTOM
 70
64
  3
_____ _ _ _____ _ _ _____ _ _ _____
 72
65
 73
6
 40
0.8
 49
0.45
 74
0
 49
-0.05
 74
0
 49
0.1
 74
0
 49
-0.05
 74
0
 49
0.1
 74
0
 49
-0.05
 74
0
  0
LTYPE
  5
1F8
100
AcDbSymbolTableRecord
100
AcDbLinetypeTableRecord
  2
DOT
 70
64
  3
. . . . . . . . . . . . . . . . . . . .
 72
65
 73
2
 40
0.2
 49
0.1
 74
0
 49
-0.1
 74
0
  0
LTYPE
  5
1F9
100
AcDbSymbolTableRecord
100
AcDbLinetypeTableRecord
  2
DASHED
 70
64
  3
- - - - - - - - - - - - - - - - - - - -
 72
65
 73
2
 40
0.2
 49
0.1
 74
0
 49
-0.1
 74
0
  0
ENDTAB
  0
TABLE
  2
LAYER
  5
2
100
AcDbSymbolTable
 70
36
  0
LAYER
  5
10
100
AcDbSymbolTableRecord
100
AcDbLayerTableRecord
  2
0
 70
0
 62
7
  6
CONTINUOUS
370
-3
390
F
  0
LAYER
  5
1FA
100
AcDbSymbolTableRecord
100
AcDbLayerTableRecord
  2
DEFAULT_1
 70
0
 62
7
  6
CENTER
370
-3
390
F
  0
LAYER
  5
1FB
100
AcDbSymbolTableRecord
100
AcDbLayerTableRecord
  2
DEFAULT_2
 70
0
 62
8
  6
HIDDEN
370
-3
390
F
  0
LAYER
  5
1FC
100
AcDbSymbolTableRecord
100
AcDbLayerTableRecord
  2
DEFAULT_3
 70
0
 62
7
  6
PHANTOM
370
-3
390
F
  0
LAYER
  5
1FD
100
AcDbSymbolTableRecord
100
AcDbLayerTableRecord
  2
ALL_FEATURES
 70
0
 62
7
  6
CONTINUOUS
370
-3
390
F
  0
LAYER
  5
1FE
100
AcDbSymbolTableRecord
100
AcDbLayerTableRecord
  2
AXES_FEATURES
 70
0
 62
7
  6
CONTINUOUS
370
-3
390
F
  0
LAYER
  5
1FF
100
AcDbSymbolTableRecord
100
AcDbLayerTableRecord
  2
DIMENSIONS
 70
0
 62
7
  6
CONTINUOUS
370
-3
390
F
  0
ENDTAB
  0
TABLE
  2
STYLE
  5
3
100
AcDbSymbolTable
 70
1
  0
STYLE
  5
11
100
AcDbSymbolTableRecord
100
AcDbTextStyleTableRecord
  2
STANDARD
 70
0
 40
0.0
 41
0.8
 50
0.0
 71
0
 42
0.2
  3
txt
  4

  0
STYLE
  5
200
100
AcDbSymbolTableRecord
100
AcDbTextStyleTableRecord
  2
TEXTSTYLE_1
 70
0
 40
0.0
 41
0.8
 50
0.0
 71
0
 42
0.2
  3
gdt
  4

  0
ENDTAB
  0
TABLE
  2
VIEW
  5
6
100
AcDbSymbolTable
 70
0
  0
ENDTAB
  0
TABLE
  2
UCS
  5
7
100
AcDbSymbolTable
 70
0
  0
ENDTAB
  0
TABLE
  2
APPID
  5
9
100
AcDbSymbolTable
 70
1
  0
APPID
  5
201
100
AcDbSymbolTableRecord
100
AcDbRegAppTableRecord
  2
ACAD
 70
0
  0
ENDTAB
  0
TABLE
  2
BLOCK_RECORD
  5
1
100
AcDbSymbolTable
 70
0
  0
BLOCK_RECORD
  5
202
100
AcDbSymbolTableRecord
100
AcDbBlockTableRecord
  2
*Model_Space
  0
BLOCK_RECORD
  5
203
100
AcDbSymbolTableRecord
100
AcDbBlockTableRecord
  2
*Paper_Space
  0
BLOCK_RECORD
  5
204
100
AcDbSymbolTableRecord
100
AcDbBlockTableRecord
  2
_FILLED
  0
ENDTAB
  0
TABLE
  2
DIMSTYLE
  5
A
100
AcDbSymbolTable
 70
1
100
AcDbDimStyleTable
 71
0
  0
DIMSTYLE
105
205
100
AcDbSymbolTableRecord
100
AcDbDimStyleTableRecord
  2
STANDARD
 70
0
  3

  4

 40
1.0
 41
0.1
 42
0.0625
 43
0.38
 44
0.125
 45
0.0
 46
0.0
 47
0.001
 48
0.001
140
0.08
141
0.09
142
0.0
143
25.4
144
1.0
145
0.0
146
1.0
147
0.09
 71
1.0
 72
0.0
 73
1
 74
1
 75
0
 76
0
 77
0
 78
4
 79
1
170
1
171
2
172
0
173
0
174
0
175
0
176
0
177
0
178
0
270
2
179
3
271
3
272
3
273
2
274
2
275
0
280
0
281
0
282
0
283
1
284
4
285
0
286
0
287
3
288
0
340
11
278
46
341
204
342
204
343
204
344
204
  0
ENDTAB
  0
ENDSEC
  0
SECTION
  2
BLOCKS
  0
BLOCK
  5
20
100
AcDbEntity
  8
0
100
AcDbBlockBegin
  2
*Model_Space
 70
0
 10
0.0
 20
0.0
 30
0.0
  3
*Model_Space
  1

  0
ENDBLK
  5
21
100
AcDbEntity
  8
0
100
AcDbBlockEnd
  0
BLOCK
  5
1C
100
AcDbEntity
  8
0
100
AcDbBlockBegin
  2
*Paper_Space
 70
0
 10
0.0
 20
0.0
 30
0.0
  3
*Paper_Space
  1

  0
ENDBLK
  5
1D
100
AcDbEntity
  8
0
100
AcDbBlockEnd
  0
BLOCK
  5
206
100
AcDbEntity
  8
0
100
AcDbBlockBegin
  2
_FILLED
 70
64
 10
0.0
 20
0.0
  3
_FILLED
  1

  0
SOLID
  5
207
100
AcDbEntity
  8
0
  6
BYBLOCK
 62
0
100
AcDbTrace
 10
0.0
 20
0.0
 11
-1.0
 21
0.2
 12
-1.0
 22
-0.2
 13
-1.0
 23
-0.2
  0
ENDBLK
  5
208
100
AcDbEntity
  8
0
  6
BYBLOCK
 62
0
100
AcDbBlockEnd
  0
ENDSEC
  0
SECTION
  2
ENTITIES
  0
LINE
  5
209
100
AcDbEntity
  8
0
100
AcDbLine
 62
7
  6
CONTINUOUS
 10
5.7501923427
 20
7.7601550803
 11
5.7501923427
 21
7.9117761219
  0
LINE
  5
20A
100
AcDbEntity
  8
0
100
AcDbLine
 62
9
  6
CONTINUOUS
 10
5.9129258627
 20
10.3464218925
 11
5.9129258627
 21
9.8958882681
  0
LINE
  5
20B
100
AcDbEntity
  8
0
100
AcDbLine
 62
9
  6
CONTINUOUS
 10
5.9950151198
 20
9.9533677847
 11
5.9950151198
 21
10.2889423759
  0
LINE
  5
20C
100
AcDbEntity
  8
0
100
AcDbLine
 62
7
  6
CONTINUOUS
 10
6.0201923427
 20
10.3102429314
 11
6.0201923427
 21
9.9320672293
  0
LINE
  5
20D
100
AcDbEntity
  8
0
100
AcDbLine
 62
9
  6
CONTINUOUS
 10
6.0450555013
 20
9.9302377871
 11
6.0450555013
 21
10.3120723736
  0
LINE
  5
20E
100
AcDbEntity
  8
0
100
AcDbLine
 62
9
  6
CONTINUOUS
 10
6.4065263271
 20
9.9662790541
 11
6.4065263271
 21
10.2762460851
  0
LINE
  5
20F
100
AcDbEntity
  8
0
100
AcDbLine
 62
7
  6
CONTINUOUS
 10
6.4101923427
 20
10.5084391774
 11
6.4101923427
 21
10.4371550803
  0
LINE
  5
210
100
AcDbEntity
  8
0
100
AcDbLine
 62
9
  6
CONTINUOUS
 10
6.4286863641
 20
10.2180674629
 11
6.4286863641
 21
10.0247644352
  0
LINE
  5
211
100
AcDbEntity
  8
0
100
AcDbLine
 62
7
  6
CONTINUOUS
 10
6.4101923427
 20
10.4061550803
 11
6.3801923427
 21
10.3261550803
  0
LINE
  5
212
100
AcDbEntity
  8
0
100
AcDbLine
 62
7
  6
CONTINUOUS
 10
6.5076923427
 20
9.4071550803
 11
6.5076923427
 21
9.2871550803
  0
LINE
  5
213
100
AcDbEntity
  8
0
100
AcDbLine
 62
7
  6
CONTINUOUS
 10
6.5941923427
 20
9.7861550803
 11
6.5941923427
 21
9.4271550803
  0
LINE
  5
214
100
AcDbEntity
  8
0
100
AcDbLine
 62
7
  6
CONTINUOUS
 10
6.6726923427
 20
10.5981257099
 11
6.6726923427
 21
10.596977663
  0
LINE
  5
215
100
AcDbEntity
  8
0
100
AcDbLine
 62
7
  6
CONTINUOUS
 10
6.6891923427
 20
10.6021141454
 11
6.6891923427
 21
10.6006239254
  0
LINE
  5
216
100
AcDbEntity
  8
0
100
AcDbLine
 62
7
  6
CONTINUOUS
 10
6.700811571
 20
9.5590610696
 11
6.700811571
 21
9.6052490911
  0
LINE
  5
217
100
AcDbEntity
  8
0
100
AcDbLine
 62
7
  6
CONTINUOUS
 10
6.7291923427
 20
10.606589496
 11
6.7291923427
 21
10.6080413906
  0
LINE
  5
218
100
AcDbEntity
  8
0
100
AcDbLine
 62
7
  6
CONTINUOUS
 10
6.7456923427
 20
10.6078732298
 11
6.7456923427
 21
10.6090131412
  0
LINE
  5
219
100
AcDbEntity
  8
0
100
AcDbLine
 62
7
  6
CONTINUOUS
 10
6.7538445796
 20
9.5590610696
 11
6.7538445796
 21
9.6052490911
  0
LINE
  5
21A
100
AcDbEntity
  8
0
100
AcDbLine
 62
7
  6
CONTINUOUS
 10
6.7573801135
 20
9.6052490911
 11
6.7573801135
 21
9.5590610696
  0
LINE
  5
21B
100
AcDbEntity
  8
0
100
AcDbLine
 62
7
  6
CONTINUOUS
 10
6.7626923427
 20
10.6110407059
 11
6.7626923427
 21
10.6099022968
  0
LINE
  5
21C
100
AcDbEntity
  8
0
100
AcDbLine
 62
7
  6
CONTINUOUS
 10
6.7791923427
 20
10.6140009649
 11
6.7791923427
 21
10.612554685
  0
LINE
  5
21D
100
AcDbEntity
  8
0
100
AcDbLine
 62
7
  6
CONTINUOUS
 10
6.7861923427
 20
9.4271550803
 11
6.7861923427
 21
9.4071550803
  0
LINE
  5
21E
100
AcDbEntity
  8
0
100
AcDbLine
 62
7
  6
CONTINUOUS
 10
6.8191923427
 20
10.6161453996
 11
6.8191923427
 21
10.6176206597
  0
LINE
  5
21F
100
AcDbEntity
  8
0
100
AcDbLine
 62
7
  6
CONTINUOUS
 10
6.8356923427
 20
10.6164603188
 11
6.8356923427
 21
10.6175938992
  0
LINE
  5
220
100
AcDbEntity
  8
0
100
AcDbLine
 62
7
  6
CONTINUOUS
 10
6.3621823625
 20
8.8943469301
 11
6.4376923427
 21
9.2871550803
  0
LINE
  5
221
100
AcDbEntity
  8
0
100
AcDbLine
 62
7
  6
CONTINUOUS
 10
6.4244581905
 20
10.5280744324
 11
6.4101923427
 21
10.5084391774
  0
LINE
  5
222
100
AcDbEntity
  8
0
100
AcDbLine
 62
7
  6
CONTINUOUS
 10
6.8939923427
 20
10.6215391965
 11
6.8939923427
 21
10.6205387989
  0
LINE
  5
223
100
AcDbEntity
  8
0
100
AcDbLine
 62
7
  6
CONTINUOUS
 10
6.9376923427
 20
8.0669023231
 11
6.9376923427
 21
8.0819232071
  0
LINE
  5
224
100
AcDbEntity
  8
0
100
AcDbLine
 62
7
  6
CONTINUOUS
 10
6.9376923427
 20
8.8943469301
 11
6.9376923427
 21
9.2871550803
  0
LINE
  5
225
100
AcDbEntity
  8
0
100
AcDbLine
 62
7
  6
CONTINUOUS
 10
6.9789923427
 20
10.6216049991
 11
6.9789923427
 21
10.620604644
  0
LINE
  5
226
100
AcDbEntity
  8
0
100
AcDbLine
 62
7
  6
CONTINUOUS
 10
7.0756923427
 20
10.6147972648
 11
7.0756923427
 21
10.6136616288
  0
LINE
  5
227
100
AcDbEntity
  8
0
100
AcDbLine
 62
7
  6
CONTINUOUS
 10
7.0891923427
 20
9.4271550803
 11
7.0891923427
 21
9.4071550803
  0
LINE
  5
228
100
AcDbEntity
  8
0
100
AcDbLine
 62
7
  6
CONTINUOUS
 10
7.0941923427
 20
10.6142375727
 11
7.0941923427
 21
10.6129494232
  0
LINE
  5
229
100
AcDbEntity
  8
0
100
AcDbLine
 62
7
  6
CONTINUOUS
 10
7.1180045719
 20
9.5590610696
 11
7.1180045719
 21
9.6052490911
  0
LINE
  5
22A
100
AcDbEntity
  8
0
100
AcDbLine
 62
7
  6
CONTINUOUS
 10
7.1215401058
 20
9.6052490911
 11
7.1215401058
 21
9.5590610696
  0
LINE
  5
22B
100
AcDbEntity
  8
0
100
AcDbLine
 62
7
  6
CONTINUOUS
 10
7.1301923427
 20
10.608868685
 11
7.1301923427
 21
10.6101602508
  0
LINE
  5
22C
100
AcDbEntity
  8
0
100
AcDbLine
 62
7
  6
CONTINUOUS
 10
7.1486923427
 20
10.6053793279
 11
7.1486923427
 21
10.6065210913
  0
LINE
  5
22D
100
AcDbEntity
  8
0
100
AcDbLine
 62
7
  6
CONTINUOUS
 10
7.1745731144
 20
9.6052490911
 11
7.1745731144
 21
9.5590610696
  0
LINE
  5
22E
100
AcDbEntity
  8
0
100
AcDbLine
 62
7
  6
CONTINUOUS
 10
6.3801923427
 20
9.9161550803
 11
6.4101923427
 21
9.8371550803
  0
LINE
  5
22F
100
AcDbEntity
  8
0
100
AcDbLine
 62
7
  6
CONTINUOUS
 10
7.2811923427
 20
9.7861550803
 11
7.2811923427
 21
9.4271550803
  0
LINE
  5
230
100
AcDbEntity
  8
0
100
AcDbLine
 62
7
  6
CONTINUOUS
 10
7.3676923427
 20
9.4071550803
 11
7.3676923427
 21
9.2871550803
  0
LINE
  5
231
100
AcDbEntity
  8
0
100
AcDbLine
 62
9
  6
CONTINUOUS
 10
7.4466983213
 20
10.0241534743
 11
7.4466983213
 21
10.2175960136
  0
LINE
  5
232
100
AcDbEntity
  8
0
100
AcDbLine
 62
7
  6
CONTINUOUS
 10
7.4651923427
 20
10.5084391774
 11
7.4651923427
 21
10.4371550803
  0
LINE
  5
233
100
AcDbEntity
  8
0
100
AcDbLine
 62
9
  6
CONTINUOUS
 10
7.4688583584
 20
10.2760478763
 11
7.4688583584
 21
9.9660577965
  0
LINE
  5
234
100
AcDbEntity
  8
0
100
AcDbLine
 62
7
  6
CONTINUOUS
 10
7.4951923427
 20
9.9161550803
 11
7.4651923427
 21
9.8371550803
  0
LINE
  5
235
100
AcDbEntity
  8
0
100
AcDbLine
 62
7
  6
CONTINUOUS
 10
5.9950151198
 20
9.9533677847
 11
5.9129258627
 21
9.8958882681
  0
LINE
  5
236
100
AcDbEntity
  8
0
100
AcDbLine
 62
7
  6
CONTINUOUS
 10
7.513202323
 20
8.8943469301
 11
7.4376923427
 21
9.2871550803
  0
LINE
  5
237
100
AcDbEntity
  8
0
100
AcDbLine
 62
9
  6
CONTINUOUS
 10
7.8303291842
 20
9.9302377871
 11
7.8303291842
 21
10.3120723736
  0
LINE
  5
238
100
AcDbEntity
  8
0
100
AcDbLine
 62
7
  6
CONTINUOUS
 10
7.8551923427
 20
9.9320672293
 11
7.8551923427
 21
10.3102429314
  0
LINE
  5
239
100
AcDbEntity
  8
0
100
AcDbLine
 62
9
  6
CONTINUOUS
 10
7.8803695657
 20
10.2889423759
 11
7.8803695657
 21
9.9533677847
  0
LINE
  5
23A
100
AcDbEntity
  8
0
100
AcDbLine
 62
9
  6
CONTINUOUS
 10
7.9624588227
 20
9.8958882681
 11
7.9624588227
 21
10.3464218925
  0
LINE
  5
23B
100
AcDbEntity
  8
0
100
AcDbLine
 62
7
  6
CONTINUOUS
 10
6.4370391303
 20
10.4216550803
 11
6.4101923427
 21
10.4061550803
  0
LINE
  5
23C
100
AcDbEntity
  8
0
100
AcDbLine
 62
7
  6
CONTINUOUS
 10
8.1251923427
 20
7.7601550803
 11
8.1251923427
 21
7.9117761219
  0
LINE
  5
23D
100
AcDbEntity
  8
0
100
AcDbLine
 62
7
  6
CONTINUOUS
 10
5.7501955831
 20
7.9117792814
 11
5.9246923427
 21
8.0819232071
  0
LINE
  5
23E
100
AcDbEntity
  8
0
100
AcDbLine
 62
7
  6
CONTINUOUS
 10
6.7290958423
 20
9.6283431019
 11
6.700811571
 21
9.6052490911
  0
LINE
  5
23F
100
AcDbEntity
  8
0
100
AcDbLine
 62
7
  6
CONTINUOUS
 10
6.7538445796
 20
9.6052490911
 11
6.7556123466
 21
9.6066924668
  0
LINE
  5
240
100
AcDbEntity
  8
0
100
AcDbLine
 62
7
  6
CONTINUOUS
 10
6.7290958423
 20
9.5359670588
 11
6.7573801135
 21
9.5590610696
  0
LINE
  5
241
100
AcDbEntity
  8
0
100
AcDbLine
 62
7
  6
CONTINUOUS
 10
7.1462888432
 20
9.6283431019
 11
7.1180045719
 21
9.6052490911
  0
LINE
  5
242
100
AcDbEntity
  8
0
100
AcDbLine
 62
7
  6
CONTINUOUS
 10
7.1215401058
 20
9.5590610696
 11
7.1197723389
 21
9.5576176939
  0
LINE
  5
243
100
AcDbEntity
  8
0
100
AcDbLine
 62
7
  6
CONTINUOUS
 10
7.1462888432
 20
9.5359670588
 11
7.1745731144
 21
9.5590610696
  0
LINE
  5
244
100
AcDbEntity
  8
0
100
AcDbLine
 62
7
  6
CONTINUOUS
 10
7.4383455552
 20
10.4216550803
 11
7.4651923427
 21
10.4371550803
  0
LINE
  5
245
100
AcDbEntity
  8
0
100
AcDbLine
 62
7
  6
CONTINUOUS
 10
6.4831823866
 20
10.5471550803
 11
6.4244581905
 21
10.5280744324
  0
LINE
  5
246
100
AcDbEntity
  8
0
100
AcDbLine
 62
7
  6
CONTINUOUS
 10
8.1251891024
 20
7.9117792814
 11
7.9506923427
 21
8.0819232071
  0
LINE
  5
247
100
AcDbEntity
  8
0
100
AcDbLine
 62
7
  6
CONTINUOUS
 10
7.4651923427
 20
10.4061550803
 11
7.4951923427
 21
10.3261550803
  0
LINE
  5
248
100
AcDbEntity
  8
0
100
AcDbLine
 62
7
  6
CONTINUOUS
 10
7.8803695657
 20
10.2889423759
 11
7.9624588227
 21
10.3464218925
  0
LINE
  5
249
100
AcDbEntity
  8
0
100
AcDbLine
 62
7
  6
CONTINUOUS
 10
6.700811571
 20
9.5590610696
 11
6.7290958423
 21
9.5359670588
  0
LINE
  5
24A
100
AcDbEntity
  8
0
100
AcDbLine
 62
7
  6
CONTINUOUS
 10
6.7556123466
 20
9.5576176939
 11
6.7538445796
 21
9.5590610696
  0
LINE
  5
24B
100
AcDbEntity
  8
0
100
AcDbLine
 62
7
  6
CONTINUOUS
 10
6.7573801135
 20
9.6052490911
 11
6.7290958423
 21
9.6283431019
  0
LINE
  5
24C
100
AcDbEntity
  8
0
100
AcDbLine
 62
7
  6
CONTINUOUS
 10
5.9950151198
 20
10.2889423759
 11
5.9129258627
 21
10.3464218925
  0
LINE
  5
24D
100
AcDbEntity
  8
0
100
AcDbLine
 62
7
  6
CONTINUOUS
 10
7.1180045719
 20
9.5590610696
 11
7.1462888432
 21
9.5359670588
  0
LINE
  5
24E
100
AcDbEntity
  8
0
100
AcDbLine
 62
7
  6
CONTINUOUS
 10
7.1197723389
 20
9.6066924668
 11
7.1215401058
 21
9.6052490911
  0
LINE
  5
24F
100
AcDbEntity
  8
0
100
AcDbLine
 62
7
  6
CONTINUOUS
 10
7.1745731144
 20
9.6052490911
 11
7.1462888432
 21
9.6283431019
  0
LINE
  5
250
100
AcDbEntity
  8
0
100
AcDbLine
 62
7
  6
CONTINUOUS
 10
9.6976923427
 20
7.7801550803
 11
9.7176923427
 21
7.7601550803
  0
LINE
  5
251
100
AcDbEntity
  8
0
100
AcDbLine
 62
7
  6
CONTINUOUS
 10
7.450926495
 20
10.5280744324
 11
7.4651923427
 21
10.5084391774
  0
LINE
  5
252
100
AcDbEntity
  8
0
100
AcDbLine
 62
7
  6
CONTINUOUS
 10
7.3081923427
 20
9.7861550803
 11
7.4651923427
 21
9.8371550803
  0
LINE
  5
253
100
AcDbEntity
  8
0
100
AcDbLine
 62
7
  6
CONTINUOUS
 10
5.7502025764
 20
7.7601550803
 11
8.125180886
 21
7.7601550803
  0
LINE
  5
254
100
AcDbEntity
  8
0
100
AcDbLine
 62
7
  6
CONTINUOUS
 10
9.7176923427
 20
7.7601550803
 11
12.1576923427
 21
7.7601550803
  0
LINE
  5
255
100
AcDbEntity
  8
0
100
AcDbLine
 62
7
  6
CONTINUOUS
 10
13.7502025764
 20
7.7601550803
 11
16.125180886
 21
7.7601550803
  0
LINE
  5
256
100
AcDbEntity
  8
0
100
AcDbLine
 62
7
  6
CONTINUOUS
 10
9.6976923427
 20
7.7801550803
 11
12.1776923427
 21
7.7801550803
  0
LINE
  5
257
100
AcDbEntity
  8
0
100
AcDbLine
 62
7
  6
CONTINUOUS
 10
9.6976923427
 20
8.2699778126
 11
9.6976923427
 21
7.7801550803
  0
LWPOLYLINE
  5
258
100
AcDbEntity
  8
0
100
AcDbPolyline
 62
7
  6
CONTINUOUS
 90
3
 70
0
 10
10.5985199157
 20
10.4734593392
 10
10.583721919
 20
10.4669486541
 10
10.5799062138
 20
10.4633241515
  0
LINE
  5
259
100
AcDbEntity
  8
0
100
AcDbLine
 62
9
  6
CONTINUOUS
 10
15.9506923427
 20
8.0819232071
 11
13.9246923427
 21
8.0819232071
  0
LINE
  5
25A
100
AcDbEntity
  8
0
100
AcDbLine
 62
9
  6
CONTINUOUS
 10
7.9506923427
 20
8.0819232071
 11
5.9246923427
 21
8.0819232071
  0
LINE
  5
25B
100
AcDbEntity
  8
0
100
AcDbLine
 62
7
  6
CONTINUOUS
 10
6.4370391303
 20
10.4216550803
 11
6.4101923427
 21
10.4371550803
  0
LINE
  5
25C
100
AcDbEntity
  8
0
100
AcDbLine
 62
7
  6
CONTINUOUS
 10
7.8803695657
 20
9.9533677847
 11
7.9624588227
 21
9.8958882681
  0
LWPOLYLINE
  5
25D
100
AcDbEntity
  8
0
100
AcDbPolyline
 62
7
  6
CONTINUOUS
 90
3
 70
0
 10
10.2927779783
 20
9.8051550803
 10
10.2318730866
 20
9.4761584336
 10
10.1333290434
 20
9.1371636455
  0
LWPOLYLINE
  5
25E
100
AcDbEntity
  8
0
100
AcDbPolyline
 62
7
  6
CONTINUOUS
 90
11
 70
0
 10
10.5798866242
 20
10.463296619
 10
10.5502700275
 20
10.4286475695
 10
10.5103525879
 20
10.3763770696
 10
10.4758774113
 20
10.3241689505
 10
10.4467590474
 20
10.2724239652
 10
10.4228585829
 20
10.2216457859
 10
10.4039463271
 20
10.1722659295
 10
10.3897385813
 20
10.1249125718
 10
10.3802032257
 20
10.0825385748
 10
10.3747376257
 20
10.0492426953
 10
10.37154913
 20
10.0229545183
  0
LINE
  5
25F
100
AcDbEntity
  8
0
100
AcDbLine
 62
7
  6
CONTINUOUS
 10
10.5798866242
 20
10.463296619
 11
10.579896689
 21
10.463307826
  0
LINE
  5
260
100
AcDbEntity
  8
0
100
AcDbLine
 62
7
  6
CONTINUOUS
 10
6.5671923427
 20
9.7861550803
 11
6.4101923427
 21
9.8371550803
  0
LINE
  5
261
100
AcDbEntity
  8
0
100
AcDbLine
 62
7
  6
CONTINUOUS
 10
7.4383455552
 20
10.4216550803
 11
7.4651923427
 21
10.4061550803
  0
LINE
  5
262
100
AcDbEntity
  8
0
100
AcDbLine
 62
7
  6
CONTINUOUS
 10
10.3576923427
 20
10.5951550803
 11
10.3576923427
 21
10.3851550803
  0
LINE
  5
263
100
AcDbEntity
  8
0
100
AcDbLine
 62
7
  6
CONTINUOUS
 10
10.4751923427
 20
9.5301550803
 11
10.4751923427
 21
9.3514588025
  0
LINE
  5
264
100
AcDbEntity
  8
0
100
AcDbLine
 62
7
  6
CONTINUOUS
 10
10.4976923427
 20
9.5784513716
 11
10.4976923427
 21
9.5663535653
  0
LINE
  5
265
100
AcDbEntity
  8
0
100
AcDbLine
 62
7
  6
CONTINUOUS
 10
10.5714423427
 20
9.2256273316
 11
10.5714423427
 21
9.1988425219
  0
LWPOLYLINE
  5
266
100
AcDbEntity
  8
0
100
AcDbPolyline
 62
7
  6
CONTINUOUS
 90
3
 70
0
 10
10.3572804878
 20
9.5764766891
 10
10.3447956185
 20
9.4295527078
 10
10.3083910585
 20
9.1560974135
  0
LWPOLYLINE
  5
267
100
AcDbEntity
  8
0
100
AcDbPolyline
 62
7
  6
CONTINUOUS
 90
24
 70
0
 10
10.3714734307
 20
10.0222375106
 10
10.3713878422
 20
10.0214121067
 10
10.3706730012
 20
10.0140857291
 10
10.3699304321
 20
10.005633135
 10
10.3691601912
 20
9.9959254283
 10
10.368361334
 20
9.9848120174
 10
10.36753423
 20
9.9721511636
 10
10.3666821742
 20
9.9578391177
 10
10.3658094607
 20
9.9417752651
 10
10.3649211401
 20
9.9238598611
 10
10.3640262522
 20
9.9040902921
 10
10.3631379807
 20
9.882566768
 10
10.3622708646
 20
9.8594079263
 10
10.3614397349
 20
9.8347368583
 10
10.3606560055
 20
9.8086354377
 10
10.3599301785
 20
9.7811621044
 10
10.3592741839
 20
9.7524041677
 10
10.358698762
 20
9.722440391
 10
10.3582106016
 20
9.6913010655
 10
10.3578159185
 20
9.6590158341
 10
10.3575206248
 20
9.6256187828
 10
10.3573238604
 20
9.5910827226
 10
10.3572176553
 20
9.5553173926
 10
10.3571923427
 20
9.5301546549
  0
LINE
  5
268
100
AcDbEntity
  8
0
100
AcDbLine
 62
7
  6
CONTINUOUS
 10
10.3714756874
 20
10.0222524286
 11
10.37154913
 21
10.0229545183
  0
LWPOLYLINE
  5
269
100
AcDbEntity
  8
0
100
AcDbPolyline
 62
7
  6
CONTINUOUS
 90
3
 70
0
 10
10.3080539255
 20
9.1514258652
 10
10.3033952947
 20
9.1068313202
 10
10.2882894915
 20
9.0623459961
  0
LINE
  5
26A
100
AcDbEntity
  8
0
100
AcDbLine
 62
7
  6
CONTINUOUS
 10
10.1333290434
 20
9.1371636455
 11
10.0100417023
 21
8.8288389449
  0
LINE
  5
26B
100
AcDbEntity
  8
0
100
AcDbLine
 62
7
  6
CONTINUOUS
 10
10.2882894915
 20
9.0623459961
 11
10.2886071789
 21
9.0630424288
  0
LWPOLYLINE
  5
26C
100
AcDbEntity
  8
0
100
AcDbPolyline
 62
7
  6
CONTINUOUS
 90
4
 70
0
 10
9.9883931712
 20
8.7821300308
 10
9.9060513788
 20
8.6185256194
 10
9.8026870345
 20
8.4377765259
 10
9.6976923427
 20
8.275058395
  0
LINE
  5
26D
100
AcDbEntity
  8
0
100
AcDbLine
 62
9
  6
CONTINUOUS
 10
6.3621823625
 20
8.8943469301
 11
7.513202323
 21
8.8943469301
  0
LINE
  5
26E
100
AcDbEntity
  8
0
100
AcDbLine
 62
9
  6
CONTINUOUS
 10
14.3621823625
 20
8.8943469301
 11
15.513202323
 21
8.8943469301
  0
LINE
  5
26F
100
AcDbEntity
  8
0
100
AcDbLine
 62
7
  6
CONTINUOUS
 10
10.4553958792
 20
8.7566780606
 11
10.54769235
 21
8.6375382675
  0
LINE
  5
270
100
AcDbEntity
  8
0
100
AcDbLine
 62
7
  6
CONTINUOUS
 10
10.308309079
 20
9.1479662006
 11
10.3276284627
 21
9.0477145552
  0
LINE
  5
271
100
AcDbEntity
  8
0
100
AcDbLine
 62
9
  6
CONTINUOUS
 10
10.0559274918
 20
8.8241826313
 11
10.057899493
 21
8.8253380244
  0
LINE
  5
272
100
AcDbEntity
  8
0
100
AcDbLine
 62
7
  6
CONTINUOUS
 10
14.4831823866
 20
10.5471550803
 11
14.4244581905
 21
10.5280744324
  0
LINE
  5
273
100
AcDbEntity
  8
0
100
AcDbLine
 62
7
  6
CONTINUOUS
 10
15.4376923427
 20
9.2871550803
 11
14.4376923427
 21
9.2871550803
  0
LINE
  5
274
100
AcDbEntity
  8
0
100
AcDbLine
 62
7
  6
CONTINUOUS
 10
7.4376923427
 20
9.2871550803
 11
6.4376923427
 21
9.2871550803
  0
LINE
  5
275
100
AcDbEntity
  8
0
100
AcDbLine
 62
7
  6
CONTINUOUS
 10
11.3039423427
 20
9.2256372945
 11
11.3039423427
 21
9.1988425219
  0
LINE
  5
276
100
AcDbEntity
  8
0
100
AcDbLine
 62
7
  6
CONTINUOUS
 10
11.3797652412
 20
9.5648391955
 11
11.3832036709
 21
9.5680390149
  0
LINE
  5
277
100
AcDbEntity
  8
0
100
AcDbLine
 62
7
  6
CONTINUOUS
 10
15.3676917679
 20
9.4071550803
 11
14.5076929176
 21
9.4071550803
  0
LINE
  5
278
100
AcDbEntity
  8
0
100
AcDbLine
 62
7
  6
CONTINUOUS
 10
7.3676917679
 20
9.4071550803
 11
6.5076929176
 21
9.4071550803
  0
LINE
  5
279
100
AcDbEntity
  8
0
100
AcDbLine
 62
7
  6
CONTINUOUS
 10
6.5941927028
 20
9.4271550803
 11
7.2811919826
 21
9.4271550803
  0
LINE
  5
27A
100
AcDbEntity
  8
0
100
AcDbLine
 62
7
  6
CONTINUOUS
 10
14.5941927028
 20
9.4271550803
 11
15.2811919826
 21
9.4271550803
  0
LINE
  5
27B
100
AcDbEntity
  8
0
100
AcDbLine
 62
7
  6
CONTINUOUS
 10
14.7538445796
 20
9.5590610696
 11
14.700811571
 21
9.5590610696
  0
LINE
  5
27C
100
AcDbEntity
  8
0
100
AcDbLine
 62
7
  6
CONTINUOUS
 10
6.7538445796
 20
9.5590610696
 11
6.700811571
 21
9.5590610696
  0
LINE
  5
27D
100
AcDbEntity
  8
0
100
AcDbLine
 62
7
  6
CONTINUOUS
 10
7.1215401058
 20
9.5590610696
 11
7.1745731144
 21
9.5590610696
  0
LINE
  5
27E
100
AcDbEntity
  8
0
100
AcDbLine
 62
7
  6
CONTINUOUS
 10
15.1215401058
 20
9.5590610696
 11
15.1745731144
 21
9.5590610696
  0
LINE
  5
27F
100
AcDbEntity
  8
0
100
AcDbLine
 62
7
  6
CONTINUOUS
 10
14.7538445796
 20
9.6052490911
 11
14.700811571
 21
9.6052490911
  0
LINE
  5
280
100
AcDbEntity
  8
0
100
AcDbLine
 62
7
  6
CONTINUOUS
 10
6.7538445796
 20
9.6052490911
 11
6.700811571
 21
9.6052490911
  0
LINE
  5
281
100
AcDbEntity
  8
0
100
AcDbLine
 62
7
  6
CONTINUOUS
 10
7.1215401058
 20
9.6052490911
 11
7.1745731144
 21
9.6052490911
  0
LINE
  5
282
100
AcDbEntity
  8
0
100
AcDbLine
 62
7
  6
CONTINUOUS
 10
15.1215401058
 20
9.6052490911
 11
15.1745731144
 21
9.6052490911
  0
LINE
  5
283
100
AcDbEntity
  8
0
100
AcDbLine
 62
7
  6
CONTINUOUS
 10
7.3922022989
 20
10.5471550803
 11
7.450926495
 21
10.5280744324
  0
LINE
  5
284
100
AcDbEntity
  8
0
100
AcDbLine
 62
9
  6
CONTINUOUS
 10
11.8174827725
 20
8.8253394601
 11
11.8194547777
 21
8.8241840587
  0
LINE
  5
285
100
AcDbEntity
  8
0
100
AcDbLine
 62
7
  6
CONTINUOUS
 10
11.5721144034
 20
9.1062708809
 11
11.5673307596
 21
9.1514258063
  0
LINE
  5
286
100
AcDbEntity
  8
0
100
AcDbLine
 62
7
  6
CONTINUOUS
 10
11.3776923427
 20
9.5784513716
 11
11.3776923427
 21
9.5663477265
  0
LINE
  5
287
100
AcDbEntity
  8
0
100
AcDbLine
 62
7
  6
CONTINUOUS
 10
11.4001923427
 20
9.5301550803
 11
11.4001923427
 21
9.3514588025
  0
LINE
  5
288
100
AcDbEntity
  8
0
100
AcDbLine
 62
7
  6
CONTINUOUS
 10
11.5176923427
 20
10.5951550803
 11
11.5176923427
 21
10.3851550803
  0
LWPOLYLINE
  5
289
100
AcDbEntity
  8
0
100
AcDbPolyline
 62
7
  6
CONTINUOUS
 90
23
 70
0
 10
11.5181923427
 20
9.530154784
 10
11.5181896976
 20
9.5564947069
 10
11.5181631703
 20
9.5942885187
 10
11.5180895093
 20
9.6306761994
 10
11.5179507746
 20
9.6657011324
 10
11.5177322924
 20
9.6993857033
 10
11.5174192988
 20
9.7317343583
 10
11.5169953172
 20
9.7627306143
 10
11.5164447848
 20
9.7923623528
 10
11.5157488453
 20
9.8206279467
 10
11.5149053347
 20
9.8474435704
 10
11.5139375494
 20
9.8726437545
 10
11.5128828762
 20
9.896044933
 10
11.5117803744
 20
9.9174854554
 10
11.5106638552
 20
9.9368818955
 10
11.5095610526
 20
9.9542214538
 10
11.5084902405
 20
9.9695738567
 10
11.507464872
 20
9.9830413365
 10
11.5064945163
 20
9.9947505494
 10
11.5055861537
 20
10.0048367283
 10
11.5047383243
 20
10.0134684526
 10
11.5039454169
 20
10.0208048374
 10
11.5035118871
 20
10.0244977142
  0
LINE
  5
28A
100
AcDbEntity
  8
0
100
AcDbLine
 62
7
  6
CONTINUOUS
 10
11.5477562345
 20
9.0477146022
 11
11.5670756064
 21
9.1479662006
  0
LINE
  5
28B
100
AcDbEntity
  8
0
100
AcDbLine
 62
7
  6
CONTINUOUS
 10
11.3276922957
 20
8.6375382237
 11
11.4199887295
 21
8.7566779438
  0
LINE
  5
28C
100
AcDbEntity
  8
0
100
AcDbLine
 62
7
  6
CONTINUOUS
 10
14.4370391303
 20
10.4216550803
 11
14.4101923427
 21
10.4061550803
  0
LINE
  5
28D
100
AcDbEntity
  8
0
100
AcDbLine
 62
7
  6
CONTINUOUS
 10
6.5671927406
 20
9.7861550803
 11
7.3081919449
 21
9.7861550803
  0
LINE
  5
28E
100
AcDbEntity
  8
0
100
AcDbLine
 62
7
  6
CONTINUOUS
 10
14.5671927406
 20
9.7861550803
 11
15.3081919449
 21
9.7861550803
  0
LINE
  5
28F
100
AcDbEntity
  8
0
100
AcDbLine
 62
7
  6
CONTINUOUS
 10
11.5825953108
 20
9.8051550803
 11
11.5161298095
 21
9.8051550803
  0
LINE
  5
290
100
AcDbEntity
  8
0
100
AcDbLine
 62
7
  6
CONTINUOUS
 10
10.3605640568
 20
9.8051550803
 11
10.2927893496
 21
9.8051550803
  0
LINE
  5
291
100
AcDbEntity
  8
0
100
AcDbLine
 62
7
  6
CONTINUOUS
 10
15.4651923427
 20
9.8371550803
 11
14.4101923427
 21
9.8371550803
  0
LINE
  5
292
100
AcDbEntity
  8
0
100
AcDbLine
 62
7
  6
CONTINUOUS
 10
7.4651923427
 20
9.8371550803
 11
6.4101923427
 21
9.8371550803
  0
LINE
  5
293
100
AcDbEntity
  8
0
100
AcDbLine
 62
7
  6
CONTINUOUS
 10
6.3801923427
 20
9.9161550803
 11
6.7555853303
 21
9.9161550803
  0
LINE
  5
294
100
AcDbEntity
  8
0
100
AcDbLine
 62
7
  6
CONTINUOUS
 10
7.1197993552
 20
9.9161550803
 11
7.4951923427
 21
9.9161550803
  0
LINE
  5
295
100
AcDbEntity
  8
0
100
AcDbLine
 62
7
  6
CONTINUOUS
 10
14.3801923427
 20
9.9161550803
 11
14.7555853303
 21
9.9161550803
  0
LINE
  5
296
100
AcDbEntity
  8
0
100
AcDbLine
 62
7
  6
CONTINUOUS
 10
15.1197993552
 20
9.9161550803
 11
15.4951923427
 21
9.9161550803
  0
LWPOLYLINE
  5
297
100
AcDbEntity
  8
0
100
AcDbPolyline
 62
7
  6
CONTINUOUS
 90
3
 70
0
 10
12.1776923427
 20
8.2750588872
 10
12.0726939091
 20
8.437782825
 10
11.9693290485
 20
8.6185335324
  0
LINE
  5
298
100
AcDbEntity
  8
0
100
AcDbLine
 62
7
  6
CONTINUOUS
 10
11.9693290485
 20
8.6185335324
 11
11.8869914497
 21
8.7821301534
  0
LINE
  5
299
100
AcDbEntity
  8
0
100
AcDbLine
 62
7
  6
CONTINUOUS
 10
11.5867989294
 20
9.0629953056
 11
11.5868980495
 21
9.0627774978
  0
LWPOLYLINE
  5
29A
100
AcDbEntity
  8
0
100
AcDbPolyline
 62
7
  6
CONTINUOUS
 90
4
 70
0
 10
11.8653427404
 20
8.8288394424
 10
11.7420585409
 20
9.137155736
 10
11.6435132654
 20
9.4761509015
 10
11.5826066837
 20
9.8051550803
  0
LINE
  5
29B
100
AcDbEntity
  8
0
100
AcDbLine
 62
7
  6
CONTINUOUS
 10
11.5868980495
 20
9.0627774978
 11
11.5721144034
 21
9.1062708809
  0
LWPOLYLINE
  5
29C
100
AcDbEntity
  8
0
100
AcDbPolyline
 62
7
  6
CONTINUOUS
 90
3
 70
0
 10
11.5669936254
 20
9.1560974247
 10
11.5305580627
 20
9.4298367182
 10
11.5220109278
 20
9.5304793758
  0
LWPOLYLINE
  5
29D
100
AcDbEntity
  8
0
100
AcDbPolyline
 62
7
  6
CONTINUOUS
 90
12
 70
0
 10
11.5035106483
 20
10.0245076176
 10
11.5026500089
 20
10.0313738797
 10
11.4981971124
 20
10.0609714537
 10
11.4907312923
 20
10.0980276929
 10
11.4795585328
 20
10.1401892646
 10
11.4645638476
 20
10.1848487231
 10
11.4455930556
 20
10.2309908334
 10
11.4219750823
 20
10.2791234879
 10
11.3935693129
 20
10.3284916767
 10
11.3603699582
 20
10.3783518181
 10
11.3224872179
 20
10.4280901169
 10
11.2948600982
 20
10.4607549684
  0
LINE
  5
29E
100
AcDbEntity
  8
0
100
AcDbLine
 62
7
  6
CONTINUOUS
 10
15.3081923427
 20
9.7861550803
 11
15.4651923427
 21
9.8371550803
  0
LINE
  5
29F
100
AcDbEntity
  8
0
100
AcDbLine
 62
7
  6
CONTINUOUS
 10
14.8989923427
 20
10.6216720881
 11
14.8139923427
 21
10.6172133097
  0
LINE
  5
2A0
100
AcDbEntity
  8
0
100
AcDbLine
 62
7
  6
CONTINUOUS
 10
15.4951923427
 20
10.3261550803
 11
15.1197993552
 21
10.3261550803
  0
LINE
  5
2A1
100
AcDbEntity
  8
0
100
AcDbLine
 62
7
  6
CONTINUOUS
 10
14.7555853303
 20
10.3261550803
 11
14.3801923427
 21
10.3261550803
  0
LINE
  5
2A2
100
AcDbEntity
  8
0
100
AcDbLine
 62
7
  6
CONTINUOUS
 10
7.4951923427
 20
10.3261550803
 11
7.1197993552
 21
10.3261550803
  0
LINE
  5
2A3
100
AcDbEntity
  8
0
100
AcDbLine
 62
7
  6
CONTINUOUS
 10
6.7555853303
 20
10.3261550803
 11
6.3801923427
 21
10.3261550803
  0
LINE
  5
2A4
100
AcDbEntity
  8
0
100
AcDbLine
 62
7
  6
CONTINUOUS
 10
10.3576923427
 20
10.3851550803
 11
10.5170560959
 21
10.3851550803
  0
LINE
  5
2A5
100
AcDbEntity
  8
0
100
AcDbLine
 62
7
  6
CONTINUOUS
 10
11.355188313
 20
10.3851550803
 11
11.5176923427
 21
10.3851550803
  0
LINE
  5
2A6
100
AcDbEntity
  8
0
100
AcDbLine
 62
7
  6
CONTINUOUS
 10
6.4101923427
 20
10.4061550803
 11
7.4651923427
 21
10.4061550803
  0
LINE
  5
2A7
100
AcDbEntity
  8
0
100
AcDbLine
 62
7
  6
CONTINUOUS
 10
14.4101923427
 20
10.4061550803
 11
15.4651923427
 21
10.4061550803
  0
LINE
  5
2A8
100
AcDbEntity
  8
0
100
AcDbLine
 62
7
  6
CONTINUOUS
 10
6.4370391303
 20
10.4216550803
 11
7.4383455552
 21
10.4216550803
  0
LINE
  5
2A9
100
AcDbEntity
  8
0
100
AcDbLine
 62
7
  6
CONTINUOUS
 10
14.4370391303
 20
10.4216550803
 11
15.4383455552
 21
10.4216550803
  0
LINE
  5
2AA
100
AcDbEntity
  8
0
100
AcDbLine
 62
7
  6
CONTINUOUS
 10
6.4101923427
 20
10.4371550803
 11
7.4651923427
 21
10.4371550803
  0
LINE
  5
2AB
100
AcDbEntity
  8
0
100
AcDbLine
 62
7
  6
CONTINUOUS
 10
14.4101923427
 20
10.4371550803
 11
15.4651923427
 21
10.4371550803
  0
LINE
  5
2AC
100
AcDbEntity
  8
0
100
AcDbLine
 62
7
  6
CONTINUOUS
 10
7.0941923427
 20
10.6132324373
 11
7.1301923427
 21
10.6091524502
  0
LWPOLYLINE
  5
2AD
100
AcDbEntity
  8
0
100
AcDbPolyline
 62
7
  6
CONTINUOUS
 90
3
 70
0
 10
11.2948535508
 20
10.4607570282
 10
11.2886122489
 20
10.4662117404
 10
11.2763530274
 20
10.4710062216
  0
LINE
  5
2AE
100
AcDbEntity
  8
0
100
AcDbLine
 62
7
  6
CONTINUOUS
 10
11.2948540153
 20
10.4607618538
 11
11.2948600982
 21
10.4607549684
  0
LINE
  5
2AF
100
AcDbEntity
  8
0
100
AcDbLine
 62
7
  6
CONTINUOUS
 10
12.1776923427
 20
8.2699775571
 11
12.1776923427
 21
7.7801550803
  0
LINE
  5
2B0
100
AcDbEntity
  8
0
100
AcDbLine
 62
7
  6
CONTINUOUS
 10
13.9950151198
 20
9.9533677847
 11
13.9129258627
 21
9.8958882681
  0
LINE
  5
2B1
100
AcDbEntity
  8
0
100
AcDbLine
 62
7
  6
CONTINUOUS
 10
15.4383455552
 20
10.4216550803
 11
15.4651923427
 21
10.4371550803
  0
LINE
  5
2B2
100
AcDbEntity
  8
0
100
AcDbLine
 62
7
  6
CONTINUOUS
 10
10.5985197396
 20
10.4734447695
 11
10.5985111485
 21
10.473443471
  0
LINE
  5
2B3
100
AcDbEntity
  8
0
100
AcDbLine
 62
7
  6
CONTINUOUS
 10
15.4651923427
 20
10.5084391774
 11
14.4101923427
 21
10.5084391774
  0
LINE
  5
2B4
100
AcDbEntity
  8
0
100
AcDbLine
 62
7
  6
CONTINUOUS
 10
7.4651923427
 20
10.5084391774
 11
6.4101923427
 21
10.5084391774
  0
LINE
  5
2B5
100
AcDbEntity
  8
0
100
AcDbLine
 62
7
  6
CONTINUOUS
 10
6.4244581905
 20
10.5280744324
 11
7.450926495
 21
10.5280744324
  0
LINE
  5
2B6
100
AcDbEntity
  8
0
100
AcDbLine
 62
7
  6
CONTINUOUS
 10
14.4244581905
 20
10.5280744324
 11
15.450926495
 21
10.5280744324
  0
LINE
  5
2B7
100
AcDbEntity
  8
0
100
AcDbLine
 62
7
  6
CONTINUOUS
 10
15.3921964176
 20
10.5471550803
 11
14.4831882679
 21
10.5471550803
  0
LINE
  5
2B8
100
AcDbEntity
  8
0
100
AcDbLine
 62
7
  6
CONTINUOUS
 10
7.3921964176
 20
10.5471550803
 11
6.4831882679
 21
10.5471550803
  0
LINE
  5
2B9
100
AcDbEntity
  8
0
100
AcDbLine
 62
9
  6
CONTINUOUS
 10
15.3328370245
 20
10.5709643669
 11
14.5425476851
 21
10.5709643733
  0
LINE
  5
2BA
100
AcDbEntity
  8
0
100
AcDbLine
 62
9
  6
CONTINUOUS
 10
6.5425477032
 20
10.5709644933
 11
7.3328369823
 21
10.5709644933
  0
LINE
  5
2BB
100
AcDbEntity
  8
0
100
AcDbLine
 62
7
  6
CONTINUOUS
 10
11.5176923427
 20
10.5951550803
 11
10.3576923427
 21
10.5951550803
  0
LINE
  5
2BC
100
AcDbEntity
  8
0
100
AcDbLine
 62
7
  6
CONTINUOUS
 10
10.9452875011
 20
10.775183924
 11
10.9300971844
 21
10.775183924
  0
LINE
  5
2BD
100
AcDbEntity
  8
0
100
AcDbLine
 62
7
  6
CONTINUOUS
 10
14.9691923427
 20
10.6208348984
 11
15.0051923427
 21
10.6196843114
  0
LWPOLYLINE
  5
2BE
100
AcDbEntity
  8
0
100
AcDbPolyline
 62
7
  6
CONTINUOUS
 90
4
 70
0
 10
11.2763578725
 20
10.4710037699
 10
11.0571821066
 20
10.4944905746
 10
10.8047708308
 20
10.4946375976
 10
10.5985111485
 20
10.473443471
  0
LINE
  5
2BF
100
AcDbEntity
  8
0
100
AcDbLine
 62
7
  6
CONTINUOUS
 10
11.2763530274
 20
10.4710062216
 11
11.2763613048
 21
10.4710048576
  0
LINE
  5
2C0
100
AcDbEntity
  8
0
100
AcDbLine
 62
7
  6
CONTINUOUS
 10
12.1776923427
 20
7.7801550803
 11
12.1576923427
 21
7.7601550803
  0
LINE
  5
2C1
100
AcDbEntity
  8
0
100
AcDbLine
 62
7
  6
CONTINUOUS
 10
15.1376923427
 20
10.6081949128
 11
15.1739742231
 21
10.6030359226
  0
LINE
  5
2C2
100
AcDbEntity
  8
0
100
AcDbLine
 62
7
  6
CONTINUOUS
 10
14.5671923427
 20
9.7861550803
 11
14.4101923427
 21
9.8371550803
  0
LINE
  5
2C3
100
AcDbEntity
  8
0
100
AcDbLine
 62
7
  6
CONTINUOUS
 10
14.4244581905
 20
10.5280744324
 11
14.4101923427
 21
10.5084391774
  0
LINE
  5
2C4
100
AcDbEntity
  8
0
100
AcDbLine
 62
7
  6
CONTINUOUS
 10
14.7290958423
 20
9.6283431019
 11
14.700811571
 21
9.6052490911
  0
LINE
  5
2C5
100
AcDbEntity
  8
0
100
AcDbLine
 62
7
  6
CONTINUOUS
 10
14.7538445796
 20
9.6052490911
 11
14.7556123466
 21
9.6066924668
  0
LINE
  5
2C6
100
AcDbEntity
  8
0
100
AcDbLine
 62
7
  6
CONTINUOUS
 10
14.7290958423
 20
9.5359670588
 11
14.7573801135
 21
9.5590610696
  0
LINE
  5
2C7
100
AcDbEntity
  8
0
100
AcDbLine
 62
7
  6
CONTINUOUS
 10
15.8803695657
 20
10.2889423759
 11
15.9624588227
 21
10.3464218925
  0
LINE
  5
2C8
100
AcDbEntity
  8
0
100
AcDbLine
 62
7
  6
CONTINUOUS
 10
15.1462888432
 20
9.6283431019
 11
15.1180045719
 21
9.6052490911
  0
LINE
  5
2C9
100
AcDbEntity
  8
0
100
AcDbLine
 62
7
  6
CONTINUOUS
 10
15.1215401058
 20
9.5590610696
 11
15.1197723389
 21
9.5576176939
  0
LINE
  5
2CA
100
AcDbEntity
  8
0
100
AcDbLine
 62
7
  6
CONTINUOUS
 10
15.1462888432
 20
9.5359670588
 11
15.1745731144
 21
9.5590610696
  0
LINE
  5
2CB
100
AcDbEntity
  8
0
100
AcDbLine
 62
7
  6
CONTINUOUS
 10
15.3922022989
 20
10.5471550803
 11
15.450926495
 21
10.5280744324
  0
LINE
  5
2CC
100
AcDbEntity
  8
0
100
AcDbLine
 62
7
  6
CONTINUOUS
 10
13.9950151198
 20
10.2889423759
 11
13.9129258627
 21
10.3464218925
  0
LINE
  5
2CD
100
AcDbEntity
  8
0
100
AcDbLine
 62
7
  6
CONTINUOUS
 10
14.700811571
 20
9.5590610696
 11
14.7290958423
 21
9.5359670588
  0
LINE
  5
2CE
100
AcDbEntity
  8
0
100
AcDbLine
 62
7
  6
CONTINUOUS
 10
14.7556123466
 20
9.5576176939
 11
14.7538445796
 21
9.5590610696
  0
LINE
  5
2CF
100
AcDbEntity
  8
0
100
AcDbLine
 62
7
  6
CONTINUOUS
 10
14.7573801135
 20
9.6052490911
 11
14.7290958423
 21
9.6283431019
  0
LINE
  5
2D0
100
AcDbEntity
  8
0
100
AcDbLine
 62
7
  6
CONTINUOUS
 10
16.1251891024
 20
7.9117792814
 11
15.9506923427
 21
8.0819232071
  0
LINE
  5
2D1
100
AcDbEntity
  8
0
100
AcDbLine
 62
7
  6
CONTINUOUS
 10
13.7501923427
 20
7.7601550803
 11
13.7501923427
 21
7.9117761219
  0
LINE
  5
2D2
100
AcDbEntity
  8
0
100
AcDbLine
 62
9
  6
CONTINUOUS
 10
13.9129258627
 20
10.3464218925
 11
13.9129258627
 21
9.8958882681
  0
LINE
  5
2D3
100
AcDbEntity
  8
0
100
AcDbLine
 62
9
  6
CONTINUOUS
 10
13.9950151198
 20
9.9533677847
 11
13.9950151198
 21
10.2889423759
  0
LINE
  5
2D4
100
AcDbEntity
  8
0
100
AcDbLine
 62
7
  6
CONTINUOUS
 10
14.4101923427
 20
10.4061550803
 11
14.3801923427
 21
10.3261550803
  0
LINE
  5
2D5
100
AcDbEntity
  8
0
100
AcDbLine
 62
7
  6
CONTINUOUS
 10
13.7501955831
 20
7.9117792814
 11
13.9246923427
 21
8.0819232071
  0
LINE
  5
2D6
100
AcDbEntity
  8
0
100
AcDbLine
 62
7
  6
CONTINUOUS
 10
14.4370391303
 20
10.4216550803
 11
14.4101923427
 21
10.4371550803
  0
LINE
  5
2D7
100
AcDbEntity
  8
0
100
AcDbLine
 62
7
  6
CONTINUOUS
 10
15.1180045719
 20
9.5590610696
 11
15.1462888432
 21
9.5359670588
  0
LINE
  5
2D8
100
AcDbEntity
  8
0
100
AcDbLine
 62
7
  6
CONTINUOUS
 10
15.1197723389
 20
9.6066924668
 11
15.1215401058
 21
9.6052490911
  0
LINE
  5
2D9
100
AcDbEntity
  8
0
100
AcDbLine
 62
7
  6
CONTINUOUS
 10
15.1745731144
 20
9.6052490911
 11
15.1462888432
 21
9.6283431019
  0
LINE
  5
2DA
100
AcDbEntity
  8
0
100
AcDbLine
 62
7
  6
CONTINUOUS
 10
14.0201923427
 20
10.3102429314
 11
14.0201923427
 21
9.9320672293
  0
LINE
  5
2DB
100
AcDbEntity
  8
0
100
AcDbLine
 62
9
  6
CONTINUOUS
 10
14.0450555013
 20
9.9302377871
 11
14.0450555013
 21
10.3120723736
  0
LINE
  5
2DC
100
AcDbEntity
  8
0
100
AcDbLine
 62
7
  6
CONTINUOUS
 10
14.3621823625
 20
8.8943469301
 11
14.4376923427
 21
9.2871550803
  0
LINE
  5
2DD
100
AcDbEntity
  8
0
100
AcDbLine
 62
7
  6
CONTINUOUS
 10
15.4383455552
 20
10.4216550803
 11
15.4651923427
 21
10.4061550803
  0
LINE
  5
2DE
100
AcDbEntity
  8
0
100
AcDbLine
 62
7
  6
CONTINUOUS
 10
15.8803695657
 20
9.9533677847
 11
15.9624588227
 21
9.8958882681
  0
LINE
  5
2DF
100
AcDbEntity
  8
0
100
AcDbLine
 62
9
  6
CONTINUOUS
 10
14.4065263271
 20
9.9662790541
 11
14.4065263271
 21
10.2762460851
  0
LINE
  5
2E0
100
AcDbEntity
  8
0
100
AcDbLine
 62
7
  6
CONTINUOUS
 10
14.4101923427
 20
10.5084391774
 11
14.4101923427
 21
10.4371550803
  0
LINE
  5
2E1
100
AcDbEntity
  8
0
100
AcDbLine
 62
9
  6
CONTINUOUS
 10
14.4286863641
 20
10.2180674629
 11
14.4286863641
 21
10.0247644352
  0
LINE
  5
2E2
100
AcDbEntity
  8
0
100
AcDbLine
 62
7
  6
CONTINUOUS
 10
14.5076923427
 20
9.4071550803
 11
14.5076923427
 21
9.2871550803
  0
LINE
  5
2E3
100
AcDbEntity
  8
0
100
AcDbLine
 62
7
  6
CONTINUOUS
 10
14.5941923427
 20
9.7861550803
 11
14.5941923427
 21
9.4271550803
  0
LINE
  5
2E4
100
AcDbEntity
  8
0
100
AcDbLine
 62
7
  6
CONTINUOUS
 10
14.6296923427
 20
10.5902394217
 11
14.6296923427
 21
10.591259098
  0
LINE
  5
2E5
100
AcDbEntity
  8
0
100
AcDbLine
 62
9
  6
CONTINUOUS
 10
14.6356613602
 20
10.592147466
 11
14.6356613602
 21
10.5911277694
  0
LINE
  5
2E6
100
AcDbEntity
  8
0
100
AcDbLine
 62
9
  6
CONTINUOUS
 10
14.668980108
 20
10.5975300515
 11
14.668980108
 21
10.5965139044
  0
LINE
  5
2E7
100
AcDbEntity
  8
0
100
AcDbLine
 62
7
  6
CONTINUOUS
 10
14.700811571
 20
9.5590610696
 11
14.700811571
 21
9.6052490911
  0
LINE
  5
2E8
100
AcDbEntity
  8
0
100
AcDbLine
 62
7
  6
CONTINUOUS
 10
14.7401422312
 20
10.609332733
 11
14.7401422312
 21
10.6083243897
  0
LINE
  5
2E9
100
AcDbEntity
  8
0
100
AcDbLine
 62
7
  6
CONTINUOUS
 10
14.7538445796
 20
9.5590610696
 11
14.7538445796
 21
9.6052490911
  0
LINE
  5
2EA
100
AcDbEntity
  8
0
100
AcDbLine
 62
7
  6
CONTINUOUS
 10
14.7573801135
 20
9.6052490911
 11
14.7573801135
 21
9.5590610696
  0
LINE
  5
2EB
100
AcDbEntity
  8
0
100
AcDbLine
 62
7
  6
CONTINUOUS
 10
14.3801923427
 20
9.9161550803
 11
14.4101923427
 21
9.8371550803
  0
LINE
  5
2EC
100
AcDbEntity
  8
0
100
AcDbLine
 62
7
  6
CONTINUOUS
 10
14.7861923427
 20
9.4271550803
 11
14.7861923427
 21
9.4071550803
  0
LINE
  5
2ED
100
AcDbEntity
  8
0
100
AcDbLine
 62
7
  6
CONTINUOUS
 10
14.8139923427
 20
10.6172133097
 11
14.8139923427
 21
10.6162101106
  0
LINE
  5
2EE
100
AcDbEntity
  8
0
100
AcDbLine
 62
7
  6
CONTINUOUS
 10
14.8989923427
 20
10.6216720881
 11
14.8989923427
 21
10.6206717763
  0
LINE
  5
2EF
100
AcDbEntity
  8
0
100
AcDbLine
 62
7
  6
CONTINUOUS
 10
14.9376923427
 20
8.0669023231
 11
14.9376923427
 21
8.0819232071
  0
LINE
  5
2F0
100
AcDbEntity
  8
0
100
AcDbLine
 62
7
  6
CONTINUOUS
 10
14.9376923427
 20
8.8943469301
 11
14.9376923427
 21
9.2871550803
  0
LINE
  5
2F1
100
AcDbEntity
  8
0
100
AcDbLine
 62
7
  6
CONTINUOUS
 10
14.9476923427
 20
10.6209225424
 11
14.9476923427
 21
10.6197913966
  0
LINE
  5
2F2
100
AcDbEntity
  8
0
100
AcDbLine
 62
7
  6
CONTINUOUS
 10
14.9691923427
 20
10.6218351055
 11
14.9691923427
 21
10.6204996469
  0
LINE
  5
2F3
100
AcDbEntity
  8
0
100
AcDbLine
 62
7
  6
CONTINUOUS
 10
15.0051923427
 20
10.6206479606
 11
15.0051923427
 21
10.6206852607
  0
LINE
  5
2F4
100
AcDbEntity
  8
0
100
AcDbLine
 62
7
  6
CONTINUOUS
 10
15.0051923427
 20
10.6193488106
 11
15.0051923427
 21
10.6203499768
  0
LINE
  5
2F5
100
AcDbEntity
  8
0
100
AcDbLine
 62
9
  6
CONTINUOUS
 10
15.0351923427
 20
10.6178352045
 11
15.0351923427
 21
10.616832409
  0
LINE
  5
2F6
100
AcDbEntity
  8
0
100
AcDbLine
 62
9
  6
CONTINUOUS
 10
15.0591923427
 20
10.6151308838
 11
15.0591923427
 21
10.6161347838
  0
LINE
  5
2F7
100
AcDbEntity
  8
0
100
AcDbLine
 62
9
  6
CONTINUOUS
 10
15.0848575327
 20
10.6144168805
 11
15.0848575327
 21
10.6134118619
  0
LINE
  5
2F8
100
AcDbEntity
  8
0
100
AcDbLine
 62
7
  6
CONTINUOUS
 10
15.0891923427
 20
9.4271550803
 11
15.0891923427
 21
9.4071550803
  0
LINE
  5
2F9
100
AcDbEntity
  8
0
100
AcDbLine
 62
7
  6
CONTINUOUS
 10
15.0981372794
 20
10.6136161032
 11
15.0981372794
 21
10.6126105625
  0
LINE
  5
2FA
100
AcDbEntity
  8
0
100
AcDbLine
 62
7
  6
CONTINUOUS
 10
15.1180045719
 20
9.5590610696
 11
15.1180045719
 21
9.6052490911
  0
LINE
  5
2FB
100
AcDbEntity
  8
0
100
AcDbLine
 62
7
  6
CONTINUOUS
 10
15.1215401058
 20
9.6052490911
 11
15.1215401058
 21
9.5590610696
  0
LINE
  5
2FC
100
AcDbEntity
  8
0
100
AcDbLine
 62
7
  6
CONTINUOUS
 10
15.1276923427
 20
10.609261543
 11
15.1276923427
 21
10.6081218134
  0
LINE
  5
2FD
100
AcDbEntity
  8
0
100
AcDbLine
 62
7
  6
CONTINUOUS
 10
15.1376923427
 20
10.609203343
 11
15.1376923427
 21
10.6075395391
  0
LINE
  5
2FE
100
AcDbEntity
  8
0
100
AcDbLine
 62
7
  6
CONTINUOUS
 10
15.4951923427
 20
9.9161550803
 11
15.4651923427
 21
9.8371550803
  0
LINE
  5
2FF
100
AcDbEntity
  8
0
100
AcDbLine
 62
7
  6
CONTINUOUS
 10
15.1739742231
 20
10.6020480429
 11
15.1739742231
 21
10.6040477454
  0
LINE
  5
300
100
AcDbEntity
  8
0
100
AcDbLine
 62
7
  6
CONTINUOUS
 10
15.1745731144
 20
9.6052490911
 11
15.1745731144
 21
9.5590610696
  0
LINE
  5
301
100
AcDbEntity
  8
0
100
AcDbLine
 62
9
  6
CONTINUOUS
 10
15.1799742231
 20
10.6018954632
 11
15.1799742231
 21
10.6008822165
  0
LINE
  5
302
100
AcDbEntity
  8
0
100
AcDbLine
 62
9
  6
CONTINUOUS
 10
15.2078371309
 20
10.5962073183
 11
15.2078371309
 21
10.5972236697
  0
LINE
  5
303
100
AcDbEntity
  8
0
100
AcDbLine
 62
9
  6
CONTINUOUS
 10
15.2533723487
 20
10.5894209368
 11
15.2533723487
 21
10.5883993575
  0
LINE
  5
304
100
AcDbEntity
  8
0
100
AcDbLine
 62
7
  6
CONTINUOUS
 10
15.2583532627
 20
10.5876141759
 11
15.2583532627
 21
10.5886362838
  0
LINE
  5
305
100
AcDbEntity
  8
0
100
AcDbLine
 62
7
  6
CONTINUOUS
 10
15.2811923427
 20
9.7861550803
 11
15.2811923427
 21
9.4271550803
  0
LINE
  5
306
100
AcDbEntity
  8
0
100
AcDbLine
 62
7
  6
CONTINUOUS
 10
15.3676923427
 20
9.4071550803
 11
15.3676923427
 21
9.2871550803
  0
LINE
  5
307
100
AcDbEntity
  8
0
100
AcDbLine
 62
9
  6
CONTINUOUS
 10
15.4466983213
 20
10.0241534743
 11
15.4466983213
 21
10.2175960136
  0
LINE
  5
308
100
AcDbEntity
  8
0
100
AcDbLine
 62
7
  6
CONTINUOUS
 10
15.4651923427
 20
10.5084391774
 11
15.4651923427
 21
10.4371550803
  0
LINE
  5
309
100
AcDbEntity
  8
0
100
AcDbLine
 62
9
  6
CONTINUOUS
 10
15.4688583584
 20
10.2760478763
 11
15.4688583584
 21
9.9660577965
  0
LINE
  5
30A
100
AcDbEntity
  8
0
100
AcDbLine
 62
7
  6
CONTINUOUS
 10
15.450926495
 20
10.5280744324
 11
15.4651923427
 21
10.5084391774
  0
LINE
  5
30B
100
AcDbEntity
  8
0
100
AcDbLine
 62
7
  6
CONTINUOUS
 10
15.513202323
 20
8.8943469301
 11
15.4376923427
 21
9.2871550803
  0
LINE
  5
30C
100
AcDbEntity
  8
0
100
AcDbLine
 62
9
  6
CONTINUOUS
 10
15.8303291842
 20
9.9302377871
 11
15.8303291842
 21
10.3120723736
  0
LINE
  5
30D
100
AcDbEntity
  8
0
100
AcDbLine
 62
7
  6
CONTINUOUS
 10
15.8551923427
 20
9.9320672293
 11
15.8551923427
 21
10.3102429314
  0
LINE
  5
30E
100
AcDbEntity
  8
0
100
AcDbLine
 62
9
  6
CONTINUOUS
 10
15.8803695657
 20
10.2889423759
 11
15.8803695657
 21
9.9533677847
  0
LINE
  5
30F
100
AcDbEntity
  8
0
100
AcDbLine
 62
7
  6
CONTINUOUS
 10
15.4651923427
 20
10.4061550803
 11
15.4951923427
 21
10.3261550803
  0
LINE
  5
310
100
AcDbEntity
  8
0
100
AcDbLine
 62
9
  6
CONTINUOUS
 10
15.9624588227
 20
9.8958882681
 11
15.9624588227
 21
10.3464218925
  0
LINE
  5
311
100
AcDbEntity
  8
0
100
AcDbLine
 62
7
  6
CONTINUOUS
 10
16.1251923427
 20
7.7601550803
 11
16.1251923427
 21
7.9117761219
  0
ARC
  5
312
100
AcDbEntity
  8
0
100
AcDbCircle
 62
7
  6
CONTINUOUS
 10
-74.0580705698
 20
10.6181788601
 40
84.6289433653
100
AcDbArc
 50
358.6589373995
 51
359.0004832866
  0
ARC
  5
313
100
AcDbEntity
  8
0
100
AcDbCircle
 62
7
  6
CONTINUOUS
 10
6.9376923427
 20
9.0714816883
 40
1.550673392
100
AcDbArc
 50
75.2370022574
 51
82.8689275621
  0
ARC
  5
314
100
AcDbEntity
  8
0
100
AcDbCircle
 62
7
  6
CONTINUOUS
 10
6.9376923427
 20
9.0714816883
 40
1.550673392
100
AcDbArc
 50
84.2076250178
 51
87.1537590823
  0
ARC
  5
315
100
AcDbEntity
  8
0
100
AcDbCircle
 62
7
  6
CONTINUOUS
 10
6.9376923427
 20
9.0714816883
 40
1.550673392
100
AcDbArc
 50
92.9572311058
 51
94.3827253199
  0
ARC
  5
316
100
AcDbEntity
  8
0
100
AcDbCircle
 62
7
  6
CONTINUOUS
 10
6.9376923427
 20
9.0714816883
 40
1.550673392
100
AcDbArc
 50
88.473827208
 51
91.6148836456
  0
ARC
  5
317
100
AcDbEntity
  8
0
100
AcDbCircle
 62
7
  6
CONTINUOUS
 10
6.9376923427
 20
9.0714816883
 40
1.550673392
100
AcDbArc
 50
99.221579184
 51
104.7629977426
  0
ARC
  5
318
100
AcDbEntity
  8
0
100
AcDbCircle
 62
7
  6
CONTINUOUS
 10
6.9376923427
 20
9.0714816883
 40
1.550668233
100
AcDbArc
 50
96.0895835634
 51
97.5036217175
  0
ARC
  5
319
100
AcDbEntity
  8
0
100
AcDbCircle
 62
7
  6
CONTINUOUS
 10
6.9376923427
 20
9.0714816883
 40
1.549673392
100
AcDbArc
 50
94.3855590149
 51
95.8667730096
  0
ARC
  5
31A
100
AcDbEntity
  8
0
100
AcDbCircle
 62
7
  6
CONTINUOUS
 10
6.9376923427
 20
9.0714816883
 40
1.549673392
100
AcDbArc
 50
97.7294142583
 51
99.2275818147
  0
ARC
  5
31B
100
AcDbEntity
  8
0
100
AcDbCircle
 62
7
  6
CONTINUOUS
 10
6.9376923427
 20
9.0714816883
 40
1.549673392
100
AcDbArc
 50
87.79712788
 51
88.4728421397
  0
ARC
  5
31C
100
AcDbEntity
  8
0
100
AcDbCircle
 62
7
  6
CONTINUOUS
 10
6.9376923427
 20
9.0714816883
 40
1.549673392
100
AcDbArc
 50
91.6159260019
 51
92.3262697041
  0
ARC
  5
31D
100
AcDbEntity
  8
0
100
AcDbCircle
 62
7
  6
CONTINUOUS
 10
6.9376923427
 20
9.0714816883
 40
1.5483420064
100
AcDbArc
 50
82.1676580455
 51
84.8865797045
  0
ARC
  5
31E
100
AcDbEntity
  8
0
100
AcDbCircle
 62
7
  6
CONTINUOUS
 10
6.9376923427
 20
9.0714816883
 40
1.5483420064
100
AcDbArc
 50
97.1232192299
 51
99.8547367444
  0
ARC
  5
31F
100
AcDbEntity
  8
0
100
AcDbCircle
 62
7
  6
CONTINUOUS
 10
6.9376923427
 20
9.0714816883
 40
1.5483420064
100
AcDbArc
 50
93.7772047905
 51
96.4896726718
  0
ARC
  5
320
100
AcDbEntity
  8
0
100
AcDbCircle
 62
7
  6
CONTINUOUS
 10
4.8488889638
 20
9.1852491289
 40
1.541
100
AcDbArc
 50
314.2763891045
 51
349.1186996529
  0
ARC
  5
321
100
AcDbEntity
  8
0
100
AcDbCircle
 62
9
  6
CONTINUOUS
 10
4.4854953154
 20
10.0659705324
 40
5.8947321744
100
AcDbArc
 50
351.1195012165
 51
354.7874566299
  0
ARC
  5
322
100
AcDbEntity
  8
0
100
AcDbCircle
 62
7
  6
CONTINUOUS
 10
5.7551923427
 20
10.1211550803
 40
0.275
100
AcDbArc
 50
55.0
 51
305.0
  0
ARC
  5
323
100
AcDbEntity
  8
0
100
AcDbCircle
 62
7
  6
CONTINUOUS
 10
6.0041923427
 20
10.3020488086
 40
0.016
100
AcDbArc
 50
235.0000000002
 51
360.0
  0
ARC
  5
324
100
AcDbEntity
  8
0
100
AcDbCircle
 62
7
  6
CONTINUOUS
 10
6.0041923427
 20
9.940261352
 40
0.016
100
AcDbArc
 50
0.0
 51
124.9999999998
  0
ARC
  5
325
100
AcDbEntity
  8
0
100
AcDbCircle
 62
7
  6
CONTINUOUS
 10
6.0333588048
 20
9.9411550803
 40
0.016
100
AcDbArc
 50
214.6234510999
 51
316.9739483152
  0
ARC
  5
326
100
AcDbEntity
  8
0
100
AcDbCircle
 62
7
  6
CONTINUOUS
 10
6.0333588048
 20
10.3011550803
 40
0.016
100
AcDbArc
 50
43.0260516848
 51
145.3765489001
  0
ARC
  5
327
100
AcDbEntity
  8
0
100
AcDbCircle
 62
7
  6
CONTINUOUS
 10
6.6425446504
 20
9.5821543987
 40
0.1195023702
100
AcDbArc
 50
0.3792025702
 51
1.1663357283
  0
ARC
  5
328
100
AcDbEntity
  8
0
100
AcDbCircle
 62
7
  6
CONTINUOUS
 10
6.6427323332
 20
9.5821468305
 40
0.1193147419
100
AcDbArc
 50
352.4880657592
 51
0.3834332813
  0
ARC
  5
329
100
AcDbEntity
  8
0
100
AcDbCircle
 62
7
  6
CONTINUOUS
 10
6.6890626789
 20
9.5997371974
 40
0.068356467
100
AcDbArc
 50
41.1132475499
 51
43.6015767932
  0
ARC
  5
32A
100
AcDbEntity
  8
0
100
AcDbCircle
 62
7
  6
CONTINUOUS
 10
6.7102810404
 20
9.6164982188
 40
0.0476787785
100
AcDbArc
 50
97.1309142541
 51
105.4829579435
  0
ARC
  5
32B
100
AcDbEntity
  8
0
100
AcDbCircle
 62
7
  6
CONTINUOUS
 10
6.7019330657
 20
9.6191959175
 40
0.0446608759
100
AcDbArc
 50
79.864382639
 51
86.9358986202
  0
ARC
  5
32C
100
AcDbEntity
  8
0
100
AcDbCircle
 62
7
  6
CONTINUOUS
 10
6.7020060016
 20
9.6196746236
 40
0.0441789808
100
AcDbArc
 50
86.9971684704
 51
96.2073695434
  0
ARC
  5
32D
100
AcDbEntity
  8
0
100
AcDbCircle
 62
7
  6
CONTINUOUS
 10
6.716889211
 20
9.6095278268
 40
0.0377274029
100
AcDbArc
 50
85.8635172997
 51
88.037505429
  0
ARC
  5
32E
100
AcDbEntity
  8
0
100
AcDbCircle
 62
7
  6
CONTINUOUS
 10
6.7168975963
 20
9.6097627194
 40
0.0374923609
100
AcDbArc
 50
88.0380195619
 51
89.9990189671
  0
ARC
  5
32F
100
AcDbEntity
  8
0
100
AcDbCircle
 62
7
  6
CONTINUOUS
 10
6.7320656846
 20
9.6115190025
 40
0.0358333014
100
AcDbArc
 50
109.2187832942
 51
112.6024484291
  0
ARC
  5
330
100
AcDbEntity
  8
0
100
AcDbCircle
 62
7
  6
CONTINUOUS
 10
6.7316191905
 20
9.6128498111
 40
0.0344296895
100
AcDbArc
 50
103.6610731391
 51
109.2461753238
  0
ARC
  5
331
100
AcDbEntity
  8
0
100
AcDbCircle
 62
7
  6
CONTINUOUS
 10
6.7290979324
 20
9.613133004
 40
0.0310220764
100
AcDbArc
 50
90.0038603232
 51
93.8765544626
  0
ARC
  5
332
100
AcDbEntity
  8
0
100
AcDbCircle
 62
7
  6
CONTINUOUS
 10
6.7290947173
 20
9.6131443037
 40
0.0310107767
100
AcDbArc
 50
85.0353375057
 51
89.9979213764
  0
ARC
  5
333
100
AcDbEntity
  8
0
100
AcDbCircle
 62
7
  6
CONTINUOUS
 10
6.7278170446
 20
9.5458199377
 40
0.0287722943
100
AcDbArc
 50
275.6304926476
 51
285.410644731
  0
ARC
  5
334
100
AcDbEntity
  8
0
100
AcDbCircle
 62
7
  6
CONTINUOUS
 10
6.7279336861
 20
9.5449274489
 40
0.027872682
100
AcDbArc
 50
272.891913951
 51
275.5718776543
  0
ARC
  5
335
100
AcDbEntity
  8
0
100
AcDbCircle
 62
7
  6
CONTINUOUS
 10
6.727945793
 20
9.5446939167
 40
0.0276388364
100
AcDbArc
 50
270.0020612555
 51
272.8912727744
  0
ARC
  5
336
100
AcDbEntity
  8
0
100
AcDbCircle
 62
7
  6
CONTINUOUS
 10
6.2278163838
 20
9.7596550803
 40
0.25
100
AcDbArc
 50
47.6865981126
 51
136.9739483152
  0
ARC
  5
337
100
AcDbEntity
  8
0
100
AcDbCircle
 62
7
  6
CONTINUOUS
 10
7.2328575999
 20
9.5821550741
 40
0.1195199138
100
AcDbArc
 50
176.6584712349
 51
183.9808191462
  0
ARC
  5
338
100
AcDbEntity
  8
0
100
AcDbCircle
 62
7
  6
CONTINUOUS
 10
7.232755805
 20
9.5821617163
 40
0.1194179048
100
AcDbArc
 50
175.4961953455
 51
176.658805937
  0
ARC
  5
339
100
AcDbEntity
  8
0
100
AcDbCircle
 62
7
  6
CONTINUOUS
 10
7.232692423
 20
9.5821437403
 40
0.1193543485
100
AcDbArc
 50
183.9808962238
 51
184.5837785312
  0
ARC
  5
33A
100
AcDbEntity
  8
0
100
AcDbCircle
 62
7
  6
CONTINUOUS
 10
7.2325338606
 20
9.5821309109
 40
0.1191952681
100
AcDbArc
 50
184.5837224987
 51
185.3746796386
  0
ARC
  5
33B
100
AcDbEntity
  8
0
100
AcDbCircle
 62
7
  6
CONTINUOUS
 10
7.2315948501
 20
9.5822936709
 40
0.1182501799
100
AcDbArc
 50
163.8816018198
 51
175.5157620095
  0
ARC
  5
33C
100
AcDbEntity
  8
0
100
AcDbCircle
 62
7
  6
CONTINUOUS
 10
7.2294956468
 20
9.5828378336
 40
0.1160824395
100
AcDbArc
 50
163.6075795817
 51
163.8519793444
  0
ARC
  5
33D
100
AcDbEntity
  8
0
100
AcDbCircle
 62
7
  6
CONTINUOUS
 10
7.1024095399
 20
9.5821551017
 40
0.0877198425
100
AcDbArc
 50
358.2429578634
 51
1.4191037063
  0
ARC
  5
33E
100
AcDbEntity
  8
0
100
AcDbCircle
 62
7
  6
CONTINUOUS
 10
7.1028859606
 20
9.5821397439
 40
0.0872431749
100
AcDbArc
 50
355.5278273496
 51
358.2434457074
  0
ARC
  5
33F
100
AcDbEntity
  8
0
100
AcDbCircle
 62
7
  6
CONTINUOUS
 10
7.1029260885
 20
9.582172392
 40
0.0872030243
100
AcDbArc
 50
1.4161519599
 51
4.2182998511
  0
ARC
  5
340
100
AcDbEntity
  8
0
100
AcDbCircle
 62
7
  6
CONTINUOUS
 10
7.104010573
 20
9.5820486567
 40
0.0861148842
100
AcDbArc
 50
351.0105310794
 51
355.5299020683
  0
ARC
  5
341
100
AcDbEntity
  8
0
100
AcDbCircle
 62
7
  6
CONTINUOUS
 10
7.1042109199
 20
9.5822854287
 40
0.0859133607
100
AcDbArc
 50
4.2061472864
 51
8.5595876045
  0
ARC
  5
342
100
AcDbEntity
  8
0
100
AcDbCircle
 62
7
  6
CONTINUOUS
 10
7.1057785324
 20
9.5825146649
 40
0.0843290901
100
AcDbArc
 50
8.5640971722
 51
9.5545579758
  0
ARC
  5
343
100
AcDbEntity
  8
0
100
AcDbCircle
 62
7
  6
CONTINUOUS
 10
7.105789834
 20
9.5817932568
 40
0.0843175746
100
AcDbArc
 50
350.7302934004
 51
350.9930321034
  0
ARC
  5
344
100
AcDbEntity
  8
0
100
AcDbCircle
 62
7
  6
CONTINUOUS
 10
7.1474661588
 20
9.5550109882
 40
0.0379567081
100
AcDbArc
 50
264.428045511
 51
265.8511421013
  0
ARC
  5
345
100
AcDbEntity
  8
0
100
AcDbCircle
 62
7
  6
CONTINUOUS
 10
7.1689167819
 20
9.6259584794
 40
0.0378877647
100
AcDbArc
 50
86.7584321057
 51
96.6304815233
  0
ARC
  5
346
100
AcDbEntity
  8
0
100
AcDbCircle
 62
7
  6
CONTINUOUS
 10
7.1474490212
 20
9.5547702362
 40
0.0377153471
100
AcDbArc
 50
265.8506480806
 51
267.8775930413
  0
ARC
  5
347
100
AcDbEntity
  8
0
100
AcDbCircle
 62
7
  6
CONTINUOUS
 10
7.1474387895
 20
9.5544966529
 40
0.0374415726
100
AcDbArc
 50
267.8777348894
 51
269.9986360773
  0
ARC
  5
348
100
AcDbEntity
  8
0
100
AcDbCircle
 62
7
  6
CONTINUOUS
 10
7.1651298166
 20
9.626741402
 40
0.0374359833
100
AcDbArc
 50
74.9577471566
 51
80.9304785934
  0
ARC
  5
349
100
AcDbEntity
  8
0
100
AcDbCircle
 62
7
  6
CONTINUOUS
 10
7.14327751
 20
9.6113957452
 40
0.0359630379
100
AcDbArc
 50
67.4632455472
 51
70.7922180077
  0
ARC
  5
34A
100
AcDbEntity
  8
0
100
AcDbCircle
 62
7
  6
CONTINUOUS
 10
7.1436876234
 20
9.6125735846
 40
0.0347158416
100
AcDbArc
 50
70.791854766
 51
77.1207620926
  0
ARC
  5
34B
100
AcDbEntity
  8
0
100
AcDbCircle
 62
7
  6
CONTINUOUS
 10
7.1463117126
 20
9.5515671809
 40
0.0314121089
100
AcDbArc
 50
256.4018944877
 51
269.9582860914
  0
ARC
  5
34C
100
AcDbEntity
  8
0
100
AcDbCircle
 62
7
  6
CONTINUOUS
 10
7.1462889224
 20
9.6132442648
 40
0.0309108156
100
AcDbArc
 50
90.0001468015
 51
90.95717499
  0
ARC
  5
34D
100
AcDbEntity
  8
0
100
AcDbCircle
 62
7
  6
CONTINUOUS
 10
7.1589983797
 20
9.6171313046
 40
0.0301841018
100
AcDbArc
 50
104.5796380029
 51
111.5270093812
  0
ARC
  5
34E
100
AcDbEntity
  8
0
100
AcDbCircle
 62
7
  6
CONTINUOUS
 10
7.1585671261
 20
9.6187522359
 40
0.0285068106
100
AcDbArc
 50
94.3193486822
 51
104.5608714323
  0
ARC
  5
34F
100
AcDbEntity
  8
0
100
AcDbCircle
 62
7
  6
CONTINUOUS
 10
7.1584884562
 20
9.6194373876
 40
0.0278176928
100
AcDbArc
 50
90.004137878
 51
94.2640585692
  0
ARC
  5
350
100
AcDbEntity
  8
0
100
AcDbCircle
 62
7
  6
CONTINUOUS
 10
7.6475683017
 20
9.7596550803
 40
0.25
100
AcDbArc
 50
43.0260516848
 51
132.3168916863
  0
ARC
  5
351
100
AcDbEntity
  8
0
100
AcDbCircle
 62
9
  6
CONTINUOUS
 10
6.7293277037
 20
10.3239339739
 40
3.6087741868
100
AcDbArc
 50
334.2835884296
 51
334.6808046727
  0
ARC
  5
352
100
AcDbEntity
  8
0
100
AcDbCircle
 62
9
  6
CONTINUOUS
 10
6.7470131876
 20
10.3159181317
 40
3.5893568516
100
AcDbArc
 50
335.5009650708
 51
337.1011869271
  0
CIRCLE
  5
353
100
AcDbEntity
  8
0
100
AcDbCircle
 62
7
  6
CONTINUOUS
 10
6.9376923427
 20
10.1211550803
 40
0.275
  0
ARC
  5
354
100
AcDbEntity
  8
0
100
AcDbCircle
 62
7
  6
CONTINUOUS
 10
9.0264957217
 20
9.1852491289
 40
1.541
100
AcDbArc
 50
190.8813003471
 51
225.7236108955
  0
ARC
  5
355
100
AcDbEntity
  8
0
100
AcDbCircle
 62
7
  6
CONTINUOUS
 10
8.9773273409
 20
9.0634929235
 40
1.0476652767
100
AcDbArc
 50
343.9308012848
 51
344.1428709194
  0
ARC
  5
356
100
AcDbEntity
  8
0
100
AcDbCircle
 62
7
  6
CONTINUOUS
 10
8.9916187795
 20
9.058837436
 40
1.0326457801
100
AcDbArc
 50
344.1746824728
 51
344.7260304749
  0
ARC
  5
357
100
AcDbEntity
  8
0
100
AcDbCircle
 62
7
  6
CONTINUOUS
 10
10.6777022741
 20
9.0258681094
 40
0.6286728444
100
AcDbArc
 50
107.1044346723
 51
108.4896784545
  0
ARC
  5
358
100
AcDbEntity
  8
0
100
AcDbCircle
 62
7
  6
CONTINUOUS
 10
10.8797326643
 20
9.3514960128
 40
0.4045409794
100
AcDbArc
 50
180.0052701631
 51
205.142567988
  0
ARC
  5
359
100
AcDbEntity
  8
0
100
AcDbCircle
 62
7
  6
CONTINUOUS
 10
10.6234629149
 20
9.3296271803
 40
0.2906159089
100
AcDbArc
 50
114.0917947068
 51
116.8263680963
  0
ARC
  5
35A
100
AcDbEntity
  8
0
100
AcDbCircle
 62
7
  6
CONTINUOUS
 10
10.0540964594
 20
8.7687357232
 40
0.0687251143
100
AcDbArc
 50
160.6314100492
 51
164.7586235325
  0
ARC
  5
35B
100
AcDbEntity
  8
0
100
AcDbCircle
 62
7
  6
CONTINUOUS
 10
10.0406040383
 20
8.757515125
 40
0.0577222729
100
AcDbArc
 50
153.346641892
 51
154.758443723
  0
ARC
  5
35C
100
AcDbEntity
  8
0
100
AcDbCircle
 62
9
  6
CONTINUOUS
 10
10.5390324852
 20
9.1929479261
 40
0.0286282297
100
AcDbArc
 50
180.0000563433
 51
181.0774570696
  0
ARC
  5
35D
100
AcDbEntity
  8
0
100
AcDbCircle
 62
7
  6
CONTINUOUS
 10
10.3361835629
 20
9.1517482289
 40
0.0281314898
100
AcDbArc
 50
171.0970428372
 51
180.6566683563
  0
ARC
  5
35E
100
AcDbEntity
  8
0
100
AcDbCircle
 62
7
  6
CONTINUOUS
 10
10.3360846692
 20
9.151753926
 40
0.0280326687
100
AcDbArc
 50
180.6706283674
 51
187.7707852677
  0
ARC
  5
35F
100
AcDbEntity
  8
0
100
AcDbCircle
 62
7
  6
CONTINUOUS
 10
7.9399858325
 20
9.9186050527
 40
2.3379731183
100
AcDbArc
 50
331.4142799064
 51
332.0747340226
  0
ARC
  5
360
100
AcDbEntity
  8
0
100
AcDbCircle
 62
7
  6
CONTINUOUS
 10
7.9889960398
 20
9.8925045737
 40
2.2824463385
100
AcDbArc
 50
332.0774672945
 51
332.2424067412
  0
ARC
  5
361
100
AcDbEntity
  8
0
100
AcDbCircle
 62
7
  6
CONTINUOUS
 10
8.0117310741
 20
9.880549931
 40
2.25675986
100
AcDbArc
 50
332.2421666861
 51
332.5369773432
  0
ARC
  5
362
100
AcDbEntity
  8
0
100
AcDbCircle
 62
9
  6
CONTINUOUS
 10
9.1657197677
 20
10.2682132451
 40
1.6852644056
100
AcDbArc
 50
299.3979688189
 51
300.4001217872
  0
ARC
  5
363
100
AcDbEntity
  8
0
100
AcDbCircle
 62
9
  6
CONTINUOUS
 10
9.2681178556
 20
10.0937265997
 40
1.4829503991
100
AcDbArc
 50
300.3992259474
 51
302.2124329286
  0
ARC
  5
364
100
AcDbEntity
  8
0
100
AcDbCircle
 62
7
  6
CONTINUOUS
 10
10.9300971844
 20
9.775183924
 40
1.0
100
AcDbArc
 50
90.0
 51
124.9180935011
  0
ARC
  5
365
100
AcDbEntity
  8
0
100
AcDbCircle
 62
7
  6
CONTINUOUS
 10
9.6871164602
 20
9.7292801031
 40
0.938
100
AcDbArc
 50
35.6456856024
 51
44.3650233311
  0
ARC
  5
366
100
AcDbEntity
  8
0
100
AcDbCircle
 62
7
  6
CONTINUOUS
 10
8.1201923427
 20
10.1211550803
 40
0.275
100
AcDbArc
 50
235.0
 51
125.0
  0
ARC
  5
367
100
AcDbEntity
  8
0
100
AcDbCircle
 62
7
  6
CONTINUOUS
 10
10.5205787954
 20
9.5693575544
 40
0.0396700554
100
AcDbArc
 50
157.0283309995
 51
160.127407907
  0
ARC
  5
368
100
AcDbEntity
  8
0
100
AcDbCircle
 62
7
  6
CONTINUOUS
 10
7.8711923427
 20
10.3020488086
 40
0.016
100
AcDbArc
 50
180.0
 51
304.9999999998
  0
ARC
  5
369
100
AcDbEntity
  8
0
100
AcDbCircle
 62
7
  6
CONTINUOUS
 10
7.8711923427
 20
9.940261352
 40
0.016
100
AcDbArc
 50
55.0000000002
 51
180.0
  0
ARC
  5
36A
100
AcDbEntity
  8
0
100
AcDbCircle
 62
7
  6
CONTINUOUS
 10
7.8420258806
 20
9.9411550803
 40
0.016
100
AcDbArc
 50
223.0260516848
 51
325.3765489001
  0
ARC
  5
36B
100
AcDbEntity
  8
0
100
AcDbCircle
 62
7
  6
CONTINUOUS
 10
7.8420258806
 20
10.3011550803
 40
0.016
100
AcDbArc
 50
34.6234510999
 51
136.9739483152
  0
ARC
  5
36C
100
AcDbEntity
  8
0
100
AcDbCircle
 62
9
  6
CONTINUOUS
 10
5.6813014763
 20
12.1179686224
 40
5.4692149652
100
AcDbArc
 50
323.1640891791
 51
327.3706976833
  0
ARC
  5
36D
100
AcDbEntity
  8
0
100
AcDbCircle
 62
7
  6
CONTINUOUS
 10
5.810919793
 20
11.9854714488
 40
5.2581041998
100
AcDbArc
 50
323.068449905
 51
324.1502473484
  0
ARC
  5
36E
100
AcDbEntity
  8
0
100
AcDbCircle
 62
9
  6
CONTINUOUS
 10
5.9522105225
 20
11.940937673
 40
5.1456071854
100
AcDbArc
 50
327.4042890712
 51
328.0667763077
  0
ARC
  5
36F
100
AcDbEntity
  8
0
100
AcDbCircle
 62
7
  6
CONTINUOUS
 10
6.0262675083
 20
11.8355326599
 40
4.9957416045
100
AcDbArc
 50
324.0976371221
 51
329.4971365054
  0
ARC
  5
370
100
AcDbEntity
  8
0
100
AcDbCircle
 62
7
  6
CONTINUOUS
 10
7.6475683017
 20
10.4826550803
 40
0.25
100
AcDbArc
 50
227.6856520344
 51
316.9739483152
  0
ARC
  5
371
100
AcDbEntity
  8
0
100
AcDbCircle
 62
7
  6
CONTINUOUS
 10
6.2278163838
 20
10.4826550803
 40
0.25
100
AcDbArc
 50
223.0260516848
 51
312.316709225
  0
ARC
  5
372
100
AcDbEntity
  8
0
100
AcDbCircle
 62
7
  6
CONTINUOUS
 10
6.5501923427
 20
10.5419548486
 40
0.03
100
AcDbArc
 50
104.7629977425
 51
169.9531939797
  0
ARC
  5
373
100
AcDbEntity
  8
0
100
AcDbCircle
 62
7
  6
CONTINUOUS
 10
7.3251923427
 20
10.5419548486
 40
0.03
100
AcDbArc
 50
10.0468060203
 51
75.2370022575
  0
ARC
  5
374
100
AcDbEntity
  8
0
100
AcDbCircle
 62
7
  6
CONTINUOUS
 10
17.9052582184
 20
-8.1569140961
 40
19.0304495935
100
AcDbArc
 50
99.5861041306
 51
99.7905965331
  0
ARC
  5
375
100
AcDbEntity
  8
0
100
AcDbCircle
 62
7
  6
CONTINUOUS
 10
12.8488889638
 20
9.1852491289
 40
1.541
100
AcDbArc
 50
314.2763891045
 51
349.1186996529
  0
ARC
  5
376
100
AcDbEntity
  8
0
100
AcDbCircle
 62
7
  6
CONTINUOUS
 10
12.9145789322
 20
9.0673962864
 40
1.0646252097
100
AcDbArc
 50
195.2813218775
 51
195.9504793665
  0
ARC
  5
377
100
AcDbEntity
  8
0
100
AcDbCircle
 62
7
  6
CONTINUOUS
 10
12.1882682253
 20
9.7292801031
 40
0.938
100
AcDbArc
 50
135.6349766689
 51
144.5523494526
  0
ARC
  5
378
100
AcDbEntity
  8
0
100
AcDbCircle
 62
7
  6
CONTINUOUS
 10
11.1895961145
 20
9.0003023749
 40
0.6554861421
100
AcDbArc
 50
72.1263659436
 51
72.8775892697
  0
ARC
  5
379
100
AcDbEntity
  8
0
100
AcDbCircle
 62
7
  6
CONTINUOUS
 10
10.9950421501
 20
9.3517101996
 40
0.4051849474
100
AcDbArc
 50
334.8666550931
 51
336.7789366651
  0
ARC
  5
37A
100
AcDbEntity
  8
0
100
AcDbCircle
 62
7
  6
CONTINUOUS
 10
10.9957102732
 20
9.3514885508
 40
0.4044826006
100
AcDbArc
 50
336.7704751975
 51
359.9957860785
  0
ARC
  5
37B
100
AcDbEntity
  8
0
100
AcDbCircle
 62
7
  6
CONTINUOUS
 10
11.2831706044
 20
9.3908826646
 40
0.2218444911
100
AcDbArc
 50
60.7908122682
 51
61.7210900512
  0
ARC
  5
37C
100
AcDbEntity
  8
0
100
AcDbCircle
 62
7
  6
CONTINUOUS
 10
11.353783089
 20
9.5882639259
 40
0.0341868386
100
AcDbArc
 50
334.8479723435
 51
340.4048770907
  0
ARC
  5
37D
100
AcDbEntity
  8
0
100
AcDbCircle
 62
7
  6
CONTINUOUS
 10
11.3586230449
 20
9.5822035744
 40
0.029088262
100
AcDbArc
 50
343.3207409398
 51
350.5831491128
  0
ARC
  5
37E
100
AcDbEntity
  8
0
100
AcDbCircle
 62
9
  6
CONTINUOUS
 10
11.3363522003
 20
9.1929478698
 40
0.0286282296
100
AcDbArc
 50
0.0000563427
 51
1.0774570705
  0
ARC
  5
37F
100
AcDbEntity
  8
0
100
AcDbCircle
 62
7
  6
CONTINUOUS
 10
11.5392883634
 20
9.1517499681
 40
0.0280442657
100
AcDbArc
 50
352.2355331263
 51
8.9163317442
  0
ARC
  5
380
100
AcDbEntity
  8
0
100
AcDbCircle
 62
7
  6
CONTINUOUS
 10
11.3599317236
 20
9.5819084639
 40
0.0277602038
100
AcDbArc
 50
3.1248913477
 51
8.3001355629
  0
ARC
  5
381
100
AcDbEntity
  8
0
100
AcDbCircle
 62
7
  6
CONTINUOUS
 10
11.3602487089
 20
9.581944707
 40
0.0274421525
100
AcDbArc
 50
350.5610053127
 51
0.0187022837
  0
ARC
  5
382
100
AcDbEntity
  8
0
100
AcDbCircle
 62
7
  6
CONTINUOUS
 10
11.360379421
 20
9.5819402165
 40
0.0273114423
100
AcDbArc
 50
0.0282121988
 51
3.1095762374
  0
ARC
  5
383
100
AcDbEntity
  8
0
100
AcDbCircle
 62
7
  6
CONTINUOUS
 10
13.9445188065
 20
9.923596793
 40
2.3483697818
100
AcDbArc
 50
207.9298422347
 51
208.58619714
  0
ARC
  5
384
100
AcDbEntity
  8
0
100
AcDbCircle
 62
7
  6
CONTINUOUS
 10
13.8711863026
 20
9.8845372705
 40
2.2652838306
100
AcDbArc
 50
207.7583227066
 51
207.9257517606
  0
ARC
  5
385
100
AcDbEntity
  8
0
100
AcDbCircle
 62
7
  6
CONTINUOUS
 10
13.8385900684
 20
9.8673953931
 40
2.2284550606
100
AcDbArc
 50
207.4717172137
 51
207.7586384394
  0
ARC
  5
386
100
AcDbEntity
  8
0
100
AcDbCircle
 62
9
  6
CONTINUOUS
 10
12.6659232459
 20
10.2932702761
 40
1.6956547777
100
AcDbArc
 50
242.4534247849
 51
242.6765808281
  0
ARC
  5
387
100
AcDbEntity
  8
0
100
AcDbCircle
 62
9
  6
CONTINUOUS
 10
12.6966506191
 20
10.2455798518
 40
1.6591571369
100
AcDbArc
 50
239.5919776595
 51
240.6099165229
  0
ARC
  5
388
100
AcDbEntity
  8
0
100
AcDbCircle
 62
9
  6
CONTINUOUS
 10
12.5863005846
 20
10.0592510943
 40
1.4426053268
100
AcDbArc
 50
237.7620965895
 51
239.6261123249
  0
ARC
  5
389
100
AcDbEntity
  8
0
100
AcDbCircle
 62
7
  6
CONTINUOUS
 10
10.9452875011
 20
9.775183924
 40
1.0
100
AcDbArc
 50
55.0819064989
 51
90.0
  0
ARC
  5
38A
100
AcDbEntity
  8
0
100
AcDbCircle
 62
7
  6
CONTINUOUS
 10
13.7551923427
 20
10.1211550803
 40
0.275
100
AcDbArc
 50
55.0
 51
305.0
  0
ARC
  5
38B
100
AcDbEntity
  8
0
100
AcDbCircle
 62
7
  6
CONTINUOUS
 10
14.0041923427
 20
10.3020488086
 40
0.016
100
AcDbArc
 50
235.0000000002
 51
360.0
  0
ARC
  5
38C
100
AcDbEntity
  8
0
100
AcDbCircle
 62
7
  6
CONTINUOUS
 10
14.0041923427
 20
9.940261352
 40
0.016
100
AcDbArc
 50
0.0
 51
124.9999999998
  0
ARC
  5
38D
100
AcDbEntity
  8
0
100
AcDbCircle
 62
7
  6
CONTINUOUS
 10
14.0333588048
 20
9.9411550803
 40
0.016
100
AcDbArc
 50
214.6234510999
 51
316.9739483152
  0
ARC
  5
38E
100
AcDbEntity
  8
0
100
AcDbCircle
 62
7
  6
CONTINUOUS
 10
14.0333588048
 20
10.3011550803
 40
0.016
100
AcDbArc
 50
43.0260516848
 51
145.3765489001
  0
ARC
  5
38F
100
AcDbEntity
  8
0
100
AcDbCircle
 62
7
  6
CONTINUOUS
 10
14.9376923427
 20
9.0714850649
 40
1.5506700155
100
AcDbArc
 50
82.589547494
 51
87.505151011
  0
ARC
  5
390
100
AcDbEntity
  8
0
100
AcDbCircle
 62
7
  6
CONTINUOUS
 10
14.9376923427
 20
9.0714850649
 40
1.5506700155
100
AcDbArc
 50
75.2369677689
 51
76.6138583876
  0
ARC
  5
391
100
AcDbEntity
  8
0
100
AcDbCircle
 62
7
  6
CONTINUOUS
 10
14.9376923427
 20
9.0714850649
 40
1.5506700155
100
AcDbArc
 50
78.2452597908
 51
81.2354682492
  0
ARC
  5
392
100
AcDbEntity
  8
0
100
AcDbCircle
 62
7
  6
CONTINUOUS
 10
14.9376923427
 20
9.0714850649
 40
1.5506700155
100
AcDbArc
 50
103.0445666344
 51
104.7630312681
  0
ARC
  5
393
100
AcDbEntity
  8
0
100
AcDbCircle
 62
7
  6
CONTINUOUS
 10
14.9376923427
 20
9.0714850649
 40
1.5506700155
100
AcDbArc
 50
88.836024953
 51
90.1108469994
  0
ARC
  5
394
100
AcDbEntity
  8
0
100
AcDbCircle
 62
7
  6
CONTINUOUS
 10
14.9376923427
 20
9.0714850649
 40
1.5506700155
100
AcDbArc
 50
95.9223899948
 51
101.2405406729
  0
ARC
  5
395
100
AcDbEntity
  8
0
100
AcDbCircle
 62
7
  6
CONTINUOUS
 10
14.9376923427
 20
9.0714850649
 40
1.5496700155
100
AcDbArc
 50
94.5784174525
 51
95.2142832761
  0
ARC
  5
396
100
AcDbEntity
  8
0
100
AcDbCircle
 62
7
  6
CONTINUOUS
 10
14.9376923427
 20
9.0714850649
 40
1.5496700155
100
AcDbArc
 50
90.8291524331
 51
91.430999623
  0
ARC
  5
397
100
AcDbEntity
  8
0
100
AcDbCircle
 62
7
  6
CONTINUOUS
 10
14.9376923427
 20
9.0714850649
 40
1.5496700155
100
AcDbArc
 50
77.4924797184
 51
78.0591795779
  0
ARC
  5
398
100
AcDbEntity
  8
0
100
AcDbCircle
 62
7
  6
CONTINUOUS
 10
14.9376923427
 20
9.0714850649
 40
1.5496700155
100
AcDbArc
 50
101.4639028364
 51
102.1588703004
  0
ARC
  5
399
100
AcDbEntity
  8
0
100
AcDbCircle
 62
7
  6
CONTINUOUS
 10
14.9376923427
 20
9.0714850649
 40
1.549469747
100
AcDbArc
 50
79.9593632588
 51
81.0040654587
  0
ARC
  5
39A
100
AcDbEntity
  8
0
100
AcDbCircle
 62
7
  6
CONTINUOUS
 10
14.9376923427
 20
9.0714850649
 40
1.5494208609
100
AcDbArc
 50
85.5024540677
 51
86.3921798126
  0
ARC
  5
39B
100
AcDbEntity
  8
0
100
AcDbCircle
 62
7
  6
CONTINUOUS
 10
14.9376923427
 20
9.0714850649
 40
1.5484689719
100
AcDbArc
 50
79.9528066769
 51
80.9982030894
  0
ARC
  5
39C
100
AcDbEntity
  8
0
100
AcDbCircle
 62
7
  6
CONTINUOUS
 10
14.9376923427
 20
9.0714850649
 40
1.5484200542
100
AcDbArc
 50
85.49954113
 51
86.3898448421
  0
ARC
  5
39D
100
AcDbEntity
  8
0
100
AcDbCircle
 62
7
  6
CONTINUOUS
 10
14.9376923427
 20
9.0714850649
 40
1.5483386247
100
AcDbArc
 50
84.0880697177
 51
89.6299506004
  0
ARC
  5
39E
100
AcDbEntity
  8
0
100
AcDbCircle
 62
7
  6
CONTINUOUS
 10
14.9376923427
 20
9.0714850649
 40
1.5483386247
100
AcDbArc
 50
79.7882367111
 51
82.9513441199
  0
ARC
  5
39F
100
AcDbEntity
  8
0
100
AcDbCircle
 62
7
  6
CONTINUOUS
 10
14.8987789877
 20
9.3067406254
 40
1.3122163767
100
AcDbArc
 50
96.2161682461
 51
96.9435981609
  0
ARC
  5
3A0
100
AcDbEntity
  8
0
100
AcDbCircle
 62
7
  6
CONTINUOUS
 10
14.6425446504
 20
9.5821543987
 40
0.1195023702
100
AcDbArc
 50
0.3792025703
 51
1.1663357283
  0
ARC
  5
3A1
100
AcDbEntity
  8
0
100
AcDbCircle
 62
7
  6
CONTINUOUS
 10
14.6427323332
 20
9.5821468305
 40
0.1193147419
100
AcDbArc
 50
352.4880657592
 51
0.3834332813
  0
ARC
  5
3A2
100
AcDbEntity
  8
0
100
AcDbCircle
 62
7
  6
CONTINUOUS
 10
14.6890626789
 20
9.5997371974
 40
0.068356467
100
AcDbArc
 50
41.1132475498
 51
43.6015767933
  0
ARC
  5
3A3
100
AcDbEntity
  8
0
100
AcDbCircle
 62
7
  6
CONTINUOUS
 10
14.7102810404
 20
9.6164982188
 40
0.0476787784
100
AcDbArc
 50
97.130914254
 51
105.4829579436
  0
ARC
  5
3A4
100
AcDbEntity
  8
0
100
AcDbCircle
 62
7
  6
CONTINUOUS
 10
14.7019330657
 20
9.6191959175
 40
0.0446608759
100
AcDbArc
 50
79.864382639
 51
86.9358986201
  0
ARC
  5
3A5
100
AcDbEntity
  8
0
100
AcDbCircle
 62
7
  6
CONTINUOUS
 10
14.7020060016
 20
9.6196746236
 40
0.0441789808
100
AcDbArc
 50
86.9971684704
 51
96.2073695434
  0
ARC
  5
3A6
100
AcDbEntity
  8
0
100
AcDbCircle
 62
7
  6
CONTINUOUS
 10
14.716889211
 20
9.6095278268
 40
0.0377274029
100
AcDbArc
 50
85.8635172997
 51
88.037505429
  0
ARC
  5
3A7
100
AcDbEntity
  8
0
100
AcDbCircle
 62
7
  6
CONTINUOUS
 10
14.7168975963
 20
9.6097627194
 40
0.0374923609
100
AcDbArc
 50
88.0380195619
 51
89.9990189671
  0
ARC
  5
3A8
100
AcDbEntity
  8
0
100
AcDbCircle
 62
7
  6
CONTINUOUS
 10
14.7290979324
 20
9.613133004
 40
0.0310220764
100
AcDbArc
 50
90.0038603231
 51
93.8765544626
  0
ARC
  5
3A9
100
AcDbEntity
  8
0
100
AcDbCircle
 62
7
  6
CONTINUOUS
 10
14.7290947173
 20
9.6131443037
 40
0.0310107767
100
AcDbArc
 50
85.0353375057
 51
89.9979213764
  0
ARC
  5
3AA
100
AcDbEntity
  8
0
100
AcDbCircle
 62
7
  6
CONTINUOUS
 10
14.7278170446
 20
9.5458199377
 40
0.0287722943
100
AcDbArc
 50
275.6304926477
 51
285.410644731
  0
ARC
  5
3AB
100
AcDbEntity
  8
0
100
AcDbCircle
 62
7
  6
CONTINUOUS
 10
14.7279336861
 20
9.5449274489
 40
0.027872682
100
AcDbArc
 50
272.891913951
 51
275.5718776543
  0
ARC
  5
3AC
100
AcDbEntity
  8
0
100
AcDbCircle
 62
7
  6
CONTINUOUS
 10
14.727945793
 20
9.5446939167
 40
0.0276388364
100
AcDbArc
 50
270.0020612555
 51
272.8912727744
  0
ARC
  5
3AD
100
AcDbEntity
  8
0
100
AcDbCircle
 62
7
  6
CONTINUOUS
 10
14.2278163838
 20
9.7596550803
 40
0.25
100
AcDbArc
 50
47.6865981126
 51
136.9739483152
  0
ARC
  5
3AE
100
AcDbEntity
  8
0
100
AcDbCircle
 62
7
  6
CONTINUOUS
 10
14.9687779947
 20
9.4806348791
 40
1.1403421761
100
AcDbArc
 50
83.0535751546
 51
83.4864024216
  0
ARC
  5
3AF
100
AcDbEntity
  8
0
100
AcDbCircle
 62
7
  6
CONTINUOUS
 10
15.2328575999
 20
9.5821550741
 40
0.1195199138
100
AcDbArc
 50
176.6584712349
 51
183.9808191461
  0
ARC
  5
3B0
100
AcDbEntity
  8
0
100
AcDbCircle
 62
7
  6
CONTINUOUS
 10
15.232755805
 20
9.5821617163
 40
0.1194179048
100
AcDbArc
 50
175.4961953456
 51
176.658805937
  0
ARC
  5
3B1
100
AcDbEntity
  8
0
100
AcDbCircle
 62
7
  6
CONTINUOUS
 10
15.2326924231
 20
9.5821437403
 40
0.1193543487
100
AcDbArc
 50
183.9808962243
 51
184.5837785311
  0
ARC
  5
3B2
100
AcDbEntity
  8
0
100
AcDbCircle
 62
7
  6
CONTINUOUS
 10
15.2325338606
 20
9.5821309109
 40
0.119195268
100
AcDbArc
 50
184.5837224985
 51
185.3746796385
  0
ARC
  5
3B3
100
AcDbEntity
  8
0
100
AcDbCircle
 62
7
  6
CONTINUOUS
 10
15.2315948501
 20
9.5822936709
 40
0.1182501799
100
AcDbArc
 50
163.8816018198
 51
175.5157620095
  0
ARC
  5
3B4
100
AcDbEntity
  8
0
100
AcDbCircle
 62
7
  6
CONTINUOUS
 10
15.2294956466
 20
9.5828378337
 40
0.1160824392
100
AcDbArc
 50
163.6075795818
 51
163.8519793449
  0
ARC
  5
3B5
100
AcDbEntity
  8
0
100
AcDbCircle
 62
7
  6
CONTINUOUS
 10
15.10240954
 20
9.5821551017
 40
0.0877198425
100
AcDbArc
 50
358.2429578633
 51
1.4191037065
  0
ARC
  5
3B6
100
AcDbEntity
  8
0
100
AcDbCircle
 62
7
  6
CONTINUOUS
 10
15.1028859606
 20
9.5821397439
 40
0.0872431749
100
AcDbArc
 50
355.5278273497
 51
358.2434457073
  0
ARC
  5
3B7
100
AcDbEntity
  8
0
100
AcDbCircle
 62
7
  6
CONTINUOUS
 10
15.1029260885
 20
9.582172392
 40
0.0872030243
100
AcDbArc
 50
1.4161519596
 51
4.2182998514
  0
ARC
  5
3B8
100
AcDbEntity
  8
0
100
AcDbCircle
 62
7
  6
CONTINUOUS
 10
15.104010573
 20
9.5820486567
 40
0.0861148842
100
AcDbArc
 50
351.0105310793
 51
355.5299020684
  0
ARC
  5
3B9
100
AcDbEntity
  8
0
100
AcDbCircle
 62
7
  6
CONTINUOUS
 10
15.1042109199
 20
9.5822854287
 40
0.0859133607
100
AcDbArc
 50
4.2061472864
 51
8.5595876045
  0
ARC
  5
3BA
100
AcDbEntity
  8
0
100
AcDbCircle
 62
7
  6
CONTINUOUS
 10
15.1057785324
 20
9.5825146649
 40
0.0843290901
100
AcDbArc
 50
8.564097172
 51
9.5545579756
  0
ARC
  5
3BB
100
AcDbEntity
  8
0
100
AcDbCircle
 62
7
  6
CONTINUOUS
 10
15.1057898353
 20
9.5817932566
 40
0.0843175734
100
AcDbArc
 50
350.7302933978
 51
350.9930321047
  0
ARC
  5
3BC
100
AcDbEntity
  8
0
100
AcDbCircle
 62
7
  6
CONTINUOUS
 10
15.1474661588
 20
9.5550109882
 40
0.0379567081
100
AcDbArc
 50
264.4280455113
 51
265.8511421011
  0
ARC
  5
3BD
100
AcDbEntity
  8
0
100
AcDbCircle
 62
7
  6
CONTINUOUS
 10
15.1474490212
 20
9.5547702362
 40
0.0377153471
100
AcDbArc
 50
265.8506480806
 51
267.8775930412
  0
ARC
  5
3BE
100
AcDbEntity
  8
0
100
AcDbCircle
 62
7
  6
CONTINUOUS
 10
15.1474387895
 20
9.5544966529
 40
0.0374415726
100
AcDbArc
 50
267.8777348894
 51
269.9986360773
  0
ARC
  5
3BF
100
AcDbEntity
  8
0
100
AcDbCircle
 62
7
  6
CONTINUOUS
 10
15.14327751
 20
9.6113957452
 40
0.0359630379
100
AcDbArc
 50
67.4632455473
 51
70.7922180076
  0
ARC
  5
3C0
100
AcDbEntity
  8
0
100
AcDbCircle
 62
7
  6
CONTINUOUS
 10
14.7320656846
 20
9.6115190025
 40
0.0358333014
100
AcDbArc
 50
109.2187832942
 51
112.6024484291
  0
ARC
  5
3C1
100
AcDbEntity
  8
0
100
AcDbCircle
 62
7
  6
CONTINUOUS
 10
15.1436876234
 20
9.6125735846
 40
0.0347158416
100
AcDbArc
 50
70.791854766
 51
77.1207620926
  0
ARC
  5
3C2
100
AcDbEntity
  8
0
100
AcDbCircle
 62
7
  6
CONTINUOUS
 10
14.7316191905
 20
9.6128498111
 40
0.0344296895
100
AcDbArc
 50
103.661073139
 51
109.2461753238
  0
ARC
  5
3C3
100
AcDbEntity
  8
0
100
AcDbCircle
 62
7
  6
CONTINUOUS
 10
15.1463117126
 20
9.5515671809
 40
0.0314121089
100
AcDbArc
 50
256.4018944877
 51
269.9582860914
  0
ARC
  5
3C4
100
AcDbEntity
  8
0
100
AcDbCircle
 62
7
  6
CONTINUOUS
 10
15.1462889224
 20
9.6132442648
 40
0.0309108156
100
AcDbArc
 50
90.0001468015
 51
90.95717499
  0
ARC
  5
3C5
100
AcDbEntity
  8
0
100
AcDbCircle
 62
7
  6
CONTINUOUS
 10
15.1589983797
 20
9.6171313046
 40
0.0301841018
100
AcDbArc
 50
104.5796380029
 51
111.5270093812
  0
ARC
  5
3C6
100
AcDbEntity
  8
0
100
AcDbCircle
 62
7
  6
CONTINUOUS
 10
15.1585671261
 20
9.6187522359
 40
0.0285068106
100
AcDbArc
 50
94.3193486823
 51
104.5608714323
  0
ARC
  5
3C7
100
AcDbEntity
  8
0
100
AcDbCircle
 62
7
  6
CONTINUOUS
 10
15.1584884562
 20
9.6194373876
 40
0.0278176928
100
AcDbArc
 50
90.0041378781
 51
94.264058569
  0
ARC
  5
3C8
100
AcDbEntity
  8
0
100
AcDbCircle
 62
7
  6
CONTINUOUS
 10
15.1689167819
 20
9.6259584794
 40
0.0378877647
100
AcDbArc
 50
86.7584321057
 51
96.6304815233
  0
ARC
  5
3C9
100
AcDbEntity
  8
0
100
AcDbCircle
 62
7
  6
CONTINUOUS
 10
15.1651298166
 20
9.626741402
 40
0.0374359833
100
AcDbArc
 50
74.9577471566
 51
80.9304785935
  0
ARC
  5
3CA
100
AcDbEntity
  8
0
100
AcDbCircle
 62
7
  6
CONTINUOUS
 10
17.0264957217
 20
9.1852491289
 40
1.541
100
AcDbArc
 50
190.8813003471
 51
225.7236108955
  0
ARC
  5
3CB
100
AcDbEntity
  8
0
100
AcDbCircle
 62
7
  6
CONTINUOUS
 10
15.6475683017
 20
9.7596550803
 40
0.25
100
AcDbArc
 50
43.0260516848
 51
132.3168916863
  0
ARC
  5
3CC
100
AcDbEntity
  8
0
100
AcDbCircle
 62
9
  6
CONTINUOUS
 10
17.3708111216
 20
10.0636093742
 40
5.8755198561
100
AcDbArc
 50
185.2065079304
 51
188.8865257512
  0
ARC
  5
3CD
100
AcDbEntity
  8
0
100
AcDbCircle
 62
9
  6
CONTINUOUS
 10
15.250538552
 20
10.3773159225
 40
3.7260755712
100
AcDbArc
 50
205.873121303
 51
214.3764655701
  0
ARC
  5
3CE
100
AcDbEntity
  8
0
100
AcDbCircle
 62
9
  6
CONTINUOUS
 10
15.1503355401
 20
10.3259397867
 40
3.6134980093
100
AcDbArc
 50
205.318931293
 51
205.8334849801
  0
ARC
  5
3CF
100
AcDbEntity
  8
0
100
AcDbCircle
 62
9
  6
CONTINUOUS
 10
15.124909155
 20
10.3143106866
 40
3.5855380555
100
AcDbArc
 50
202.8967060368
 51
204.4986005966
  0
ARC
  5
3D0
100
AcDbEntity
  8
0
100
AcDbCircle
 62
7
  6
CONTINUOUS
 10
15.1527455804
 20
9.9234473594
 40
0.6725228293
100
AcDbArc
 50
81.0733651847
 51
81.3947580837
  0
ARC
  5
3D1
100
AcDbEntity
  8
0
100
AcDbCircle
 62
7
  6
CONTINUOUS
 10
15.0664553795
 20
10.1980788535
 40
0.4157406394
100
AcDbArc
 50
85.7524073638
 51
86.2409717649
  0
ARC
  5
3D2
100
AcDbEntity
  8
0
100
AcDbCircle
 62
7
  6
CONTINUOUS
 10
15.0664849772
 20
10.1992210715
 40
0.415602106
100
AcDbArc
 50
85.6321176028
 51
87.4662951875
  0
ARC
  5
3D3
100
AcDbEntity
  8
0
100
AcDbCircle
 62
7
  6
CONTINUOUS
 10
15.0665043179
 20
10.1988332543
 40
0.4149846532
100
AcDbArc
 50
86.240885371
 51
87.4651957745
  0
CIRCLE
  5
3D4
100
AcDbEntity
  8
0
100
AcDbCircle
 62
7
  6
CONTINUOUS
 10
14.9376923427
 20
10.1211550803
 40
0.275
  0
ARC
  5
3D5
100
AcDbEntity
  8
0
100
AcDbCircle
 62
7
  6
CONTINUOUS
 10
16.1201923427
 20
10.1211550803
 40
0.275
100
AcDbArc
 50
235.0
 51
125.0
  0
ARC
  5
3D6
100
AcDbEntity
  8
0
100
AcDbCircle
 62
7
  6
CONTINUOUS
 10
14.2278163838
 20
10.4826550803
 40
0.25
100
AcDbArc
 50
223.0260516848
 51
312.316709225
  0
ARC
  5
3D7
100
AcDbEntity
  8
0
100
AcDbCircle
 62
7
  6
CONTINUOUS
 10
15.6475683017
 20
10.4826550803
 40
0.25
100
AcDbArc
 50
227.6856520344
 51
316.9739483152
  0
ARC
  5
3D8
100
AcDbEntity
  8
0
100
AcDbCircle
 62
7
  6
CONTINUOUS
 10
14.5501923427
 20
10.5419547333
 40
0.03
100
AcDbArc
 50
104.7630312681
 51
169.9529713788
  0
ARC
  5
3D9
100
AcDbEntity
  8
0
100
AcDbCircle
 62
7
  6
CONTINUOUS
 10
15.3251923427
 20
10.5419547333
 40
0.03
100
AcDbArc
 50
10.0470286212
 51
75.2369687319
  0
ARC
  5
3DA
100
AcDbEntity
  8
0
100
AcDbCircle
 62
7
  6
CONTINUOUS
 10
15.8711923427
 20
10.3020488086
 40
0.016
100
AcDbArc
 50
180.0
 51
304.9999999998
  0
ARC
  5
3DB
100
AcDbEntity
  8
0
100
AcDbCircle
 62
7
  6
CONTINUOUS
 10
15.8711923427
 20
9.940261352
 40
0.016
100
AcDbArc
 50
55.0000000002
 51
180.0
  0
ARC
  5
3DC
100
AcDbEntity
  8
0
100
AcDbCircle
 62
7
  6
CONTINUOUS
 10
15.8420258806
 20
9.9411550803
 40
0.016
100
AcDbArc
 50
223.0260516848
 51
325.3765489001
  0
ARC
  5
3DD
100
AcDbEntity
  8
0
100
AcDbCircle
 62
7
  6
CONTINUOUS
 10
15.8420258806
 20
10.3011550803
 40
0.016
100
AcDbArc
 50
34.6234510999
 51
136.9739483152
  0
ARC
  5
3DE
100
AcDbEntity
  8
0
100
AcDbCircle
 62
9
  6
CONTINUOUS
 10
16.1940745103
 20
12.1179569386
 40
5.4692020206
100
AcDbArc
 50
212.62924854
 51
216.8358395003
  0
ARC
  5
3DF
100
AcDbEntity
  8
0
100
AcDbCircle
 62
7
  6
CONTINUOUS
 10
16.0745008492
 20
11.9928680708
 40
5.2705708198
100
AcDbArc
 50
215.8510505408
 51
216.930264407
  0
ARC
  5
3E0
100
AcDbEntity
  8
0
100
AcDbCircle
 62
9
  6
CONTINUOUS
 10
15.9231729029
 20
11.9409311504
 40
5.1456032914
100
AcDbArc
 50
211.933229914
 51
212.5956574826
  0
ARC
  5
3E1
100
AcDbEntity
  8
0
100
AcDbCircle
 62
7
  6
CONTINUOUS
 10
15.9059298411
 20
11.8727136205
 40
5.0635649935
100
AcDbArc
 50
210.5391443002
 51
215.8661951769
  0
ARC
  5
3E2
100
AcDbEntity
  8
0
100
AcDbCircle
 62
9
  6
CONTINUOUS
 10
10.9376923427
 20
10.6702734487
 40
2.0698337482
100
AcDbArc
 50
266.9568560513
 51
273.0431439487
  0
ARC
  5
3E3
100
AcDbEntity
  8
0
100
AcDbCircle
 62
7
  6
CONTINUOUS
 10
10.9376778394
 20
10.6686995229
 40
2.0682612939
100
AcDbArc
 50
259.1314067444
 51
266.9549425743
  0
ARC
  5
3E4
100
AcDbEntity
  8
0
100
AcDbCircle
 62
7
  6
CONTINUOUS
 10
10.9377068461
 20
10.6686995224
 40
2.0682612935
100
AcDbArc
 50
273.0450574252
 51
280.8685945466
  0
ARC
  5
3E5
100
AcDbEntity
  8
0
100
AcDbCircle
 62
7
  6
CONTINUOUS
 10
15.1628472675
 20
10.9454478534
 40
0.3380193841
100
AcDbArc
 50
264.030289764
 51
264.7280278044
  0
ARC
  5
3E6
100
AcDbEntity
  8
0
100
AcDbCircle
 62
7
  6
CONTINUOUS
 10
15.107254175
 20
10.5634499598
 40
0.0491834671
100
AcDbArc
 50
100.5107895845
 51
101.830544597
  0
ARC
  5
3E7
100
AcDbEntity
  8
0
100
AcDbCircle
 62
7
  6
CONTINUOUS
 10
15.1070985365
 20
10.5642959964
 40
0.0483232265
100
AcDbArc
 50
98.0353845907
 51
100.3062299901
  0
ARC
  5
3E8
100
AcDbEntity
  8
0
100
AcDbCircle
 62
7
  6
CONTINUOUS
 10
15.1069604774
 20
10.5652653532
 40
0.0473440884
100
AcDbArc
 50
94.1700500485
 51
98.0339293868
  0
ARC
  5
3E9
100
AcDbEntity
  8
0
100
AcDbCircle
 62
7
  6
CONTINUOUS
 10
15.1069010555
 20
10.565989531
 40
0.0466175073
100
AcDbArc
 50
90.2565216127
 51
94.1619325295
  0
ARC
  5
3EA
100
AcDbEntity
  8
0
100
AcDbCircle
 62
7
  6
CONTINUOUS
 10
95.9333339253
 20
10.6181774177
 40
84.628822007
100
AcDbArc
 50
180.9995161214
 51
181.3410634997
  0
SPLINE
  5
3EB
100
AcDbEntity
  8
0
100
AcDbSpline
 62
7
  6
CONTINUOUS
 70
0
 71
3
 72
14
 73
10
 74
0
 42
0.0000001
 43
0.0000001
 44
0.0000000001
 40
0.0
 40
0.0
 40
0.0
 40
0.0
 40
0.1150620559
 40
0.2325311393
 40
0.3527233133
 40
0.4758656381
 40
0.7314216839
 40
0.8641555392
 40
1.0
 40
1.0
 40
1.0
 40
1.0
 10
6.7182937008
 20
9.644600084
 30
0.0
 10
6.7172373759
 20
9.6441606122
 30
0.0
 10
6.7151432676
 20
9.6431714813
 30
0.0
 10
6.7121150472
 20
9.6413937954
 30
0.0
 10
6.7091848979
 20
9.6393160985
 30
0.0
 10
6.7053826028
 20
9.636123382
 30
0.0
 10
6.7018852376
 20
9.6324007338
 30
0.0
 10
6.6987300975
 20
9.6282496949
 30
0.0
 10
6.6972583587
 20
9.6260182753
 30
0.0
 10
6.6965508225
 20
9.6248676676
 30
0.0
  0
SPLINE
  5
3EC
100
AcDbEntity
  8
0
100
AcDbSpline
 62
7
  6
CONTINUOUS
 70
0
 71
3
 72
15
 73
11
 74
0
 42
0.0000001
 43
0.0000001
 44
0.0000000001
 40
0.0
 40
0.0
 40
0.0
 40
0.0
 40
0.1199877252
 40
0.2405658515
 40
0.3621478732
 40
0.4851903706
 40
0.610145498
 40
0.7374009548
 40
0.8672673527
 40
1.0
 40
1.0
 40
1.0
 40
1.0
 10
6.7290958423
 20
9.5201550803
 30
0.0
 10
6.7281348083
 20
9.5201550803
 30
0.0
 10
6.726206836
 20
9.5202451985
 30
0.0
 10
6.7233304436
 20
9.5206483364
 30
0.0
 10
6.7204790439
 20
9.5213187123
 30
0.0
 10
6.7176661123
 20
9.5222528286
 30
0.0
 10
6.7149036815
 20
9.5234463798
 30
0.0
 10
6.712203522
 20
9.5248940069
 30
0.0
 10
6.7095772521
 20
9.5265888344
 30
0.0
 10
6.7079021342
 20
9.5278646678
 30
0.0
 10
6.7070805563
 20
9.5285393679
 30
0.0
  0
SPLINE
  5
3ED
100
AcDbEntity
  8
0
100
AcDbSpline
 62
7
  6
CONTINUOUS
 70
0
 71
3
 72
31
 73
27
 74
0
 42
0.0000001
 43
0.0000001
 44
0.0000000001
 40
0.0
 40
0.0
 40
0.0
 40
0.0
 40
0.0266780019
 40
0.0538898816
 40
0.081646921
 40
0.1099527989
 40
0.138805325
 40
0.1681944685
 40
0.2284981384
 40
0.2906949255
 40
0.3224313801
 40
0.3545369972
 40
0.3869702272
 40
0.4196858666
 40
0.4857602775
 40
0.5523757398
 40
0.585763358
 40
0.6191295502
 40
0.6524218661
 40
0.6855885558
 40
0.751328471
 40
0.7838186845
 40
0.8159895725
 40
0.8477989354
 40
0.8792072543
 40
1.0
 40
1.0
 40
1.0
 40
1.0
 10
6.7070805563
 20
9.5285393679
 30
0.0
 10
6.70636367
 20
9.5291280928
 30
0.0
 10
6.7049532375
 20
9.5303639701
 30
0.0
 10
6.7029350137
 20
9.5323629371
 30
0.0
 10
6.7009994669
 20
9.5345187755
 30
0.0
 10
6.6991526675
 20
9.5368244978
 30
0.0
 10
6.6974006727
 20
9.5392731576
 30
0.0
 10
6.6951791448
 20
9.542747207
 30
0.0
 10
6.6926760922
 20
9.547408172
 30
0.0
 10
6.6905903373
 20
9.5523575105
 30
0.0
 10
6.6891590531
 20
9.5565010106
 30
0.0
 10
6.688203952
 20
9.5597106673
 30
0.0
 10
6.6873779711
 20
9.5629910166
 30
0.0
 10
6.6864487386
 20
9.5674594059
 30
0.0
 10
6.6856263777
 20
9.5731585826
 30
0.0
 10
6.6852609977
 20
9.578928324
 30
0.0
 10
6.6852436389
 20
9.5835668073
 30
0.0
 10
6.6853686199
 20
9.5870442921
 30
0.0
 10
6.6856316216
 20
9.5905064069
 30
0.0
 10
6.6861629491
 20
9.5950733012
 30
0.0
 10
6.6869652645
 20
9.599577437
 30
0.0
 10
6.6880377568
 20
9.6039841521
 30
0.0
 10
6.6889686145
 20
9.6072078823
 30
0.0
 10
6.6900260787
 20
9.6103531554
 30
0.0
 10
6.6923309503
 20
9.6163212088
 30
0.0
 10
6.6947918708
 20
9.6210586217
 30
0.0
 10
6.6971125952
 20
9.6245594533
 30
0.0
  0
SPLINE
  5
3EE
100
AcDbEntity
  8
0
100
AcDbSpline
 62
7
  6
CONTINUOUS
 70
0
 71
3
 72
19
 73
15
 74
0
 42
0.0000001
 43
0.0000001
 44
0.0000000001
 40
0.0
 40
0.0
 40
0.0
 40
0.0
 40
0.1389062731
 40
0.2066797802
 40
0.2733195011
 40
0.4032047479
 40
0.5288327269
 40
0.6506174358
 40
0.7102758687
 40
0.7692126844
 40
0.8275368941
 40
0.8853659274
 40
0.9428184642
 40
1.0
 40
1.0
 40
1.0
 40
1.0
 10
6.6971125952
 20
9.6245594533
 30
0.0
 10
6.6980587709
 20
9.6259867671
 30
0.0
 10
6.6995606078
 20
9.6280509226
 30
0.0
 10
6.7017336552
 20
9.6306274281
 30
0.0
 10
6.7039542647
 20
9.6330133356
 30
0.0
 10
6.7068771406
 20
9.6357137579
 30
0.0
 10
6.7106223052
 20
9.6384877917
 30
0.0
 10
6.7139131459
 20
9.6403789867
 30
0.0
 10
6.7166095408
 20
9.6416122726
 30
0.0
 10
6.7186476396
 20
9.6423932578
 30
0.0
 10
6.7207102042
 20
9.6430347669
 30
0.0
 10
6.7227927449
 20
9.6435351879
 30
0.0
 10
6.7248901
 20
9.6438929873
 30
0.0
 10
6.7262972956
 20
9.6440364612
 30
0.0
 10
6.7270006219
 20
9.6440841027
 30
0.0
  0
SPLINE
  5
3EF
100
AcDbEntity
  8
0
100
AcDbSpline
 62
7
  6
CONTINUOUS
 70
0
 71
3
 72
11
 73
7
 74
0
 42
0.0000001
 43
0.0000001
 44
0.0000000001
 40
0.0
 40
0.0
 40
0.0
 40
0.0
 40
0.253084845
 40
0.5036003926
 40
0.7523317581
 40
1.0
 40
1.0
 40
1.0
 40
1.0
 10
6.7396246494
 20
9.5219696355
 30
0.0
 10
6.7387701006
 20
9.5216706493
 30
0.0
 10
6.7370448373
 20
9.5211439274
 30
0.0
 10
6.7344114191
 20
9.5205742243
 30
0.0
 10
6.7317584618
 20
9.5202316211
 30
0.0
 10
6.7299818091
 20
9.5201550803
 30
0.0
 10
6.7290958423
 20
9.5201550803
 30
0.0
  0
SPLINE
  5
3F0
100
AcDbEntity
  8
0
100
AcDbSpline
 62
7
  6
CONTINUOUS
 70
0
 71
3
 72
12
 73
8
 74
0
 42
0.0000001
 43
0.0000001
 44
0.0000000001
 40
0.0
 40
0.0
 40
0.0
 40
0.0
 40
0.1301683358
 40
0.259098864
 40
0.5124674862
 40
0.7594745031
 40
1.0
 40
1.0
 40
1.0
 40
1.0
 10
6.6965508225
 20
9.6248676676
 30
0.0
 10
6.6971693309
 20
9.6259579173
 30
0.0
 10
6.698450567
 20
9.6281001666
 30
0.0
 10
6.7011794349
 20
9.6322134895
 30
0.0
 10
6.7048873415
 20
9.6370201763
 30
0.0
 10
6.7097949306
 20
9.642214606
 30
0.0
 10
6.7133662196
 20
9.6452785699
 30
0.0
 10
6.7152051774
 20
9.6466867226
 30
0.0
  0
SPLINE
  5
3F1
100
AcDbEntity
  8
0
100
AcDbSpline
 62
7
  6
CONTINUOUS
 70
0
 71
3
 72
14
 73
10
 74
0
 42
0.0000001
 43
0.0000001
 44
0.0000000001
 40
0.0
 40
0.0
 40
0.0
 40
0.0
 40
0.1150620559
 40
0.2325311393
 40
0.3527233133
 40
0.4758656381
 40
0.7314216839
 40
0.8641555392
 40
1.0
 40
1.0
 40
1.0
 40
1.0
 10
14.7182937008
 20
9.644600084
 30
0.0
 10
14.7172373759
 20
9.6441606122
 30
0.0
 10
14.7151432676
 20
9.6431714813
 30
0.0
 10
14.7121150472
 20
9.6413937954
 30
0.0
 10
14.7091848979
 20
9.6393160985
 30
0.0
 10
14.7053826028
 20
9.636123382
 30
0.0
 10
14.7018852376
 20
9.6324007338
 30
0.0
 10
14.6987300975
 20
9.6282496949
 30
0.0
 10
14.6972583587
 20
9.6260182753
 30
0.0
 10
14.6965508225
 20
9.6248676676
 30
0.0
  0
SPLINE
  5
3F2
100
AcDbEntity
  8
0
100
AcDbSpline
 62
7
  6
CONTINUOUS
 70
0
 71
3
 72
15
 73
11
 74
0
 42
0.0000001
 43
0.0000001
 44
0.0000000001
 40
0.0
 40
0.0
 40
0.0
 40
0.0
 40
0.1199877252
 40
0.2405658515
 40
0.3621478732
 40
0.4851903706
 40
0.610145498
 40
0.7374009548
 40
0.8672673527
 40
1.0
 40
1.0
 40
1.0
 40
1.0
 10
14.7290958423
 20
9.5201550803
 30
0.0
 10
14.7281348083
 20
9.5201550803
 30
0.0
 10
14.726206836
 20
9.5202451985
 30
0.0
 10
14.7233304436
 20
9.5206483364
 30
0.0
 10
14.7204790439
 20
9.5213187123
 30
0.0
 10
14.7176661123
 20
9.5222528286
 30
0.0
 10
14.7149036815
 20
9.5234463798
 30
0.0
 10
14.712203522
 20
9.5248940069
 30
0.0
 10
14.7095772521
 20
9.5265888344
 30
0.0
 10
14.7079021342
 20
9.5278646678
 30
0.0
 10
14.7070805563
 20
9.5285393679
 30
0.0
  0
SPLINE
  5
3F3
100
AcDbEntity
  8
0
100
AcDbSpline
 62
7
  6
CONTINUOUS
 70
0
 71
3
 72
31
 73
27
 74
0
 42
0.0000001
 43
0.0000001
 44
0.0000000001
 40
0.0
 40
0.0
 40
0.0
 40
0.0
 40
0.0266780019
 40
0.0538898816
 40
0.081646921
 40
0.1099527989
 40
0.138805325
 40
0.1681944685
 40
0.2284981384
 40
0.2906949255
 40
0.3224313801
 40
0.3545369972
 40
0.3869702272
 40
0.4196858666
 40
0.4857602775
 40
0.5523757398
 40
0.585763358
 40
0.6191295502
 40
0.6524218661
 40
0.6855885558
 40
0.751328471
 40
0.7838186845
 40
0.8159895725
 40
0.8477989354
 40
0.8792072543
 40
1.0
 40
1.0
 40
1.0
 40
1.0
 10
14.7070805563
 20
9.5285393679
 30
0.0
 10
14.70636367
 20
9.5291280928
 30
0.0
 10
14.7049532375
 20
9.5303639701
 30
0.0
 10
14.7029350137
 20
9.5323629371
 30
0.0
 10
14.7009994669
 20
9.5345187755
 30
0.0
 10
14.6991526675
 20
9.5368244978
 30
0.0
 10
14.6974006727
 20
9.5392731576
 30
0.0
 10
14.6951791448
 20
9.542747207
 30
0.0
 10
14.6926760922
 20
9.547408172
 30
0.0
 10
14.6905903373
 20
9.5523575105
 30
0.0
 10
14.6891590531
 20
9.5565010106
 30
0.0
 10
14.688203952
 20
9.5597106673
 30
0.0
 10
14.6873779711
 20
9.5629910166
 30
0.0
 10
14.6864487386
 20
9.5674594059
 30
0.0
 10
14.6856263777
 20
9.5731585826
 30
0.0
 10
14.6852609977
 20
9.578928324
 30
0.0
 10
14.6852436389
 20
9.5835668073
 30
0.0
 10
14.6853686199
 20
9.5870442921
 30
0.0
 10
14.6856316216
 20
9.5905064069
 30
0.0
 10
14.6861629491
 20
9.5950733012
 30
0.0
 10
14.6869652645
 20
9.599577437
 30
0.0
 10
14.6880377568
 20
9.6039841521
 30
0.0
 10
14.6889686145
 20
9.6072078823
 30
0.0
 10
14.6900260787
 20
9.6103531554
 30
0.0
 10
14.6923309503
 20
9.6163212088
 30
0.0
 10
14.6947918708
 20
9.6210586217
 30
0.0
 10
14.6971125952
 20
9.6245594533
 30
0.0
  0
SPLINE
  5
3F4
100
AcDbEntity
  8
0
100
AcDbSpline
 62
7
  6
CONTINUOUS
 70
0
 71
3
 72
19
 73
15
 74
0
 42
0.0000001
 43
0.0000001
 44
0.0000000001
 40
0.0
 40
0.0
 40
0.0
 40
0.0
 40
0.1389062731
 40
0.2066797802
 40
0.2733195011
 40
0.4032047479
 40
0.5288327269
 40
0.6506174358
 40
0.7102758687
 40
0.7692126844
 40
0.8275368941
 40
0.8853659274
 40
0.9428184642
 40
1.0
 40
1.0
 40
1.0
 40
1.0
 10
14.6971125952
 20
9.6245594533
 30
0.0
 10
14.6980587709
 20
9.6259867671
 30
0.0
 10
14.6995606078
 20
9.6280509226
 30
0.0
 10
14.7017336552
 20
9.6306274281
 30
0.0
 10
14.7039542647
 20
9.6330133356
 30
0.0
 10
14.7068771406
 20
9.6357137579
 30
0.0
 10
14.7106223052
 20
9.6384877917
 30
0.0
 10
14.7139131459
 20
9.6403789867
 30
0.0
 10
14.7166095408
 20
9.6416122726
 30
0.0
 10
14.7186476396
 20
9.6423932578
 30
0.0
 10
14.7207102042
 20
9.6430347669
 30
0.0
 10
14.7227927449
 20
9.6435351879
 30
0.0
 10
14.7248901
 20
9.6438929873
 30
0.0
 10
14.7262972956
 20
9.6440364612
 30
0.0
 10
14.7270006219
 20
9.6440841027
 30
0.0
  0
SPLINE
  5
3F5
100
AcDbEntity
  8
0
100
AcDbSpline
 62
7
  6
CONTINUOUS
 70
0
 71
3
 72
11
 73
7
 74
0
 42
0.0000001
 43
0.0000001
 44
0.0000000001
 40
0.0
 40
0.0
 40
0.0
 40
0.0
 40
0.253084845
 40
0.5036003926
 40
0.7523317581
 40
1.0
 40
1.0
 40
1.0
 40
1.0
 10
14.7396246494
 20
9.5219696355
 30
0.0
 10
14.7387701006
 20
9.5216706493
 30
0.0
 10
14.7370448373
 20
9.5211439274
 30
0.0
 10
14.7344114191
 20
9.5205742243
 30
0.0
 10
14.7317584618
 20
9.5202316211
 30
0.0
 10
14.7299818091
 20
9.5201550803
 30
0.0
 10
14.7290958423
 20
9.5201550803
 30
0.0
  0
SPLINE
  5
3F6
100
AcDbEntity
  8
0
100
AcDbSpline
 62
7
  6
CONTINUOUS
 70
0
 71
3
 72
12
 73
8
 74
0
 42
0.0000001
 43
0.0000001
 44
0.0000000001
 40
0.0
 40
0.0
 40
0.0
 40
0.0
 40
0.1301683358
 40
0.259098864
 40
0.5124674862
 40
0.7594745031
 40
1.0
 40
1.0
 40
1.0
 40
1.0
 10
14.6965508225
 20
9.6248676676
 30
0.0
 10
14.6971693309
 20
9.6259579173
 30
0.0
 10
14.698450567
 20
9.6281001666
 30
0.0
 10
14.7011794349
 20
9.6322134895
 30
0.0
 10
14.7048873415
 20
9.6370201763
 30
0.0
 10
14.7097949306
 20
9.642214606
 30
0.0
 10
14.7133662196
 20
9.6452785699
 30
0.0
 10
14.7152051774
 20
9.6466867226
 30
0.0
  0
SPLINE
  5
3F7
100
AcDbEntity
  8
0
100
AcDbSpline
 62
7
  6
CONTINUOUS
 70
0
 71
3
 72
26
 73
22
 74
0
 42
0.0000001
 43
0.0000001
 44
0.0000000001
 40
0.0
 40
0.0
 40
0.0
 40
0.0
 40
0.0270635144
 40
0.0547295194
 40
0.1117637289
 40
0.1709689232
 40
0.2013359802
 40
0.2321645945
 40
0.2634187617
 40
0.2950598116
 40
0.3593243492
 40
0.424621795
 40
0.4905828704
 40
0.5568307878
 40
0.6229896666
 40
0.6886988484
 40
0.7536208885
 40
0.8174490265
 40
0.8799193781
 40
0.9408204111
 40
1.0
 40
1.0
 40
1.0
 40
1.0
 10
7.1742887749
 20
9.6312921613
 30
0.0
 10
7.1749223018
 20
9.6305406141
 30
0.0
 10
7.17615939
 20
9.628983065
 30
0.0
 10
7.1785066167
 20
9.6256692798
 30
0.0
 10
7.1811829627
 20
9.6211684515
 30
0.0
 10
7.1834511172
 20
9.6163420548
 30
0.0
 10
7.1850411635
 20
9.6122671934
 30
0.0
 10
7.1861238278
 20
9.6090875964
 30
0.0
 10
7.1870827487
 20
9.6058203403
 30
0.0
 10
7.1881987186
 20
9.601337633
 30
0.0
 10
7.1892645227
 20
9.5955736746
 30
0.0
 10
7.1900086094
 20
9.5885045612
 30
0.0
 10
7.1902159178
 20
9.581327286
 30
0.0
 10
7.1898838627
 20
9.5741235376
 30
0.0
 10
7.1890161383
 20
9.5669737049
 30
0.0
 10
7.187622161
 20
9.5599565542
 30
0.0
 10
7.1857168894
 20
9.5531482336
 30
0.0
 10
7.1833204656
 20
9.5466217167
 30
0.0
 10
7.1804580408
 20
9.5404456029
 30
0.0
 10
7.1771597662
 20
9.5346846167
 30
0.0
 10
7.1746542751
 20
9.5311055468
 30
0.0
 10
7.1733371675
 20
9.5294069782
 30
0.0
  0
SPLINE
  5
3F8
100
AcDbEntity
  8
0
100
AcDbSpline
 62
7
  6
CONTINUOUS
 70
0
 71
3
 72
11
 73
7
 74
0
 42
0.0000001
 43
0.0000001
 44
0.0000000001
 40
0.0
 40
0.0
 40
0.0
 40
0.0
 40
0.2639178691
 40
0.5180450849
 40
0.7630030472
 40
1.0
 40
1.0
 40
1.0
 40
1.0
 10
7.1742887749
 20
9.6312921613
 30
0.0
 10
7.1730681095
 20
9.6327924335
 30
0.0
 10
7.1705153387
 20
9.6356146857
 30
0.0
 10
7.166305628
 20
9.6393146054
 30
0.0
 10
7.1618345761
 20
9.6423577414
 30
0.0
 10
7.1586655254
 20
9.6439468484
 30
0.0
 10
7.1570612796
 20
9.6446124246
 30
0.0
  0
SPLINE
  5
3F9
100
AcDbEntity
  8
0
100
AcDbSpline
 62
7
  6
CONTINUOUS
 70
0
 71
3
 72
24
 73
20
 74
0
 42
0.0000001
 43
0.0000001
 44
0.0000000001
 40
0.0
 40
0.0
 40
0.0
 40
0.0
 40
0.0528887707
 40
0.1061704708
 40
0.1601514114
 40
0.1875173101
 40
0.2151773419
 40
0.271485154
 40
0.3293084301
 40
0.3888062321
 40
0.4500826326
 40
0.5131826991
 40
0.5781009455
 40
0.6447815065
 40
0.7131280023
 40
0.7830041097
 40
0.8542423477
 40
0.9266470073
 40
1.0
 40
1.0
 40
1.0
 40
1.0
 10
7.1462888432
 20
9.6441550803
 30
0.0
 10
7.1475105017
 20
9.6441550803
 30
0.0
 10
7.1499653363
 20
9.6440091509
 30
0.0
 10
7.1536146256
 20
9.6433570534
 30
0.0
 10
7.1565994556
 20
9.6424588238
 30
0.0
 10
7.1589429329
 20
9.6415351192
 30
0.0
 10
7.1612814278
 20
9.6404624118
 30
0.0
 10
7.1641446339
 20
9.6388588355
 30
0.0
 10
7.1674321554
 20
9.636550612
 30
0.0
 10
7.1705704067
 20
9.6338636563
 30
0.0
 10
7.1735373321
 20
9.6308168946
 30
0.0
 10
7.1763133136
 20
9.6274322226
 30
0.0
 10
7.1788788124
 20
9.6237328929
 30
0.0
 10
7.1812168867
 20
9.6197450756
 30
0.0
 10
7.1833111064
 20
9.6154962344
 30
0.0
 10
7.1851474084
 20
9.6110160325
 30
0.0
 10
7.1867131186
 20
9.6063354549
 30
0.0
 10
7.1879973055
 20
9.6014871842
 30
0.0
 10
7.1886565597
 20
9.5981830199
 30
0.0
 10
7.1889378089
 20
9.5965121713
 30
0.0
  0
SPLINE
  5
3FA
100
AcDbEntity
  8
0
100
AcDbSpline
 62
7
  6
CONTINUOUS
 70
0
 71
3
 72
25
 73
21
 74
0
 42
0.0000001
 43
0.0000001
 44
0.0000000001
 40
0.0
 40
0.0
 40
0.0
 40
0.0
 40
0.0733498266
 40
0.1457650709
 40
0.2170239282
 40
0.2869272871
 40
0.3553039639
 40
0.4220144458
 40
0.4869592086
 40
0.5187558079
 40
0.5500934252
 40
0.6113821344
 40
0.6708823152
 40
0.728697086
 40
0.7849853129
 40
0.8126316782
 40
0.8399814385
 40
0.8939234712
 40
0.9471598936
 40
1.0
 40
1.0
 40
1.0
 40
1.0
 10
7.1890063073
 20
9.5682112108
 30
0.0
 10
7.1887317353
 20
9.5665289318
 30
0.0
 10
7.1880845881
 20
9.5632013987
 30
0.0
 10
7.1868152648
 20
9.558317143
 30
0.0
 10
7.1852607645
 20
9.5535999038
 30
0.0
 10
7.1834321854
 20
9.5490829338
 30
0.0
 10
7.1813421284
 20
9.5447977883
 30
0.0
 10
7.1790049991
 20
9.5407748083
 30
0.0
 10
7.1768498638
 20
9.537641823
 30
0.0
 10
7.1750161734
 20
9.5352964336
 30
0.0
 10
7.1731417438
 20
9.5330940034
 30
0.0
 10
7.1706805784
 20
9.5305494106
 30
0.0
 10
7.1675316927
 20
9.5278363321
 30
0.0
 10
7.1642312111
 20
9.5255051881
 30
0.0
 10
7.1613553765
 20
9.5238854154
 30
0.0
 10
7.1590060044
 20
9.5228018031
 30
0.0
 10
7.1566515289
 20
9.5218687571
 30
0.0
 10
7.1536521254
 20
9.5209613485
 30
0.0
 10
7.1499843035
 20
9.5203025208
 30
0.0
 10
7.1475167671
 20
9.5201550803
 30
0.0
 10
7.1462888432
 20
9.5201550803
 30
0.0
  0
SPLINE
  5
3FB
100
AcDbEntity
  8
0
100
AcDbSpline
 62
7
  6
CONTINUOUS
 70
0
 71
3
 72
26
 73
22
 74
0
 42
0.0000001
 43
0.0000001
 44
0.0000000001
 40
0.0
 40
0.0
 40
0.0
 40
0.0
 40
0.0270635144
 40
0.0547295194
 40
0.1117637289
 40
0.1709689232
 40
0.2013359802
 40
0.2321645945
 40
0.2634187617
 40
0.2950598116
 40
0.3593243492
 40
0.424621795
 40
0.4905828704
 40
0.5568307878
 40
0.6229896666
 40
0.6886988484
 40
0.7536208885
 40
0.8174490265
 40
0.8799193781
 40
0.9408204111
 40
1.0
 40
1.0
 40
1.0
 40
1.0
 10
15.1742887749
 20
9.6312921613
 30
0.0
 10
15.1749223018
 20
9.6305406141
 30
0.0
 10
15.17615939
 20
9.628983065
 30
0.0
 10
15.1785066167
 20
9.6256692798
 30
0.0
 10
15.1811829627
 20
9.6211684515
 30
0.0
 10
15.1834511172
 20
9.6163420548
 30
0.0
 10
15.1850411635
 20
9.6122671934
 30
0.0
 10
15.1861238278
 20
9.6090875964
 30
0.0
 10
15.1870827487
 20
9.6058203403
 30
0.0
 10
15.1881987186
 20
9.601337633
 30
0.0
 10
15.1892645227
 20
9.5955736746
 30
0.0
 10
15.1900086094
 20
9.5885045612
 30
0.0
 10
15.1902159178
 20
9.581327286
 30
0.0
 10
15.1898838627
 20
9.5741235376
 30
0.0
 10
15.1890161383
 20
9.5669737049
 30
0.0
 10
15.187622161
 20
9.5599565542
 30
0.0
 10
15.1857168894
 20
9.5531482336
 30
0.0
 10
15.1833204656
 20
9.5466217167
 30
0.0
 10
15.1804580408
 20
9.5404456029
 30
0.0
 10
15.1771597662
 20
9.5346846167
 30
0.0
 10
15.1746542751
 20
9.5311055468
 30
0.0
 10
15.1733371675
 20
9.5294069782
 30
0.0
  0
SPLINE
  5
3FC
100
AcDbEntity
  8
0
100
AcDbSpline
 62
7
  6
CONTINUOUS
 70
0
 71
3
 72
11
 73
7
 74
0
 42
0.0000001
 43
0.0000001
 44
0.0000000001
 40
0.0
 40
0.0
 40
0.0
 40
0.0
 40
0.2639178691
 40
0.5180450849
 40
0.7630030472
 40
1.0
 40
1.0
 40
1.0
 40
1.0
 10
15.1742887749
 20
9.6312921613
 30
0.0
 10
15.1730681095
 20
9.6327924335
 30
0.0
 10
15.1705153387
 20
9.6356146857
 30
0.0
 10
15.166305628
 20
9.6393146054
 30
0.0
 10
15.1618345761
 20
9.6423577414
 30
0.0
 10
15.1586655254
 20
9.6439468484
 30
0.0
 10
15.1570612796
 20
9.6446124246
 30
0.0
  0
SPLINE
  5
3FD
100
AcDbEntity
  8
0
100
AcDbSpline
 62
7
  6
CONTINUOUS
 70
0
 71
3
 72
24
 73
20
 74
0
 42
0.0000001
 43
0.0000001
 44
0.0000000001
 40
0.0
 40
0.0
 40
0.0
 40
0.0
 40
0.0528887707
 40
0.1061704708
 40
0.1601514114
 40
0.1875173101
 40
0.2151773419
 40
0.271485154
 40
0.3293084301
 40
0.3888062321
 40
0.4500826326
 40
0.5131826991
 40
0.5781009455
 40
0.6447815065
 40
0.7131280023
 40
0.7830041097
 40
0.8542423477
 40
0.9266470073
 40
1.0
 40
1.0
 40
1.0
 40
1.0
 10
15.1462888432
 20
9.6441550803
 30
0.0
 10
15.1475105017
 20
9.6441550803
 30
0.0
 10
15.1499653363
 20
9.6440091509
 30
0.0
 10
15.1536146256
 20
9.6433570534
 30
0.0
 10
15.1565994556
 20
9.6424588238
 30
0.0
 10
15.1589429329
 20
9.6415351192
 30
0.0
 10
15.1612814278
 20
9.6404624118
 30
0.0
 10
15.1641446339
 20
9.6388588355
 30
0.0
 10
15.1674321554
 20
9.636550612
 30
0.0
 10
15.1705704067
 20
9.6338636563
 30
0.0
 10
15.1735373321
 20
9.6308168946
 30
0.0
 10
15.1763133136
 20
9.6274322226
 30
0.0
 10
15.1788788124
 20
9.6237328929
 30
0.0
 10
15.1812168867
 20
9.6197450756
 30
0.0
 10
15.1833111064
 20
9.6154962344
 30
0.0
 10
15.1851474084
 20
9.6110160325
 30
0.0
 10
15.1867131186
 20
9.6063354549
 30
0.0
 10
15.1879973055
 20
9.6014871842
 30
0.0
 10
15.1886565597
 20
9.5981830199
 30
0.0
 10
15.1889378089
 20
9.5965121713
 30
0.0
  0
SPLINE
  5
3FE
100
AcDbEntity
  8
0
100
AcDbSpline
 62
7
  6
CONTINUOUS
 70
0
 71
3
 72
25
 73
21
 74
0
 42
0.0000001
 43
0.0000001
 44
0.0000000001
 40
0.0
 40
0.0
 40
0.0
 40
0.0
 40
0.0733498266
 40
0.1457650709
 40
0.2170239282
 40
0.2869272871
 40
0.3553039639
 40
0.4220144458
 40
0.4869592086
 40
0.5187558079
 40
0.5500934252
 40
0.6113821344
 40
0.6708823152
 40
0.728697086
 40
0.7849853129
 40
0.8126316782
 40
0.8399814385
 40
0.8939234712
 40
0.9471598936
 40
1.0
 40
1.0
 40
1.0
 40
1.0
 10
15.1890063073
 20
9.5682112108
 30
0.0
 10
15.1887317353
 20
9.5665289318
 30
0.0
 10
15.1880845881
 20
9.5632013987
 30
0.0
 10
15.1868152648
 20
9.558317143
 30
0.0
 10
15.1852607645
 20
9.5535999038
 30
0.0
 10
15.1834321854
 20
9.5490829338
 30
0.0
 10
15.1813421284
 20
9.5447977883
 30
0.0
 10
15.1790049991
 20
9.5407748083
 30
0.0
 10
15.1768498638
 20
9.537641823
 30
0.0
 10
15.1750161734
 20
9.5352964336
 30
0.0
 10
15.1731417438
 20
9.5330940034
 30
0.0
 10
15.1706805784
 20
9.5305494106
 30
0.0
 10
15.1675316927
 20
9.5278363321
 30
0.0
 10
15.1642312111
 20
9.5255051881
 30
0.0
 10
15.1613553765
 20
9.5238854154
 30
0.0
 10
15.1590060044
 20
9.5228018031
 30
0.0
 10
15.1566515289
 20
9.5218687571
 30
0.0
 10
15.1536521254
 20
9.5209613485
 30
0.0
 10
15.1499843035
 20
9.5203025208
 30
0.0
 10
15.1475167671
 20
9.5201550803
 30
0.0
 10
15.1462888432
 20
9.5201550803
 30
0.0
  0
LINE
  5
3FF
100
AcDbEntity
  8
0
100
AcDbLine
 62
7
  6
CONTINUOUS
 10
6.7291923427
 20
10.6080413906
 11
6.7296443958
 21
10.6081158465
  0
LINE
  5
400
100
AcDbEntity
  8
0
100
AcDbLine
 62
7
  6
CONTINUOUS
 10
6.7296443958
 20
10.6081158465
 11
6.7351923427
 21
10.6088709424
  0
LINE
  5
401
100
AcDbEntity
  8
0
100
AcDbLine
 62
7
  6
CONTINUOUS
 10
6.7731923427
 20
10.6133998829
 11
6.7791614965
 21
10.6140015973
  0
SPLINE
  5
402
100
AcDbEntity
  8
0
100
AcDbSpline
 62
7
  6
CONTINUOUS
 70
0
 71
3
 72
9
 73
5
 74
0
 42
0.0000001
 43
0.0000001
 44
0.0000000001
 40
0.0
 40
0.0
 40
0.0
 40
0.0
 40
0.3499335395
 40
1.0
 40
1.0
 40
1.0
 40
1.0
 10
6.7791614965
 20
10.6140015973
 30
0.0
 10
6.7791647614
 20
10.6140017378
 30
0.0
 10
6.7791740847
 20
10.6140020273
 30
0.0
 10
6.7791834669
 20
10.6140024712
 30
0.0
 10
6.7791895059
 20
10.6140018499
 30
0.0
  0
LINE
  5
403
100
AcDbEntity
  8
0
100
AcDbLine
 62
7
  6
CONTINUOUS
 10
6.8576923427
 20
10.6200900858
 11
6.8580402483
 21
10.6200818334
  0
LINE
  5
404
100
AcDbEntity
  8
0
100
AcDbLine
 62
7
  6
CONTINUOUS
 10
6.8580402483
 20
10.6200818334
 11
6.859570917
 21
10.6200491066
  0
LINE
  5
405
100
AcDbEntity
  8
0
100
AcDbLine
 62
7
  6
CONTINUOUS
 10
6.859570917
 20
10.6200491066
 11
6.8930015386
 21
10.6198205121
  0
LINE
  5
406
100
AcDbEntity
  8
0
100
AcDbLine
 62
7
  6
CONTINUOUS
 10
6.8930015386
 20
10.6198205121
 11
6.893966978
 21
10.6198204349
  0
LINE
  5
407
100
AcDbEntity
  8
0
100
AcDbLine
 62
7
  6
CONTINUOUS
 10
6.893966978
 20
10.6198204349
 11
6.978997027
 21
10.6199162959
  0
LINE
  5
408
100
AcDbEntity
  8
0
100
AcDbLine
 62
7
  6
CONTINUOUS
 10
6.978997027
 20
10.6199162959
 11
7.0128299702
 21
10.6202019945
  0
LINE
  5
409
100
AcDbEntity
  8
0
100
AcDbLine
 62
7
  6
CONTINUOUS
 10
7.0128299702
 20
10.6202019945
 11
7.0146923428
 21
10.6202421503
  0
SPLINE
  5
40A
100
AcDbEntity
  8
0
100
AcDbSpline
 62
7
  6
CONTINUOUS
 70
0
 71
3
 72
26
 73
22
 74
0
 42
0.0000001
 43
0.0000001
 44
0.0000000001
 40
0.0
 40
0.0
 40
0.0
 40
0.0
 40
0.0015740036
 40
0.0030108832
 40
0.0049468391
 40
0.0073970725
 40
0.0103683995
 40
0.0178855104
 40
0.0275098021
 40
0.0392419514
 40
0.0690050914
 40
0.1070492118
 40
0.1532035359
 40
0.2072888314
 40
0.2690585161
 40
0.3382152712
 40
0.4144592132
 40
0.4974620355
 40
0.5868595955
 40
0.7833154866
 40
1.0
 40
1.0
 40
1.0
 40
1.0
 10
7.0941923427
 20
10.6139546501
 30
0.0
 10
7.0941923427
 20
10.6139449226
 30
0.0
 10
7.094172399
 20
10.6139319047
 30
0.0
 10
7.0941451323
 20
10.6139227085
 30
0.0
 10
7.0941094906
 20
10.613913982
 30
0.0
 10
7.0940648801
 20
10.6139064435
 30
0.0
 10
7.0939854317
 20
10.6138963039
 30
0.0
 10
7.0938615348
 20
10.6138865575
 30
0.0
 10
7.0936832421
 20
10.6138783133
 30
0.0
 10
7.0933673988
 20
10.6138708728
 30
0.0
 10
7.0928757769
 20
10.6138712218
 30
0.0
 10
7.092171583
 20
10.6138834978
 30
0.0
 10
7.0913173182
 20
10.6139082036
 30
0.0
 10
7.0903167684
 20
10.6139452989
 30
0.0
 10
7.0891744428
 20
10.6139947081
 30
0.0
 10
7.0878955873
 20
10.6140562143
 30
0.0
 10
7.0864859405
 20
10.6141295929
 30
0.0
 10
7.0849516462
 20
10.6142145487
 30
0.0
 10
7.0826759345
 20
10.6143470252
 30
0.0
 10
7.0795761584
 20
10.614539349
 30
0.0
 10
7.0770284364
 20
10.6147072228
 30
0.0
 10
7.0756923427
 20
10.6147973183
 30
0.0
  0
LINE
  5
40B
100
AcDbEntity
  8
0
100
AcDbLine
 62
7
  6
CONTINUOUS
 10
6.9789923427
 20
10.6216049991
 11
6.9781323774
 21
10.6215479328
  0
SPLINE
  5
40C
100
AcDbEntity
  8
0
100
AcDbSpline
 62
7
  6
CONTINUOUS
 70
0
 71
3
 72
23
 73
19
 74
0
 42
0.0000001
 43
0.0000001
 44
0.0000000001
 40
0.0
 40
0.0
 40
0.0
 40
0.0
 40
0.0185760567
 40
0.0505350398
 40
0.0991238469
 40
0.1657673466
 40
0.2480341062
 40
0.3421558679
 40
0.44476348
 40
0.5509906142
 40
0.6540974509
 40
0.749038997
 40
0.8321332627
 40
0.8989620824
 40
0.9464270484
 40
0.9763577125
 40
0.9928428154
 40
1.0
 40
1.0
 40
1.0
 40
1.0
 10
6.9781323774
 20
10.6215479328
 30
0.0
 10
6.9776128087
 20
10.6215187305
 30
0.0
 10
6.976198547
 20
10.6214539161
 30
0.0
 10
6.973423217
 20
10.6213606904
 30
0.0
 10
6.9693008945
 20
10.6212634424
 30
0.0
 10
6.9637688423
 20
10.6211750326
 30
0.0
 10
6.9569610057
 20
10.6210957883
 30
0.0
 10
6.9491455173
 20
10.6210268626
 30
0.0
 10
6.9406586294
 20
10.6209781034
 30
0.0
 10
6.9319198871
 20
10.6209668036
 30
0.0
 10
6.9233959527
 20
10.6209941654
 30
0.0
 10
6.9155201801
 20
10.6210436087
 30
0.0
 10
6.9086608428
 20
10.6211069339
 30
0.0
 10
6.9031317045
 20
10.621184167
 30
0.0
 10
6.8990924544
 20
10.621278267
 30
0.0
 10
6.8964640364
 20
10.6213730605
 30
0.0
 10
6.8949654364
 20
10.6214544766
 30
0.0
 10
6.8943048839
 20
10.6215048562
 30
0.0
 10
6.8941054871
 20
10.6215258691
 30
0.0
  0
LINE
  5
40D
100
AcDbEntity
  8
0
100
AcDbLine
 62
7
  6
CONTINUOUS
 10
6.8941054871
 20
10.6215258691
 11
6.8939923427
 21
10.6215391965
  0
SPLINE
  5
40E
100
AcDbEntity
  8
0
100
AcDbSpline
 62
7
  6
CONTINUOUS
 70
0
 71
3
 72
26
 73
22
 74
0
 42
0.0000001
 43
0.0000001
 44
0.0000000001
 40
0.0
 40
0.0
 40
0.0
 40
0.0
 40
0.0007975694
 40
0.0019846981
 40
0.0058548926
 40
0.0118629625
 40
0.020044787
 40
0.0304047461
 40
0.0429375807
 40
0.057632734
 40
0.0744645819
 40
0.114401598
 40
0.1624707332
 40
0.21838002
 40
0.2817448077
 40
0.3521266516
 40
0.4290839843
 40
0.5121425976
 40
0.6008002099
 40
0.7928128341
 40
1.0
 40
1.0
 40
1.0
 40
1.0
 10
6.6891923427
 20
10.6016373431
 30
0.0
 10
6.6891923427
 20
10.6016328527
 30
0.0
 10
6.6891871319
 20
10.6016220621
 30
0.0
 10
6.6891625731
 20
10.6016000033
 30
0.0
 10
6.6891070352
 20
10.6015703117
 30
0.0
 10
6.6890133694
 20
10.6015312517
 30
0.0
 10
6.6888828149
 20
10.6014853826
 30
0.0
 10
6.6887159597
 20
10.6014328627
 30
0.0
 10
6.6885126776
 20
10.6013739298
 30
0.0
 10
6.6882733378
 20
10.6013087275
 30
0.0
 10
6.6878838624
 20
10.6012077306
 30
0.0
 10
6.6873103888
 20
10.6010679175
 30
0.0
 10
6.6865209519
 20
10.6008853823
 30
0.0
 10
6.6856011813
 20
10.6006811886
 30
0.0
 10
6.6845572753
 20
10.600456648
 30
0.0
 10
6.6833962302
 20
10.6002132527
 30
0.0
 10
6.6821255342
 20
10.5999525727
 30
0.0
 10
6.6807530261
 20
10.5996762239
 30
0.0
 10
6.6787442141
 20
10.5992784168
 30
0.0
 10
6.6760475396
 20
10.5987566626
 30
0.0
 10
6.673839002
 20
10.5983398236
 30
0.0
 10
6.6726923427
 20
10.5981257099
 30
0.0
  0
SPLINE
  5
40F
100
AcDbEntity
  8
0
100
AcDbSpline
 62
7
  6
CONTINUOUS
 70
0
 71
3
 72
26
 73
22
 74
0
 42
0.0000001
 43
0.0000001
 44
0.0000000001
 40
0.0
 40
0.0
 40
0.0
 40
0.0
 40
0.2095880311
 40
0.4032317133
 40
0.4923875571
 40
0.5757314791
 40
0.6527589928
 40
0.7230117929
 40
0.7860687117
 40
0.8415119893
 40
0.8889932605
 40
0.9282568504
 40
0.959058374
 40
0.9712222385
 40
0.9812154215
 40
0.9890372751
 40
0.9921371227
 40
0.9947005372
 40
0.9967355649
 40
0.9982601074
 40
1.0
 40
1.0
 40
1.0
 40
1.0
 10
6.8356923427
 20
10.6175939464
 30
0.0
 10
6.8345391882
 20
10.6175328376
 30
0.0
 10
6.8323203624
 20
10.6174197855
 30
0.0
 10
6.8296103172
 20
10.6172946061
 30
0.0
 10
6.8275947108
 20
10.6172106754
 30
0.0
 10
6.8262208883
 20
10.6171580561
 30
0.0
 10
6.8249509612
 20
10.617114317
 30
0.0
 10
6.8237925734
 20
10.6170796957
 30
0.0
 10
6.8227528982
 20
10.6170543422
 30
0.0
 10
6.8218385168
 20
10.617038411
 30
0.0
 10
6.8210551069
 20
10.6170319189
 30
0.0
 10
6.8204074531
 20
10.6170348321
 30
0.0
 10
6.8199544479
 20
10.6170452722
 30
0.0
 10
6.8196630092
 20
10.6170598163
 30
0.0
 10
6.8194982592
 20
10.6170721539
 30
0.0
 10
6.8193837174
 20
10.6170848255
 30
0.0
 10
6.8193102969
 20
10.6170968796
 30
0.0
 10
6.819268948
 20
10.6171055546
 30
0.0
 10
6.8192360324
 20
10.6171151804
 30
0.0
 10
6.8192101787
 20
10.6171253722
 30
0.0
 10
6.8191923427
 20
10.617139024
 30
0.0
 10
6.8191923427
 20
10.6171486103
 30
0.0
  0
SPLINE
  5
410
100
AcDbEntity
  8
0
100
AcDbSpline
 62
7
  6
CONTINUOUS
 70
0
 71
3
 72
26
 73
22
 74
0
 42
0.0000001
 43
0.0000001
 44
0.0000000001
 40
0.0
 40
0.0
 40
0.0
 40
0.0
 40
0.2150192418
 40
0.4104015083
 40
0.4994659811
 40
0.5822696467
 40
0.6584524882
 40
0.7276756897
 40
0.7896283181
 40
0.8440020274
 40
0.8905245889
 40
0.9290009327
 40
0.945164933
 40
0.9592498435
 40
0.9712388027
 40
0.9811255033
 40
0.988908014
 40
0.9945925071
 40
0.9982121453
 40
0.9992959884
 40
1.0
 40
1.0
 40
1.0
 40
1.0
 10
7.1486923427
 20
10.6065210913
 30
0.0
 10
7.1473602357
 20
10.606733643
 30
0.0
 10
7.1448182914
 20
10.6071431899
 30
0.0
 10
7.1417265563
 20
10.6076530313
 30
0.0
 10
7.1394546356
 20
10.608036208
 30
0.0
 10
7.1379208296
 20
10.6082992035
 30
0.0
 10
7.1365104896
 20
10.6085456662
 30
0.0
 10
7.1352298726
 20
10.6087745026
 30
0.0
 10
7.1340849113
 20
10.6089846107
 30
0.0
 10
7.1330811281
 20
10.6091749353
 30
0.0
 10
7.1322233565
 20
10.6093445797
 30
0.0
 10
7.1316020976
 20
10.6094744313
 30
0.0
 10
7.1311812637
 20
10.6095682663
 30
0.0
 10
7.1309232907
 20
10.6096288302
 30
0.0
 10
7.1307044201
 20
10.6096836614
 30
0.0
 10
7.1305249535
 20
10.609732649
 30
0.0
 10
7.1303846979
 20
10.6097755914
 30
0.0
 10
7.1302842292
 20
10.6098123066
 30
0.0
 10
7.1302246662
 20
10.6098404662
 30
0.0
 10
7.1301981392
 20
10.6098615644
 30
0.0
 10
7.1301923427
 20
10.6098722548
 30
0.0
 10
7.1301923427
 20
10.6098766715
 30
0.0
  0
LINE
  5
411
100
AcDbEntity
  8
0
100
AcDbLine
 62
7
  6
CONTINUOUS
 10
7.1301923427
 20
10.608868685
 11
7.1310119489
 21
10.6086000925
  0
SPLINE
  5
412
100
AcDbEntity
  8
0
100
AcDbSpline
 62
7
  6
CONTINUOUS
 70
0
 71
3
 72
14
 73
10
 74
0
 42
0.0000001
 43
0.0000001
 44
0.0000000001
 40
0.0
 40
0.0
 40
0.0
 40
0.0
 40
0.0578341316
 40
0.1372766095
 40
0.2374262023
 40
0.3570335902
 40
0.4947296724
 40
0.6490094549
 40
1.0
 40
1.0
 40
1.0
 40
1.0
 10
7.1310119489
 20
10.6086000925
 30
0.0
 10
7.1313454166
 20
10.6085209943
 30
0.0
 10
7.1321411002
 20
10.608351046
 30
0.0
 10
7.1335217452
 20
10.608080183
 30
0.0
 10
7.1352652879
 20
10.6077579401
 30
0.0
 10
7.1373509708
 20
10.607387958
 30
0.0
 10
7.1397547689
 20
10.6069749508
 30
0.0
 10
7.1435125878
 20
10.6063454919
 30
0.0
 10
7.1464682106
 20
10.6058663069
 30
0.0
 10
7.1485220931
 20
10.6055380944
 30
0.0
  0
SPLINE
  5
413
100
AcDbEntity
  8
0
100
AcDbSpline
 62
7
  6
CONTINUOUS
 70
0
 71
3
 72
26
 73
22
 74
0
 42
0.0000001
 43
0.0000001
 44
0.0000000001
 40
0.0
 40
0.0
 40
0.0
 40
0.0
 40
0.2166842861
 40
0.4131400366
 40
0.5025375396
 40
0.5855403127
 40
0.661784213
 40
0.7309409291
 40
0.7927105782
 40
0.8467958419
 40
0.8929501271
 40
0.9309942005
 40
0.9607572941
 40
0.9724894256
 40
0.9821137093
 40
0.9896308333
 40
0.9926021819
 40
0.9950524533
 40
0.9969884734
 40
0.9984254625
 40
1.0
 40
1.0
 40
1.0
 40
1.0
 10
7.0756923427
 20
10.6137925556
 30
0.0
 10
7.0770284346
 20
10.6137024017
 30
0.0
 10
7.0795761534
 20
10.6135344136
 30
0.0
 10
7.0826759275
 20
10.6133419671
 30
0.0
 10
7.0849516393
 20
10.6132094172
 30
0.0
 10
7.0864859342
 20
10.6131244156
 30
0.0
 10
7.0878955818
 20
10.6130509959
 30
0.0
 10
7.0891744381
 20
10.6129894522
 30
0.0
 10
7.0903167645
 20
10.6129400095
 30
0.0
 10
7.0913173152
 20
10.6129028849
 30
0.0
 10
7.0921715809
 20
10.6128781549
 30
0.0
 10
7.0928757755
 20
10.6128658617
 30
0.0
 10
7.093367398
 20
10.6128655052
 30
0.0
 10
7.0936832418
 20
10.612872946
 30
0.0
 10
7.0938615347
 20
10.612881193
 30
0.0
 10
7.0939854319
 20
10.6128909441
 30
0.0
 10
7.0940648801
 20
10.6129010892
 30
0.0
 10
7.0941094912
 20
10.6129086322
 30
0.0
 10
7.0941451323
 20
10.6129173639
 30
0.0
 10
7.0941724035
 20
10.6129265666
 30
0.0
 10
7.0941923427
 20
10.6129395948
 30
0.0
 10
7.0941923427
 20
10.6129493256
 30
0.0
  0
SPLINE
  5
414
100
AcDbEntity
  8
0
100
AcDbSpline
 62
7
  6
CONTINUOUS
 70
0
 71
3
 72
26
 73
22
 74
0
 42
0.0000001
 43
0.0000001
 44
0.0000000001
 40
0.0
 40
0.0
 40
0.0
 40
0.0
 40
0.2075525236
 40
0.3996907905
 40
0.4883564838
 40
0.5713973173
 40
0.6483149501
 40
0.718641656
 40
0.7819412413
 40
0.8377802358
 40
0.8857790014
 40
0.9256512113
 40
0.9424545643
 40
0.9571247692
 40
0.9696359247
 40
0.9799776604
 40
0.9881453458
 40
0.9941441022
 40
0.9980108717
 40
0.999199127
 40
1.0
 40
1.0
 40
1.0
 40
1.0
 10
6.6728872481
 20
10.5971464007
 30
0.0
 10
6.6740224065
 20
10.597358772
 30
0.0
 10
6.6762076268
 20
10.5977719915
 30
0.0
 10
6.6788752688
 20
10.5982891139
 30
0.0
 10
6.6808610515
 20
10.5986831006
 30
0.0
 10
6.6822171185
 20
10.5989566621
 30
0.0
 10
6.6834722201
 20
10.5992146612
 30
0.0
 10
6.6846186959
 20
10.5994555159
 30
0.0
 10
6.6856492397
 20
10.59967768
 30
0.0
 10
6.6865570229
 20
10.599879683
 30
0.0
 10
6.6873360064
 20
10.600060239
 30
0.0
 10
6.6879017976
 20
10.6001985407
 30
0.0
 10
6.6882860059
 20
10.6002984595
 30
0.0
 10
6.6885220895
 20
10.6003629737
 30
0.0
 10
6.6887225919
 20
10.6004212986
 30
0.0
 10
6.6888871506
 20
10.6004732927
 30
0.0
 10
6.6890158973
 20
10.6005187195
 30
0.0
 10
6.6891082624
 20
10.6005574278
 30
0.0
 10
6.6891630239
 20
10.6005868704
 30
0.0
 10
6.689187225
 20
10.6006087697
 30
0.0
 10
6.6891923427
 20
10.6006194692
 30
0.0
 10
6.6891923427
 20
10.6006239254
 30
0.0
  0
LINE
  5
415
100
AcDbEntity
  8
0
100
AcDbLine
 62
7
  6
CONTINUOUS
 10
6.8939923427
 20
10.6205387989
 11
6.8963316052
 21
10.6203846508
  0
SPLINE
  5
416
100
AcDbEntity
  8
0
100
AcDbSpline
 62
7
  6
CONTINUOUS
 70
0
 71
3
 72
21
 73
17
 74
0
 42
0.0000001
 43
0.0000001
 44
0.0000000001
 40
0.0
 40
0.0
 40
0.0
 40
0.0
 40
0.0252458236
 40
0.0619898357
 40
0.1116227399
 40
0.1735861251
 40
0.2453374335
 40
0.3247049489
 40
0.4982538639
 40
0.6714369693
 40
0.750417232
 40
0.8218206313
 40
0.8837729509
 40
0.9342030316
 40
0.9726011585
 40
1.0
 40
1.0
 40
1.0
 40
1.0
 10
6.8963316052
 20
10.6203846508
 30
0.0
 10
6.897003327
 20
10.6203541453
 30
0.0
 10
6.8986533439
 20
10.6202934317
 30
0.0
 10
6.9016254141
 20
10.6202162765
 30
0.0
 10
6.9055758328
 20
10.6201466965
 30
0.0
 10
6.9104589079
 20
10.6200890314
 30
0.0
 10
6.9161340718
 20
10.6200394297
 30
0.0
 10
6.92478132
 20
10.6199849575
 30
0.0
 10
6.9361303931
 20
10.6199552679
 30
0.0
 10
6.9474690486
 20
10.6200121736
 30
0.0
 10
6.9560868153
 20
10.6200874567
 30
0.0
 10
6.9617419735
 20
10.6201500389
 30
0.0
 10
6.9666365873
 20
10.620217908
 30
0.0
 10
6.9706518964
 20
10.6202931207
 30
0.0
 10
6.973746595
 20
10.620371599
 30
0.0
 10
6.9754981224
 20
10.6204302767
 30
0.0
 10
6.9762273158
 20
10.6204590045
 30
0.0
  0
LINE
  5
417
100
AcDbEntity
  8
0
100
AcDbLine
 62
7
  6
CONTINUOUS
 10
6.9762273158
 20
10.6204590045
 11
6.9789923427
 21
10.620604644
  0
LINE
  5
418
100
AcDbEntity
  8
0
100
AcDbLine
 62
7
  6
CONTINUOUS
 10
6.7291923427
 20
10.606589496
 11
6.7299253964
 21
10.6065311177
  0
SPLINE
  5
419
100
AcDbEntity
  8
0
100
AcDbSpline
 62
7
  6
CONTINUOUS
 70
0
 71
3
 72
14
 73
10
 74
0
 42
0.0000001
 43
0.0000001
 44
0.0000000001
 40
0.0
 40
0.0
 40
0.0
 40
0.0
 40
0.0583794724
 40
0.1391707053
 40
0.2411378147
 40
0.3625466347
 40
0.5014723554
 40
0.6557390829
 40
1.0
 40
1.0
 40
1.0
 40
1.0
 10
6.7299253964
 20
10.6065311177
 30
0.0
 10
6.7302335298
 20
10.6065378308
 30
0.0
 10
6.7309675619
 20
10.6065738855
 30
0.0
 10
6.7322376072
 20
10.6066612147
 30
0.0
 10
6.7338381207
 20
10.6067921685
 30
0.0
 10
6.7357430811
 20
10.6069644069
 30
0.0
 10
6.7379216984
 20
10.6071757797
 30
0.0
 10
6.7412696216
 20
10.6075179001
 30
0.0
 10
6.7438861359
 20
10.6078024789
 30
0.0
 10
6.7456923427
 20
10.6080045882
 30
0.0
  0
SPLINE
  5
41A
100
AcDbEntity
  8
0
100
AcDbSpline
 62
7
  6
CONTINUOUS
 70
0
 71
3
 72
25
 73
21
 74
0
 42
0.0000001
 43
0.0000001
 44
0.0000000001
 40
0.0
 40
0.0
 40
0.0
 40
0.0
 40
0.2082843153
 40
0.4010196928
 40
0.4898681196
 40
0.5730085801
 40
0.6499465336
 40
0.7202173637
 40
0.7833986773
 40
0.8390721236
 40
0.886865239
 40
0.9265070932
 40
0.9431921825
 40
0.9577453436
 40
0.9701416274
 40
0.9803716609
 40
0.9884326083
 40
0.9943318511
 40
0.9981105309
 40
1.0
 40
1.0
 40
1.0
 40
1.0
 10
6.7626923427
 20
10.610033482
 30
0.0
 10
6.7638434308
 20
10.6101794244
 30
0.0
 10
6.7660591122
 20
10.6104648793
 30
0.0
 10
6.7687640406
 20
10.6108261975
 30
0.0
 10
6.7707767314
 20
10.6111041741
 30
0.0
 10
6.7721497821
 20
10.6112983701
 30
0.0
 10
6.7734196796
 20
10.6114828331
 30
0.0
 10
6.7745787885
 20
10.6116564439
 30
0.0
 10
6.7756198946
 20
10.6118180857
 30
0.0
 10
6.7765362909
 20
10.6119666918
 30
0.0
 10
6.7773220684
 20
10.6121013419
 30
0.0
 10
6.7778925645
 20
10.6122062625
 30
0.0
 10
6.7782797966
 20
10.6122834537
 30
0.0
 10
6.7785176054
 20
10.6123339799
 30
0.0
 10
6.7787193954
 20
10.6123802995
 30
0.0
 10
6.7788853088
 20
10.6124226657
 30
0.0
 10
6.779014148
 20
10.6124598379
 30
0.0
 10
6.7791087133
 20
10.6124941833
 30
0.0
 10
6.7791643491
 20
10.6125196461
 30
0.0
 10
6.7791923427
 20
10.6125441592
 30
0.0
 10
6.7791923427
 20
10.612554685
 30
0.0
  0
SPLINE
  5
41B
100
AcDbEntity
  8
0
100
AcDbSpline
 62
7
  6
CONTINUOUS
 70
0
 71
3
 72
25
 73
21
 74
0
 42
0.0000001
 43
0.0000001
 44
0.0000000001
 40
0.0
 40
0.0
 40
0.0
 40
0.0
 40
0.0018890356
 40
0.0056684451
 40
0.0115689993
 40
0.0196313687
 40
0.0298625082
 40
0.0422591702
 40
0.0568123763
 40
0.0734982439
 40
0.1131423768
 40
0.1609361086
 40
0.2166076899
 40
0.2797877392
 40
0.3500568722
 40
0.4269918256
 40
0.5101290994
 40
0.5989753286
 40
0.7917119477
 40
1.0
 40
1.0
 40
1.0
 40
1.0
 10
6.7791923427
 20
10.6135602622
 30
0.0
 10
6.7791923427
 20
10.613549739
 30
0.0
 10
6.779164324
 20
10.613525241
 30
0.0
 10
6.7791086806
 20
10.6134997981
 30
0.0
 10
6.7790140845
 20
10.6134654721
 30
0.0
 10
6.7788852213
 20
10.6134283219
 30
0.0
 10
6.7787192872
 20
10.6133859799
 30
0.0
 10
6.7785174865
 20
10.6133396857
 30
0.0
 10
6.7782796693
 20
10.6132891858
 30
0.0
 10
6.7778924179
 20
10.6132120367
 30
0.0
 10
6.7773218998
 20
10.6131071758
 30
0.0
 10
6.7765361155
 20
10.6129726095
 30
0.0
 10
6.7756197322
 20
10.6128241069
 30
0.0
 10
6.7745786522
 20
10.6126625863
 30
0.0
 10
6.7734195772
 20
10.6124891039
 30
0.0
 10
6.7721497271
 20
10.6123047694
 30
0.0
 10
6.7707767286
 20
10.6121107019
 30
0.0
 10
6.7687640707
 20
10.6118329017
 30
0.0
 10
6.7660591407
 20
10.6114718197
 30
0.0
 10
6.7638434442
 20
10.6111865545
 30
0.0
 10
6.7626923427
 20
10.6110407059
 30
0.0
  0
LINE
  5
41C
100
AcDbEntity
  8
0
100
AcDbLine
 62
7
  6
CONTINUOUS
 10
6.8191923427
 20
10.6161453603
 11
6.8199418612
 21
10.6160441142
  0
SPLINE
  5
41D
100
AcDbEntity
  8
0
100
AcDbSpline
 62
7
  6
CONTINUOUS
 70
0
 71
3
 72
14
 73
10
 74
0
 42
0.0000001
 43
0.0000001
 44
0.0000000001
 40
0.0
 40
0.0
 40
0.0
 40
0.0
 40
0.0587933518
 40
0.1397828798
 40
0.2417760603
 40
0.363090167
 40
0.5018560477
 40
0.6559543593
 40
1.0
 40
1.0
 40
1.0
 40
1.0
 10
6.8199418612
 20
10.6160441142
 30
0.0
 10
6.8202505749
 20
10.616033164
 30
0.0
 10
6.8209851556
 20
10.6160264984
 30
0.0
 10
6.8222554042
 20
10.6160395666
 30
0.0
 10
6.8238538395
 20
10.6160766062
 30
0.0
 10
6.825755274
 20
10.6161368159
 30
0.0
 10
6.8279298513
 20
10.6162198259
 30
0.0
 10
6.8312731301
 20
10.6163646831
 30
0.0
 10
6.8338872187
 20
10.6164952536
 30
0.0
 10
6.8356923427
 20
10.6165909741
 30
0.0
  0
SPLINE
  5
41E
100
AcDbEntity
  8
0
100
AcDbSpline
 62
7
  6
CONTINUOUS
 70
0
 71
3
 72
25
 73
21
 74
0
 42
0.0000001
 43
0.0000001
 44
0.0000000001
 40
0.0
 40
0.0
 40
0.0
 40
0.0
 40
0.2093632285
 40
0.4029501981
 40
0.4921396966
 40
0.5755469726
 40
0.6526575127
 40
0.7230015095
 40
0.7861498286
 40
0.8416766208
 40
0.8892203477
 40
0.9285168319
 40
0.9593147485
 40
0.9814191902
 40
0.9891977435
 40
0.9922718754
 40
0.9948071528
 40
0.9968120912
 40
0.9983057376
 40
1.0
 40
1.0
 40
1.0
 40
1.0
 10
6.7456923427
 20
10.6090131412
 30
0.0
 10
6.7445421272
 20
10.6088845199
 30
0.0
 10
6.7423278583
 20
10.6086415065
 30
0.0
 10
6.739622115
 20
10.6083573811
 30
0.0
 10
6.7376079522
 20
10.6081549473
 30
0.0
 10
6.7362340085
 20
10.6080214446
 30
0.0
 10
6.7349632904
 20
10.6079029062
 30
0.0
 10
6.7338036002
 20
10.6078000491
 30
0.0
 10
6.7327622693
 20
10.6077134533
 30
0.0
 10
6.7318460356
 20
10.6076436333
 30
0.0
 10
6.7310607682
 20
10.6075910384
 30
0.0
 10
6.7304113612
 20
10.6075557098
 30
0.0
 10
6.729902002
 20
10.6075379207
 30
0.0
 10
6.7295663407
 20
10.6075364497
 30
0.0
 10
6.7293843781
 20
10.6075459068
 30
0.0
 10
6.7293106808
 20
10.6075537649
 30
0.0
 10
6.7292692274
 20
10.6075600498
 30
0.0
 10
6.7292362224
 20
10.607567877
 30
0.0
 10
6.7292103146
 20
10.607576439
 30
0.0
 10
6.7291923427
 20
10.607589612
 30
0.0
 10
6.7291923427
 20
10.6075989781
 30
0.0
  0
LINE
  5
41F
100
AcDbEntity
  8
0
100
AcDbLine
 62
7
  6
CONTINUOUS
 10
14.5876923427
 20
10.5821397232
 11
14.589204337
 21
10.5824066584
  0
LINE
  5
420
100
AcDbEntity
  8
0
100
AcDbLine
 62
7
  6
CONTINUOUS
 10
14.589204337
 20
10.5824066584
 11
14.6113150172
 21
10.5863040831
  0
LINE
  5
421
100
AcDbEntity
  8
0
100
AcDbLine
 62
7
  6
CONTINUOUS
 10
14.7776943061
 20
10.6138785505
 11
14.7820561145
 21
10.6140182386
  0
LINE
  5
422
100
AcDbEntity
  8
0
100
AcDbLine
 62
7
  6
CONTINUOUS
 10
14.7820561145
 20
10.6140182386
 11
14.8126732703
 21
10.6154215101
  0
LINE
  5
423
100
AcDbEntity
  8
0
100
AcDbLine
 62
7
  6
CONTINUOUS
 10
14.8126732703
 20
10.6154215101
 11
14.8140476186
 21
10.6154925911
  0
LINE
  5
424
100
AcDbEntity
  8
0
100
AcDbLine
 62
7
  6
CONTINUOUS
 10
14.8140476186
 20
10.6154925911
 11
14.8990827947
 21
10.6199883255
  0
LINE
  5
425
100
AcDbEntity
  8
0
100
AcDbLine
 62
7
  6
CONTINUOUS
 10
14.8990827947
 20
10.6199883255
 11
14.9306072076
 21
10.6218597207
  0
LINE
  5
426
100
AcDbEntity
  8
0
100
AcDbLine
 62
7
  6
CONTINUOUS
 10
14.9306072076
 20
10.6218597207
 11
14.9343587289
 21
10.6221272539
  0
LINE
  5
427
100
AcDbEntity
  8
0
100
AcDbLine
 62
7
  6
CONTINUOUS
 10
14.9343587289
 20
10.6221272539
 11
14.9346923428
 21
10.6221521783
  0
LINE
  5
428
100
AcDbEntity
  8
0
100
AcDbLine
 62
7
  6
CONTINUOUS
 10
15.0982820933
 20
10.6118081565
 11
15.0984530669
 21
10.6118395562
  0
LINE
  5
429
100
AcDbEntity
  8
0
100
AcDbLine
 62
7
  6
CONTINUOUS
 10
15.2121923427
 20
10.595296814
 11
15.2534770103
 21
10.5878451194
  0
LINE
  5
42A
100
AcDbEntity
  8
0
100
AcDbLine
 62
7
  6
CONTINUOUS
 10
15.2534770103
 20
10.5878451194
 11
15.2581324544
 21
10.5870029901
  0
LINE
  5
42B
100
AcDbEntity
  8
0
100
AcDbLine
 62
7
  6
CONTINUOUS
 10
15.2581324544
 20
10.5870029901
 11
15.2583351374
 21
10.5869663191
  0
LINE
  5
42C
100
AcDbEntity
  8
0
100
AcDbLine
 62
7
  6
CONTINUOUS
 10
15.2583351374
 20
10.5869663191
 11
15.2600408445
 21
10.5866576854
  0
LINE
  5
42D
100
AcDbEntity
  8
0
100
AcDbLine
 62
7
  6
CONTINUOUS
 10
15.2600408445
 20
10.5866576854
 11
15.2951857628
 21
10.5802950768
  0
LINE
  5
42E
100
AcDbEntity
  8
0
100
AcDbLine
 62
7
  6
CONTINUOUS
 10
15.2951857628
 20
10.5802950768
 11
15.2966923426
 21
10.5800262402
  0
LINE
  5
42F
100
AcDbEntity
  8
0
100
AcDbLine
 62
7
  6
CONTINUOUS
 10
14.7566923427
 20
10.6112417578
 11
14.7523135134
 21
10.6105166895
  0
LINE
  5
430
100
AcDbEntity
  8
0
100
AcDbLine
 62
7
  6
CONTINUOUS
 10
14.7523135134
 20
10.6105166895
 11
14.7445061359
 21
10.6092124864
  0
LINE
  5
431
100
AcDbEntity
  8
0
100
AcDbLine
 62
7
  6
CONTINUOUS
 10
14.7445061359
 20
10.6092124864
 11
14.736124879
 21
10.6078029442
  0
LINE
  5
432
100
AcDbEntity
  8
0
100
AcDbLine
 62
7
  6
CONTINUOUS
 10
14.6691726974
 20
10.5963726086
 11
14.6654245741
 21
10.5957259235
  0
LINE
  5
433
100
AcDbEntity
  8
0
100
AcDbLine
 62
7
  6
CONTINUOUS
 10
14.6654245741
 20
10.5957259235
 11
14.639997642
 21
10.5913202802
  0
LINE
  5
434
100
AcDbEntity
  8
0
100
AcDbLine
 62
7
  6
CONTINUOUS
 10
14.639997642
 20
10.5913202802
 11
14.635882362
 21
10.5906039771
  0
LINE
  5
435
100
AcDbEntity
  8
0
100
AcDbLine
 62
7
  6
CONTINUOUS
 10
14.635882362
 20
10.5906039771
 11
14.6321167497
 21
10.5899476548
  0
LINE
  5
436
100
AcDbEntity
  8
0
100
AcDbLine
 62
7
  6
CONTINUOUS
 10
14.6321167497
 20
10.5899476548
 11
14.6297698381
 21
10.5895381563
  0
LINE
  5
437
100
AcDbEntity
  8
0
100
AcDbLine
 62
7
  6
CONTINUOUS
 10
14.6297698381
 20
10.5895381563
 11
14.6113150172
 21
10.5863040831
  0
SPLINE
  5
438
100
AcDbEntity
  8
0
100
AcDbSpline
 62
7
  6
CONTINUOUS
 70
0
 71
3
 72
9
 73
5
 74
0
 42
0.0000001
 43
0.0000001
 44
0.0000000001
 40
0.0
 40
0.0
 40
0.0
 40
0.0
 40
0.1226493935
 40
1.0
 40
1.0
 40
1.0
 40
1.0
 10
15.2583532627
 20
10.5886363386
 30
0.0
 10
15.2583532627
 20
10.5886369693
 30
0.0
 10
15.2583497944
 20
10.5886416487
 30
0.0
 10
15.2583433806
 20
10.5886389102
 30
0.0
 10
15.2583389413
 20
10.5886397142
 30
0.0
  0
SPLINE
  5
439
100
AcDbEntity
  8
0
100
AcDbSpline
 62
7
  6
CONTINUOUS
 70
0
 71
3
 72
9
 73
5
 74
0
 42
0.0000001
 43
0.0000001
 44
0.0000000001
 40
0.0
 40
0.0
 40
0.0
 40
0.0
 40
0.2101672472
 40
1.0
 40
1.0
 40
1.0
 40
1.0
 10
15.2583389413
 20
10.5886397142
 30
0.0
 10
15.2583376505
 20
10.588639948
 30
0.0
 10
15.2583316487
 20
10.5886417198
 30
0.0
 10
15.2583258642
 20
10.5886441795
 30
0.0
 10
15.2583210408
 20
10.5886451989
 30
0.0
  0
LINE
  5
43A
100
AcDbEntity
  8
0
100
AcDbLine
 62
7
  6
CONTINUOUS
 10
14.8139923427
 20
10.6162101106
 11
14.8148615621
 21
10.6161806068
  0
LINE
  5
43B
100
AcDbEntity
  8
0
100
AcDbLine
 62
7
  6
CONTINUOUS
 10
14.8148615621
 20
10.6161806068
 11
14.8176926125
 21
10.6161923187
  0
LINE
  5
43C
100
AcDbEntity
  8
0
100
AcDbLine
 62
7
  6
CONTINUOUS
 10
14.8945988699
 20
10.6202414776
 11
14.8989923427
 21
10.6206717763
  0
LINE
  5
43D
100
AcDbEntity
  8
0
100
AcDbLine
 62
7
  6
CONTINUOUS
 10
15.0848575327
 20
10.6144167465
 11
15.0591923427
 21
10.6161348097
  0
LINE
  5
43E
100
AcDbEntity
  8
0
100
AcDbLine
 62
7
  6
CONTINUOUS
 10
14.6356613602
 20
10.5911277694
 11
14.6324133201
 21
10.5906467867
  0
LINE
  5
43F
100
AcDbEntity
  8
0
100
AcDbLine
 62
7
  6
CONTINUOUS
 10
14.6324133201
 20
10.5906467867
 11
14.6297383983
 21
10.5902467355
  0
SPLINE
  5
440
100
AcDbEntity
  8
0
100
AcDbSpline
 62
7
  6
CONTINUOUS
 70
0
 71
3
 72
8
 73
4
 74
0
 42
0.0000001
 43
0.0000001
 44
0.0000000001
 40
0.0
 40
0.0
 40
0.0
 40
0.0
 40
1.0
 40
1.0
 40
1.0
 40
1.0
 10
14.6297383983
 20
10.5902467355
 30
0.0
 10
14.6297238017
 20
10.5902442975
 30
0.0
 10
14.6297092051
 20
10.5902418596
 30
0.0
 10
14.6296946086
 20
10.5902394217
 30
0.0
  0
SPLINE
  5
441
100
AcDbEntity
  8
0
100
AcDbSpline
 62
7
  6
CONTINUOUS
 70
0
 71
3
 72
28
 73
24
 74
0
 42
0.0000001
 43
0.0000001
 44
0.0000000001
 40
0.0
 40
0.0
 40
0.0
 40
0.0
 40
0.1945726672
 40
0.2895842603
 40
0.3817636325
 40
0.470273989
 40
0.5542916212
 40
0.6330121239
 40
0.7056550846
 40
0.7715382781
 40
0.8300160197
 40
0.8805350355
 40
0.9026547731
 40
0.9226016183
 40
0.9403321003
 40
0.9558083674
 40
0.9689931448
 40
0.9798505882
 40
0.9883580508
 40
0.994511328
 40
0.9983262932
 40
0.9993923893
 40
1.0
 40
1.0
 40
1.0
 40
1.0
 10
15.0351923427
 20
10.6178353132
 30
0.0
 10
15.0332421951
 20
10.6179583051
 30
0.0
 10
15.0303401218
 20
10.6181469711
 30
0.0
 10
15.0265150913
 20
10.6184078242
 30
0.0
 10
15.0237531656
 20
10.6186023866
 30
0.0
 10
15.0211018238
 20
10.6187954535
 30
0.0
 10
15.0185857693
 20
10.6189852089
 30
0.0
 10
15.0162291357
 20
10.6191697772
 30
0.0
 10
15.0140546465
 20
10.6193474211
 30
0.0
 10
15.0120834249
 20
10.6195163275
 30
0.0
 10
15.0103343351
 20
10.6196749004
 30
0.0
 10
15.0090237203
 20
10.6198020622
 30
0.0
 10
15.008098899
 20
10.619898227
 30
0.0
 10
15.0075019454
 20
10.6199635969
 30
0.0
 10
15.0069717101
 20
10.6200252898
 30
0.0
 10
15.00650943
 20
10.6200831366
 30
0.0
 10
15.0061161728
 20
10.6201369826
 30
0.0
 10
15.0057931753
 20
10.6201865554
 30
0.0
 10
15.0055405572
 20
10.6202317869
 30
0.0
 10
15.0053600256
 20
10.6202715967
 30
0.0
 10
15.0052525601
 20
10.6203044435
 30
0.0
 10
15.0052043718
 20
10.6203292951
 30
0.0
 10
15.0051923427
 20
10.6203440891
 30
0.0
 10
15.0051923427
 20
10.6203501911
 30
0.0
  0
LINE
  5
442
100
AcDbEntity
  8
0
100
AcDbLine
 62
7
  6
CONTINUOUS
 10
14.6356613602
 20
10.591127718
 11
14.668980108
 21
10.5965139044
  0
LINE
  5
443
100
AcDbEntity
  8
0
100
AcDbLine
 62
7
  6
CONTINUOUS
 10
14.668980108
 20
10.5965139044
 11
14.7021301159
 21
10.6020293228
  0
LINE
  5
444
100
AcDbEntity
  8
0
100
AcDbLine
 62
7
  6
CONTINUOUS
 10
14.8989923427
 20
10.6216720881
 11
14.8972900138
 21
10.6214841714
  0
SPLINE
  5
445
100
AcDbEntity
  8
0
100
AcDbSpline
 62
7
  6
CONTINUOUS
 70
0
 71
3
 72
23
 73
19
 74
0
 42
0.0000001
 43
0.0000001
 44
0.0000000001
 40
0.0
 40
0.0
 40
0.0
 40
0.0
 40
0.0264339966
 40
0.068233742
 40
0.1277578305
 40
0.204223106
 40
0.2938856315
 40
0.3934270352
 40
0.4989496838
 40
0.6043176192
 40
0.7035295179
 40
0.7926272311
 40
0.8677677766
 40
0.924497356
 40
0.9624284947
 40
0.9849097871
 40
0.9961791963
 40
1.0
 40
1.0
 40
1.0
 40
1.0
 10
14.8972900138
 20
10.6214841714
 30
0.0
 10
14.8965586141
 20
10.6214122323
 30
0.0
 10
14.8946690729
 20
10.6212427922
 30
0.0
 10
14.891128061
 20
10.6209633409
 30
0.0
 10
14.8861972529
 20
10.6206161792
 30
0.0
 10
14.8799366528
 20
10.6202112177
 30
0.0
 10
14.8725644101
 20
10.6197564561
 30
0.0
 10
14.8643844164
 20
10.619275436
 30
0.0
 10
14.855766735
 20
10.618799923
 30
0.0
 10
14.8471559686
 20
10.6183672794
 30
0.0
 10
14.8389999299
 20
10.61798577
 30
0.0
 10
14.8316823968
 20
10.617664862
 30
0.0
 10
14.8255439714
 20
10.61741651
 30
0.0
 10
14.8208256023
 20
10.6172591338
 30
0.0
 10
14.8175695479
 20
10.6171874993
 30
0.0
 10
14.8155764458
 20
10.6171725023
 30
0.0
 10
14.8145320397
 20
10.6171881079
 30
0.0
 10
14.8141126048
 20
10.6172036593
 30
0.0
 10
14.8140067111
 20
10.6172120743
 30
0.0
  0
SPLINE
  5
446
100
AcDbEntity
  8
0
100
AcDbSpline
 62
7
  6
CONTINUOUS
 70
0
 71
3
 72
8
 73
4
 74
0
 42
0.0000001
 43
0.0000001
 44
0.0000000001
 40
0.0
 40
0.0
 40
0.0
 40
0.0
 40
1.0
 40
1.0
 40
1.0
 40
1.0
 10
14.8140067111
 20
10.6172120743
 30
0.0
 10
14.8140019216
 20
10.6172124861
 30
0.0
 10
14.8139971322
 20
10.6172128979
 30
0.0
 10
14.8139923427
 20
10.6172133097
 30
0.0
  0
SPLINE
  5
447
100
AcDbEntity
  8
0
100
AcDbSpline
 62
7
  6
CONTINUOUS
 70
0
 71
3
 72
24
 73
20
 74
0
 42
0.0000001
 43
0.0000001
 44
0.0000000001
 40
0.0
 40
0.0
 40
0.0
 40
0.0
 40
0.2146644773
 40
0.4104663772
 40
0.5829082722
 40
0.6593264986
 40
0.728717713
 40
0.7907306459
 40
0.8450911188
 40
0.8915486826
 40
0.92985659
 40
0.9598016612
 40
0.9716127175
 40
0.9813143264
 40
0.9889142796
 40
0.9944403711
 40
0.9964525917
 40
0.9979980179
 40
1.0
 40
1.0
 40
1.0
 40
1.0
 10
15.1276923427
 20
10.608253153
 30
0.0
 10
15.1284074995
 20
10.6081788178
 30
0.0
 10
15.1297753263
 20
10.608040047
 30
0.0
 10
15.1317188836
 20
10.6078540488
 30
0.0
 10
15.133202445
 20
10.6077223415
 30
0.0
 10
15.134264915
 20
10.6076359772
 30
0.0
 10
15.1349590446
 20
10.6075836755
 30
0.0
 10
15.1355798321
 20
10.607541503
 30
0.0
 10
15.1361242998
 20
10.6075095642
 30
0.0
 10
15.1365898089
 20
10.6074878371
 30
0.0
 10
15.1369738692
 20
10.607476379
 30
0.0
 10
15.1372421022
 20
10.6074749098
 30
0.0
 10
15.1374143987
 20
10.6074801099
 30
0.0
 10
15.1375117474
 20
10.6074861361
 30
0.0
 10
15.1375877736
 20
10.6074947614
 30
0.0
 10
15.137637654
 20
10.6075041305
 30
0.0
 10
15.1376666232
 20
10.6075142671
 30
0.0
 10
15.1376829945
 20
10.6075222428
 30
0.0
 10
15.1376923427
 20
10.6075328335
 30
0.0
 10
15.1376923427
 20
10.6075395391
 30
0.0
  0
SPLINE
  5
448
100
AcDbEntity
  8
0
100
AcDbSpline
 62
7
  6
CONTINUOUS
 70
0
 71
3
 72
20
 73
16
 74
0
 42
0.0000001
 43
0.0000001
 44
0.0000000001
 40
0.0
 40
0.0
 40
0.0
 40
0.0
 40
0.0058352607
 40
0.0112678375
 40
0.0186274516
 40
0.0279675453
 40
0.0393098335
 40
0.0680279126
 40
0.1047959581
 40
0.1495808598
 40
0.262657651
 40
0.4059006016
 40
0.5778295957
 40
0.7765701845
 40
1.0
 40
1.0
 40
1.0
 40
1.0
 10
15.1376923427
 20
10.6085483972
 30
0.0
 10
15.1376923427
 20
10.6085368611
 30
0.0
 10
15.1376673665
 20
10.6085220769
 30
0.0
 10
15.1376341963
 20
10.6085127812
 30
0.0
 10
15.1375903381
 20
10.6085041931
 30
0.0
 10
15.1375356025
 20
10.6084975913
 30
0.0
 10
15.1374380862
 20
10.6084896984
 30
0.0
 10
15.1372863149
 20
10.6084846843
 30
0.0
 10
15.1370682579
 20
10.6084843886
 30
0.0
 10
15.1366835589
 20
10.6084924772
 30
0.0
 10
15.1360888097
 20
10.6085192092
 30
0.0
 10
15.1352437814
 20
10.6085715469
 30
0.0
 10
15.1342305487
 20
10.6086466457
 30
0.0
 10
15.1330600305
 20
10.608743574
 30
0.0
 10
15.1322287247
 20
10.6088179223
 30
0.0
 10
15.1317888667
 20
10.6088583709
 30
0.0
  0
LINE
  5
449
100
AcDbEntity
  8
0
100
AcDbLine
 62
7
  6
CONTINUOUS
 10
15.2583210069
 20
10.587623089
 11
15.2571007042
 21
10.5878244843
  0
LINE
  5
44A
100
AcDbEntity
  8
0
100
AcDbLine
 62
7
  6
CONTINUOUS
 10
15.1739742231
 20
10.6020480429
 11
15.1751004554
 21
10.6017439691
  0
LINE
  5
44B
100
AcDbEntity
  8
0
100
AcDbLine
 62
7
  6
CONTINUOUS
 10
15.1751004554
 20
10.6017439691
 11
15.1799742231
 21
10.6008822165
  0
LINE
  5
44C
100
AcDbEntity
  8
0
100
AcDbLine
 62
7
  6
CONTINUOUS
 10
15.2078371309
 20
10.5962073183
 11
15.2122400045
 21
10.595428764
  0
LINE
  5
44D
100
AcDbEntity
  8
0
100
AcDbLine
 62
7
  6
CONTINUOUS
 10
15.2122400045
 20
10.595428764
 11
15.2533723487
 21
10.5883993575
  0
SPLINE
  5
44E
100
AcDbEntity
  8
0
100
AcDbSpline
 62
7
  6
CONTINUOUS
 70
0
 71
3
 72
25
 73
21
 74
0
 42
0.0000001
 43
0.0000001
 44
0.0000000001
 40
0.0
 40
0.0
 40
0.0
 40
0.0
 40
0.0016147455
 40
0.0051750149
 40
0.010890335
 40
0.0187909605
 40
0.0288798529
 40
0.0411521202
 40
0.0555989709
 40
0.072198355
 40
0.1117269943
 40
0.1594785327
 40
0.2151827196
 40
0.2784734446
 40
0.3489147333
 40
0.4260673626
 40
0.5094530447
 40
0.5985468387
 40
0.791667675
 40
1.0
 40
1.0
 40
1.0
 40
1.0
 10
14.9691923427
 20
10.6215000743
 30
0.0
 10
14.9691923427
 20
10.6214884867
 30
0.0
 10
14.9691524499
 20
10.6214647661
 30
0.0
 10
14.9690830724
 20
10.6214462902
 30
0.0
 10
14.9689588712
 20
10.6214210665
 30
0.0
 10
14.9687917228
 20
10.6213981595
 30
0.0
 10
14.9685753409
 20
10.6213739678
 30
0.0
 10
14.9683124484
 20
10.621350292
 30
0.0
 10
14.9680024157
 20
10.621326654
 30
0.0
 10
14.9674970611
 20
10.6212936109
 30
0.0
 10
14.9667525983
 20
10.6212543797
 30
0.0
 10
14.9657274399
 20
10.6212109601
 30
0.0
 10
14.9645315558
 20
10.6211693974
 30
0.0
 10
14.9631727043
 20
10.6211299645
 30
0.0
 10
14.9616598166
 20
10.6210929558
 30
0.0
 10
14.9600026282
 20
10.621058675
 30
0.0
 10
14.9582115066
 20
10.6210273622
 30
0.0
 10
14.9555881921
 20
10.6209887739
 30
0.0
 10
14.9520681609
 20
10.6209502703
 30
0.0
 10
14.9491873426
 20
10.6209302788
 30
0.0
 10
14.9476923427
 20
10.6209225387
 30
0.0
  0
LINE
  5
44F
100
AcDbEntity
  8
0
100
AcDbLine
 62
7
  6
CONTINUOUS
 10
14.7401422312
 20
10.609332733
 11
14.668980108
 21
10.5975300515
  0
LINE
  5
450
100
AcDbEntity
  8
0
100
AcDbLine
 62
7
  6
CONTINUOUS
 10
14.668980108
 20
10.5975300515
 11
14.6356613602
 21
10.5921474644
  0
LINE
  5
451
100
AcDbEntity
  8
0
100
AcDbLine
 62
7
  6
CONTINUOUS
 10
15.0981372794
 20
10.6126105625
 11
15.0972478707
 21
10.6126775773
  0
LINE
  5
452
100
AcDbEntity
  8
0
100
AcDbLine
 62
7
  6
CONTINUOUS
 10
15.1009895882
 20
10.6122810444
 11
15.0981372794
 21
10.6126105625
  0
SPLINE
  5
453
100
AcDbEntity
  8
0
100
AcDbSpline
 62
7
  6
CONTINUOUS
 70
0
 71
3
 72
25
 73
21
 74
0
 42
0.0000001
 43
0.0000001
 44
0.0000000001
 40
0.0
 40
0.0
 40
0.0
 40
0.0
 40
0.2083285417
 40
0.401443547
 40
0.4905378644
 40
0.5739254837
 40
0.6510800636
 40
0.7215232374
 40
0.7848155987
 40
0.8405209053
 40
0.8882729179
 40
0.9278017238
 40
0.9444012013
 40
0.9588481895
 40
0.9711204069
 40
0.9812090784
 40
0.9891094146
 40
0.9948244919
 40
0.9983847234
 40
1.0
 40
1.0
 40
1.0
 40
1.0
 10
14.9476923427
 20
10.6199217383
 30
0.0
 10
14.949187318
 20
10.6199294832
 30
0.0
 10
14.9520680721
 20
10.6199494892
 30
0.0
 10
14.9555880437
 20
10.6199880208
 30
0.0
 10
14.9582113382
 20
10.6200266315
 30
0.0
 10
14.9600024941
 20
10.6200579628
 30
0.0
 10
14.9616597263
 20
10.6200922657
 30
0.0
 10
14.9631726553
 20
10.620129299
 30
0.0
 10
14.9645315416
 20
10.620168759
 30
0.0
 10
14.9657274499
 20
10.620210351
 30
0.0
 10
14.9667526214
 20
10.6202538017
 30
0.0
 10
14.9674970892
 20
10.6202930598
 30
0.0
 10
14.9680024464
 20
10.6203261236
 30
0.0
 10
14.9683124797
 20
10.6203497749
 30
0.0
 10
14.968575371
 20
10.6203734633
 30
0.0
 10
14.9687917468
 20
10.6203976679
 30
0.0
 10
14.968958891
 20
10.620420587
 30
0.0
 10
14.9690830792
 20
10.6204458264
 30
0.0
 10
14.9691524665
 20
10.6204643137
 30
0.0
 10
14.9691923427
 20
10.6204880556
 30
0.0
 10
14.9691923427
 20
10.6204996471
 30
0.0
  0
LINE
  5
454
100
AcDbEntity
  8
0
100
AcDbLine
 62
7
  6
CONTINUOUS
 10
15.0591923427
 20
10.6151309466
 11
15.0848575327
 21
10.6134117642
  0
LINE
  5
455
100
AcDbEntity
  8
0
100
AcDbLine
 62
7
  6
CONTINUOUS
 10
15.2533723487
 20
10.5894209814
 11
15.2583210408
 21
10.5886451989
  0
LINE
  5
456
100
AcDbEntity
  8
0
100
AcDbLine
 62
7
  6
CONTINUOUS
 10
15.0051923427
 20
10.6193489508
 11
15.0057477575
 21
10.6191940796
  0
SPLINE
  5
457
100
AcDbEntity
  8
0
100
AcDbSpline
 62
7
  6
CONTINUOUS
 70
0
 71
3
 72
17
 73
13
 74
0
 42
0.0000001
 43
0.0000001
 44
0.0000000001
 40
0.0
 40
0.0
 40
0.0
 40
0.0
 40
0.0206696597
 40
0.048562667
 40
0.0834916171
 40
0.1251937882
 40
0.2276318639
 40
0.352853259
 40
0.4971535473
 40
0.6562537128
 40
0.8256391044
 40
1.0
 40
1.0
 40
1.0
 40
1.0
 10
15.0057477575
 20
10.6191940796
 30
0.0
 10
15.0059484327
 20
10.6191599838
 30
0.0
 10
15.006421891
 20
10.6190917821
 30
0.0
 10
15.00723791
 20
10.618991043
 30
0.0
 10
15.0082611038
 20
10.6188784833
 30
0.0
 10
15.0100156293
 20
10.618701269
 30
0.0
 10
15.0126574687
 20
10.6184616264
 30
0.0
 10
15.0163079539
 20
10.6181589623
 30
0.0
 10
15.0205164834
 20
10.6178345605
 30
0.0
 10
15.0251602237
 20
10.6174979471
 30
0.0
 10
15.0301006111
 20
10.6171596724
 30
0.0
 10
15.0334786773
 20
10.6169406216
 30
0.0
 10
15.0351923427
 20
10.6168324617
 30
0.0
  0
LINE
  5
458
100
AcDbEntity
  8
0
100
AcDbLine
 62
7
  6
CONTINUOUS
 10
15.1799742231
 20
10.6018954632
 11
15.1739742231
 21
10.6030605184
  0
LINE
  5
459
100
AcDbEntity
  8
0
100
AcDbLine
 62
7
  6
CONTINUOUS
 10
15.2533723487
 20
10.5894209368
 11
15.2124147896
 21
10.5964148103
  0
LINE
  5
45A
100
AcDbEntity
  8
0
100
AcDbLine
 62
7
  6
CONTINUOUS
 10
15.2124147896
 20
10.5964148103
 11
15.2078371309
 21
10.5972236697
  0
LINE
  5
45B
100
AcDbEntity
  8
0
100
AcDbLine
 62
7
  6
CONTINUOUS
 10
14.6356613602
 20
10.592147466
 11
14.6296946085
 21
10.5912596647
  0
SPLINE
  5
45C
100
AcDbEntity
  8
0
100
AcDbSpline
 62
7
  6
CONTINUOUS
 70
0
 71
3
 72
35
 73
31
 74
0
 42
0.0000001
 43
0.0000001
 44
0.0000000001
 40
0.0
 40
0.0
 40
0.0
 40
0.0
 40
0.0059080398
 40
0.0118653745
 40
0.0179198447
 40
0.0241167901
 40
0.0370926227
 40
0.0510936557
 40
0.0663398382
 40
0.0829926234
 40
0.1011652371
 40
0.1209290563
 40
0.1423281971
 40
0.1653838123
 40
0.1900956281
 40
0.2164517046
 40
0.2444274916
 40
0.2739857692
 40
0.3050837718
 40
0.3376701066
 40
0.3716850283
 40
0.4070657975
 40
0.4437427846
 40
0.4816405168
 40
0.5607811787
 40
0.6438207631
 40
0.7300358482
 40
0.8186618295
 40
0.908936639
 40
1.0
 40
1.0
 40
1.0
 40
1.0
 10
11.2701921577
 20
9.1988425219
 30
0.0
 10
11.2701921562
 20
9.1995472971
 30
0.0
 10
11.2701246158
 20
9.2009636357
 30
0.0
 10
11.2698215863
 20
9.2030826846
 30
0.0
 10
11.2693172168
 20
9.2051985959
 30
0.0
 10
11.2683630702
 20
9.2080562342
 30
0.0
 10
11.2666339311
 20
9.2116361015
 30
0.0
 10
11.263797058
 20
9.2158155166
 30
0.0
 10
11.2601806656
 20
9.2199423612
 30
0.0
 10
11.2557947859
 20
9.2240101741
 30
0.0
 10
11.2506493185
 20
9.2280125456
 30
0.0
 10
11.2447564871
 20
9.2319431796
 30
0.0
 10
11.2381288728
 20
9.2357934967
 30
0.0
 10
11.2307812992
 20
9.2395546445
 30
0.0
 10
11.2227310353
 20
9.2432188886
 30
0.0
 10
11.2139965075
 20
9.2467769818
 30
0.0
 10
11.2045982201
 20
9.2502202865
 30
0.0
 10
11.1945586365
 20
9.2535412297
 30
0.0
 10
11.183901438
 20
9.2567311607
 30
0.0
 10
11.1726520714
 20
9.2597823712
 30
0.0
 10
11.160837556
 20
9.2626880139
 30
0.0
 10
11.1484860784
 20
9.2654404032
 30
0.0
 10
11.1356273054
 20
9.2680330763
 30
0.0
 10
11.1175858851
 20
9.2713164162
 30
0.0
 10
11.0939921921
 20
9.2749543302
 30
0.0
 10
11.0645737902
 20
9.2785362948
 30
0.0
 10
11.0339366326
 20
9.2813593893
 30
0.0
 10
11.0023725678
 20
9.2833962084
 30
0.0
 10
10.9701883718
 20
9.2846257223
 30
0.0
 10
10.9485553701
 20
9.2848998544
 30
0.0
 10
10.9376923427
 20
9.2848998544
 30
0.0
  0
SPLINE
  5
45D
100
AcDbEntity
  8
0
100
AcDbSpline
 62
7
  6
CONTINUOUS
 70
0
 71
3
 72
35
 73
31
 74
0
 42
0.0000001
 43
0.0000001
 44
0.0000000001
 40
0.0
 40
0.0
 40
0.0
 40
0.0
 40
0.0910632353
 40
0.1813375617
 40
0.2699632088
 40
0.3561781011
 40
0.4392175153
 40
0.5183582055
 40
0.5562560445
 40
0.5929331737
 40
0.6283140581
 40
0.6623291433
 40
0.6949156378
 40
0.7260137416
 40
0.7555721312
 40
0.7835480018
 40
0.8099041113
 40
0.8346159794
 40
0.8576716252
 40
0.8790707716
 40
0.8988346321
 40
0.9170072698
 40
0.9336600648
 40
0.9489062856
 40
0.9629073374
 40
0.9758831808
 40
0.9820801367
 40
0.9881346158
 40
0.9940919563
 40
1.0
 40
1.0
 40
1.0
 40
1.0
 10
10.9376923427
 20
9.2848998544
 30
0.0
 10
10.9268293303
 20
9.2848998544
 30
0.0
 10
10.9051964011
 20
9.2846257272
 30
0.0
 10
10.8730123171
 20
9.2833962179
 30
0.0
 10
10.8414483723
 20
9.2813594103
 30
0.0
 10
10.8108112952
 20
9.2785363452
 30
0.0
 10
10.781392932
 20
9.2749543914
 30
0.0
 10
10.7577992413
 20
9.2713164892
 30
0.0
 10
10.7397577863
 20
9.2680331549
 30
0.0
 10
10.7268989673
 20
9.2654404893
 30
0.0
 10
10.7145474416
 20
9.2626880846
 30
0.0
 10
10.7027328731
 20
9.2597824394
 30
0.0
 10
10.6914834541
 20
9.2567312275
 30
0.0
 10
10.6808262142
 20
9.2535412792
 30
0.0
 10
10.6707865942
 20
9.2502203336
 30
0.0
 10
10.661388278
 20
9.2467770276
 30
0.0
 10
10.6526537337
 20
9.2432189214
 30
0.0
 10
10.6446034531
 20
9.2395546807
 30
0.0
 10
10.6372558668
 20
9.2357935339
 30
0.0
 10
10.6306282485
 20
9.2319432055
 30
0.0
 10
10.6247354032
 20
9.2280125776
 30
0.0
 10
10.6195899248
 20
9.2240102045
 30
0.0
 10
10.615204046
 20
9.2199423784
 30
0.0
 10
10.6115876368
 20
9.2158155385
 30
0.0
 10
10.6087507572
 20
9.2116361165
 30
0.0
 10
10.6070216251
 20
9.2080562411
 30
0.0
 10
10.6060674705
 20
9.2051986019
 30
0.0
 10
10.6055630956
 20
9.2030826886
 30
0.0
 10
10.6052600638
 20
9.2009636377
 30
0.0
 10
10.6051925263
 20
9.1995472976
 30
0.0
 10
10.6051925278
 20
9.1988425219
 30
0.0
  0
SPLINE
  5
45E
100
AcDbEntity
  8
0
100
AcDbSpline
 62
7
  6
CONTINUOUS
 70
0
 71
3
 72
65
 73
61
 74
0
 42
0.0000001
 43
0.0000001
 44
0.0000000001
 40
0.0
 40
0.0
 40
0.0
 40
0.0
 40
0.002952204
 40
0.0059302248
 40
0.008957643
 40
0.0120567846
 40
0.0185461996
 40
0.0255471724
 40
0.033170057
 40
0.0414961634
 40
0.0505824206
 40
0.0604644011
 40
0.0711640037
 40
0.0826917822
 40
0.0950476447
 40
0.1082256488
 40
0.1222135604
 40
0.136992743
 40
0.1525417814
 40
0.1688349961
 40
0.185842475
 40
0.2035328121
 40
0.2218712597
 40
0.2408201307
 40
0.2603408359
 40
0.2803920772
 40
0.3219111986
 40
0.3650185534
 40
0.4093339652
 40
0.4544624156
 40
0.49999989
 40
0.5455373425
 40
0.5906657403
 40
0.6349810937
 40
0.6780884123
 40
0.7196075113
 40
0.7396587481
 40
0.7591794363
 40
0.7781282951
 40
0.7964667251
 40
0.8141570273
 40
0.8311644869
 40
0.8474576833
 40
0.8630066963
 40
0.8777858928
 40
0.8917738264
 40
0.9049518476
 40
0.9173077706
 40
0.928835611
 40
0.9395352619
 40
0.9494173124
 40
0.9585036271
 40
0.9668297754
 40
0.9744527141
 40
0.9814537359
 40
0.9879431874
 40
0.9910423418
 40
0.9940697688
 40
0.9970477946
 40
1.0
 40
1.0
 40
1.0
 40
1.0
 10
11.3039423427
 20
9.1988425219
 30
0.0
 10
11.3039423427
 20
9.1980666843
 30
0.0
 10
11.3038679009
 20
9.1965072261
 30
0.0
 10
11.303534093
 20
9.1941736903
 30
0.0
 10
11.3029785339
 20
9.1918429457
 30
0.0
 10
11.3019275683
 20
9.1886945819
 30
0.0
 10
11.3000231814
 20
9.1847504292
 30
0.0
 10
11.2968982499
 20
9.1801462431
 30
0.0
 10
11.2929145947
 20
9.1756006496
 30
0.0
 10
11.2880834162
 20
9.1711202508
 30
0.0
 10
11.2824156674
 20
9.1667117085
 30
0.0
 10
11.2759246921
 20
9.1623820337
 30
0.0
 10
11.2686243575
 20
9.1581407914
 30
0.0
 10
11.2605309594
 20
9.1539978692
 30
0.0
 10
11.2516635446
 20
9.1499617302
 30
0.0
 10
11.2420424044
 20
9.146042499
 30
0.0
 10
11.2316901121
 20
9.1422496868
 30
0.0
 10
11.2206314133
 20
9.138591642
 30
0.0
 10
11.2088924024
 20
9.1350778977
 30
0.0
 10
11.1965011132
 20
9.1317169812
 30
0.0
 10
11.183487333
 20
9.1285164155
 30
0.0
 10
11.1698821094
 20
9.1254846286
 30
0.0
 10
11.155718115
 20
9.1226288434
 30
0.0
 10
11.1410294547
 20
9.1199555195
 30
0.0
 10
11.1258513023
 20
9.1174717592
 30
0.0
 10
11.1047645413
 20
9.1143847671
 30
0.0
 10
11.0774522005
 20
9.1110595647
 30
0.0
 10
11.0437049817
 20
9.1079497636
 30
0.0
 10
11.0089386642
 20
9.1057066775
 30
0.0
 10
10.9734875912
 20
9.1043518054
 30
0.0
 10
10.937692438
 20
9.1038985673
 30
0.0
 10
10.9018972985
 20
9.1043517995
 30
0.0
 10
10.8664462602
 20
9.1057066659
 30
0.0
 10
10.831679981
 20
9.1079497447
 30
0.0
 10
10.7979327915
 20
9.1110595295
 30
0.0
 10
10.7706204671
 20
9.1143847285
 30
0.0
 10
10.7495337156
 20
9.1174717056
 30
0.0
 10
10.734355572
 20
9.119955465
 30
0.0
 10
10.7196669223
 20
9.122628778
 30
0.0
 10
10.7055029422
 20
9.1254845487
 30
0.0
 10
10.6918977372
 20
9.1285163322
 30
0.0
 10
10.6788839723
 20
9.1317168797
 30
0.0
 10
10.666492695
 20
9.1350777773
 30
0.0
 10
10.6547536922
 20
9.1385915213
 30
0.0
 10
10.6436949842
 20
9.1422495465
 30
0.0
 10
10.6333426715
 20
9.1460423441
 30
0.0
 10
10.6237215077
 20
9.1499615866
 30
0.0
 10
10.6148540489
 20
9.1539977166
 30
0.0
 10
10.6067606006
 20
9.1581406402
 30
0.0
 10
10.5994602263
 20
9.1623819081
 30
0.0
 10
10.5929691969
 20
9.166711584
 30
0.0
 10
10.5873013976
 20
9.1711201352
 30
0.0
 10
10.5824701874
 20
9.1756005591
 30
0.0
 10
10.5784864924
 20
9.180146168
 30
0.0
 10
10.5753615326
 20
9.1847503804
 30
0.0
 10
10.5734571372
 20
9.1886945576
 30
0.0
 10
10.572406162
 20
9.1918429342
 30
0.0
 10
10.5718505975
 20
9.1941736847
 30
0.0
 10
10.5715167856
 20
9.196507224
 30
0.0
 10
10.5714423427
 20
9.1980666839
 30
0.0
 10
10.5714423427
 20
9.1988425219
 30
0.0
  0
SPLINE
  5
45F
100
AcDbEntity
  8
0
100
AcDbSpline
 62
7
  6
CONTINUOUS
 70
0
 71
3
 72
32
 73
28
 74
0
 42
0.0000001
 43
0.0000001
 44
0.0000000001
 40
0.0
 40
0.0
 40
0.0
 40
0.0
 40
0.0126204243
 40
0.0261987207
 40
0.0409057233
 40
0.0568693075
 40
0.0741809746
 40
0.0928999964
 40
0.1130644772
 40
0.134695379
 40
0.1577956967
 40
0.1823581698
 40
0.2083674219
 40
0.2357964947
 40
0.2646123293
 40
0.2947777614
 40
0.3262474268
 40
0.3589713889
 40
0.3928975104
 40
0.4279676129
 40
0.5012871237
 40
0.5784077274
 40
0.6587609989
 40
0.7417359255
 40
0.8267022012
 40
0.9130313258
 40
1.0
 40
1.0
 40
1.0
 40
1.0
 10
11.2680838011
 20
9.2084855419
 30
0.0
 10
11.2674976457
 20
9.2071444692
 30
0.0
 10
11.2660637605
 20
9.2044522458
 30
0.0
 10
11.2632997999
 20
9.2005837593
 30
0.0
 10
11.2598645656
 20
9.1967593518
 30
0.0
 10
11.2557660697
 20
9.1929853849
 30
0.0
 10
11.2510121874
 20
9.1892672461
 30
0.0
 10
11.2456128589
 20
9.1856102745
 30
0.0
 10
11.2395781879
 20
9.1820212654
 30
0.0
 10
11.2329196746
 20
9.1785076436
 30
0.0
 10
11.2256509715
 20
9.1750755988
 30
0.0
 10
11.2177865707
 20
9.1717321881
 30
0.0
 10
11.2093421363
 20
9.1684848762
 30
0.0
 10
11.2003351546
 20
9.1653397702
 30
0.0
 10
11.1907840877
 20
9.1623033646
 30
0.0
 10
11.1807083582
 20
9.1593825665
 30
0.0
 10
11.1701288638
 20
9.1565830356
 30
0.0
 10
11.1590675004
 20
9.153910461
 30
0.0
 10
11.1475469553
 20
9.1513709103
 30
0.0
 10
11.1313651337
 20
9.1481207766
 30
0.0
 10
11.1101630983
 20
9.1444478917
 30
0.0
 10
11.083657074
 20
9.1407074377
 30
0.0
 10
11.0559422229
 20
9.1376032955
 30
0.0
 10
11.027248386
 20
9.1351608499
 30
0.0
 10
10.9978104505
 20
9.1334013565
 30
0.0
 10
10.9678759504
 20
9.132340311
 30
0.0
 10
10.9477779978
 20
9.1321037059
 30
0.0
 10
10.9376923427
 20
9.1321037059
 30
0.0
  0
SPLINE
  5
460
100
AcDbEntity
  8
0
100
AcDbSpline
 62
7
  6
CONTINUOUS
 70
0
 71
3
 72
27
 73
23
 74
0
 42
0.0000001
 43
0.0000001
 44
0.0000000001
 40
0.0
 40
0.0
 40
0.0
 40
0.0
 40
0.0784658525
 40
0.1565584857
 40
0.2338084157
 40
0.3098201015
 40
0.3842098932
 40
0.4565895085
 40
0.5265840833
 40
0.5938421521
 40
0.6580316422
 40
0.7188438881
 40
0.7759996711
 40
0.8292528128
 40
0.8543520623
 40
0.8784034586
 40
0.9013880655
 40
0.9232918246
 40
0.9441065831
 40
0.9638278939
 40
0.9824560143
 40
1.0
 40
1.0
 40
1.0
 40
1.0
 10
10.9376923427
 20
9.1321037059
 30
0.0
 10
10.9293677747
 20
9.1321037059
 30
0.0
 10
10.9127577825
 20
9.1322653508
 30
0.0
 10
10.8879617341
 20
9.1329897749
 30
0.0
 10
10.8634448666
 20
9.1341937996
 30
0.0
 10
10.8393494267
 20
9.1358693257
 30
0.0
 10
10.815809272
 20
9.1380073283
 30
0.0
 10
10.7929564647
 20
9.1405949312
 30
0.0
 10
10.7709204496
 20
9.1436181204
 30
0.0
 10
10.749825416
 20
9.1470589259
 30
0.0
 10
10.7297899141
 20
9.1508979289
 30
0.0
 10
10.7109262967
 20
9.1551129154
 30
0.0
 10
10.6933406783
 20
9.1596797222
 30
0.0
 10
10.6795728566
 20
9.1638345932
 30
0.0
 10
10.6692865141
 20
9.16733341
 30
0.0
 10
10.662103691
 20
9.1699768796
 30
0.0
 10
10.6553098126
 20
9.1726881564
 30
0.0
 10
10.6489143974
 20
9.1754635871
 30
0.0
 10
10.642926082
 20
9.1782989286
 30
0.0
 10
10.6373530509
 20
9.1811902436
 30
0.0
 10
10.6322034611
 20
9.1841338189
 30
0.0
 10
10.6289608087
 20
9.1861895522
 30
0.0
 10
10.6274159031
 20
9.1872276229
 30
0.0
  0
SPLINE
  5
461
100
AcDbEntity
  8
0
100
AcDbSpline
 62
7
  6
CONTINUOUS
 70
0
 71
3
 72
15
 73
11
 74
0
 42
0.0000001
 43
0.0000001
 44
0.0000000001
 40
0.0
 40
0.0
 40
0.0
 40
0.0
 40
0.1507546879
 40
0.2934510594
 40
0.4283191549
 40
0.5556763894
 40
0.6759421635
 40
0.7896365507
 40
0.8973972971
 40
1.0
 40
1.0
 40
1.0
 40
1.0
 10
10.6274159031
 20
9.1872276229
 30
0.0
 10
10.6261796678
 20
9.1880582883
 30
0.0
 10
10.6238073142
 20
9.1897268505
 30
0.0
 10
10.6204675848
 20
9.1923283872
 30
0.0
 10
10.617448974
 20
9.1949569844
 30
0.0
 10
10.6147546681
 20
9.197610354
 30
0.0
 10
10.612387051
 20
9.2002859978
 30
0.0
 10
10.6103485505
 20
9.2029819041
 30
0.0
 10
10.6086419965
 20
9.2056955598
 30
0.0
 10
10.6077070356
 20
9.2075563493
 30
0.0
 10
10.6073010524
 20
9.2084851677
 30
0.0
  0
SPLINE
  5
462
100
AcDbEntity
  8
0
100
AcDbSpline
 62
7
  6
CONTINUOUS
 70
0
 71
3
 72
35
 73
31
 74
0
 42
0.0000001
 43
0.0000001
 44
0.0000000001
 40
0.0
 40
0.0
 40
0.0
 40
0.0
 40
0.0910632353
 40
0.1813375617
 40
0.2699632088
 40
0.3561781011
 40
0.4392175153
 40
0.5183582055
 40
0.5562560445
 40
0.5929331737
 40
0.6283140581
 40
0.6623291433
 40
0.6949156378
 40
0.7260137416
 40
0.7555721312
 40
0.7835480018
 40
0.8099041113
 40
0.8346159794
 40
0.8576716252
 40
0.8790707716
 40
0.8988346321
 40
0.9170072698
 40
0.9336600648
 40
0.9489062856
 40
0.9629073374
 40
0.9758831808
 40
0.9820801367
 40
0.9881346158
 40
0.9940919563
 40
1.0
 40
1.0
 40
1.0
 40
1.0
 10
10.9376923427
 20
9.1127851894
 30
0.0
 10
10.9485553552
 20
9.1127851894
 30
0.0
 10
10.9701882844
 20
9.1130593166
 30
0.0
 10
11.0023723684
 20
9.1142888259
 30
0.0
 10
11.0339363132
 20
9.1163256336
 30
0.0
 10
11.0645733903
 20
9.1191486986
 30
0.0
 10
11.0939917534
 20
9.1227306524
 30
0.0
 10
11.1175854441
 20
9.1263685547
 30
0.0
 10
11.1356268992
 20
9.1296518889
 30
0.0
 10
11.1484857182
 20
9.1322445545
 30
0.0
 10
11.1608372439
 20
9.1349969592
 30
0.0
 10
11.1726518124
 20
9.1379026045
 30
0.0
 10
11.1839012314
 20
9.1409538163
 30
0.0
 10
11.1945584712
 20
9.1441437646
 30
0.0
 10
11.2045980912
 20
9.1474647102
 30
0.0
 10
11.2139964075
 20
9.1509080162
 30
0.0
 10
11.2227309518
 20
9.1544661225
 30
0.0
 10
11.2307812324
 20
9.1581303631
 30
0.0
 10
11.2381288187
 20
9.1618915099
 30
0.0
 10
11.244756437
 20
9.1657418383
 30
0.0
 10
11.2506492823
 20
9.1696724662
 30
0.0
 10
11.2557947607
 20
9.1736748393
 30
0.0
 10
11.2601806395
 20
9.1777426654
 30
0.0
 10
11.2637970486
 20
9.1818695053
 30
0.0
 10
11.2666339283
 20
9.1860489274
 30
0.0
 10
11.2683630604
 20
9.1896288027
 30
0.0
 10
11.269317215
 20
9.192486442
 30
0.0
 10
11.2698215898
 20
9.1946023552
 30
0.0
 10
11.2701246217
 20
9.1967214062
 30
0.0
 10
11.2701921592
 20
9.1981377462
 30
0.0
 10
11.2701921577
 20
9.1988425219
 30
0.0
  0
SPLINE
  5
463
100
AcDbEntity
  8
0
100
AcDbSpline
 62
7
  6
CONTINUOUS
 70
0
 71
3
 72
23
 73
19
 74
0
 42
0.0000001
 43
0.0000001
 44
0.0000000001
 40
0.0
 40
0.0
 40
0.0
 40
0.0
 40
0.0381381608
 40
0.0772268478
 40
0.118111959
 40
0.1615270899
 40
0.2080748028
 40
0.2582262219
 40
0.3123407904
 40
0.3706798807
 40
0.4334156521
 40
0.5006623952
 40
0.5724895462
 40
0.6489163534
 40
0.7299291513
 40
0.8154936627
 40
0.9055470499
 40
1.0
 40
1.0
 40
1.0
 40
1.0
 10
10.5714423427
 20
9.1988425219
 30
0.0
 10
10.5714423427
 20
9.2001808416
 30
0.0
 10
10.5716671912
 20
9.2028957707
 30
0.0
 10
10.5726694686
 20
9.2069337804
 30
0.0
 10
10.5743305903
 20
9.2109482832
 30
0.0
 10
10.5766432631
 20
9.2149288159
 30
0.0
 10
10.5795987039
 20
9.2188703021
 30
0.0
 10
10.5831887763
 20
9.2227690711
 30
0.0
 10
10.587407062
 20
9.2266206297
 30
0.0
 10
10.5922464115
 20
9.2304198094
 30
0.0
 10
10.5976981022
 20
9.2341617654
 30
0.0
 10
10.6037531728
 20
9.2378404391
 30
0.0
 10
10.6104018222
 20
9.2414490394
 30
0.0
 10
10.6176322953
 20
9.2449819649
 30
0.0
 10
10.62543197
 20
9.2484332877
 30
0.0
 10
10.633787593
 20
9.2517964802
 30
0.0
 10
10.6426844162
 20
9.2550656
 30
0.0
 10
10.6488218943
 20
9.2571302742
 30
0.0
 10
10.6519761697
 20
9.2581482805
 30
0.0
  0
SPLINE
  5
464
100
AcDbEntity
  8
0
100
AcDbSpline
 62
7
  6
CONTINUOUS
 70
0
 71
3
 72
23
 73
19
 74
0
 42
0.0000001
 43
0.0000001
 44
0.0000000001
 40
0.0
 40
0.0
 40
0.0
 40
0.0
 40
0.094452757
 40
0.1845059906
 40
0.270070298
 40
0.3510831641
 40
0.427510146
 40
0.499337355
 40
0.5665842228
 40
0.6293202069
 40
0.6876594196
 40
0.7417740066
 40
0.7919255227
 40
0.8384733268
 40
0.8818884809
 40
0.9227735352
 40
0.9618620738
 40
1.0
 40
1.0
 40
1.0
 40
1.0
 10
11.223407268
 20
9.2581486761
 30
0.0
 10
11.2265615795
 20
9.2571306702
 30
0.0
 10
11.2326991302
 20
9.2550659987
 30
0.0
 10
11.2415960591
 20
9.2517968818
 30
0.0
 10
11.2499517832
 20
9.2484336693
 30
0.0
 10
11.257751571
 20
9.2449823383
 30
0.0
 10
11.2649821626
 20
9.241449404
 30
0.0
 10
11.271630916
 20
9.2378407723
 30
0.0
 10
11.2776860878
 20
9.2341620701
 30
0.0
 10
11.2831378832
 20
9.2304200939
 30
0.0
 10
11.2879773256
 20
9.2266208884
 30
0.0
 10
11.2921956823
 20
9.2227692902
 30
0.0
 10
11.2957858254
 20
9.2188704878
 30
0.0
 10
11.2987413293
 20
9.2149289627
 30
0.0
 10
11.3010540385
 20
9.2109483825
 30
0.0
 10
11.3027151895
 20
9.2069338409
 30
0.0
 10
11.3037174882
 20
9.2028957992
 30
0.0
 10
11.3039423427
 20
9.2001808499
 30
0.0
 10
11.3039423427
 20
9.1988425219
 30
0.0
  0
SPLINE
  5
465
100
AcDbEntity
  8
0
100
AcDbSpline
 62
7
  6
CONTINUOUS
 70
0
 71
3
 72
35
 73
31
 74
0
 42
0.0000001
 43
0.0000001
 44
0.0000000001
 40
0.0
 40
0.0
 40
0.0
 40
0.0
 40
0.0059080398
 40
0.0118653745
 40
0.0179198447
 40
0.0241167901
 40
0.0370926227
 40
0.0510936557
 40
0.0663398382
 40
0.0829926234
 40
0.1011652371
 40
0.1209290563
 40
0.1423281971
 40
0.1653838123
 40
0.1900956281
 40
0.2164517046
 40
0.2444274916
 40
0.2739857692
 40
0.3050837718
 40
0.3376701066
 40
0.3716850283
 40
0.4070657975
 40
0.4437427846
 40
0.4816405168
 40
0.5607811787
 40
0.6438207631
 40
0.7300358482
 40
0.8186618295
 40
0.908936639
 40
1.0
 40
1.0
 40
1.0
 40
1.0
 10
10.6051925278
 20
9.1988425219
 30
0.0
 10
10.6051925293
 20
9.1981377467
 30
0.0
 10
10.6052600697
 20
9.1967214081
 30
0.0
 10
10.6055630992
 20
9.1946023592
 30
0.0
 10
10.6060674687
 20
9.1924864479
 30
0.0
 10
10.6070216153
 20
9.1896288096
 30
0.0
 10
10.6087507544
 20
9.1860489424
 30
0.0
 10
10.6115876275
 20
9.1818695272
 30
0.0
 10
10.6152040198
 20
9.1777426826
 30
0.0
 10
10.6195898996
 20
9.1736748697
 30
0.0
 10
10.624735367
 20
9.1696724982
 30
0.0
 10
10.6306281984
 20
9.1657418642
 30
0.0
 10
10.6372558127
 20
9.1618915472
 30
0.0
 10
10.6446033862
 20
9.1581303994
 30
0.0
 10
10.6526536502
 20
9.1544661553
 30
0.0
 10
10.661388178
 20
9.150908062
 30
0.0
 10
10.6707864654
 20
9.1474647573
 30
0.0
 10
10.680826049
 20
9.1441438141
 30
0.0
 10
10.6914832474
 20
9.1409538831
 30
0.0
 10
10.7027326141
 20
9.1379026726
 30
0.0
 10
10.7145471295
 20
9.1349970299
 30
0.0
 10
10.726898607
 20
9.1322446406
 30
0.0
 10
10.7397573801
 20
9.1296519676
 30
0.0
 10
10.7577988004
 20
9.1263686277
 30
0.0
 10
10.7813924934
 20
9.1227307136
 30
0.0
 10
10.8108108952
 20
9.119148749
 30
0.0
 10
10.8414480528
 20
9.1163256545
 30
0.0
 10
10.8730121176
 20
9.1142888354
 30
0.0
 10
10.9051963137
 20
9.1130593215
 30
0.0
 10
10.9268293154
 20
9.1127851894
 30
0.0
 10
10.9376923427
 20
9.1127851894
 30
0.0
  0
SPLINE
  5
466
100
AcDbEntity
  8
0
100
AcDbSpline
 62
7
  6
CONTINUOUS
 70
0
 71
3
 72
19
 73
15
 74
0
 42
0.0000001
 43
0.0000001
 44
0.0000000001
 40
0.0
 40
0.0
 40
0.0
 40
0.0
 40
0.0057110083
 40
0.0222600895
 40
0.049191218
 40
0.0858069071
 40
0.1312852466
 40
0.1847470003
 40
0.3123333802
 40
0.3849862906
 40
0.4626663704
 40
0.6307726082
 40
0.8118277896
 40
1.0
 40
1.0
 40
1.0
 40
1.0
 10
15.4951921502
 20
10.32615474
 30
0.0
 10
15.4949812754
 20
10.3257992642
 30
0.0
 10
15.4941651887
 20
10.3244102465
 30
0.0
 10
15.492369666
 20
10.32133612
 30
0.0
 10
15.4894855676
 20
10.3163077163
 30
0.0
 10
15.4856344179
 20
10.3094207878
 30
0.0
 10
15.4809751339
 20
10.3007867448
 30
0.0
 10
15.4734599957
 20
10.2862157844
 30
0.0
 10
15.4656370583
 20
10.2695928659
 30
0.0
 10
15.4579091466
 20
10.2510190943
 30
0.0
 10
15.4498394282
 20
10.2294274465
 30
0.0
 10
15.4408987342
 20
10.1998063464
 30
0.0
 10
15.4336054643
 20
10.1615267019
 30
0.0
 10
15.4318583065
 20
10.1347734868
 30
0.0
 10
15.4318583065
 20
10.1211550803
 30
0.0
  0
SPLINE
  5
467
100
AcDbEntity
  8
0
100
AcDbSpline
 62
7
  6
CONTINUOUS
 70
0
 71
3
 72
45
 73
41
 74
0
 42
0.0000001
 43
0.0000001
 44
0.0000000001
 40
0.0
 40
0.0
 40
0.0
 40
0.0
 40
0.04736223
 40
0.0946496269
 40
0.1417154017
 40
0.1884199741
 40
0.2346633433
 40
0.2803524795
 40
0.3253895336
 40
0.3696888563
 40
0.4557605695
 40
0.537935056
 40
0.6156499842
 40
0.6883228484
 40
0.7553119483
 40
0.8159100845
 40
0.8435705803
 40
0.8693370119
 40
0.8931016268
 40
0.9147533719
 40
0.934180163
 40
0.9512730642
 40
0.9659376895
 40
0.9723309069
 40
0.9780828127
 40
0.9831819477
 40
0.9876173769
 40
0.9913825498
 40
0.9944730451
 40
0.9957639106
 40
0.9968844526
 40
0.9978341194
 40
0.9986123589
 40
0.9992186192
 40
0.9994570845
 40
0.9996523478
 40
0.9998043401
 40
0.9999129923
 40
0.9999782353
 40
1.0
 40
1.0
 40
1.0
 40
1.0
 10
15.4318583065
 20
10.1211550803
 30
0.0
 10
15.4318583065
 20
10.1177264346
 30
0.0
 10
15.4319713376
 20
10.110874049
 30
0.0
 10
15.4324717865
 20
10.1006255401
 30
0.0
 10
15.4332953919
 20
10.0904455775
 30
0.0
 10
15.4344357285
 20
10.0803723725
 30
0.0
 10
15.435871556
 20
10.070437856
 30
0.0
 10
15.4375805373
 20
10.0606693235
 30
0.0
 10
15.4395419389
 20
10.051091984
 30
0.0
 10
15.4424332285
 20
10.0387260516
 30
0.0
 10
15.446518196
 20
10.0238842877
 30
0.0
 10
15.4520523886
 20
10.0069545286
 30
0.0
 10
15.4579522306
 20
9.9911818411
 30
0.0
 10
15.4640021113
 20
9.9766516047
 30
0.0
 10
15.4699988264
 20
9.9634505146
 30
0.0
 10
15.4749228859
 20
9.9533465571
 30
0.0
 10
15.4786707053
 20
9.9459917817
 30
0.0
 10
15.4812590298
 20
9.9410392129
 30
0.0
 10
15.4836887053
 20
9.9364948276
 30
0.0
 10
15.4859371792
 20
9.9323741908
 30
0.0
 10
15.4879819137
 20
9.9286927401
 30
0.0
 10
15.489801004
 20
9.9254646502
 30
0.0
 10
15.4911703631
 20
9.9230662099
 30
0.0
 10
15.4921391037
 20
9.9213844568
 30
0.0
 10
15.4927645584
 20
9.9203040973
 30
0.0
 10
15.4933207897
 20
9.9193474308
 30
0.0
 10
15.4938058381
 20
9.9185157449
 30
0.0
 10
15.4942184657
 20
9.9178101551
 30
0.0
 10
15.4945167894
 20
9.9173014306
 30
0.0
 10
15.4947185917
 20
9.9169580448
 30
0.0
 10
15.4948419979
 20
9.9167483476
 30
0.0
 10
15.4949466837
 20
9.916570692
 30
0.0
 10
15.495032566
 20
9.9164251711
 30
0.0
 10
15.4950923132
 20
9.9163240039
 30
0.0
 10
15.4951306736
 20
9.9162592281
 30
0.0
 10
15.4951522062
 20
9.9162226898
 30
0.0
 10
15.4951691942
 20
9.9161944212
 30
0.0
 10
15.4951808407
 20
9.9161738361
 30
0.0
 10
15.4951887364
 20
9.9161621628
 30
0.0
 10
15.4951912562
 20
9.9161562183
 30
0.0
 10
15.4951923459
 20
9.9161550803
 30
0.0
  0
SPLINE
  5
468
100
AcDbEntity
  8
0
100
AcDbSpline
 62
7
  6
CONTINUOUS
 70
0
 71
3
 72
46
 73
42
 74
0
 42
0.0000001
 43
0.0000001
 44
0.0000000001
 40
0.0
 40
0.0
 40
0.0
 40
0.0
 40
0.0000217209
 40
0.0000868628
 40
0.0001953616
 40
0.0003471534
 40
0.0005421742
 40
0.0007803602
 40
0.0013859716
 40
0.0021634761
 40
0.0031123625
 40
0.0042321196
 40
0.0055222366
 40
0.0086115064
 40
0.0123760872
 40
0.0168116069
 40
0.0219098331
 40
0.0276597964
 40
0.0340504862
 40
0.0410709114
 40
0.0487101024
 40
0.0658008207
 40
0.0852255306
 40
0.1068732534
 40
0.1306326783
 40
0.1563937177
 40
0.18405054
 40
0.2135009038
 40
0.2446443674
 40
0.3116286261
 40
0.3842986683
 40
0.4620109921
 40
0.5441936879
 40
0.6302661332
 40
0.6745674701
 40
0.7196110165
 40
0.7653054486
 40
0.8115559447
 40
0.8582733857
 40
0.9053519476
 40
1.0
 40
1.0
 40
1.0
 40
1.0
 10
14.3801923558
 20
9.9161550803
 30
0.0
 10
14.3801912683
 20
9.9161539447
 30
0.0
 10
14.3801990725
 20
9.916165413
 30
0.0
 10
14.3802018376
 20
9.9161717311
 30
0.0
 10
14.3802163677
 20
9.9161953382
 30
0.0
 10
14.3802320313
 20
9.9162222345
 30
0.0
 10
14.3802540157
 20
9.9162592588
 30
0.0
 10
14.3802920637
 20
9.9163237319
 30
0.0
 10
14.3803518599
 20
9.9164249824
 30
0.0
 10
14.3804375394
 20
9.916570328
 30
0.0
 10
14.3805421086
 20
9.9167478961
 30
0.0
 10
14.3806653682
 20
9.9169574682
 30
0.0
 10
14.3808670072
 20
9.9173007185
 30
0.0
 10
14.3811651896
 20
9.9178092988
 30
0.0
 10
14.3815777788
 20
9.9185147561
 30
0.0
 10
14.3820629279
 20
9.9193462511
 30
0.0
 10
14.3826191251
 20
9.9203026911
 30
0.0
 10
14.3832444137
 20
9.9213826793
 30
0.0
 10
14.3839367866
 20
9.9225846138
 30
0.0
 10
14.3846942186
 20
9.9239068982
 30
0.0
 10
14.3858314232
 20
9.9259042994
 30
0.0
 10
14.3874011075
 20
9.9286887563
 30
0.0
 10
14.3894455877
 20
9.9323696052
 30
0.0
 10
14.3916933265
 20
9.9364896478
 30
0.0
 10
14.3941222206
 20
9.9410331811
 30
0.0
 10
14.3967103344
 20
9.9459846126
 30
0.0
 10
14.3994340307
 20
9.9513297
 30
0.0
 10
14.4022689338
 20
9.9570550094
 30
0.0
 10
14.4062632316
 20
9.9653823174
 30
0.0
 10
14.4113780201
 20
9.9766411289
 30
0.0
 10
14.417427756
 20
9.9911703507
 30
0.0
 10
14.4233280029
 20
10.0069429148
 30
0.0
 10
14.4288620722
 20
10.0238729397
 30
0.0
 10
14.4329493532
 20
10.0387146903
 30
0.0
 10
14.4358409552
 20
10.0510811008
 30
0.0
 10
14.4378016825
 20
10.0606594728
 30
0.0
 10
14.4395111484
 20
10.0704291909
 30
0.0
 10
14.4409474839
 20
10.0803653272
 30
0.0
 10
14.4420871888
 20
10.0904410449
 30
0.0
 10
14.4431875701
 20
10.1040397527
 30
0.0
 10
14.443526379
 20
10.1143034028
 30
0.0
 10
14.443526379
 20
10.1211550803
 30
0.0
  0
SPLINE
  5
469
100
AcDbEntity
  8
0
100
AcDbSpline
 62
7
  6
CONTINUOUS
 70
0
 71
3
 72
25
 73
21
 74
0
 42
0.0000001
 43
0.0000001
 44
0.0000000001
 40
0.0
 40
0.0
 40
0.0
 40
0.0
 40
0.0472911333
 40
0.094509013
 40
0.1415073122
 40
0.1881455254
 40
0.279937894
 40
0.3249139511
 40
0.3691546291
 40
0.4551195522
 40
0.5372044619
 40
0.6148472812
 40
0.6874704924
 40
0.815028199
 40
0.8684953753
 40
0.9139919065
 40
0.9506353762
 40
0.977614052
 40
0.9942181897
 40
1.0
 40
1.0
 40
1.0
 40
1.0
 10
14.443526379
 20
10.1211550803
 30
0.0
 10
14.443526379
 20
10.124578487
 30
0.0
 10
14.4434135277
 20
10.1314205134
 30
0.0
 10
14.4429141671
 20
10.1416536814
 30
0.0
 10
14.4420929038
 20
10.1518188755
 30
0.0
 10
14.4405851495
 20
10.1651588748
 30
0.0
 10
14.4384897401
 20
10.1782787633
 30
0.0
 10
14.4358646777
 20
10.1911176948
 30
0.0
 10
14.4329810309
 20
10.2034683543
 30
0.0
 10
14.4289060325
 20
10.2182932117
 30
0.0
 10
14.4233845427
 20
10.2352061301
 30
0.0
 10
14.417496348
 20
10.2509664978
 30
0.0
 10
14.409771568
 20
10.2695390647
 30
0.0
 10
14.4019501207
 20
10.2861636414
 30
0.0
 10
14.394435312
 20
10.3007389422
 30
0.0
 10
14.3897727013
 20
10.3093781869
 30
0.0
 10
14.3859187195
 20
10.3162735366
 30
0.0
 10
14.3830290567
 20
10.321311289
 30
0.0
 10
14.3812276811
 20
10.3243975601
 30
0.0
 10
14.380406339
 20
10.325794522
 30
0.0
 10
14.3801927182
 20
10.3261544476
 30
0.0
  0
SPLINE
  5
46A
100
AcDbEntity
  8
0
100
AcDbSpline
 62
7
  6
CONTINUOUS
 70
0
 71
3
 72
9
 73
5
 74
0
 42
0.0000001
 43
0.0000001
 44
0.0000000001
 40
0.0
 40
0.0
 40
0.0
 40
0.0
 40
0.4958983142
 40
1.0
 40
1.0
 40
1.0
 40
1.0
 10
14.7169379338
 20
9.6471560136
 30
0.0
 10
14.7149095173
 20
9.6470087538
 30
0.0
 10
14.7108367452
 20
9.6463808276
 30
0.0
 10
14.7069149071
 20
9.6451206981
 30
0.0
 10
14.7049989262
 20
9.6443440693
 30
0.0
  0
SPLINE
  5
46B
100
AcDbEntity
  8
0
100
AcDbSpline
 62
7
  6
CONTINUOUS
 70
0
 71
3
 72
14
 73
10
 74
0
 42
0.0000001
 43
0.0000001
 44
0.0000000001
 40
0.0
 40
0.0
 40
0.0
 40
0.0
 40
0.1143130889
 40
0.2313025625
 40
0.3513217676
 40
0.4745786973
 40
0.7309058302
 40
0.8640678193
 40
1.0
 40
1.0
 40
1.0
 40
1.0
 10
14.7049989262
 20
9.6443440693
 30
0.0
 10
14.7035239952
 20
9.6437462169
 30
0.0
 10
14.7006062262
 20
9.6423651901
 30
0.0
 10
14.6964304385
 20
9.6398020841
 30
0.0
 10
14.6924392481
 20
9.6367499939
 30
0.0
 10
14.6873422731
 20
9.6320044173
 30
0.0
 10
14.6828140167
 20
9.6264301387
 30
0.0
 10
14.6789202638
 20
9.6202323199
 30
0.0
 10
14.6771745184
 20
9.6169122798
 30
0.0
 10
14.6763555968
 20
9.6152061607
 30
0.0
  0
SPLINE
  5
46C
100
AcDbEntity
  8
0
100
AcDbSpline
 62
7
  6
CONTINUOUS
 70
0
 71
3
 72
14
 73
10
 74
0
 42
0.0000001
 43
0.0000001
 44
0.0000000001
 40
0.0
 40
0.0
 40
0.0
 40
0.0
 40
0.1178828635
 40
0.2369026449
 40
0.3575497113
 40
0.4803333042
 40
0.605705136
 40
0.7340250157
 40
1.0
 40
1.0
 40
1.0
 40
1.0
 10
14.7196105845
 20
9.6471569519
 30
0.0
 10
14.7210010575
 20
9.6470564198
 30
0.0
 10
14.7237865335
 20
9.6466994573
 30
0.0
 10
14.7279054096
 20
9.6457093189
 30
0.0
 10
14.7319501126
 20
9.6442662106
 30
0.0
 10
14.735892261
 20
9.6423833021
 30
0.0
 10
14.7397080298
 20
9.6400751376
 30
0.0
 10
14.7446487956
 20
9.6364092356
 30
0.0
 10
14.7480067264
 20
9.6331309356
 30
0.0
 10
14.7500779828
 20
9.6307636912
 30
0.0
  0
SPLINE
  5
46D
100
AcDbEntity
  8
0
100
AcDbSpline
 62
7
  6
CONTINUOUS
 70
0
 71
3
 72
12
 73
8
 74
0
 42
0.0000001
 43
0.0000001
 44
0.0000000001
 40
0.0
 40
0.0
 40
0.0
 40
0.0
 40
0.2398037788
 40
0.3615206726
 40
0.4848393728
 40
0.7374368285
 40
1.0
 40
1.0
 40
1.0
 40
1.0
 10
15.14738256
 20
9.5171537924
 30
0.0
 10
15.1497127999
 20
9.5173227683
 30
0.0
 10
15.1532122473
 20
9.5179060329
 30
0.0
 10
15.1577298889
 20
9.5193001861
 30
0.0
 10
15.1622250987
 20
9.5211322811
 30
0.0
 10
15.1676644382
 20
9.5242105725
 30
0.0
 10
15.1716066878
 20
9.5273516716
 30
0.0
 10
15.1734908087
 20
9.5290819769
 30
0.0
  0
SPLINE
  5
46E
100
AcDbEntity
  8
0
100
AcDbSpline
 62
7
  6
CONTINUOUS
 70
0
 71
3
 72
28
 73
24
 74
0
 42
0.0000001
 43
0.0000001
 44
0.0000000001
 40
0.0
 40
0.0
 40
0.0
 40
0.0
 40
0.0619699583
 40
0.0939995733
 40
0.1266808672
 40
0.1937968828
 40
0.262877961
 40
0.3332841229
 40
0.4042573903
 40
0.4749816416
 40
0.5446224169
 40
0.6123818674
 40
0.677550334
 40
0.7395527042
 40
0.7980267208
 40
0.8259187604
 40
0.8529158659
 40
0.8790520443
 40
0.904393537
 40
0.9290372328
 40
0.9531010363
 40
0.9767140579
 40
1.0
 40
1.0
 40
1.0
 40
1.0
 10
15.1734908087
 20
9.5290819769
 30
0.0
 10
15.1756403237
 20
9.5310560102
 30
0.0
 10
15.178665145
 20
9.5343181062
 30
0.0
 10
15.1822357075
 20
9.5391011577
 30
0.0
 10
15.185605322
 20
9.5443208521
 30
0.0
 10
15.1892465842
 20
9.5514173971
 30
0.0
 10
15.1926215007
 20
9.5605660852
 30
0.0
 10
15.1949753127
 20
9.570215466
 30
0.0
 10
15.1962683673
 20
9.5801399827
 30
0.0
 10
15.1964851065
 20
9.5901098501
 30
0.0
 10
15.1956307321
 20
9.5998939478
 30
0.0
 10
15.1937396525
 20
9.6092657306
 30
0.0
 10
15.1908666736
 20
9.6180093629
 30
0.0
 10
15.1870876347
 20
9.6259210153
 30
0.0
 10
15.1832018339
 20
9.6317635648
 30
0.0
 10
15.1797247119
 20
9.6358217939
 30
0.0
 10
15.1770030222
 20
9.6385033459
 30
0.0
 10
15.174143202
 20
9.6408526269
 30
0.0
 10
15.1711627397
 20
9.642855135
 30
0.0
 10
15.1680806309
 20
9.6445000199
 30
0.0
 10
15.1649149758
 20
9.645775238
 30
0.0
 10
15.1616883599
 20
9.6466713544
 30
0.0
 10
15.159500849
 20
9.6470161331
 30
0.0
 10
15.1584094273
 20
9.6471229232
 30
0.0
  0
SPLINE
  5
46F
100
AcDbEntity
  8
0
100
AcDbSpline
 62
7
  6
CONTINUOUS
 70
0
 71
3
 72
14
 73
10
 74
0
 42
0.0000001
 43
0.0000001
 44
0.0000000001
 40
0.0
 40
0.0
 40
0.0
 40
0.0
 40
0.1114220669
 40
0.2261601835
 40
0.344637088
 40
0.4672225172
 40
0.7251539358
 40
0.8607032474
 40
1.0
 40
1.0
 40
1.0
 40
1.0
 10
15.1479226318
 20
9.6452099052
 30
0.0
 10
15.1464399234
 20
9.6446715298
 30
0.0
 10
15.143500505
 20
9.6433760057
 30
0.0
 10
15.1393051979
 20
9.640863182
 30
0.0
 10
15.1353092034
 20
9.6377777345
 30
0.0
 10
15.1302152187
 20
9.6328670482
 30
0.0
 10
15.1257720433
 20
9.6269994705
 30
0.0
 10
15.1220459872
 20
9.6204355642
 30
0.0
 10
15.1204124903
 20
9.6168976246
 30
0.0
 10
15.1196573968
 20
9.6150758591
 30
0.0
  0
SPLINE
  5
470
100
AcDbEntity
  8
0
100
AcDbSpline
 62
7
  6
CONTINUOUS
 70
0
 71
3
 72
9
 73
5
 74
0
 42
0.0000001
 43
0.0000001
 44
0.0000000001
 40
0.0
 40
0.0
 40
0.0
 40
0.0
 40
0.2455633541
 40
1.0
 40
1.0
 40
1.0
 40
1.0
 10
15.1196573968
 20
9.6150758591
 30
0.0
 10
15.1193459968
 20
9.6143362784
 30
0.0
 10
15.1181296122
 20
9.6113028967
 30
0.0
 10
15.117115709
 20
9.6081890845
 30
0.0
 10
15.116459422
 20
9.605812654
 30
0.0
  0
SPLINE
  5
471
100
AcDbEntity
  8
0
100
AcDbSpline
 62
7
  6
CONTINUOUS
 70
0
 71
3
 72
9
 73
5
 74
0
 42
0.0000001
 43
0.0000001
 44
0.0000000001
 40
0.0
 40
0.0
 40
0.0
 40
0.0
 40
0.245753081
 40
1.0
 40
1.0
 40
1.0
 40
1.0
 10
15.116459422
 20
9.605812654
 30
0.0
 10
15.1160674057
 20
9.6043931538
 30
0.0
 10
15.1146295277
 20
9.5985743236
 30
0.0
 10
15.113812314
 20
9.5926055183
 30
0.0
 10
15.1135256117
 20
9.5880949161
 30
0.0
  0
SPLINE
  5
472
100
AcDbEntity
  8
0
100
AcDbSpline
 62
7
  6
CONTINUOUS
 70
0
 71
3
 72
15
 73
11
 74
0
 42
0.0000001
 43
0.0000001
 44
0.0000000001
 40
0.0
 40
0.0
 40
0.0
 40
0.0
 40
0.1370061242
 40
0.2722743014
 40
0.4046637252
 40
0.5332216203
 40
0.6572445894
 40
0.7763399973
 40
0.8904794299
 40
1.0
 40
1.0
 40
1.0
 40
1.0
 10
15.1138204647
 20
9.5725996737
 30
0.0
 10
15.1141345788
 20
9.5694931096
 30
0.0
 10
15.1150651391
 20
9.5633458519
 30
0.0
 10
15.1173537179
 20
9.5543962295
 30
0.0
 10
15.1204930466
 20
9.5459112945
 30
0.0
 10
15.1244232334
 20
9.5380465649
 30
0.0
 10
15.1290766675
 20
9.5309440064
 30
0.0
 10
15.134374229
 20
9.5247299913
 30
0.0
 10
15.1402209909
 20
9.5195124616
 30
0.0
 10
15.1445053178
 20
9.5167063925
 30
0.0
 10
15.1466976662
 20
9.5155132319
 30
0.0
  0
SPLINE
  5
473
100
AcDbEntity
  8
0
100
AcDbSpline
 62
7
  6
CONTINUOUS
 70
0
 71
3
 72
11
 73
7
 74
0
 42
0.0000001
 43
0.0000001
 44
0.0000000001
 40
0.0
 40
0.0
 40
0.0
 40
0.0
 40
0.2561698686
 40
0.507469653
 40
0.7550343735
 40
1.0
 40
1.0
 40
1.0
 40
1.0
 10
15.1466976662
 20
9.5155132319
 30
0.0
 10
15.1480644584
 20
9.5147693709
 30
0.0
 10
15.1508492667
 20
9.5134319702
 30
0.0
 10
15.1551818052
 20
9.5119001888
 30
0.0
 10
15.1595905068
 20
9.5108705171
 30
0.0
 10
15.1625693214
 20
9.5105197363
 30
0.0
 10
15.1640546779
 20
9.510430396
 30
0.0
  0
SPLINE
  5
474
100
AcDbEntity
  8
0
100
AcDbSpline
 62
7
  6
CONTINUOUS
 70
0
 71
3
 72
11
 73
7
 74
0
 42
0.0000001
 43
0.0000001
 44
0.0000000001
 40
0.0
 40
0.0
 40
0.0
 40
0.0
 40
0.2635390745
 40
0.5187255907
 40
0.7644283215
 40
1.0
 40
1.0
 40
1.0
 40
1.0
 10
15.1183792293
 20
9.6155966119
 30
0.0
 10
15.1193555483
 20
9.6186874782
 30
0.0
 10
15.1215677714
 20
9.6246848171
 30
0.0
 10
15.125715817
 20
9.6331415382
 30
0.0
 10
15.1305794528
 20
9.6408052104
 30
0.0
 10
15.1343357348
 20
9.6454037453
 30
0.0
 10
15.1363128369
 20
9.6475217784
 30
0.0
  0
SPLINE
  5
475
100
AcDbEntity
  8
0
100
AcDbSpline
 62
7
  6
CONTINUOUS
 70
0
 71
3
 72
13
 73
9
 74
0
 42
0.0000001
 43
0.0000001
 44
0.0000000001
 40
0.0
 40
0.0
 40
0.0
 40
0.0
 40
0.2655557258
 40
0.519266378
 40
0.6423234447
 40
0.7632051548
 40
0.8822967035
 40
1.0
 40
1.0
 40
1.0
 40
1.0
 10
15.1363128369
 20
9.6475217784
 30
0.0
 10
15.1383093111
 20
9.6496605645
 30
0.0
 10
15.1425003182
 20
9.6535875148
 30
0.0
 10
15.14836019
 20
9.6576118384
 30
0.0
 10
15.1532380938
 20
9.6601283928
 30
0.0
 10
15.1569422198
 20
9.6616513875
 30
0.0
 10
15.1607089499
 20
9.6628259875
 30
0.0
 10
15.1632632444
 20
9.66337745
 30
0.0
 10
15.164542048
 20
9.6635928309
 30
0.0
  0
SPLINE
  5
476
100
AcDbEntity
  8
0
100
AcDbSpline
 62
7
  6
CONTINUOUS
 70
0
 71
3
 72
35
 73
31
 74
0
 42
0.0000001
 43
0.0000001
 44
0.0000000001
 40
0.0
 40
0.0
 40
0.0
 40
0.0
 40
0.0267802722
 40
0.0537376563
 40
0.0810761506
 40
0.1090046914
 40
0.1377045254
 40
0.1673029428
 40
0.1978688219
 40
0.2294277717
 40
0.2953492064
 40
0.3645798621
 40
0.4361057658
 40
0.5086500844
 40
0.5448975888
 40
0.5808845633
 40
0.6164431818
 40
0.6514196885
 40
0.685669562
 40
0.7190725348
 40
0.7515261443
 40
0.7829565232
 40
0.8133204972
 40
0.8426048303
 40
0.8708386161
 40
0.8980841484
 40
0.9244581784
 40
0.9501185871
 40
0.9752419586
 40
1.0
 40
1.0
 40
1.0
 40
1.0
 10
15.1640546779
 20
9.510430396
 30
0.0
 10
15.1659029517
 20
9.5103192271
 30
0.0
 10
15.1696331072
 20
9.5103639992
 30
0.0
 10
15.1751901019
 20
9.5112241711
 30
0.0
 10
15.180651262
 20
9.5128666129
 30
0.0
 10
15.1859562094
 20
9.5152641318
 30
0.0
 10
15.1910517022
 20
9.5183873515
 30
0.0
 10
15.1958888622
 20
9.5221968705
 30
0.0
 10
15.2004229189
 20
9.5266481339
 30
0.0
 10
15.2060853399
 20
9.5334703948
 30
0.0
 10
15.2121360256
 20
9.5433605162
 30
0.0
 10
15.2174962755
 20
9.5566680874
 30
0.0
 10
15.2209095351
 20
9.5710682301
 30
0.0
 10
15.2220508236
 20
9.5835273975
 30
0.0
 10
15.2219251487
 20
9.5935432415
 30
0.0
 10
15.2213158977
 20
9.600977586
 30
0.0
 10
15.2201987134
 20
9.6082635486
 30
0.0
 10
15.2185911913
 20
9.6153344495
 30
0.0
 10
15.2165083631
 20
9.6221247997
 30
0.0
 10
15.213975084
 20
9.6285736214
 30
0.0
 10
15.2110168424
 20
9.6346232726
 30
0.0
 10
15.207662939
 20
9.6402199414
 30
0.0
 10
15.2039482493
 20
9.6453161912
 30
0.0
 10
15.199905655
 20
9.6498659251
 30
0.0
 10
15.1955768026
 20
9.6538329933
 30
0.0
 10
15.1909989722
 20
9.6571813151
 30
0.0
 10
15.186214493
 20
9.6598835278
 30
0.0
 10
15.1812651527
 20
9.6619138245
 30
0.0
 10
15.176202031
 20
9.6632538716
 30
0.0
 10
15.1727681515
 20
9.6636873795
 30
0.0
 10
15.171059178
 20
9.6637856238
 30
0.0
  0
SPLINE
  5
477
100
AcDbEntity
  8
0
100
AcDbSpline
 62
7
  6
CONTINUOUS
 70
0
 71
3
 72
11
 73
7
 74
0
 42
0.0000001
 43
0.0000001
 44
0.0000000001
 40
0.0
 40
0.0
 40
0.0
 40
0.0
 40
0.2454343894
 40
0.4926635579
 40
0.743543832
 40
1.0
 40
1.0
 40
1.0
 40
1.0
 10
14.7113248312
 20
9.5104230754
 30
0.0
 10
14.7128304737
 20
9.5103241049
 30
0.0
 10
14.7158707748
 20
9.5103378243
 30
0.0
 10
14.7204092563
 20
9.5109876385
 30
0.0
 10
14.7248843908
 20
9.5122587123
 30
0.0
 10
14.7277584704
 20
9.5134947954
 30
0.0
 10
14.7291668982
 20
9.5142034297
 30
0.0
  0
SPLINE
  5
478
100
AcDbEntity
  8
0
100
AcDbSpline
 62
7
  6
CONTINUOUS
 70
0
 71
3
 72
13
 73
9
 74
0
 42
0.0000001
 43
0.0000001
 44
0.0000000001
 40
0.0
 40
0.0
 40
0.0
 40
0.0
 40
0.1081368972
 40
0.2208133051
 40
0.3384911694
 40
0.4613616615
 40
0.7219203948
 40
1.0
 40
1.0
 40
1.0
 40
1.0
 10
14.7291668982
 20
9.5142034297
 30
0.0
 10
14.7309452086
 20
9.5150981663
 30
0.0
 10
14.7344417741
 20
9.5172040359
 30
0.0
 10
14.7392994996
 20
9.5211336614
 30
0.0
 10
14.7438146637
 20
9.5258356147
 30
0.0
 10
14.7494048234
 20
9.5331955788
 30
0.0
 10
14.7551669888
 20
9.5440193298
 30
0.0
 10
14.7581976165
 20
9.5535163392
 30
0.0
 10
14.7593655323
 20
9.5585005561
 30
0.0
  0
SPLINE
  5
479
100
AcDbEntity
  8
0
100
AcDbSpline
 62
7
  6
CONTINUOUS
 70
0
 71
3
 72
11
 73
7
 74
0
 42
0.0000001
 43
0.0000001
 44
0.0000000001
 40
0.0
 40
0.0
 40
0.0
 40
0.0
 40
0.2459732496
 40
0.4337927231
 40
0.6229930031
 40
1.0
 40
1.0
 40
1.0
 40
1.0
 10
14.7593655323
 20
9.5585005561
 30
0.0
 10
14.7602573759
 20
9.562306603
 30
0.0
 10
14.7614253983
 20
9.5691204533
 30
0.0
 10
14.762125824
 20
9.5790074193
 30
0.0
 10
14.7619761727
 20
9.5909992985
 30
0.0
 10
14.7607500168
 20
9.599969462
 30
0.0
 10
14.7594361537
 20
9.6058152323
 30
0.0
  0
SPLINE
  5
47A
100
AcDbEntity
  8
0
100
AcDbSpline
 62
7
  6
CONTINUOUS
 70
0
 71
3
 72
12
 73
8
 74
0
 42
0.0000001
 43
0.0000001
 44
0.0000000001
 40
0.0
 40
0.0
 40
0.0
 40
0.0
 40
0.2622224394
 40
0.3909145099
 40
0.5175969435
 40
0.7639152121
 40
1.0
 40
1.0
 40
1.0
 40
1.0
 10
14.7594361537
 20
9.6058152323
 30
0.0
 10
14.7585999755
 20
9.6095356393
 30
0.0
 10
14.7570506177
 20
9.6150215374
 30
0.0
 10
14.7543828179
 20
9.6220632399
 30
0.0
 10
14.7513983092
 20
9.6287246386
 30
0.0
 10
14.7470476333
 20
9.6364669769
 30
0.0
 10
14.7428208395
 20
9.6420985491
 30
0.0
 10
14.7405632189
 20
9.6446849555
 30
0.0
  0
SPLINE
  5
47B
100
AcDbEntity
  8
0
100
AcDbSpline
 62
7
  6
CONTINUOUS
 70
0
 71
3
 72
11
 73
7
 74
0
 42
0.0000001
 43
0.0000001
 44
0.0000000001
 40
0.0
 40
0.0
 40
0.0
 40
0.0
 40
0.2643859097
 40
0.5179070272
 40
0.7622723376
 40
1.0
 40
1.0
 40
1.0
 40
1.0
 10
14.7385632115
 20
9.6468785153
 30
0.0
 10
14.7365215239
 20
9.6490215125
 30
0.0
 10
14.7322371081
 20
9.6529615015
 30
0.0
 10
14.7251473555
 20
9.6577700722
 30
0.0
 10
14.7176517963
 20
9.6612679399
 30
0.0
 10
14.7124123946
 20
9.6626918062
 30
0.0
 10
14.7097924285
 20
9.6631598146
 30
0.0
  0
SPLINE
  5
47C
100
AcDbEntity
  8
0
100
AcDbSpline
 62
7
  6
CONTINUOUS
 70
0
 71
3
 72
23
 73
19
 74
0
 42
0.0000001
 43
0.0000001
 44
0.0000000001
 40
0.0
 40
0.0
 40
0.0
 40
0.0
 40
0.0674353482
 40
0.1366835227
 40
0.2070670987
 40
0.2780167904
 40
0.4189586868
 40
0.4878688441
 40
0.5549383436
 40
0.6197086429
 40
0.6511280608
 40
0.6818551084
 40
0.7411220261
 40
0.7974956409
 40
0.8511124313
 40
0.9023445274
 40
0.9517659047
 40
1.0
 40
1.0
 40
1.0
 40
1.0
 10
14.6763555968
 20
9.6152061607
 30
0.0
 10
14.6750685452
 20
9.6126624337
 30
0.0
 10
14.672762843
 20
9.6073486144
 30
0.0
 10
14.6701460857
 20
9.5989802061
 30
0.0
 10
14.6683558956
 20
9.5902437796
 30
0.0
 10
14.6671006906
 20
9.5783636341
 30
0.0
 10
14.6675356982
 20
9.5664138744
 30
0.0
 10
14.6696536771
 20
9.5548854433
 30
0.0
 10
14.6720151449
 20
9.5467183518
 30
0.0
 10
14.6746199758
 20
9.5403111424
 30
0.0
 10
14.6770584294
 20
9.5355288184
 30
0.0
 10
14.6796533361
 20
9.5310976535
 30
0.0
 10
14.683258968
 20
9.526047248
 30
0.0
 10
14.6881656134
 20
9.5208082163
 30
0.0
 10
14.6935163487
 20
9.5165444654
 30
0.0
 10
14.6992235096
 20
9.5133253505
 30
0.0
 10
14.7051868936
 20
9.5112151668
 30
0.0
 10
14.7092901484
 20
9.5105568215
 30
0.0
 10
14.7113248312
 20
9.5104230754
 30
0.0
  0
SPLINE
  5
47D
100
AcDbEntity
  8
0
100
AcDbSpline
 62
7
  6
CONTINUOUS
 70
0
 71
3
 72
20
 73
16
 74
0
 42
0.0000001
 43
0.0000001
 44
0.0000000001
 40
0.0
 40
0.0
 40
0.0
 40
0.0
 40
0.0504813881
 40
0.1025587579
 40
0.1565276239
 40
0.2125340826
 40
0.2705863975
 40
0.3305974623
 40
0.3924170217
 40
0.4558620345
 40
0.5867618173
 40
0.6539332683
 40
0.7219907024
 40
0.8600771021
 40
1.0
 40
1.0
 40
1.0
 40
1.0
 10
14.6948011634
 20
9.4870550803
 30
0.0
 10
14.6966792897
 20
9.4870550803
 30
0.0
 10
14.700499999
 20
9.4873455136
 30
0.0
 10
14.7062032155
 20
9.4886037809
 30
0.0
 10
14.7118875639
 20
9.4906599647
 30
0.0
 10
14.7174857883
 20
9.4934713373
 30
0.0
 10
14.7229377422
 20
9.4969875923
 30
0.0
 10
14.7281880603
 20
9.5011532293
 30
0.0
 10
14.7331877369
 20
9.5059114797
 30
0.0
 10
14.7395247066
 20
9.5130413475
 30
0.0
 10
14.7451078833
 20
9.5210627383
 30
0.0
 10
14.7498726407
 20
9.5297484311
 30
0.0
 10
14.7541342276
 20
9.5389893262
 30
0.0
 10
14.7583141341
 20
9.5512097162
 30
0.0
 10
14.7603423249
 20
9.5613874567
 30
0.0
 10
14.7610230745
 20
9.5665484922
 30
0.0
  0
SPLINE
  5
47E
100
AcDbEntity
  8
0
100
AcDbSpline
 62
7
  6
CONTINUOUS
 70
0
 71
3
 72
11
 73
7
 74
0
 42
0.0000001
 43
0.0000001
 44
0.0000000001
 40
0.0
 40
0.0
 40
0.0
 40
0.0
 40
0.2558324441
 40
0.5093607724
 40
0.7583170572
 40
1.0
 40
1.0
 40
1.0
 40
1.0
 10
14.7620222615
 20
9.5845868686
 30
0.0
 10
14.7619033721
 20
9.5904266808
 30
0.0
 10
14.7608123088
 20
9.6020543681
 30
0.0
 10
14.7566690517
 20
9.6189278937
 30
0.0
 10
14.7501910907
 20
9.6347014044
 30
0.0
 10
14.7443593348
 20
9.6443331056
 30
0.0
 10
14.7411092696
 20
9.648792372
 30
0.0
  0
SPLINE
  5
47F
100
AcDbEntity
  8
0
100
AcDbSpline
 62
7
  6
CONTINUOUS
 70
0
 71
3
 72
15
 73
11
 74
0
 42
0.0000001
 43
0.0000001
 44
0.0000000001
 40
0.0
 40
0.0
 40
0.0
 40
0.0
 40
0.1398074156
 40
0.2760596737
 40
0.4082599345
 40
0.5359679204
 40
0.6588791435
 40
0.7769261496
 40
0.8903932974
 40
1.0
 40
1.0
 40
1.0
 40
1.0
 10
14.7411092696
 20
9.648792372
 30
0.0
 10
14.7395637725
 20
9.6509128783
 30
0.0
 10
14.7363392023
 20
9.6549776754
 30
0.0
 10
14.7310635065
 20
9.6605483938
 30
0.0
 10
14.7254567767
 20
9.6654501194
 30
0.0
 10
14.7195798022
 20
9.6696074478
 30
0.0
 10
14.713501064
 20
9.6729467733
 30
0.0
 10
14.7072963114
 20
9.6753992251
 30
0.0
 10
14.7010515339
 20
9.6769056902
 30
0.0
 10
14.696858296
 20
9.6772550803
 30
0.0
 10
14.6948011634
 20
9.6772550803
 30
0.0
  0
SPLINE
  5
480
100
AcDbEntity
  8
0
100
AcDbSpline
 62
7
  6
CONTINUOUS
 70
0
 71
3
 72
39
 73
35
 74
0
 42
0.0000001
 43
0.0000001
 44
0.0000000001
 40
0.0
 40
0.0
 40
0.0
 40
0.0
 40
0.025923047
 40
0.051565184
 40
0.0773526195
 40
0.1036831012
 40
0.1308772758
 40
0.1591565103
 40
0.1886452079
 40
0.2193856914
 40
0.251356285
 40
0.2844869325
 40
0.3186710749
 40
0.3537742264
 40
0.3896395472
 40
0.4260925591
 40
0.462945166
 40
0.4999999407
 40
0.5370547609
 40
0.5739073406
 40
0.6103603522
 40
0.6462257089
 40
0.6813288125
 40
0.7155130023
 40
0.7486436286
 40
0.780614224
 40
0.8113547277
 40
0.8408434064
 40
0.8691226752
 40
0.8963168442
 40
0.9226473565
 40
0.9484348102
 40
0.9740769562
 40
1.0
 40
1.0
 40
1.0
 40
1.0
 10
14.6948011634
 20
9.6772550803
 30
0.0
 10
14.692739301
 20
9.6772550803
 30
0.0
 10
14.6886283604
 20
9.6769113193
 30
0.0
 10
14.6826509803
 20
9.6753322915
 30
0.0
 10
14.6770036527
 20
9.6727388816
 30
0.0
 10
14.6717502236
 20
9.6692014273
 30
0.0
 10
14.6669269506
 20
9.6648037563
 30
0.0
 10
14.6625511128
 20
9.6596327641
 30
0.0
 10
14.6586267942
 20
9.6537729712
 30
0.0
 10
14.6551504615
 20
9.6473046954
 30
0.0
 10
14.652114442
 20
9.6403038545
 30
0.0
 10
14.649509161
 20
9.6328424894
 30
0.0
 10
14.6473246196
 20
9.6249895432
 30
0.0
 10
14.645551354
 20
9.6168117799
 30
0.0
 10
14.6441811164
 20
9.6083746372
 30
0.0
 10
14.6432072576
 20
9.5997429665
 30
0.0
 10
14.6426249166
 20
9.590981505
 30
0.0
 10
14.6424311386
 20
9.5821550909
 30
0.0
 10
14.6426249161
 20
9.573328679
 30
0.0
 10
14.643207255
 20
9.5645672159
 30
0.0
 10
14.6441811142
 20
9.5559355446
 30
0.0
 10
14.6455513494
 20
9.5474984025
 30
0.0
 10
14.6473246148
 20
9.5393206363
 30
0.0
 10
14.6495091556
 20
9.5314676917
 30
0.0
 10
14.6521144338
 20
9.5240063232
 30
0.0
 10
14.6551504547
 20
9.517005483
 30
0.0
 10
14.6586267834
 20
9.5105372047
 30
0.0
 10
14.6625511043
 20
9.50467741
 30
0.0
 10
14.6669269399
 20
9.4995064148
 30
0.0
 10
14.6717502157
 20
9.4951087398
 30
0.0
 10
14.6770036466
 20
9.4915712822
 30
0.0
 10
14.6826509783
 20
9.4889778697
 30
0.0
 10
14.6886283602
 20
9.4873988413
 30
0.0
 10
14.6927393013
 20
9.4870550803
 30
0.0
 10
14.6948011634
 20
9.4870550803
 30
0.0
  0
SPLINE
  5
481
100
AcDbEntity
  8
0
100
AcDbSpline
 62
7
  6
CONTINUOUS
 70
0
 71
3
 72
39
 73
35
 74
0
 42
0.0000001
 43
0.0000001
 44
0.0000000001
 40
0.0
 40
0.0
 40
0.0
 40
0.0
 40
0.025923047
 40
0.051565184
 40
0.0773526195
 40
0.1036831012
 40
0.1308772758
 40
0.1591565103
 40
0.1886452079
 40
0.2193856914
 40
0.251356285
 40
0.2844869325
 40
0.3186710749
 40
0.3537742264
 40
0.3896395472
 40
0.4260925591
 40
0.462945166
 40
0.4999999407
 40
0.5370547609
 40
0.5739073406
 40
0.6103603522
 40
0.6462257089
 40
0.6813288125
 40
0.7155130023
 40
0.7486436286
 40
0.780614224
 40
0.8113547277
 40
0.8408434064
 40
0.8691226752
 40
0.8963168442
 40
0.9226473565
 40
0.9484348102
 40
0.9740769562
 40
1.0
 40
1.0
 40
1.0
 40
1.0
 10
15.1805835221
 20
9.4870550803
 30
0.0
 10
15.1826453845
 20
9.4870550803
 30
0.0
 10
15.1867563251
 20
9.4873988413
 30
0.0
 10
15.1927337051
 20
9.4889778692
 30
0.0
 10
15.1983810328
 20
9.4915712791
 30
0.0
 10
15.2036344618
 20
9.4951087333
 30
0.0
 10
15.2084577349
 20
9.4995064043
 30
0.0
 10
15.2128335727
 20
9.5046773966
 30
0.0
 10
15.2167578912
 20
9.5105371895
 30
0.0
 10
15.220234224
 20
9.5170054653
 30
0.0
 10
15.2232702435
 20
9.5240063062
 30
0.0
 10
15.2258755245
 20
9.5314676712
 30
0.0
 10
15.2280600659
 20
9.5393206175
 30
0.0
 10
15.2298333315
 20
9.5474983807
 30
0.0
 10
15.231203569
 20
9.5559355235
 30
0.0
 10
15.2321774278
 20
9.5645671942
 30
0.0
 10
15.2327597689
 20
9.5733286557
 30
0.0
 10
15.2329535469
 20
9.5821550697
 30
0.0
 10
15.2327597694
 20
9.5909814816
 30
0.0
 10
15.2321774304
 20
9.5997429447
 30
0.0
 10
15.2312035713
 20
9.608374616
 30
0.0
 10
15.2298333361
 20
9.6168117582
 30
0.0
 10
15.2280600706
 20
9.6249895244
 30
0.0
 10
15.2258755299
 20
9.632842469
 30
0.0
 10
15.2232702517
 20
9.6403038374
 30
0.0
 10
15.2202342308
 20
9.6473046777
 30
0.0
 10
15.2167579021
 20
9.653772956
 30
0.0
 10
15.2128335812
 20
9.6596327507
 30
0.0
 10
15.2084577456
 20
9.6648037459
 30
0.0
 10
15.2036344697
 20
9.6692014208
 30
0.0
 10
15.1983810389
 20
9.6727388785
 30
0.0
 10
15.1927337072
 20
9.675332291
 30
0.0
 10
15.1867563253
 20
9.6769113193
 30
0.0
 10
15.1826453842
 20
9.6772550803
 30
0.0
 10
15.1805835221
 20
9.6772550803
 30
0.0
  0
SPLINE
  5
482
100
AcDbEntity
  8
0
100
AcDbSpline
 62
7
  6
CONTINUOUS
 70
0
 71
3
 72
15
 73
11
 74
0
 42
0.0000001
 43
0.0000001
 44
0.0000000001
 40
0.0
 40
0.0
 40
0.0
 40
0.0
 40
0.1271909149
 40
0.2550601291
 40
0.3829265847
 40
0.5101312474
 40
0.6360613011
 40
0.7600956423
 40
0.8816077243
 40
1.0
 40
1.0
 40
1.0
 40
1.0
 10
14.6717202027
 20
9.6043371657
 30
0.0
 10
14.6710593251
 20
9.6016137454
 30
0.0
 10
14.6699373042
 20
9.59610092
 30
0.0
 10
14.6688577596
 20
9.5877260692
 30
0.0
 10
14.6683866483
 20
9.5792940263
 30
0.0
 10
14.6685421957
 20
9.5708929057
 30
0.0
 10
14.6693122329
 20
9.562610733
 30
0.0
 10
14.670672029
 20
9.5545317105
 30
0.0
 10
14.6725997783
 20
9.5467403128
 30
0.0
 10
14.6742737983
 20
9.5417190257
 30
0.0
 10
14.6752044246
 20
9.5392820809
 30
0.0
  0
SPLINE
  5
483
100
AcDbEntity
  8
0
100
AcDbSpline
 62
7
  6
CONTINUOUS
 70
0
 71
3
 72
21
 73
17
 74
0
 42
0.0000001
 43
0.0000001
 44
0.0000000001
 40
0.0
 40
0.0
 40
0.0
 40
0.0
 40
0.0527586017
 40
0.1065640218
 40
0.1616543792
 40
0.2182422312
 40
0.276476606
 40
0.3363894651
 40
0.3979388794
 40
0.4610323057
 40
0.591236917
 40
0.6581282714
 40
0.7258933943
 40
0.7942629588
 40
0.8629474859
 40
1.0
 40
1.0
 40
1.0
 40
1.0
 10
14.6975531074
 20
9.6624467295
 30
0.0
 10
14.695673216
 20
9.6619279794
 30
0.0
 10
14.6919351257
 20
9.6606531965
 30
0.0
 10
14.6865248205
 20
9.6580892862
 30
0.0
 10
14.6813065506
 20
9.6548746747
 30
0.0
 10
14.6763297366
 20
9.651025169
 30
0.0
 10
14.6716357819
 20
9.6465739654
 30
0.0
 10
14.6672516041
 20
9.6415726502
 30
0.0
 10
14.6632078789
 20
9.6360681514
 30
0.0
 10
14.6582611401
 20
9.6280421036
 30
0.0
 10
14.6541922786
 20
9.6192789955
 30
0.0
 10
14.6510597919
 20
9.6099974146
 30
0.0
 10
14.6491560377
 20
9.6027319542
 30
0.0
 10
14.6477286829
 20
9.5952908927
 30
0.0
 10
14.6464720708
 20
9.5852325423
 30
0.0
 10
14.6462633385
 20
9.5776014411
 30
0.0
 10
14.6464673384
 20
9.5725395847
 30
0.0
  0
SPLINE
  5
484
100
AcDbEntity
  8
0
100
AcDbSpline
 62
7
  6
CONTINUOUS
 70
0
 71
3
 72
11
 73
7
 74
0
 42
0.0000001
 43
0.0000001
 44
0.0000000001
 40
0.0
 40
0.0
 40
0.0
 40
0.0
 40
0.2521802307
 40
0.5044620479
 40
0.7545045256
 40
1.0
 40
1.0
 40
1.0
 40
1.0
 10
15.1939717588
 20
9.5663272283
 30
0.0
 10
15.1946238485
 20
9.569910568
 30
0.0
 10
15.1955804493
 20
9.5771463601
 30
0.0
 10
15.1960004402
 20
9.5880503003
 30
0.0
 10
15.1954174566
 20
9.5988502044
 30
0.0
 10
15.1943497794
 20
9.6059410684
 30
0.0
 10
15.1936411722
 20
9.6094151812
 30
0.0
  0
SPLINE
  5
485
100
AcDbEntity
  8
0
100
AcDbSpline
 62
7
  6
CONTINUOUS
 70
0
 71
3
 72
15
 73
11
 74
0
 42
0.0000001
 43
0.0000001
 44
0.0000000001
 40
0.0
 40
0.0
 40
0.0
 40
0.0
 40
0.1096068442
 40
0.2230740646
 40
0.3411210574
 40
0.4640321796
 40
0.5917401854
 40
0.7239403107
 40
0.860192592
 40
1.0
 40
1.0
 40
1.0
 40
1.0
 10
15.1805835221
 20
9.6772550803
 30
0.0
 10
15.1785264038
 20
9.6772550803
 30
0.0
 10
15.1743331967
 20
9.6769056951
 30
0.0
 10
15.168088465
 20
9.6753992517
 30
0.0
 10
15.1618837587
 20
9.6729468355
 30
0.0
 10
15.1558050616
 20
9.6696075581
 30
0.0
 10
15.1499281249
 20
9.6654502867
 30
0.0
 10
15.1443214215
 20
9.660548627
 30
0.0
 10
15.1390457489
 20
9.6549779772
 30
0.0
 10
15.1358211847
 20
9.65091323
 30
0.0
 10
15.1342756898
 20
9.6487927491
 30
0.0
  0
SPLINE
  5
486
100
AcDbEntity
  8
0
100
AcDbSpline
 62
7
  6
CONTINUOUS
 70
0
 71
3
 72
10
 73
6
 74
0
 42
0.0000001
 43
0.0000001
 44
0.0000000001
 40
0.0
 40
0.0
 40
0.0
 40
0.0
 40
0.2438043771
 40
0.4924227166
 40
1.0
 40
1.0
 40
1.0
 40
1.0
 10
15.1342756898
 20
9.6487927491
 30
0.0
 10
15.1325014906
 20
9.6463584765
 30
0.0
 10
15.1291464986
 20
9.6412705836
 30
0.0
 10
15.1232732689
 20
9.6303893651
 30
0.0
 10
15.1199016175
 20
9.6216142237
 30
0.0
 10
15.1181318056
 20
9.6155979868
 30
0.0
  0
SPLINE
  5
487
100
AcDbEntity
  8
0
100
AcDbSpline
 62
7
  6
CONTINUOUS
 70
0
 71
3
 72
19
 73
15
 74
0
 42
0.0000001
 43
0.0000001
 44
0.0000000001
 40
0.0
 40
0.0
 40
0.0
 40
0.0
 40
0.1396545733
 40
0.2776698808
 40
0.4129104048
 40
0.5440243188
 40
0.6076022524
 40
0.6695530572
 40
0.7296770488
 40
0.7878052749
 40
0.8438318604
 40
0.8977513639
 40
0.9497045872
 40
1.0
 40
1.0
 40
1.0
 40
1.0
 10
15.1138626398
 20
9.5709660878
 30
0.0
 10
15.1143686433
 20
9.5655878804
 30
0.0
 10
15.1161041758
 20
9.5549485754
 30
0.0
 10
15.120820165
 20
9.5396377098
 30
0.0
 10
15.1274816494
 20
9.5254290312
 30
0.0
 10
15.1345534478
 20
9.5147397482
 30
0.0
 10
15.1409947501
 20
9.5071731548
 30
0.0
 10
15.146104335
 20
9.5021135894
 30
0.0
 10
15.1514931766
 20
9.4976758639
 30
0.0
 10
15.15710817
 20
9.4939232229
 30
0.0
 10
15.1628891094
 20
9.4909176883
 30
0.0
 10
15.1687701898
 20
9.4887161341
 30
0.0
 10
15.1746773912
 20
9.4873670285
 30
0.0
 10
15.1786380525
 20
9.4870550803
 30
0.0
 10
15.1805835221
 20
9.4870550803
 30
0.0
  0
SPLINE
  5
488
100
AcDbEntity
  8
0
100
AcDbSpline
 62
7
  6
CONTINUOUS
 70
0
 71
3
 72
15
 73
11
 74
0
 42
0.0000001
 43
0.0000001
 44
0.0000000001
 40
0.0
 40
0.0
 40
0.0
 40
0.0
 40
0.1034194246
 40
0.2111074583
 40
0.3245392975
 40
0.4447968751
 40
0.572466803
 40
0.7077161699
 40
0.8503769147
 40
1.0
 40
1.0
 40
1.0
 40
1.0
 10
15.1479226318
 20
9.6452099052
 30
0.0
 10
15.1464283514
 20
9.6450228954
 30
0.0
 10
15.1434109034
 20
9.6443230856
 30
0.0
 10
15.1390665889
 20
9.6424034042
 30
0.0
 10
15.1349069752
 20
9.6396426502
 30
0.0
 10
15.1309912574
 20
9.6361023025
 30
0.0
 10
15.1273700389
 20
9.6318388454
 30
0.0
 10
15.1240869529
 20
9.6269153631
 30
0.0
 10
15.1211843798
 20
9.6213970036
 30
0.0
 10
15.119560411
 20
9.6174557579
 30
0.0
 10
15.1188158416
 20
9.6154082036
 30
0.0
  0
SPLINE
  5
489
100
AcDbEntity
  8
0
100
AcDbSpline
 62
7
  6
CONTINUOUS
 70
0
 71
3
 72
28
 73
24
 74
0
 42
0.0000001
 43
0.0000001
 44
0.0000000001
 40
0.0
 40
0.0
 40
0.0
 40
0.0
 40
0.0632107843
 40
0.1287013129
 40
0.1960657244
 40
0.2303067609
 40
0.2648241623
 40
0.2995510242
 40
0.3344190457
 40
0.4042503179
 40
0.4736824247
 40
0.5080458832
 40
0.5420563358
 40
0.5756348359
 40
0.608710543
 40
0.6412293539
 40
0.6731418496
 40
0.7349319393
 40
0.7937711857
 40
0.8494613552
 40
0.9020982821
 40
0.9520894817
 40
1.0
 40
1.0
 40
1.0
 40
1.0
 10
15.1977726811
 20
9.5237503966
 30
0.0
 10
15.1998552633
 20
9.5264222191
 30
0.0
 10
15.2037351618
 20
9.5321505749
 30
0.0
 10
15.2085798511
 20
9.5414969755
 30
0.0
 10
15.211831431
 20
9.5498601137
 30
0.0
 10
15.213949399
 20
9.556843531
 30
0.0
 10
15.2152890034
 20
9.5622278563
 30
0.0
 10
15.2163613813
 20
9.5677058961
 30
0.0
 10
15.2174269972
 20
9.5751042973
 30
0.0
 10
15.2180807107
 20
9.5844287148
 30
0.0
 10
15.2178488098
 20
9.593745879
 30
0.0
 10
15.2171306718
 20
9.6010986844
 30
0.0
 10
15.2163316288
 20
9.6065061561
 30
0.0
 10
15.215272351
 20
9.6117984365
 30
0.0
 10
15.2139535061
 20
9.6169496789
 30
0.0
 10
15.2123857651
 20
9.6219374321
 30
0.0
 10
15.2100056393
 20
9.6282721554
 30
0.0
 10
15.2064939616
 20
9.6356764743
 30
0.0
 10
15.2014269541
 20
9.6436823396
 30
0.0
 10
15.1956295635
 20
9.650554446
 30
0.0
 10
15.189190474
 20
9.6561373669
 30
0.0
 10
15.182265534
 20
9.660351318
 30
0.0
 10
15.1773254119
 20
9.6622287941
 30
0.0
 10
15.1748456259
 20
9.66289463
 30
0.0
  0
SPLINE
  5
48A
100
AcDbEntity
  8
0
100
AcDbSpline
 62
7
  6
CONTINUOUS
 70
0
 71
3
 72
30
 73
26
 74
0
 42
0.0000001
 43
0.0000001
 44
0.0000000001
 40
0.0
 40
0.0
 40
0.0
 40
0.0
 40
0.0233620252
 40
0.0469830802
 40
0.0710221642
 40
0.0956356875
 40
0.1209787795
 40
0.1471801776
 40
0.1743319139
 40
0.2024808812
 40
0.2617780333
 40
0.3249823424
 40
0.3579260749
 40
0.3916344359
 40
0.4608996353
 40
0.531886
 40
0.603581713
 40
0.6749615548
 40
0.7450629191
 40
0.8130637591
 40
0.8460971436
 40
0.8784015234
 40
0.9406664631
 40
0.9706906057
 40
1.0
 40
1.0
 40
1.0
 40
1.0
 10
15.1584864472
 20
9.6472550803
 30
0.0
 10
15.1596907163
 20
9.6472550803
 30
0.0
 10
15.1621154416
 20
9.647095143
 30
0.0
 10
15.1657165008
 20
9.6463848605
 30
0.0
 10
15.1692616611
 20
9.6452083456
 30
0.0
 10
15.1727169771
 20
9.6435719275
 30
0.0
 10
15.1760563815
 20
9.6414925095
 30
0.0
 10
15.1792545163
 20
9.6389848808
 30
0.0
 10
15.182286945
 20
9.6360673375
 30
0.0
 10
15.186146305
 20
9.6315852572
 30
0.0
 10
15.1904011024
 20
9.6250422428
 30
0.0
 10
15.1936979005
 20
9.6177071872
 30
0.0
 10
15.1958014924
 20
9.6113480504
 30
0.0
 10
15.1975556354
 20
9.6045601554
 30
0.0
 10
15.1989479157
 20
9.5956755592
 30
0.0
 10
15.1993173019
 20
9.5847308445
 30
0.0
 10
15.1983729447
 20
9.5737103285
 30
0.0
 10
15.196122101
 20
9.562926304
 30
0.0
 10
15.1926108267
 20
9.5526846143
 30
0.0
 10
15.1886613787
 20
9.5447618374
 30
0.0
 10
15.1849389165
 20
9.538976533
 30
0.0
 10
15.1809709634
 20
9.5337250122
 30
0.0
 10
15.1764955873
 20
9.5290677328
 30
0.0
 10
15.1715829471
 20
9.5251638276
 30
0.0
 10
15.1690163059
 20
9.5234897461
 30
0.0
 10
15.1677114515
 20
9.5227281639
 30
0.0
  0
SPLINE
  5
48B
100
AcDbEntity
  8
0
100
AcDbSpline
 62
7
  6
CONTINUOUS
 70
0
 71
3
 72
11
 73
7
 74
0
 42
0.0000001
 43
0.0000001
 44
0.0000000001
 40
0.0
 40
0.0
 40
0.0
 40
0.0
 40
0.2568877229
 40
0.5081438568
 40
0.7553704992
 40
1.0
 40
1.0
 40
1.0
 40
1.0
 10
15.1677114515
 20
9.5227281639
 30
0.0
 10
15.1661372494
 20
9.5218093762
 30
0.0
 10
15.1629107156
 20
9.5201760446
 30
0.0
 10
15.1578440499
 20
9.5183825993
 30
0.0
 10
15.1526680324
 20
9.5172995534
 30
0.0
 10
15.1491736346
 20
9.5170550803
 30
0.0
 10
15.1474378982
 20
9.5170550803
 30
0.0
  0
SPLINE
  5
48C
100
AcDbEntity
  8
0
100
AcDbSpline
 62
7
  6
CONTINUOUS
 70
0
 71
3
 72
31
 73
27
 74
0
 42
0.0000001
 43
0.0000001
 44
0.0000000001
 40
0.0
 40
0.0
 40
0.0
 40
0.0
 40
0.0234235793
 40
0.0470966484
 40
0.0712033105
 40
0.0959182147
 40
0.1213995141
 40
0.147775331
 40
0.1751342787
 40
0.2035211389
 40
0.2633694098
 40
0.327184564
 40
0.3944005913
 40
0.4290489683
 40
0.4642183461
 40
0.5355673734
 40
0.6074106543
 40
0.6431999705
 40
0.6787180564
 40
0.7484350545
 40
0.8157879075
 40
0.8802243174
 40
0.9112935177
 40
0.941584863
 40
0.9711310453
 40
1.0
 40
1.0
 40
1.0
 40
1.0
 10
14.7279467873
 20
9.5170550803
 30
0.0
 10
14.7267122558
 20
9.5170550803
 30
0.0
 10
14.7242269815
 20
9.5172227946
 30
0.0
 10
14.720538763
 20
9.5179685225
 30
0.0
 10
14.7169120892
 20
9.5192035864
 30
0.0
 10
14.7133816154
 20
9.5209199141
 30
0.0
 10
14.7099748151
 20
9.5230994233
 30
0.0
 10
14.7067197178
 20
9.5257263637
 30
0.0
 10
14.7036422384
 20
9.5287799632
 30
0.0
 10
14.699739388
 20
9.5334681121
 30
0.0
 10
14.6954709828
 20
9.5402998717
 30
0.0
 10
14.6915147096
 20
9.5495863905
 30
0.0
 10
14.6892390116
 20
9.5580465764
 30
0.0
 10
14.6880456308
 20
9.5651735827
 30
0.0
 10
14.687283057
 20
9.5725790531
 30
0.0
 10
14.6871999964
 20
9.5820044085
 30
0.0
 10
14.6882674373
 20
9.5914023832
 30
0.0
 10
14.6898149646
 20
9.5987912611
 30
0.0
 10
14.6917957261
 20
9.605959329
 30
0.0
 10
14.6950651473
 20
9.6144793496
 30
0.0
 10
14.7002184967
 20
9.623805314
 30
0.0
 10
14.7054823694
 20
9.6306373365
 30
0.0
 10
14.7101738873
 20
9.6353325401
 30
0.0
 10
14.7138535644
 20
9.6384119363
 30
0.0
 10
14.717711569
 20
9.6410649033
 30
0.0
 10
14.7204147562
 20
9.6425516615
 30
0.0
 10
14.7217845221
 20
9.6432140732
 30
0.0
  0
SPLINE
  5
48D
100
AcDbEntity
  8
0
100
AcDbSpline
 62
7
  6
CONTINUOUS
 70
0
 71
3
 72
21
 73
17
 74
0
 42
0.0000001
 43
0.0000001
 44
0.0000000001
 40
0.0
 40
0.0
 40
0.0
 40
0.0
 40
0.070764177
 40
0.1416926325
 40
0.2822441074
 40
0.3513159236
 40
0.4191778094
 40
0.5501204224
 40
0.6129133327
 40
0.6737136995
 40
0.732481701
 40
0.7892411981
 40
0.8441224014
 40
0.8973598592
 40
0.9492355916
 40
1.0
 40
1.0
 40
1.0
 40
1.0
 10
14.6464673384
 20
9.5725395851
 30
0.0
 10
14.6462446713
 20
9.5752068148
 30
0.0
 10
14.6459867133
 20
9.5805653307
 30
0.0
 10
14.6462085074
 20
9.5912440036
 30
0.0
 10
14.6475316822
 20
9.6018150227
 30
0.0
 10
14.6499541325
 20
9.6120353019
 30
0.0
 10
14.653016541
 20
9.6217001834
 30
0.0
 10
14.6570803845
 20
9.6307786177
 30
0.0
 10
14.6621232755
 20
9.6389918681
 30
0.0
 10
14.6662607869
 20
9.6445237656
 30
0.0
 10
14.6707619414
 20
9.6494600525
 30
0.0
 10
14.6755863595
 20
9.6537530516
 30
0.0
 10
14.6806905912
 20
9.6573601174
 30
0.0
 10
14.6860308576
 20
9.6602402278
 30
0.0
 10
14.6915489229
 20
9.6623603831
 30
0.0
 10
14.6953362035
 20
9.6632724799
 30
0.0
 10
14.697229051
 20
9.6635945858
 30
0.0
  0
SPLINE
  5
48E
100
AcDbEntity
  8
0
100
AcDbSpline
 62
7
  6
CONTINUOUS
 70
0
 71
3
 72
9
 73
5
 74
0
 42
0.0000001
 43
0.0000001
 44
0.0000000001
 40
0.0
 40
0.0
 40
0.0
 40
0.0
 40
0.502975927
 40
1.0
 40
1.0
 40
1.0
 40
1.0
 10
14.70456668
 20
9.6452099052
 30
0.0
 10
14.7065595285
 20
9.6458806547
 30
0.0
 10
14.710632759
 20
9.6469075416
 30
0.0
 10
14.7148204195
 20
9.6472550803
 30
0.0
 10
14.7168982383
 20
9.6472550803
 30
0.0
  0
SPLINE
  5
48F
100
AcDbEntity
  8
0
100
AcDbSpline
 62
7
  6
CONTINUOUS
 70
0
 71
3
 72
14
 73
10
 74
0
 42
0.0000001
 43
0.0000001
 44
0.0000000001
 40
0.0
 40
0.0
 40
0.0
 40
0.0
 40
0.1114603901
 40
0.2262261298
 40
0.3447184294
 40
0.4673064156
 40
0.7252095085
 40
0.8607318927
 40
1.0
 40
1.0
 40
1.0
 40
1.0
 10
14.70456668
 20
9.6452099052
 30
0.0
 10
14.7030883809
 20
9.6446731308
 30
0.0
 10
14.7001576525
 20
9.6433821399
 30
0.0
 10
14.6959739608
 20
9.6408793665
 30
0.0
 10
14.6919881472
 20
9.6378071703
 30
0.0
 10
14.6869058105
 20
9.6329185053
 30
0.0
 10
14.6824695783
 20
9.6270775046
 30
0.0
 10
14.6787455754
 20
9.6205426086
 30
0.0
 10
14.6771114489
 20
9.6170200903
 30
0.0
 10
14.6763555968
 20
9.6152061607
 30
0.0
  0
SPLINE
  5
490
100
AcDbEntity
  8
0
100
AcDbSpline
 62
7
  6
CONTINUOUS
 70
0
 71
3
 72
19
 73
15
 74
0
 42
0.0000001
 43
0.0000001
 44
0.0000000001
 40
0.0
 40
0.0
 40
0.0
 40
0.0
 40
0.0555708211
 40
0.111679152
 40
0.1685189552
 40
0.226315898
 40
0.2852484831
 40
0.3454179287
 40
0.4068526753
 40
0.4695332557
 40
0.5982194318
 40
0.7305210429
 40
0.8650306866
 40
1.0
 40
1.0
 40
1.0
 40
1.0
 10
14.70456668
 20
9.6452099052
 30
0.0
 10
14.702717427
 20
9.6450485321
 30
0.0
 10
14.6990176938
 20
9.6444900765
 30
0.0
 10
14.6935809665
 20
9.6429830836
 30
0.0
 10
14.6882878153
 20
9.6408253733
 30
0.0
 10
14.6831828867
 20
9.6380534993
 30
0.0
 10
14.6783025382
 20
9.6347041096
 30
0.0
 10
14.6736794307
 20
9.6308178454
 30
0.0
 10
14.6693441704
 20
9.626435782
 30
0.0
 10
14.6639381039
 20
9.6199372823
 30
0.0
 10
14.6580551303
 20
9.6108114248
 30
0.0
 10
14.6525358275
 20
9.5987646252
 30
0.0
 10
14.6485794166
 20
9.5859037018
 30
0.0
 10
14.6469963233
 20
9.5770169426
 30
0.0
 10
14.6464673384
 20
9.5725395851
 30
0.0
  0
SPLINE
  5
491
100
AcDbEntity
  8
0
100
AcDbSpline
 62
7
  6
CONTINUOUS
 70
0
 71
3
 72
19
 73
15
 74
0
 42
0.0000001
 43
0.0000001
 44
0.0000000001
 40
0.0
 40
0.0
 40
0.0
 40
0.0
 40
0.0057110083
 40
0.0222600895
 40
0.049191218
 40
0.0858069071
 40
0.1312852466
 40
0.1847470003
 40
0.3123333802
 40
0.3849862906
 40
0.4626663704
 40
0.6307726082
 40
0.8118277896
 40
1.0
 40
1.0
 40
1.0
 40
1.0
 10
7.4951921502
 20
10.32615474
 30
0.0
 10
7.4949812754
 20
10.3257992642
 30
0.0
 10
7.4941651887
 20
10.3244102465
 30
0.0
 10
7.492369666
 20
10.32133612
 30
0.0
 10
7.4894855676
 20
10.3163077163
 30
0.0
 10
7.4856344179
 20
10.3094207878
 30
0.0
 10
7.4809751339
 20
10.3007867448
 30
0.0
 10
7.4734599957
 20
10.2862157844
 30
0.0
 10
7.4656370583
 20
10.2695928659
 30
0.0
 10
7.4579091466
 20
10.2510190943
 30
0.0
 10
7.4498394282
 20
10.2294274465
 30
0.0
 10
7.4408987342
 20
10.1998063464
 30
0.0
 10
7.4336054643
 20
10.1615267019
 30
0.0
 10
7.4318583065
 20
10.1347734868
 30
0.0
 10
7.4318583065
 20
10.1211550803
 30
0.0
  0
SPLINE
  5
492
100
AcDbEntity
  8
0
100
AcDbSpline
 62
7
  6
CONTINUOUS
 70
0
 71
3
 72
45
 73
41
 74
0
 42
0.0000001
 43
0.0000001
 44
0.0000000001
 40
0.0
 40
0.0
 40
0.0
 40
0.0
 40
0.04736223
 40
0.0946496269
 40
0.1417154017
 40
0.1884199741
 40
0.2346633433
 40
0.2803524795
 40
0.3253895336
 40
0.3696888563
 40
0.4557605695
 40
0.537935056
 40
0.6156499842
 40
0.6883228484
 40
0.7553119483
 40
0.8159100845
 40
0.8435705803
 40
0.8693370119
 40
0.8931016268
 40
0.9147533719
 40
0.934180163
 40
0.9512730642
 40
0.9659376895
 40
0.9723309069
 40
0.9780828127
 40
0.9831819477
 40
0.9876173769
 40
0.9913825498
 40
0.9944730451
 40
0.9957639106
 40
0.9968844526
 40
0.9978341194
 40
0.9986123589
 40
0.9992186192
 40
0.9994570845
 40
0.9996523478
 40
0.9998043401
 40
0.9999129923
 40
0.9999782353
 40
1.0
 40
1.0
 40
1.0
 40
1.0
 10
7.4318583065
 20
10.1211550803
 30
0.0
 10
7.4318583065
 20
10.1177264346
 30
0.0
 10
7.4319713376
 20
10.110874049
 30
0.0
 10
7.4324717865
 20
10.1006255401
 30
0.0
 10
7.4332953919
 20
10.0904455775
 30
0.0
 10
7.4344357285
 20
10.0803723725
 30
0.0
 10
7.435871556
 20
10.070437856
 30
0.0
 10
7.4375805373
 20
10.0606693235
 30
0.0
 10
7.4395419389
 20
10.051091984
 30
0.0
 10
7.4424332285
 20
10.0387260516
 30
0.0
 10
7.446518196
 20
10.0238842877
 30
0.0
 10
7.4520523886
 20
10.0069545286
 30
0.0
 10
7.4579522306
 20
9.9911818411
 30
0.0
 10
7.4640021113
 20
9.9766516047
 30
0.0
 10
7.4699988264
 20
9.9634505146
 30
0.0
 10
7.4749228859
 20
9.9533465571
 30
0.0
 10
7.4786707053
 20
9.9459917817
 30
0.0
 10
7.4812590298
 20
9.9410392129
 30
0.0
 10
7.4836887053
 20
9.9364948276
 30
0.0
 10
7.4859371792
 20
9.9323741908
 30
0.0
 10
7.4879819137
 20
9.9286927401
 30
0.0
 10
7.489801004
 20
9.9254646502
 30
0.0
 10
7.4911703631
 20
9.9230662099
 30
0.0
 10
7.4921391037
 20
9.9213844568
 30
0.0
 10
7.4927645584
 20
9.9203040973
 30
0.0
 10
7.4933207897
 20
9.9193474308
 30
0.0
 10
7.4938058381
 20
9.9185157449
 30
0.0
 10
7.4942184657
 20
9.9178101551
 30
0.0
 10
7.4945167894
 20
9.9173014306
 30
0.0
 10
7.4947185917
 20
9.9169580448
 30
0.0
 10
7.4948419979
 20
9.9167483476
 30
0.0
 10
7.4949466837
 20
9.916570692
 30
0.0
 10
7.495032566
 20
9.9164251711
 30
0.0
 10
7.4950923132
 20
9.9163240039
 30
0.0
 10
7.4951306736
 20
9.9162592281
 30
0.0
 10
7.4951522062
 20
9.9162226898
 30
0.0
 10
7.4951691942
 20
9.9161944212
 30
0.0
 10
7.4951808407
 20
9.9161738361
 30
0.0
 10
7.4951887364
 20
9.9161621628
 30
0.0
 10
7.4951912562
 20
9.9161562183
 30
0.0
 10
7.4951923459
 20
9.9161550803
 30
0.0
  0
SPLINE
  5
493
100
AcDbEntity
  8
0
100
AcDbSpline
 62
7
  6
CONTINUOUS
 70
0
 71
3
 72
46
 73
42
 74
0
 42
0.0000001
 43
0.0000001
 44
0.0000000001
 40
0.0
 40
0.0
 40
0.0
 40
0.0
 40
0.0000217209
 40
0.0000868628
 40
0.0001953616
 40
0.0003471534
 40
0.0005421742
 40
0.0007803602
 40
0.0013859716
 40
0.0021634761
 40
0.0031123625
 40
0.0042321196
 40
0.0055222366
 40
0.0086115064
 40
0.0123760872
 40
0.0168116069
 40
0.0219098331
 40
0.0276597964
 40
0.0340504862
 40
0.0410709114
 40
0.0487101024
 40
0.0658008207
 40
0.0852255306
 40
0.1068732534
 40
0.1306326783
 40
0.1563937177
 40
0.18405054
 40
0.2135009038
 40
0.2446443674
 40
0.3116286261
 40
0.3842986683
 40
0.4620109921
 40
0.5441936879
 40
0.6302661332
 40
0.6745674701
 40
0.7196110165
 40
0.7653054486
 40
0.8115559447
 40
0.8582733857
 40
0.9053519476
 40
1.0
 40
1.0
 40
1.0
 40
1.0
 10
6.3801923558
 20
9.9161550803
 30
0.0
 10
6.3801912683
 20
9.9161539447
 30
0.0
 10
6.3801990725
 20
9.916165413
 30
0.0
 10
6.3802018376
 20
9.9161717311
 30
0.0
 10
6.3802163677
 20
9.9161953382
 30
0.0
 10
6.3802320313
 20
9.9162222345
 30
0.0
 10
6.3802540157
 20
9.9162592588
 30
0.0
 10
6.3802920637
 20
9.9163237319
 30
0.0
 10
6.3803518599
 20
9.9164249824
 30
0.0
 10
6.3804375394
 20
9.916570328
 30
0.0
 10
6.3805421086
 20
9.9167478961
 30
0.0
 10
6.3806653682
 20
9.9169574682
 30
0.0
 10
6.3808670072
 20
9.9173007185
 30
0.0
 10
6.3811651896
 20
9.9178092988
 30
0.0
 10
6.3815777788
 20
9.9185147561
 30
0.0
 10
6.3820629279
 20
9.9193462511
 30
0.0
 10
6.3826191251
 20
9.9203026911
 30
0.0
 10
6.3832444137
 20
9.9213826793
 30
0.0
 10
6.3839367866
 20
9.9225846138
 30
0.0
 10
6.3846942186
 20
9.9239068982
 30
0.0
 10
6.3858314232
 20
9.9259042994
 30
0.0
 10
6.3874011075
 20
9.9286887563
 30
0.0
 10
6.3894455877
 20
9.9323696052
 30
0.0
 10
6.3916933265
 20
9.9364896478
 30
0.0
 10
6.3941222206
 20
9.9410331811
 30
0.0
 10
6.3967103344
 20
9.9459846126
 30
0.0
 10
6.3994340307
 20
9.9513297
 30
0.0
 10
6.4022689338
 20
9.9570550094
 30
0.0
 10
6.4062632316
 20
9.9653823174
 30
0.0
 10
6.4113780201
 20
9.9766411289
 30
0.0
 10
6.417427756
 20
9.9911703507
 30
0.0
 10
6.4233280029
 20
10.0069429148
 30
0.0
 10
6.4288620722
 20
10.0238729397
 30
0.0
 10
6.4329493532
 20
10.0387146903
 30
0.0
 10
6.4358409552
 20
10.0510811008
 30
0.0
 10
6.4378016825
 20
10.0606594728
 30
0.0
 10
6.4395111484
 20
10.0704291909
 30
0.0
 10
6.4409474839
 20
10.0803653272
 30
0.0
 10
6.4420871888
 20
10.0904410449
 30
0.0
 10
6.4431875701
 20
10.1040397527
 30
0.0
 10
6.443526379
 20
10.1143034028
 30
0.0
 10
6.443526379
 20
10.1211550803
 30
0.0
  0
SPLINE
  5
494
100
AcDbEntity
  8
0
100
AcDbSpline
 62
7
  6
CONTINUOUS
 70
0
 71
3
 72
25
 73
21
 74
0
 42
0.0000001
 43
0.0000001
 44
0.0000000001
 40
0.0
 40
0.0
 40
0.0
 40
0.0
 40
0.0472911333
 40
0.094509013
 40
0.1415073122
 40
0.1881455254
 40
0.2799378941
 40
0.3249139512
 40
0.3691546291
 40
0.4551195522
 40
0.537204462
 40
0.6148472813
 40
0.6874704925
 40
0.8150281991
 40
0.8684953753
 40
0.9139919066
 40
0.9506353762
 40
0.9776140521
 40
0.9942181897
 40
1.0
 40
1.0
 40
1.0
 40
1.0
 10
6.443526379
 20
10.1211550803
 30
0.0
 10
6.443526379
 20
10.124578487
 30
0.0
 10
6.4434135277
 20
10.1314205134
 30
0.0
 10
6.4429141671
 20
10.1416536814
 30
0.0
 10
6.4420929038
 20
10.1518188755
 30
0.0
 10
6.4405851495
 20
10.1651588748
 30
0.0
 10
6.4384897401
 20
10.1782787633
 30
0.0
 10
6.4358646777
 20
10.1911176948
 30
0.0
 10
6.4329810309
 20
10.2034683543
 30
0.0
 10
6.4289060325
 20
10.2182932117
 30
0.0
 10
6.4233845427
 20
10.2352061301
 30
0.0
 10
6.417496348
 20
10.2509664978
 30
0.0
 10
6.4097715679
 20
10.2695390647
 30
0.0
 10
6.4019501207
 20
10.2861636414
 30
0.0
 10
6.394435312
 20
10.3007389422
 30
0.0
 10
6.3897727012
 20
10.3093781869
 30
0.0
 10
6.3859187195
 20
10.3162735366
 30
0.0
 10
6.3830290567
 20
10.321311289
 30
0.0
 10
6.381227681
 20
10.3243975601
 30
0.0
 10
6.380406339
 20
10.325794522
 30
0.0
 10
6.3801927182
 20
10.3261544476
 30
0.0
  0
SPLINE
  5
495
100
AcDbEntity
  8
0
100
AcDbSpline
 62
7
  6
CONTINUOUS
 70
0
 71
3
 72
9
 73
5
 74
0
 42
0.0000001
 43
0.0000001
 44
0.0000000001
 40
0.0
 40
0.0
 40
0.0
 40
0.0
 40
0.4958983142
 40
1.0
 40
1.0
 40
1.0
 40
1.0
 10
6.7169379338
 20
9.6471560136
 30
0.0
 10
6.7149095173
 20
9.6470087538
 30
0.0
 10
6.7108367452
 20
9.6463808276
 30
0.0
 10
6.7069149071
 20
9.6451206981
 30
0.0
 10
6.7049989262
 20
9.6443440693
 30
0.0
  0
SPLINE
  5
496
100
AcDbEntity
  8
0
100
AcDbSpline
 62
7
  6
CONTINUOUS
 70
0
 71
3
 72
14
 73
10
 74
0
 42
0.0000001
 43
0.0000001
 44
0.0000000001
 40
0.0
 40
0.0
 40
0.0
 40
0.0
 40
0.1143130889
 40
0.2313025625
 40
0.3513217676
 40
0.4745786973
 40
0.7309058302
 40
0.8640678193
 40
1.0
 40
1.0
 40
1.0
 40
1.0
 10
6.7049989262
 20
9.6443440693
 30
0.0
 10
6.7035239952
 20
9.6437462169
 30
0.0
 10
6.7006062262
 20
9.6423651901
 30
0.0
 10
6.6964304385
 20
9.6398020841
 30
0.0
 10
6.6924392481
 20
9.6367499939
 30
0.0
 10
6.6873422731
 20
9.6320044173
 30
0.0
 10
6.6828140167
 20
9.6264301387
 30
0.0
 10
6.6789202638
 20
9.6202323199
 30
0.0
 10
6.6771745184
 20
9.6169122798
 30
0.0
 10
6.6763555968
 20
9.6152061607
 30
0.0
  0
SPLINE
  5
497
100
AcDbEntity
  8
0
100
AcDbSpline
 62
7
  6
CONTINUOUS
 70
0
 71
3
 72
14
 73
10
 74
0
 42
0.0000001
 43
0.0000001
 44
0.0000000001
 40
0.0
 40
0.0
 40
0.0
 40
0.0
 40
0.1178828635
 40
0.2369026449
 40
0.3575497113
 40
0.4803333042
 40
0.605705136
 40
0.7340250157
 40
1.0
 40
1.0
 40
1.0
 40
1.0
 10
6.7196105845
 20
9.6471569519
 30
0.0
 10
6.7210010575
 20
9.6470564198
 30
0.0
 10
6.7237865335
 20
9.6466994573
 30
0.0
 10
6.7279054096
 20
9.6457093189
 30
0.0
 10
6.7319501126
 20
9.6442662106
 30
0.0
 10
6.735892261
 20
9.6423833021
 30
0.0
 10
6.7397080298
 20
9.6400751376
 30
0.0
 10
6.7446487956
 20
9.6364092356
 30
0.0
 10
6.7480067264
 20
9.6331309356
 30
0.0
 10
6.7500779828
 20
9.6307636912
 30
0.0
  0
SPLINE
  5
498
100
AcDbEntity
  8
0
100
AcDbSpline
 62
7
  6
CONTINUOUS
 70
0
 71
3
 72
12
 73
8
 74
0
 42
0.0000001
 43
0.0000001
 44
0.0000000001
 40
0.0
 40
0.0
 40
0.0
 40
0.0
 40
0.2398037788
 40
0.3615206726
 40
0.4848393728
 40
0.7374368285
 40
1.0
 40
1.0
 40
1.0
 40
1.0
 10
7.14738256
 20
9.5171537924
 30
0.0
 10
7.1497127999
 20
9.5173227683
 30
0.0
 10
7.1532122473
 20
9.5179060329
 30
0.0
 10
7.1577298889
 20
9.5193001861
 30
0.0
 10
7.1622250987
 20
9.5211322811
 30
0.0
 10
7.1676644382
 20
9.5242105725
 30
0.0
 10
7.1716066878
 20
9.5273516716
 30
0.0
 10
7.1734908087
 20
9.5290819769
 30
0.0
  0
SPLINE
  5
499
100
AcDbEntity
  8
0
100
AcDbSpline
 62
7
  6
CONTINUOUS
 70
0
 71
3
 72
28
 73
24
 74
0
 42
0.0000001
 43
0.0000001
 44
0.0000000001
 40
0.0
 40
0.0
 40
0.0
 40
0.0
 40
0.0619699583
 40
0.0939995733
 40
0.1266808672
 40
0.1937968828
 40
0.262877961
 40
0.3332841229
 40
0.4042573903
 40
0.4749816416
 40
0.5446224169
 40
0.6123818674
 40
0.677550334
 40
0.7395527042
 40
0.7980267208
 40
0.8259187604
 40
0.8529158659
 40
0.8790520443
 40
0.904393537
 40
0.9290372328
 40
0.9531010363
 40
0.9767140579
 40
1.0
 40
1.0
 40
1.0
 40
1.0
 10
7.1734908087
 20
9.5290819769
 30
0.0
 10
7.1756403237
 20
9.5310560102
 30
0.0
 10
7.178665145
 20
9.5343181062
 30
0.0
 10
7.1822357075
 20
9.5391011577
 30
0.0
 10
7.185605322
 20
9.5443208521
 30
0.0
 10
7.1892465842
 20
9.5514173971
 30
0.0
 10
7.1926215007
 20
9.5605660852
 30
0.0
 10
7.1949753127
 20
9.570215466
 30
0.0
 10
7.1962683673
 20
9.5801399827
 30
0.0
 10
7.1964851065
 20
9.5901098501
 30
0.0
 10
7.1956307321
 20
9.5998939478
 30
0.0
 10
7.1937396525
 20
9.6092657306
 30
0.0
 10
7.1908666736
 20
9.6180093629
 30
0.0
 10
7.1870876347
 20
9.6259210153
 30
0.0
 10
7.1832018339
 20
9.6317635648
 30
0.0
 10
7.1797247119
 20
9.6358217939
 30
0.0
 10
7.1770030222
 20
9.6385033459
 30
0.0
 10
7.174143202
 20
9.6408526269
 30
0.0
 10
7.1711627397
 20
9.642855135
 30
0.0
 10
7.1680806309
 20
9.6445000199
 30
0.0
 10
7.1649149758
 20
9.645775238
 30
0.0
 10
7.1616883599
 20
9.6466713544
 30
0.0
 10
7.159500849
 20
9.6470161331
 30
0.0
 10
7.1584094273
 20
9.6471229232
 30
0.0
  0
SPLINE
  5
49A
100
AcDbEntity
  8
0
100
AcDbSpline
 62
7
  6
CONTINUOUS
 70
0
 71
3
 72
14
 73
10
 74
0
 42
0.0000001
 43
0.0000001
 44
0.0000000001
 40
0.0
 40
0.0
 40
0.0
 40
0.0
 40
0.1114220669
 40
0.2261601835
 40
0.344637088
 40
0.4672225172
 40
0.7251539358
 40
0.8607032474
 40
1.0
 40
1.0
 40
1.0
 40
1.0
 10
7.1479226318
 20
9.6452099052
 30
0.0
 10
7.1464399234
 20
9.6446715298
 30
0.0
 10
7.143500505
 20
9.6433760057
 30
0.0
 10
7.1393051979
 20
9.640863182
 30
0.0
 10
7.1353092034
 20
9.6377777345
 30
0.0
 10
7.1302152187
 20
9.6328670482
 30
0.0
 10
7.1257720433
 20
9.6269994705
 30
0.0
 10
7.1220459872
 20
9.6204355642
 30
0.0
 10
7.1204124903
 20
9.6168976246
 30
0.0
 10
7.1196573968
 20
9.6150758591
 30
0.0
  0
SPLINE
  5
49B
100
AcDbEntity
  8
0
100
AcDbSpline
 62
7
  6
CONTINUOUS
 70
0
 71
3
 72
9
 73
5
 74
0
 42
0.0000001
 43
0.0000001
 44
0.0000000001
 40
0.0
 40
0.0
 40
0.0
 40
0.0
 40
0.2455633541
 40
1.0
 40
1.0
 40
1.0
 40
1.0
 10
7.1196573968
 20
9.6150758591
 30
0.0
 10
7.1193459968
 20
9.6143362784
 30
0.0
 10
7.1181296122
 20
9.6113028967
 30
0.0
 10
7.117115709
 20
9.6081890845
 30
0.0
 10
7.116459422
 20
9.605812654
 30
0.0
  0
SPLINE
  5
49C
100
AcDbEntity
  8
0
100
AcDbSpline
 62
7
  6
CONTINUOUS
 70
0
 71
3
 72
9
 73
5
 74
0
 42
0.0000001
 43
0.0000001
 44
0.0000000001
 40
0.0
 40
0.0
 40
0.0
 40
0.0
 40
0.245753081
 40
1.0
 40
1.0
 40
1.0
 40
1.0
 10
7.116459422
 20
9.605812654
 30
0.0
 10
7.1160674057
 20
9.6043931538
 30
0.0
 10
7.1146295277
 20
9.5985743236
 30
0.0
 10
7.113812314
 20
9.5926055183
 30
0.0
 10
7.1135256117
 20
9.5880949161
 30
0.0
  0
SPLINE
  5
49D
100
AcDbEntity
  8
0
100
AcDbSpline
 62
7
  6
CONTINUOUS
 70
0
 71
3
 72
15
 73
11
 74
0
 42
0.0000001
 43
0.0000001
 44
0.0000000001
 40
0.0
 40
0.0
 40
0.0
 40
0.0
 40
0.1370061242
 40
0.2722743014
 40
0.4046637252
 40
0.5332216203
 40
0.6572445894
 40
0.7763399973
 40
0.8904794299
 40
1.0
 40
1.0
 40
1.0
 40
1.0
 10
7.1138204647
 20
9.5725996737
 30
0.0
 10
7.1141345788
 20
9.5694931096
 30
0.0
 10
7.1150651391
 20
9.5633458519
 30
0.0
 10
7.1173537179
 20
9.5543962295
 30
0.0
 10
7.1204930466
 20
9.5459112945
 30
0.0
 10
7.1244232334
 20
9.5380465649
 30
0.0
 10
7.1290766675
 20
9.5309440064
 30
0.0
 10
7.134374229
 20
9.5247299913
 30
0.0
 10
7.1402209909
 20
9.5195124616
 30
0.0
 10
7.1445053178
 20
9.5167063925
 30
0.0
 10
7.1466976662
 20
9.5155132319
 30
0.0
  0
SPLINE
  5
49E
100
AcDbEntity
  8
0
100
AcDbSpline
 62
7
  6
CONTINUOUS
 70
0
 71
3
 72
11
 73
7
 74
0
 42
0.0000001
 43
0.0000001
 44
0.0000000001
 40
0.0
 40
0.0
 40
0.0
 40
0.0
 40
0.2561698686
 40
0.507469653
 40
0.7550343735
 40
1.0
 40
1.0
 40
1.0
 40
1.0
 10
7.1466976662
 20
9.5155132319
 30
0.0
 10
7.1480644584
 20
9.5147693709
 30
0.0
 10
7.1508492667
 20
9.5134319702
 30
0.0
 10
7.1551818052
 20
9.5119001888
 30
0.0
 10
7.1595905068
 20
9.5108705171
 30
0.0
 10
7.1625693214
 20
9.5105197363
 30
0.0
 10
7.1640546779
 20
9.510430396
 30
0.0
  0
SPLINE
  5
49F
100
AcDbEntity
  8
0
100
AcDbSpline
 62
7
  6
CONTINUOUS
 70
0
 71
3
 72
11
 73
7
 74
0
 42
0.0000001
 43
0.0000001
 44
0.0000000001
 40
0.0
 40
0.0
 40
0.0
 40
0.0
 40
0.2635390745
 40
0.5187255907
 40
0.7644283215
 40
1.0
 40
1.0
 40
1.0
 40
1.0
 10
7.1183792293
 20
9.6155966119
 30
0.0
 10
7.1193555483
 20
9.6186874782
 30
0.0
 10
7.1215677714
 20
9.6246848171
 30
0.0
 10
7.125715817
 20
9.6331415382
 30
0.0
 10
7.1305794528
 20
9.6408052104
 30
0.0
 10
7.1343357348
 20
9.6454037453
 30
0.0
 10
7.1363128369
 20
9.6475217784
 30
0.0
  0
SPLINE
  5
4A0
100
AcDbEntity
  8
0
100
AcDbSpline
 62
7
  6
CONTINUOUS
 70
0
 71
3
 72
13
 73
9
 74
0
 42
0.0000001
 43
0.0000001
 44
0.0000000001
 40
0.0
 40
0.0
 40
0.0
 40
0.0
 40
0.2655557258
 40
0.519266378
 40
0.6423234447
 40
0.7632051548
 40
0.8822967035
 40
1.0
 40
1.0
 40
1.0
 40
1.0
 10
7.1363128369
 20
9.6475217784
 30
0.0
 10
7.1383093111
 20
9.6496605645
 30
0.0
 10
7.1425003182
 20
9.6535875148
 30
0.0
 10
7.14836019
 20
9.6576118384
 30
0.0
 10
7.1532380938
 20
9.6601283928
 30
0.0
 10
7.1569422198
 20
9.6616513875
 30
0.0
 10
7.1607089499
 20
9.6628259875
 30
0.0
 10
7.1632632444
 20
9.66337745
 30
0.0
 10
7.164542048
 20
9.6635928309
 30
0.0
  0
SPLINE
  5
4A1
100
AcDbEntity
  8
0
100
AcDbSpline
 62
7
  6
CONTINUOUS
 70
0
 71
3
 72
35
 73
31
 74
0
 42
0.0000001
 43
0.0000001
 44
0.0000000001
 40
0.0
 40
0.0
 40
0.0
 40
0.0
 40
0.0267802722
 40
0.0537376563
 40
0.0810761506
 40
0.1090046914
 40
0.1377045254
 40
0.1673029428
 40
0.1978688219
 40
0.2294277717
 40
0.2953492064
 40
0.3645798621
 40
0.4361057658
 40
0.5086500844
 40
0.5448975888
 40
0.5808845633
 40
0.6164431818
 40
0.6514196885
 40
0.685669562
 40
0.7190725348
 40
0.7515261443
 40
0.7829565232
 40
0.8133204972
 40
0.8426048303
 40
0.8708386161
 40
0.8980841484
 40
0.9244581784
 40
0.9501185871
 40
0.9752419586
 40
1.0
 40
1.0
 40
1.0
 40
1.0
 10
7.1640546779
 20
9.510430396
 30
0.0
 10
7.1659029517
 20
9.5103192271
 30
0.0
 10
7.1696331072
 20
9.5103639992
 30
0.0
 10
7.1751901019
 20
9.5112241711
 30
0.0
 10
7.180651262
 20
9.5128666129
 30
0.0
 10
7.1859562094
 20
9.5152641318
 30
0.0
 10
7.1910517022
 20
9.5183873515
 30
0.0
 10
7.1958888622
 20
9.5221968705
 30
0.0
 10
7.2004229189
 20
9.5266481339
 30
0.0
 10
7.2060853399
 20
9.5334703948
 30
0.0
 10
7.2121360256
 20
9.5433605162
 30
0.0
 10
7.2174962755
 20
9.5566680874
 30
0.0
 10
7.2209095351
 20
9.5710682301
 30
0.0
 10
7.2220508236
 20
9.5835273975
 30
0.0
 10
7.2219251487
 20
9.5935432415
 30
0.0
 10
7.2213158977
 20
9.600977586
 30
0.0
 10
7.2201987134
 20
9.6082635486
 30
0.0
 10
7.2185911913
 20
9.6153344495
 30
0.0
 10
7.2165083631
 20
9.6221247997
 30
0.0
 10
7.213975084
 20
9.6285736214
 30
0.0
 10
7.2110168424
 20
9.6346232726
 30
0.0
 10
7.207662939
 20
9.6402199414
 30
0.0
 10
7.2039482493
 20
9.6453161912
 30
0.0
 10
7.199905655
 20
9.6498659251
 30
0.0
 10
7.1955768026
 20
9.6538329933
 30
0.0
 10
7.1909989722
 20
9.6571813151
 30
0.0
 10
7.186214493
 20
9.6598835278
 30
0.0
 10
7.1812651527
 20
9.6619138245
 30
0.0
 10
7.176202031
 20
9.6632538716
 30
0.0
 10
7.1727681515
 20
9.6636873795
 30
0.0
 10
7.171059178
 20
9.6637856238
 30
0.0
  0
SPLINE
  5
4A2
100
AcDbEntity
  8
0
100
AcDbSpline
 62
7
  6
CONTINUOUS
 70
0
 71
3
 72
11
 73
7
 74
0
 42
0.0000001
 43
0.0000001
 44
0.0000000001
 40
0.0
 40
0.0
 40
0.0
 40
0.0
 40
0.2454343894
 40
0.4926635579
 40
0.743543832
 40
1.0
 40
1.0
 40
1.0
 40
1.0
 10
6.7113248312
 20
9.5104230754
 30
0.0
 10
6.7128304737
 20
9.5103241049
 30
0.0
 10
6.7158707748
 20
9.5103378243
 30
0.0
 10
6.7204092563
 20
9.5109876385
 30
0.0
 10
6.7248843908
 20
9.5122587123
 30
0.0
 10
6.7277584704
 20
9.5134947954
 30
0.0
 10
6.7291668982
 20
9.5142034297
 30
0.0
  0
SPLINE
  5
4A3
100
AcDbEntity
  8
0
100
AcDbSpline
 62
7
  6
CONTINUOUS
 70
0
 71
3
 72
13
 73
9
 74
0
 42
0.0000001
 43
0.0000001
 44
0.0000000001
 40
0.0
 40
0.0
 40
0.0
 40
0.0
 40
0.1081368972
 40
0.2208133051
 40
0.3384911694
 40
0.4613616615
 40
0.7219203948
 40
1.0
 40
1.0
 40
1.0
 40
1.0
 10
6.7291668982
 20
9.5142034297
 30
0.0
 10
6.7309452086
 20
9.5150981663
 30
0.0
 10
6.7344417741
 20
9.5172040359
 30
0.0
 10
6.7392994996
 20
9.5211336614
 30
0.0
 10
6.7438146637
 20
9.5258356147
 30
0.0
 10
6.7494048234
 20
9.5331955788
 30
0.0
 10
6.7551669888
 20
9.5440193298
 30
0.0
 10
6.7581976165
 20
9.5535163392
 30
0.0
 10
6.7593655323
 20
9.5585005561
 30
0.0
  0
SPLINE
  5
4A4
100
AcDbEntity
  8
0
100
AcDbSpline
 62
7
  6
CONTINUOUS
 70
0
 71
3
 72
11
 73
7
 74
0
 42
0.0000001
 43
0.0000001
 44
0.0000000001
 40
0.0
 40
0.0
 40
0.0
 40
0.0
 40
0.2459732496
 40
0.4337927231
 40
0.6229930031
 40
1.0
 40
1.0
 40
1.0
 40
1.0
 10
6.7593655323
 20
9.5585005561
 30
0.0
 10
6.7602573759
 20
9.562306603
 30
0.0
 10
6.7614253983
 20
9.5691204533
 30
0.0
 10
6.762125824
 20
9.5790074193
 30
0.0
 10
6.7619761727
 20
9.5909992985
 30
0.0
 10
6.7607500168
 20
9.599969462
 30
0.0
 10
6.7594361537
 20
9.6058152323
 30
0.0
  0
SPLINE
  5
4A5
100
AcDbEntity
  8
0
100
AcDbSpline
 62
7
  6
CONTINUOUS
 70
0
 71
3
 72
12
 73
8
 74
0
 42
0.0000001
 43
0.0000001
 44
0.0000000001
 40
0.0
 40
0.0
 40
0.0
 40
0.0
 40
0.2622224394
 40
0.3909145099
 40
0.5175969435
 40
0.7639152121
 40
1.0
 40
1.0
 40
1.0
 40
1.0
 10
6.7594361537
 20
9.6058152323
 30
0.0
 10
6.7585999755
 20
9.6095356393
 30
0.0
 10
6.7570506177
 20
9.6150215374
 30
0.0
 10
6.7543828179
 20
9.6220632399
 30
0.0
 10
6.7513983092
 20
9.6287246386
 30
0.0
 10
6.7470476333
 20
9.6364669769
 30
0.0
 10
6.7428208395
 20
9.6420985491
 30
0.0
 10
6.7405632189
 20
9.6446849555
 30
0.0
  0
SPLINE
  5
4A6
100
AcDbEntity
  8
0
100
AcDbSpline
 62
7
  6
CONTINUOUS
 70
0
 71
3
 72
11
 73
7
 74
0
 42
0.0000001
 43
0.0000001
 44
0.0000000001
 40
0.0
 40
0.0
 40
0.0
 40
0.0
 40
0.2643859097
 40
0.5179070272
 40
0.7622723376
 40
1.0
 40
1.0
 40
1.0
 40
1.0
 10
6.7385632115
 20
9.6468785153
 30
0.0
 10
6.7365215239
 20
9.6490215125
 30
0.0
 10
6.7322371081
 20
9.6529615015
 30
0.0
 10
6.7251473555
 20
9.6577700722
 30
0.0
 10
6.7176517963
 20
9.6612679399
 30
0.0
 10
6.7124123946
 20
9.6626918062
 30
0.0
 10
6.7097924285
 20
9.6631598146
 30
0.0
  0
SPLINE
  5
4A7
100
AcDbEntity
  8
0
100
AcDbSpline
 62
7
  6
CONTINUOUS
 70
0
 71
3
 72
23
 73
19
 74
0
 42
0.0000001
 43
0.0000001
 44
0.0000000001
 40
0.0
 40
0.0
 40
0.0
 40
0.0
 40
0.0674353482
 40
0.1366835227
 40
0.2070670987
 40
0.2780167904
 40
0.4189586868
 40
0.4878688441
 40
0.5549383436
 40
0.6197086429
 40
0.6511280608
 40
0.6818551084
 40
0.7411220261
 40
0.7974956409
 40
0.8511124313
 40
0.9023445274
 40
0.9517659047
 40
1.0
 40
1.0
 40
1.0
 40
1.0
 10
6.6763555968
 20
9.6152061607
 30
0.0
 10
6.6750685452
 20
9.6126624337
 30
0.0
 10
6.672762843
 20
9.6073486144
 30
0.0
 10
6.6701460857
 20
9.5989802061
 30
0.0
 10
6.6683558956
 20
9.5902437796
 30
0.0
 10
6.6671006906
 20
9.5783636341
 30
0.0
 10
6.6675356982
 20
9.5664138744
 30
0.0
 10
6.6696536771
 20
9.5548854433
 30
0.0
 10
6.6720151449
 20
9.5467183518
 30
0.0
 10
6.6746199758
 20
9.5403111424
 30
0.0
 10
6.6770584294
 20
9.5355288184
 30
0.0
 10
6.6796533361
 20
9.5310976535
 30
0.0
 10
6.683258968
 20
9.526047248
 30
0.0
 10
6.6881656134
 20
9.5208082163
 30
0.0
 10
6.6935163487
 20
9.5165444654
 30
0.0
 10
6.6992235096
 20
9.5133253505
 30
0.0
 10
6.7051868936
 20
9.5112151668
 30
0.0
 10
6.7092901484
 20
9.5105568215
 30
0.0
 10
6.7113248312
 20
9.5104230754
 30
0.0
  0
SPLINE
  5
4A8
100
AcDbEntity
  8
0
100
AcDbSpline
 62
7
  6
CONTINUOUS
 70
0
 71
3
 72
20
 73
16
 74
0
 42
0.0000001
 43
0.0000001
 44
0.0000000001
 40
0.0
 40
0.0
 40
0.0
 40
0.0
 40
0.0504813881
 40
0.1025587579
 40
0.1565276239
 40
0.2125340826
 40
0.2705863975
 40
0.3305974623
 40
0.3924170217
 40
0.4558620345
 40
0.5867618173
 40
0.6539332683
 40
0.7219907024
 40
0.8600771021
 40
1.0
 40
1.0
 40
1.0
 40
1.0
 10
6.6948011634
 20
9.4870550803
 30
0.0
 10
6.6966792897
 20
9.4870550803
 30
0.0
 10
6.700499999
 20
9.4873455136
 30
0.0
 10
6.7062032155
 20
9.4886037809
 30
0.0
 10
6.7118875639
 20
9.4906599647
 30
0.0
 10
6.7174857883
 20
9.4934713373
 30
0.0
 10
6.7229377422
 20
9.4969875923
 30
0.0
 10
6.7281880603
 20
9.5011532293
 30
0.0
 10
6.7331877369
 20
9.5059114797
 30
0.0
 10
6.7395247066
 20
9.5130413475
 30
0.0
 10
6.7451078833
 20
9.5210627383
 30
0.0
 10
6.7498726407
 20
9.5297484311
 30
0.0
 10
6.7541342276
 20
9.5389893262
 30
0.0
 10
6.7583141341
 20
9.5512097162
 30
0.0
 10
6.7603423249
 20
9.5613874567
 30
0.0
 10
6.7610230745
 20
9.5665484922
 30
0.0
  0
SPLINE
  5
4A9
100
AcDbEntity
  8
0
100
AcDbSpline
 62
7
  6
CONTINUOUS
 70
0
 71
3
 72
11
 73
7
 74
0
 42
0.0000001
 43
0.0000001
 44
0.0000000001
 40
0.0
 40
0.0
 40
0.0
 40
0.0
 40
0.2558324441
 40
0.5093607724
 40
0.7583170572
 40
1.0
 40
1.0
 40
1.0
 40
1.0
 10
6.7620222615
 20
9.5845868686
 30
0.0
 10
6.7619033721
 20
9.5904266808
 30
0.0
 10
6.7608123088
 20
9.6020543681
 30
0.0
 10
6.7566690517
 20
9.6189278937
 30
0.0
 10
6.7501910907
 20
9.6347014044
 30
0.0
 10
6.7443593348
 20
9.6443331056
 30
0.0
 10
6.7411092696
 20
9.648792372
 30
0.0
  0
SPLINE
  5
4AA
100
AcDbEntity
  8
0
100
AcDbSpline
 62
7
  6
CONTINUOUS
 70
0
 71
3
 72
15
 73
11
 74
0
 42
0.0000001
 43
0.0000001
 44
0.0000000001
 40
0.0
 40
0.0
 40
0.0
 40
0.0
 40
0.1398074156
 40
0.2760596737
 40
0.4082599345
 40
0.5359679204
 40
0.6588791435
 40
0.7769261496
 40
0.8903932974
 40
1.0
 40
1.0
 40
1.0
 40
1.0
 10
6.7411092696
 20
9.648792372
 30
0.0
 10
6.7395637725
 20
9.6509128783
 30
0.0
 10
6.7363392023
 20
9.6549776754
 30
0.0
 10
6.7310635065
 20
9.6605483938
 30
0.0
 10
6.7254567767
 20
9.6654501194
 30
0.0
 10
6.7195798022
 20
9.6696074478
 30
0.0
 10
6.713501064
 20
9.6729467733
 30
0.0
 10
6.7072963114
 20
9.6753992251
 30
0.0
 10
6.7010515339
 20
9.6769056902
 30
0.0
 10
6.696858296
 20
9.6772550803
 30
0.0
 10
6.6948011634
 20
9.6772550803
 30
0.0
  0
SPLINE
  5
4AB
100
AcDbEntity
  8
0
100
AcDbSpline
 62
7
  6
CONTINUOUS
 70
0
 71
3
 72
39
 73
35
 74
0
 42
0.0000001
 43
0.0000001
 44
0.0000000001
 40
0.0
 40
0.0
 40
0.0
 40
0.0
 40
0.025923047
 40
0.051565184
 40
0.0773526195
 40
0.1036831012
 40
0.1308772758
 40
0.1591565103
 40
0.1886452079
 40
0.2193856914
 40
0.251356285
 40
0.2844869325
 40
0.3186710749
 40
0.3537742264
 40
0.3896395472
 40
0.4260925591
 40
0.462945166
 40
0.4999999407
 40
0.5370547609
 40
0.5739073406
 40
0.6103603522
 40
0.6462257089
 40
0.6813288125
 40
0.7155130023
 40
0.7486436286
 40
0.780614224
 40
0.8113547277
 40
0.8408434064
 40
0.8691226752
 40
0.8963168442
 40
0.9226473565
 40
0.9484348102
 40
0.9740769562
 40
1.0
 40
1.0
 40
1.0
 40
1.0
 10
6.6948011634
 20
9.6772550803
 30
0.0
 10
6.692739301
 20
9.6772550803
 30
0.0
 10
6.6886283604
 20
9.6769113193
 30
0.0
 10
6.6826509803
 20
9.6753322915
 30
0.0
 10
6.6770036527
 20
9.6727388816
 30
0.0
 10
6.6717502236
 20
9.6692014273
 30
0.0
 10
6.6669269506
 20
9.6648037563
 30
0.0
 10
6.6625511128
 20
9.6596327641
 30
0.0
 10
6.6586267942
 20
9.6537729712
 30
0.0
 10
6.6551504615
 20
9.6473046954
 30
0.0
 10
6.652114442
 20
9.6403038545
 30
0.0
 10
6.649509161
 20
9.6328424894
 30
0.0
 10
6.6473246196
 20
9.6249895432
 30
0.0
 10
6.645551354
 20
9.6168117799
 30
0.0
 10
6.6441811164
 20
9.6083746372
 30
0.0
 10
6.6432072576
 20
9.5997429665
 30
0.0
 10
6.6426249166
 20
9.590981505
 30
0.0
 10
6.6424311386
 20
9.5821550909
 30
0.0
 10
6.6426249161
 20
9.573328679
 30
0.0
 10
6.643207255
 20
9.5645672159
 30
0.0
 10
6.6441811142
 20
9.5559355446
 30
0.0
 10
6.6455513494
 20
9.5474984025
 30
0.0
 10
6.6473246148
 20
9.5393206363
 30
0.0
 10
6.6495091556
 20
9.5314676917
 30
0.0
 10
6.6521144338
 20
9.5240063232
 30
0.0
 10
6.6551504547
 20
9.517005483
 30
0.0
 10
6.6586267834
 20
9.5105372047
 30
0.0
 10
6.6625511043
 20
9.50467741
 30
0.0
 10
6.6669269399
 20
9.4995064148
 30
0.0
 10
6.6717502157
 20
9.4951087398
 30
0.0
 10
6.6770036466
 20
9.4915712822
 30
0.0
 10
6.6826509783
 20
9.4889778697
 30
0.0
 10
6.6886283602
 20
9.4873988413
 30
0.0
 10
6.6927393013
 20
9.4870550803
 30
0.0
 10
6.6948011634
 20
9.4870550803
 30
0.0
  0
SPLINE
  5
4AC
100
AcDbEntity
  8
0
100
AcDbSpline
 62
7
  6
CONTINUOUS
 70
0
 71
3
 72
39
 73
35
 74
0
 42
0.0000001
 43
0.0000001
 44
0.0000000001
 40
0.0
 40
0.0
 40
0.0
 40
0.0
 40
0.025923047
 40
0.051565184
 40
0.0773526195
 40
0.1036831012
 40
0.1308772758
 40
0.1591565103
 40
0.1886452079
 40
0.2193856914
 40
0.251356285
 40
0.2844869325
 40
0.3186710749
 40
0.3537742264
 40
0.3896395472
 40
0.4260925591
 40
0.462945166
 40
0.4999999407
 40
0.5370547609
 40
0.5739073406
 40
0.6103603522
 40
0.6462257089
 40
0.6813288125
 40
0.7155130023
 40
0.7486436286
 40
0.780614224
 40
0.8113547277
 40
0.8408434064
 40
0.8691226752
 40
0.8963168442
 40
0.9226473565
 40
0.9484348102
 40
0.9740769562
 40
1.0
 40
1.0
 40
1.0
 40
1.0
 10
7.1805835221
 20
9.4870550803
 30
0.0
 10
7.1826453845
 20
9.4870550803
 30
0.0
 10
7.1867563251
 20
9.4873988413
 30
0.0
 10
7.1927337051
 20
9.4889778692
 30
0.0
 10
7.1983810328
 20
9.4915712791
 30
0.0
 10
7.2036344618
 20
9.4951087333
 30
0.0
 10
7.2084577349
 20
9.4995064043
 30
0.0
 10
7.2128335727
 20
9.5046773966
 30
0.0
 10
7.2167578912
 20
9.5105371895
 30
0.0
 10
7.220234224
 20
9.5170054653
 30
0.0
 10
7.2232702435
 20
9.5240063062
 30
0.0
 10
7.2258755245
 20
9.5314676712
 30
0.0
 10
7.2280600659
 20
9.5393206175
 30
0.0
 10
7.2298333315
 20
9.5474983807
 30
0.0
 10
7.231203569
 20
9.5559355235
 30
0.0
 10
7.2321774278
 20
9.5645671942
 30
0.0
 10
7.2327597689
 20
9.5733286557
 30
0.0
 10
7.2329535469
 20
9.5821550697
 30
0.0
 10
7.2327597694
 20
9.5909814816
 30
0.0
 10
7.2321774304
 20
9.5997429447
 30
0.0
 10
7.2312035713
 20
9.608374616
 30
0.0
 10
7.2298333361
 20
9.6168117582
 30
0.0
 10
7.2280600706
 20
9.6249895244
 30
0.0
 10
7.2258755299
 20
9.632842469
 30
0.0
 10
7.2232702517
 20
9.6403038374
 30
0.0
 10
7.2202342308
 20
9.6473046777
 30
0.0
 10
7.2167579021
 20
9.653772956
 30
0.0
 10
7.2128335812
 20
9.6596327507
 30
0.0
 10
7.2084577456
 20
9.6648037459
 30
0.0
 10
7.2036344697
 20
9.6692014208
 30
0.0
 10
7.1983810389
 20
9.6727388785
 30
0.0
 10
7.1927337072
 20
9.675332291
 30
0.0
 10
7.1867563253
 20
9.6769113193
 30
0.0
 10
7.1826453842
 20
9.6772550803
 30
0.0
 10
7.1805835221
 20
9.6772550803
 30
0.0
  0
SPLINE
  5
4AD
100
AcDbEntity
  8
0
100
AcDbSpline
 62
7
  6
CONTINUOUS
 70
0
 71
3
 72
15
 73
11
 74
0
 42
0.0000001
 43
0.0000001
 44
0.0000000001
 40
0.0
 40
0.0
 40
0.0
 40
0.0
 40
0.1271909149
 40
0.2550601291
 40
0.3829265847
 40
0.5101312474
 40
0.6360613011
 40
0.7600956423
 40
0.8816077243
 40
1.0
 40
1.0
 40
1.0
 40
1.0
 10
6.6717202027
 20
9.6043371657
 30
0.0
 10
6.6710593251
 20
9.6016137454
 30
0.0
 10
6.6699373042
 20
9.59610092
 30
0.0
 10
6.6688577596
 20
9.5877260692
 30
0.0
 10
6.6683866483
 20
9.5792940263
 30
0.0
 10
6.6685421957
 20
9.5708929057
 30
0.0
 10
6.6693122329
 20
9.562610733
 30
0.0
 10
6.670672029
 20
9.5545317105
 30
0.0
 10
6.6725997783
 20
9.5467403128
 30
0.0
 10
6.6742737983
 20
9.5417190257
 30
0.0
 10
6.6752044246
 20
9.5392820809
 30
0.0
  0
SPLINE
  5
4AE
100
AcDbEntity
  8
0
100
AcDbSpline
 62
7
  6
CONTINUOUS
 70
0
 71
3
 72
21
 73
17
 74
0
 42
0.0000001
 43
0.0000001
 44
0.0000000001
 40
0.0
 40
0.0
 40
0.0
 40
0.0
 40
0.0527586017
 40
0.1065640218
 40
0.1616543792
 40
0.2182422312
 40
0.276476606
 40
0.3363894651
 40
0.3979388794
 40
0.4610323057
 40
0.591236917
 40
0.6581282714
 40
0.7258933943
 40
0.7942629588
 40
0.8629474859
 40
1.0
 40
1.0
 40
1.0
 40
1.0
 10
6.6975531074
 20
9.6624467295
 30
0.0
 10
6.695673216
 20
9.6619279794
 30
0.0
 10
6.6919351257
 20
9.6606531965
 30
0.0
 10
6.6865248205
 20
9.6580892862
 30
0.0
 10
6.6813065506
 20
9.6548746747
 30
0.0
 10
6.6763297366
 20
9.651025169
 30
0.0
 10
6.6716357819
 20
9.6465739654
 30
0.0
 10
6.6672516041
 20
9.6415726502
 30
0.0
 10
6.6632078789
 20
9.6360681514
 30
0.0
 10
6.6582611401
 20
9.6280421036
 30
0.0
 10
6.6541922786
 20
9.6192789955
 30
0.0
 10
6.6510597919
 20
9.6099974146
 30
0.0
 10
6.6491560377
 20
9.6027319542
 30
0.0
 10
6.6477286829
 20
9.5952908927
 30
0.0
 10
6.6464720708
 20
9.5852325423
 30
0.0
 10
6.6462633385
 20
9.5776014411
 30
0.0
 10
6.6464673384
 20
9.5725395847
 30
0.0
  0
SPLINE
  5
4AF
100
AcDbEntity
  8
0
100
AcDbSpline
 62
7
  6
CONTINUOUS
 70
0
 71
3
 72
11
 73
7
 74
0
 42
0.0000001
 43
0.0000001
 44
0.0000000001
 40
0.0
 40
0.0
 40
0.0
 40
0.0
 40
0.2521802307
 40
0.5044620479
 40
0.7545045256
 40
1.0
 40
1.0
 40
1.0
 40
1.0
 10
7.1939717588
 20
9.5663272283
 30
0.0
 10
7.1946238485
 20
9.569910568
 30
0.0
 10
7.1955804493
 20
9.5771463601
 30
0.0
 10
7.1960004402
 20
9.5880503003
 30
0.0
 10
7.1954174566
 20
9.5988502044
 30
0.0
 10
7.1943497794
 20
9.6059410684
 30
0.0
 10
7.1936411722
 20
9.6094151812
 30
0.0
  0
SPLINE
  5
4B0
100
AcDbEntity
  8
0
100
AcDbSpline
 62
7
  6
CONTINUOUS
 70
0
 71
3
 72
15
 73
11
 74
0
 42
0.0000001
 43
0.0000001
 44
0.0000000001
 40
0.0
 40
0.0
 40
0.0
 40
0.0
 40
0.1096068442
 40
0.2230740646
 40
0.3411210574
 40
0.4640321796
 40
0.5917401854
 40
0.7239403107
 40
0.860192592
 40
1.0
 40
1.0
 40
1.0
 40
1.0
 10
7.1805835221
 20
9.6772550803
 30
0.0
 10
7.1785264038
 20
9.6772550803
 30
0.0
 10
7.1743331967
 20
9.6769056951
 30
0.0
 10
7.168088465
 20
9.6753992517
 30
0.0
 10
7.1618837587
 20
9.6729468355
 30
0.0
 10
7.1558050616
 20
9.6696075581
 30
0.0
 10
7.1499281249
 20
9.6654502867
 30
0.0
 10
7.1443214215
 20
9.660548627
 30
0.0
 10
7.1390457489
 20
9.6549779772
 30
0.0
 10
7.1358211847
 20
9.65091323
 30
0.0
 10
7.1342756898
 20
9.6487927491
 30
0.0
  0
SPLINE
  5
4B1
100
AcDbEntity
  8
0
100
AcDbSpline
 62
7
  6
CONTINUOUS
 70
0
 71
3
 72
10
 73
6
 74
0
 42
0.0000001
 43
0.0000001
 44
0.0000000001
 40
0.0
 40
0.0
 40
0.0
 40
0.0
 40
0.2438043771
 40
0.4924227166
 40
1.0
 40
1.0
 40
1.0
 40
1.0
 10
7.1342756898
 20
9.6487927491
 30
0.0
 10
7.1325014906
 20
9.6463584765
 30
0.0
 10
7.1291464986
 20
9.6412705836
 30
0.0
 10
7.1232732689
 20
9.6303893651
 30
0.0
 10
7.1199016175
 20
9.6216142237
 30
0.0
 10
7.1181318056
 20
9.6155979868
 30
0.0
  0
SPLINE
  5
4B2
100
AcDbEntity
  8
0
100
AcDbSpline
 62
7
  6
CONTINUOUS
 70
0
 71
3
 72
19
 73
15
 74
0
 42
0.0000001
 43
0.0000001
 44
0.0000000001
 40
0.0
 40
0.0
 40
0.0
 40
0.0
 40
0.1396545733
 40
0.2776698808
 40
0.4129104048
 40
0.5440243188
 40
0.6076022524
 40
0.6695530572
 40
0.7296770488
 40
0.7878052749
 40
0.8438318604
 40
0.8977513639
 40
0.9497045872
 40
1.0
 40
1.0
 40
1.0
 40
1.0
 10
7.1138626398
 20
9.5709660878
 30
0.0
 10
7.1143686433
 20
9.5655878804
 30
0.0
 10
7.1161041758
 20
9.5549485754
 30
0.0
 10
7.120820165
 20
9.5396377098
 30
0.0
 10
7.1274816494
 20
9.5254290312
 30
0.0
 10
7.1345534478
 20
9.5147397482
 30
0.0
 10
7.1409947501
 20
9.5071731548
 30
0.0
 10
7.146104335
 20
9.5021135894
 30
0.0
 10
7.1514931766
 20
9.4976758639
 30
0.0
 10
7.15710817
 20
9.4939232229
 30
0.0
 10
7.1628891094
 20
9.4909176883
 30
0.0
 10
7.1687701898
 20
9.4887161341
 30
0.0
 10
7.1746773912
 20
9.4873670285
 30
0.0
 10
7.1786380525
 20
9.4870550803
 30
0.0
 10
7.1805835221
 20
9.4870550803
 30
0.0
  0
SPLINE
  5
4B3
100
AcDbEntity
  8
0
100
AcDbSpline
 62
7
  6
CONTINUOUS
 70
0
 71
3
 72
15
 73
11
 74
0
 42
0.0000001
 43
0.0000001
 44
0.0000000001
 40
0.0
 40
0.0
 40
0.0
 40
0.0
 40
0.1034194246
 40
0.2111074583
 40
0.3245392975
 40
0.4447968751
 40
0.572466803
 40
0.7077161699
 40
0.8503769147
 40
1.0
 40
1.0
 40
1.0
 40
1.0
 10
7.1479226318
 20
9.6452099052
 30
0.0
 10
7.1464283514
 20
9.6450228954
 30
0.0
 10
7.1434109034
 20
9.6443230856
 30
0.0
 10
7.1390665889
 20
9.6424034042
 30
0.0
 10
7.1349069752
 20
9.6396426502
 30
0.0
 10
7.1309912574
 20
9.6361023025
 30
0.0
 10
7.1273700389
 20
9.6318388454
 30
0.0
 10
7.1240869529
 20
9.6269153631
 30
0.0
 10
7.1211843798
 20
9.6213970036
 30
0.0
 10
7.119560411
 20
9.6174557579
 30
0.0
 10
7.1188158416
 20
9.6154082036
 30
0.0
  0
SPLINE
  5
4B4
100
AcDbEntity
  8
0
100
AcDbSpline
 62
7
  6
CONTINUOUS
 70
0
 71
3
 72
28
 73
24
 74
0
 42
0.0000001
 43
0.0000001
 44
0.0000000001
 40
0.0
 40
0.0
 40
0.0
 40
0.0
 40
0.0632107843
 40
0.1287013129
 40
0.1960657244
 40
0.2303067609
 40
0.2648241623
 40
0.2995510242
 40
0.3344190457
 40
0.4042503179
 40
0.4736824247
 40
0.5080458832
 40
0.5420563358
 40
0.5756348359
 40
0.608710543
 40
0.6412293539
 40
0.6731418496
 40
0.7349319393
 40
0.7937711857
 40
0.8494613552
 40
0.9020982821
 40
0.9520894817
 40
1.0
 40
1.0
 40
1.0
 40
1.0
 10
7.1977726811
 20
9.5237503966
 30
0.0
 10
7.1998552633
 20
9.5264222191
 30
0.0
 10
7.2037351618
 20
9.5321505749
 30
0.0
 10
7.2085798511
 20
9.5414969755
 30
0.0
 10
7.211831431
 20
9.5498601137
 30
0.0
 10
7.213949399
 20
9.556843531
 30
0.0
 10
7.2152890034
 20
9.5622278563
 30
0.0
 10
7.2163613813
 20
9.5677058961
 30
0.0
 10
7.2174269972
 20
9.5751042973
 30
0.0
 10
7.2180807107
 20
9.5844287148
 30
0.0
 10
7.2178488098
 20
9.593745879
 30
0.0
 10
7.2171306718
 20
9.6010986844
 30
0.0
 10
7.2163316288
 20
9.6065061561
 30
0.0
 10
7.215272351
 20
9.6117984365
 30
0.0
 10
7.2139535061
 20
9.6169496789
 30
0.0
 10
7.2123857651
 20
9.6219374321
 30
0.0
 10
7.2100056393
 20
9.6282721554
 30
0.0
 10
7.2064939616
 20
9.6356764743
 30
0.0
 10
7.2014269541
 20
9.6436823396
 30
0.0
 10
7.1956295635
 20
9.650554446
 30
0.0
 10
7.189190474
 20
9.6561373669
 30
0.0
 10
7.182265534
 20
9.660351318
 30
0.0
 10
7.1773254119
 20
9.6622287941
 30
0.0
 10
7.1748456259
 20
9.66289463
 30
0.0
  0
SPLINE
  5
4B5
100
AcDbEntity
  8
0
100
AcDbSpline
 62
7
  6
CONTINUOUS
 70
0
 71
3
 72
30
 73
26
 74
0
 42
0.0000001
 43
0.0000001
 44
0.0000000001
 40
0.0
 40
0.0
 40
0.0
 40
0.0
 40
0.0233620252
 40
0.0469830802
 40
0.0710221642
 40
0.0956356875
 40
0.1209787795
 40
0.1471801776
 40
0.1743319139
 40
0.2024808812
 40
0.2617780333
 40
0.3249823424
 40
0.3579260749
 40
0.3916344359
 40
0.4608996353
 40
0.531886
 40
0.603581713
 40
0.6749615548
 40
0.7450629191
 40
0.8130637591
 40
0.8460971436
 40
0.8784015234
 40
0.9406664631
 40
0.9706906057
 40
1.0
 40
1.0
 40
1.0
 40
1.0
 10
7.1584864472
 20
9.6472550803
 30
0.0
 10
7.1596907163
 20
9.6472550803
 30
0.0
 10
7.1621154416
 20
9.647095143
 30
0.0
 10
7.1657165008
 20
9.6463848605
 30
0.0
 10
7.1692616611
 20
9.6452083456
 30
0.0
 10
7.1727169771
 20
9.6435719275
 30
0.0
 10
7.1760563815
 20
9.6414925095
 30
0.0
 10
7.1792545163
 20
9.6389848808
 30
0.0
 10
7.182286945
 20
9.6360673375
 30
0.0
 10
7.186146305
 20
9.6315852572
 30
0.0
 10
7.1904011024
 20
9.6250422428
 30
0.0
 10
7.1936979005
 20
9.6177071872
 30
0.0
 10
7.1958014924
 20
9.6113480504
 30
0.0
 10
7.1975556354
 20
9.6045601554
 30
0.0
 10
7.1989479157
 20
9.5956755592
 30
0.0
 10
7.1993173019
 20
9.5847308445
 30
0.0
 10
7.1983729447
 20
9.5737103285
 30
0.0
 10
7.196122101
 20
9.562926304
 30
0.0
 10
7.1926108267
 20
9.5526846143
 30
0.0
 10
7.1886613787
 20
9.5447618374
 30
0.0
 10
7.1849389165
 20
9.538976533
 30
0.0
 10
7.1809709634
 20
9.5337250122
 30
0.0
 10
7.1764955873
 20
9.5290677328
 30
0.0
 10
7.1715829471
 20
9.5251638276
 30
0.0
 10
7.1690163059
 20
9.5234897461
 30
0.0
 10
7.1677114515
 20
9.5227281639
 30
0.0
  0
SPLINE
  5
4B6
100
AcDbEntity
  8
0
100
AcDbSpline
 62
7
  6
CONTINUOUS
 70
0
 71
3
 72
11
 73
7
 74
0
 42
0.0000001
 43
0.0000001
 44
0.0000000001
 40
0.0
 40
0.0
 40
0.0
 40
0.0
 40
0.2568877229
 40
0.5081438568
 40
0.7553704992
 40
1.0
 40
1.0
 40
1.0
 40
1.0
 10
7.1677114515
 20
9.5227281639
 30
0.0
 10
7.1661372494
 20
9.5218093762
 30
0.0
 10
7.1629107156
 20
9.5201760446
 30
0.0
 10
7.1578440499
 20
9.5183825993
 30
0.0
 10
7.1526680324
 20
9.5172995534
 30
0.0
 10
7.1491736346
 20
9.5170550803
 30
0.0
 10
7.1474378982
 20
9.5170550803
 30
0.0
  0
SPLINE
  5
4B7
100
AcDbEntity
  8
0
100
AcDbSpline
 62
7
  6
CONTINUOUS
 70
0
 71
3
 72
31
 73
27
 74
0
 42
0.0000001
 43
0.0000001
 44
0.0000000001
 40
0.0
 40
0.0
 40
0.0
 40
0.0
 40
0.0234235793
 40
0.0470966484
 40
0.0712033105
 40
0.0959182147
 40
0.1213995141
 40
0.147775331
 40
0.1751342787
 40
0.2035211389
 40
0.2633694098
 40
0.327184564
 40
0.3944005913
 40
0.4290489683
 40
0.4642183461
 40
0.5355673734
 40
0.6074106543
 40
0.6431999705
 40
0.6787180564
 40
0.7484350545
 40
0.8157879075
 40
0.8802243174
 40
0.9112935177
 40
0.941584863
 40
0.9711310453
 40
1.0
 40
1.0
 40
1.0
 40
1.0
 10
6.7279467873
 20
9.5170550803
 30
0.0
 10
6.7267122558
 20
9.5170550803
 30
0.0
 10
6.7242269815
 20
9.5172227946
 30
0.0
 10
6.720538763
 20
9.5179685225
 30
0.0
 10
6.7169120892
 20
9.5192035864
 30
0.0
 10
6.7133816154
 20
9.5209199141
 30
0.0
 10
6.7099748151
 20
9.5230994233
 30
0.0
 10
6.7067197178
 20
9.5257263637
 30
0.0
 10
6.7036422384
 20
9.5287799632
 30
0.0
 10
6.699739388
 20
9.5334681121
 30
0.0
 10
6.6954709828
 20
9.5402998717
 30
0.0
 10
6.6915147096
 20
9.5495863905
 30
0.0
 10
6.6892390116
 20
9.5580465764
 30
0.0
 10
6.6880456308
 20
9.5651735827
 30
0.0
 10
6.687283057
 20
9.5725790531
 30
0.0
 10
6.6871999964
 20
9.5820044085
 30
0.0
 10
6.6882674373
 20
9.5914023832
 30
0.0
 10
6.6898149646
 20
9.5987912611
 30
0.0
 10
6.6917957261
 20
9.605959329
 30
0.0
 10
6.6950651473
 20
9.6144793496
 30
0.0
 10
6.7002184967
 20
9.623805314
 30
0.0
 10
6.7054823694
 20
9.6306373365
 30
0.0
 10
6.7101738873
 20
9.6353325401
 30
0.0
 10
6.7138535644
 20
9.6384119363
 30
0.0
 10
6.717711569
 20
9.6410649033
 30
0.0
 10
6.7204147562
 20
9.6425516615
 30
0.0
 10
6.7217845221
 20
9.6432140732
 30
0.0
  0
SPLINE
  5
4B8
100
AcDbEntity
  8
0
100
AcDbSpline
 62
7
  6
CONTINUOUS
 70
0
 71
3
 72
21
 73
17
 74
0
 42
0.0000001
 43
0.0000001
 44
0.0000000001
 40
0.0
 40
0.0
 40
0.0
 40
0.0
 40
0.070764177
 40
0.1416926325
 40
0.2822441074
 40
0.3513159236
 40
0.4191778094
 40
0.5501204224
 40
0.6129133327
 40
0.6737136995
 40
0.732481701
 40
0.7892411981
 40
0.8441224014
 40
0.8973598592
 40
0.9492355916
 40
1.0
 40
1.0
 40
1.0
 40
1.0
 10
6.6464673384
 20
9.5725395851
 30
0.0
 10
6.6462446713
 20
9.5752068148
 30
0.0
 10
6.6459867133
 20
9.5805653307
 30
0.0
 10
6.6462085074
 20
9.5912440036
 30
0.0
 10
6.6475316822
 20
9.6018150227
 30
0.0
 10
6.6499541325
 20
9.6120353019
 30
0.0
 10
6.653016541
 20
9.6217001834
 30
0.0
 10
6.6570803845
 20
9.6307786177
 30
0.0
 10
6.6621232755
 20
9.6389918681
 30
0.0
 10
6.6662607869
 20
9.6445237656
 30
0.0
 10
6.6707619414
 20
9.6494600525
 30
0.0
 10
6.6755863595
 20
9.6537530516
 30
0.0
 10
6.6806905912
 20
9.6573601174
 30
0.0
 10
6.6860308576
 20
9.6602402278
 30
0.0
 10
6.6915489229
 20
9.6623603831
 30
0.0
 10
6.6953362035
 20
9.6632724799
 30
0.0
 10
6.697229051
 20
9.6635945858
 30
0.0
  0
SPLINE
  5
4B9
100
AcDbEntity
  8
0
100
AcDbSpline
 62
7
  6
CONTINUOUS
 70
0
 71
3
 72
9
 73
5
 74
0
 42
0.0000001
 43
0.0000001
 44
0.0000000001
 40
0.0
 40
0.0
 40
0.0
 40
0.0
 40
0.502975927
 40
1.0
 40
1.0
 40
1.0
 40
1.0
 10
6.70456668
 20
9.6452099052
 30
0.0
 10
6.7065595285
 20
9.6458806547
 30
0.0
 10
6.710632759
 20
9.6469075416
 30
0.0
 10
6.7148204195
 20
9.6472550803
 30
0.0
 10
6.7168982383
 20
9.6472550803
 30
0.0
  0
SPLINE
  5
4BA
100
AcDbEntity
  8
0
100
AcDbSpline
 62
7
  6
CONTINUOUS
 70
0
 71
3
 72
14
 73
10
 74
0
 42
0.0000001
 43
0.0000001
 44
0.0000000001
 40
0.0
 40
0.0
 40
0.0
 40
0.0
 40
0.1114603901
 40
0.2262261298
 40
0.3447184294
 40
0.4673064156
 40
0.7252095085
 40
0.8607318927
 40
1.0
 40
1.0
 40
1.0
 40
1.0
 10
6.70456668
 20
9.6452099052
 30
0.0
 10
6.7030883809
 20
9.6446731308
 30
0.0
 10
6.7001576525
 20
9.6433821399
 30
0.0
 10
6.6959739608
 20
9.6408793665
 30
0.0
 10
6.6919881472
 20
9.6378071703
 30
0.0
 10
6.6869058105
 20
9.6329185053
 30
0.0
 10
6.6824695783
 20
9.6270775046
 30
0.0
 10
6.6787455754
 20
9.6205426086
 30
0.0
 10
6.6771114489
 20
9.6170200903
 30
0.0
 10
6.6763555968
 20
9.6152061607
 30
0.0
  0
SPLINE
  5
4BB
100
AcDbEntity
  8
0
100
AcDbSpline
 62
7
  6
CONTINUOUS
 70
0
 71
3
 72
19
 73
15
 74
0
 42
0.0000001
 43
0.0000001
 44
0.0000000001
 40
0.0
 40
0.0
 40
0.0
 40
0.0
 40
0.0555708211
 40
0.111679152
 40
0.1685189552
 40
0.226315898
 40
0.2852484831
 40
0.3454179287
 40
0.4068526753
 40
0.4695332557
 40
0.5982194318
 40
0.7305210429
 40
0.8650306866
 40
1.0
 40
1.0
 40
1.0
 40
1.0
 10
6.70456668
 20
9.6452099052
 30
0.0
 10
6.702717427
 20
9.6450485321
 30
0.0
 10
6.6990176938
 20
9.6444900765
 30
0.0
 10
6.6935809665
 20
9.6429830836
 30
0.0
 10
6.6882878153
 20
9.6408253733
 30
0.0
 10
6.6831828867
 20
9.6380534993
 30
0.0
 10
6.6783025382
 20
9.6347041096
 30
0.0
 10
6.6736794307
 20
9.6308178454
 30
0.0
 10
6.6693441704
 20
9.626435782
 30
0.0
 10
6.6639381039
 20
9.6199372823
 30
0.0
 10
6.6580551303
 20
9.6108114248
 30
0.0
 10
6.6525358275
 20
9.5987646252
 30
0.0
 10
6.6485794166
 20
9.5859037018
 30
0.0
 10
6.6469963233
 20
9.5770169426
 30
0.0
 10
6.6464673384
 20
9.5725395851
 30
0.0
  0
SPLINE
  5
4BC
100
AcDbEntity
  8
0
100
AcDbSpline
 62
7
  6
CONTINUOUS
 70
0
 71
3
 72
65
 73
61
 74
0
 42
0.0000001
 43
0.0000001
 44
0.0000000001
 40
0.0
 40
0.0
 40
0.0
 40
0.0
 40
0.0029522037
 40
0.0059302237
 40
0.0089576408
 40
0.012056781
 40
0.0185461936
 40
0.0255471654
 40
0.0331700509
 40
0.0414961608
 40
0.0505824238
 40
0.0604644106
 40
0.0711640181
 40
0.0826918012
 40
0.0950476665
 40
0.1082256692
 40
0.1222135775
 40
0.1369927553
 40
0.1525417872
 40
0.1688349946
 40
0.1858424656
 40
0.2035327936
 40
0.2218712307
 40
0.2408200919
 40
0.2603407895
 40
0.280392023
 40
0.3219111295
 40
0.3650184693
 40
0.4093338795
 40
0.454462342
 40
0.4999998377
 40
0.5455373165
 40
0.5906657382
 40
0.6349811074
 40
0.678088431
 40
0.7196075315
 40
0.7396587671
 40
0.7591794518
 40
0.7781283039
 40
0.7964667253
 40
0.814157019
 40
0.8311644714
 40
0.8474576612
 40
0.8630066681
 40
0.8777858614
 40
0.8917737933
 40
0.9049518146
 40
0.9173077425
 40
0.9288355894
 40
0.9395352467
 40
0.949417305
 40
0.9585036266
 40
0.9668297792
 40
0.9744527196
 40
0.9814537413
 40
0.9879431908
 40
0.9910423439
 40
0.9940697698
 40
0.9970477948
 40
1.0
 40
1.0
 40
1.0
 40
1.0
 10
11.3336923427
 20
9.187251412
 30
0.0
 10
11.3336923427
 20
9.1880902698
 30
0.0
 10
11.3336118543
 20
9.1897764004
 30
0.0
 10
11.3332509323
 20
9.1922994857
 30
0.0
 10
11.3326502466
 20
9.1948195528
 30
0.0
 10
11.3315139135
 20
9.1982236529
 30
0.0
 10
11.3294548357
 20
9.2024881823
 30
0.0
 10
11.3260760708
 20
9.2074663597
 30
0.0
 10
11.321768829
 20
9.2123811874
 30
0.0
 10
11.3165452182
 20
9.2172255252
 30
0.0
 10
11.3104170818
 20
9.2219921697
 30
0.0
 10
11.303398849
 20
9.2266735405
 30
0.0
 10
11.2955055141
 20
9.2312592958
 30
0.0
 10
11.2867546965
 20
9.2357387427
 30
0.0
 10
11.2771669914
 20
9.2401027315
 30
0.0
 10
11.2667643393
 20
9.2443403166
 30
0.0
 10
11.2555711465
 20
9.2484412125
 30
0.0
 10
11.2436141679
 20
9.2523963934
 30
0.0
 10
11.2309216179
 20
9.256195553
 30
0.0
 10
11.2175238067
 20
9.2598294707
 30
0.0
 10
11.2034529412
 20
9.2632900125
 30
0.0
 10
11.1887425911
 20
9.2665680659
 30
0.0
 10
11.1734280826
 20
9.2696558219
 30
0.0
 10
11.1575462898
 20
9.2725462954
 30
0.0
 10
11.1411352434
 20
9.2752318071
 30
0.0
 10
11.1183356417
 20
9.2785695519
 30
0.0
 10
11.0888047664
 20
9.2821648553
 30
0.0
 10
11.0523163151
 20
9.2855272632
 30
0.0
 10
11.0147259772
 20
9.2879525539
 30
0.0
 10
10.9763952518
 20
9.2894174817
 30
0.0
 10
10.9376924889
 20
9.289907538
 30
0.0
 10
10.8989897375
 20
9.2894174907
 30
0.0
 10
10.8606590398
 20
9.2879525697
 30
0.0
 10
10.8230687294
 20
9.2855272881
 30
0.0
 10
10.7865802943
 20
9.2821648984
 30
0.0
 10
10.7570494247
 20
9.2785695975
 30
0.0
 10
10.7342498254
 20
9.2752318688
 30
0.0
 10
10.7178387846
 20
9.2725463577
 30
0.0
 10
10.7019570007
 20
9.2696558958
 30
0.0
 10
10.686642506
 20
9.2665681558
 30
0.0
 10
10.6719321751
 20
9.2632901058
 30
0.0
 10
10.6578613254
 20
9.259829584
 30
0.0
 10
10.6444635265
 20
9.2561956872
 30
0.0
 10
10.6317709845
 20
9.2523965277
 30
0.0
 10
10.6198139949
 20
9.2484413681
 30
0.0
 10
10.6086207785
 20
9.2443404881
 30
0.0
 10
10.5982180996
 20
9.2401028903
 30
0.0
 10
10.5886303452
 20
9.2357389111
 30
0.0
 10
10.5798794717
 20
9.2312594623
 30
0.0
 10
10.5719860927
 20
9.2266736786
 30
0.0
 10
10.5649678001
 20
9.2219923064
 30
0.0
 10
10.5588396081
 20
9.217225652
 30
0.0
 10
10.5536159625
 20
9.2123812866
 30
0.0
 10
10.5493086769
 20
9.2074664419
 30
0.0
 10
10.5459298809
 20
9.2024882357
 30
0.0
 10
10.5438707939
 20
9.1982236793
 30
0.0
 10
10.5427344502
 20
9.1948195653
 30
0.0
 10
10.5421337586
 20
9.1922994918
 30
0.0
 10
10.5417728323
 20
9.1897764027
 30
0.0
 10
10.5416923427
 20
9.1880902702
 30
0.0
 10
10.5416923427
 20
9.187251412
 30
0.0
  0
SPLINE
  5
4BD
100
AcDbEntity
  8
0
100
AcDbSpline
 62
7
  6
CONTINUOUS
 70
0
 71
3
 72
65
 73
61
 74
0
 42
0.0000001
 43
0.0000001
 44
0.0000000001
 40
0.0
 40
0.0
 40
0.0
 40
0.0
 40
0.0029523832
 40
0.0059305126
 40
0.0089579708
 40
0.0120570933
 40
0.0185463581
 40
0.025547127
 40
0.0331698978
 40
0.0414962307
 40
0.0505824536
 40
0.0604643215
 40
0.0711641714
 40
0.0826917712
 40
0.0950475425
 40
0.1082258944
 40
0.1222135437
 40
0.1369926878
 40
0.1525420146
 40
0.1688348836
 40
0.1858424318
 40
0.2035329662
 40
0.2218710548
 40
0.2408200965
 40
0.2603408877
 40
0.2803918235
 40
0.3219112093
 40
0.3650186292
 40
0.409333965
 40
0.4544625983
 40
0.5000001002
 40
0.5455375666
 40
0.5906661035
 40
0.6349813194
 40
0.678088628
 40
0.7196079274
 40
0.7396588325
 40
0.7591795964
 40
0.7781286051
 40
0.7964666705
 40
0.8141571784
 40
0.8311646947
 40
0.8474575514
 40
0.8630068622
 40
0.8777860008
 40
0.8917736735
 40
0.9049520397
 40
0.9173078478
 40
0.9288355035
 40
0.9395353924
 40
0.949417314
 40
0.9585035893
 40
0.9668299556
 40
0.9744527701
 40
0.981453582
 40
0.9879428802
 40
0.9910420147
 40
0.9940694812
 40
0.9970476154
 40
1.0
 40
1.0
 40
1.0
 40
1.0
 10
11.4001923427
 20
9.5301550803
 30
0.0
 10
11.4001923427
 20
9.5311348667
 30
0.0
 10
11.4000983549
 20
9.533104244
 30
0.0
 10
11.3996768673
 20
9.5360511468
 30
0.0
 10
11.3989753457
 20
9.5389944616
 30
0.0
 10
11.3976482284
 20
9.5429701851
 30
0.0
 10
11.3952431599
 20
9.5479506236
 30
0.0
 10
11.3912970726
 20
9.5537646187
 30
0.0
 10
11.3862666449
 20
9.5595048737
 30
0.0
 10
11.3801656444
 20
9.565162546
 30
0.0
 10
11.3730085723
 20
9.5707298672
 30
0.0
 10
11.3648118414
 20
9.5761975608
 30
0.0
 10
11.3555927708
 20
9.5815529928
 30
0.0
 10
11.3453725722
 20
9.586784895
 30
0.0
 10
11.334174817
 20
9.5918818263
 30
0.0
 10
11.3220251142
 20
9.5968306738
 30
0.0
 10
11.308952368
 20
9.6016205818
 30
0.0
 10
11.2949874461
 20
9.6062399375
 30
0.0
 10
11.2801633753
 20
9.6106767587
 30
0.0
 10
11.2645157724
 20
9.6149213067
 30
0.0
 10
11.2480819688
 20
9.6189628185
 30
0.0
 10
11.2309012981
 20
9.6227911487
 30
0.0
 10
11.2130151008
 20
9.6263978369
 30
0.0
 10
11.1944662554
 20
9.6297734108
 30
0.0
 10
11.1752993149
 20
9.6329098551
 30
0.0
 10
11.1486710195
 20
9.6368084995
 30
0.0
 10
11.1141809681
 20
9.6410071903
 30
0.0
 10
11.0715649384
 20
9.6449341909
 30
0.0
 10
11.0276620371
 20
9.6477670999
 30
0.0
 10
10.9828944101
 20
9.649477913
 30
0.0
 10
10.9376922576
 20
9.6500499875
 30
0.0
 10
10.892490137
 20
9.6494779107
 30
0.0
 10
10.8477225938
 20
9.6477670953
 30
0.0
 10
10.8038198009
 20
9.6449341954
 30
0.0
 10
10.761203876
 20
9.6410072062
 30
0.0
 10
10.7267138995
 20
9.6368085281
 30
0.0
 10
10.7000856506
 20
9.6329098969
 30
0.0
 10
10.6809187385
 20
9.6297734659
 30
0.0
 10
10.6623699205
 20
9.6263978962
 30
0.0
 10
10.6444837479
 20
9.6227912244
 30
0.0
 10
10.6273031015
 20
9.6189629099
 30
0.0
 10
10.6108693206
 20
9.6149214038
 30
0.0
 10
10.5952217319
 20
9.6106768803
 30
0.0
 10
10.5803976691
 20
9.6062400708
 30
0.0
 10
10.5664327454
 20
9.6016207191
 30
0.0
 10
10.5533599789
 20
9.5968308356
 30
0.0
 10
10.5412102511
 20
9.5918819833
 30
0.0
 10
10.5300124583
 20
9.5867850501
 30
0.0
 10
10.5197922053
 20
9.5815531575
 30
0.0
 10
10.5105730927
 20
9.576197699
 30
0.0
 10
10.5023763103
 20
9.5707299974
 30
0.0
 10
10.4952191809
 20
9.5651626735
 30
0.0
 10
10.4891181464
 20
9.5595049743
 30
0.0
 10
10.484087678
 20
9.5537647027
 30
0.0
 10
10.4801415564
 20
9.5479506813
 30
0.0
 10
10.4777364798
 20
9.5429702141
 30
0.0
 10
10.4764093517
 20
9.5389944755
 30
0.0
 10
10.475707824
 20
9.5360511536
 30
0.0
 10
10.4752863319
 20
9.5331042466
 30
0.0
 10
10.4751923427
 20
9.5311348671
 30
0.0
 10
10.4751923427
 20
9.5301550803
 30
0.0
  0
SPLINE
  5
4BE
100
AcDbEntity
  8
0
100
AcDbSpline
 62
7
  6
CONTINUOUS
 70
0
 71
3
 72
57
 73
53
 74
0
 42
0.0000001
 43
0.0000001
 44
0.0000000001
 40
0.0
 40
0.0
 40
0.0
 40
0.0
 40
0.0076029195
 40
0.015505724
 40
0.0237938378
 40
0.0325264389
 40
0.0417686623
 40
0.0515791401
 40
0.0620029699
 40
0.0730660892
 40
0.0847813811
 40
0.0971570094
 40
0.110194286
 40
0.1238865126
 40
0.1382243552
 40
0.1531952146
 40
0.1687802717
 40
0.1849586676
 40
0.2017081019
 40
0.219002177
 40
0.2551093211
 40
0.2930379714
 40
0.3325191006
 40
0.3732640579
 40
0.4149701622
 40
0.4573227276
 40
0.5000004336
 40
0.5426781318
 40
0.5850306858
 40
0.6267367618
 40
0.667481685
 40
0.7069627783
 40
0.7448913648
 40
0.780998457
 40
0.798292489
 40
0.8150419006
 40
0.8312202633
 40
0.8468052707
 40
0.8617760973
 40
0.8761139059
 40
0.8898060685
 40
0.9028432996
 40
0.9152189207
 40
0.92693418
 40
0.9379972497
 40
0.9484210192
 40
0.958231374
 40
0.9674735065
 40
0.9762061964
 40
0.9844946337
 40
0.9923976027
 40
1.0
 40
1.0
 40
1.0
 40
1.0
 10
10.5135197814
 20
9.1796174667
 30
0.0
 10
10.5144840182
 20
9.1775621699
 30
0.0
 10
10.5167567652
 20
9.1735090959
 30
0.0
 10
10.5209924636
 20
9.16778625
 30
0.0
 10
10.5260460288
 20
9.1623061227
 30
0.0
 10
10.5318704306
 20
9.1570412333
 30
0.0
 10
10.538449883
 20
9.1519747387
 30
0.0
 10
10.5457748299
 20
9.1470844969
 30
0.0
 10
10.5538350543
 20
9.1423461862
 30
0.0
 10
10.5626232029
 20
9.1377493482
 30
0.0
 10
10.5721310579
 20
9.1332939654
 30
0.0
 10
10.5823464972
 20
9.1289800335
 30
0.0
 10
10.5932552466
 20
9.1248091975
 30
0.0
 10
10.6048406943
 20
9.1207848042
 30
0.0
 10
10.6170841389
 20
9.1169110622
 30
0.0
 10
10.6299648189
 20
9.1131926837
 30
0.0
 10
10.6434597947
 20
9.1096348777
 30
0.0
 10
10.6575442855
 20
9.1062435015
 30
0.0
 10
10.6721920798
 20
9.1030247208
 30
0.0
 10
10.6927322733
 20
9.0989110022
 30
0.0
 10
10.719610738
 20
9.0942666429
 30
0.0
 10
10.7531806789
 20
9.0895398099
 30
0.0
 10
10.7882479398
 20
9.0856199661
 30
0.0
 10
10.8245303621
 20
9.082537428
 30
0.0
 10
10.8617345162
 20
9.080317883
 30
0.0
 10
10.899558064
 20
9.0789788771
 30
0.0
 10
10.937692721
 20
9.0785310783
 30
0.0
 10
10.9758273742
 20
9.0789788989
 30
0.0
 10
11.0136509075
 20
9.080317912
 30
0.0
 10
11.050855038
 20
9.0825374841
 30
0.0
 10
11.0871374296
 20
9.0856200341
 30
0.0
 10
11.1222046498
 20
9.0895398848
 30
0.0
 10
11.1557745411
 20
9.0942667439
 30
0.0
 10
11.1826529588
 20
9.0989110976
 30
0.0
 10
11.2031931135
 20
9.1030248309
 30
0.0
 10
11.2178408779
 20
9.1062436097
 30
0.0
 10
11.2319253363
 20
9.1096349861
 30
0.0
 10
11.2454202745
 20
9.1131927991
 30
0.0
 10
11.258300917
 20
9.1169111818
 30
0.0
 10
11.2705443236
 20
9.1207849145
 30
0.0
 10
11.2821297301
 20
9.1248092958
 30
0.0
 10
11.293038444
 20
9.1289801273
 30
0.0
 10
11.3032538543
 20
9.1332940625
 30
0.0
 10
11.3127616786
 20
9.1377494474
 30
0.0
 10
11.3215497818
 20
9.1423462821
 30
0.0
 10
11.3296099214
 20
9.147084598
 30
0.0
 10
11.3369348288
 20
9.1519747488
 30
0.0
 10
11.343514282
 20
9.157041183
 30
0.0
 10
11.3493387284
 20
9.1623061716
 30
0.0
 10
11.3543923148
 20
9.1677865143
 30
0.0
 10
11.3586279862
 20
9.17350936
 30
0.0
 10
11.3609007336
 20
9.1775623111
 30
0.0
 10
11.3618649041
 20
9.1796174667
 30
0.0
  0
SPLINE
  5
4BF
100
AcDbEntity
  8
0
100
AcDbSpline
 62
7
  6
CONTINUOUS
 70
0
 71
3
 72
11
 73
7
 74
0
 42
0.0000001
 43
0.0000001
 44
0.0000000001
 40
0.0
 40
0.0
 40
0.0
 40
0.0
 40
0.2702751998
 40
0.5245691532
 40
0.7664300154
 40
1.0
 40
1.0
 40
1.0
 40
1.0
 10
10.496204075
 20
9.5659824077
 30
0.0
 10
10.4950738748
 20
9.5675401568
 30
0.0
 10
10.4930301128
 20
9.57067744
 30
0.0
 10
10.4906091653
 20
9.5755845584
 30
0.0
 10
10.4889448444
 20
9.5805239972
 30
0.0
 10
10.4883390654
 20
9.5838700955
 30
0.0
 10
10.4881705328
 20
9.5855247271
 30
0.0
  0
SPLINE
  5
4C0
100
AcDbEntity
  8
0
100
AcDbSpline
 62
9
  6
CONTINUOUS
 70
0
 71
3
 72
65
 73
61
 74
0
 42
0.0000001
 43
0.0000001
 44
0.0000000001
 40
0.0
 40
0.0
 40
0.0
 40
0.0
 40
0.0029537721
 40
0.0059372909
 40
0.0089738882
 40
0.0120856849
 40
0.0186104732
 40
0.0256581361
 40
0.0333357699
 40
0.0417210839
 40
0.050867924
 40
0.0608112698
 40
0.0715715329
 40
0.0831578776
 40
0.0955704788
 40
0.1088022304
 40
0.1228401556
 40
0.1376662838
 40
0.1532582904
 40
0.1695901998
 40
0.1866327963
 40
0.2043538763
 40
0.2227186767
 40
0.2416901365
 40
0.2612290184
 40
0.2812941998
 40
0.3228295193
 40
0.3659374572
 40
0.4102388287
 40
0.4553402125
 40
0.5008388346
 40
0.546327324
 40
0.5913984272
 40
0.635649722
 40
0.6786883768
 40
0.7201360412
 40
0.7401508404
 40
0.7596351778
 40
0.7785481108
 40
0.7968506019
 40
0.8145058116
 40
0.831479223
 40
0.8477389064
 40
0.8632559534
 40
0.8780047357
 40
0.8919633257
 40
0.9051142135
 40
0.9174449662
 40
0.9289491315
 40
0.9396276874
 40
0.9494908049
 40
0.9585601805
 40
0.9668724525
 40
0.9744836031
 40
0.9814740288
 40
0.9879540008
 40
0.9910491373
 40
0.9940733824
 40
0.9970491587
 40
1.0
 40
1.0
 40
1.0
 40
1.0
 10
11.3649753681
 20
9.1934861969
 30
0.0
 10
11.3649583493
 20
9.1943911256
 30
0.0
 10
11.3648375063
 20
9.1962096155
 30
0.0
 10
11.3643982784
 20
9.1989278365
 30
0.0
 10
11.3637011359
 20
9.2016417785
 30
0.0
 10
11.3624088768
 20
9.2053082303
 30
0.0
 10
11.3601063251
 20
9.2098983128
 30
0.0
 10
11.3563727324
 20
9.2152549448
 30
0.0
 10
11.3516409278
 20
9.2205432262
 30
0.0
 10
11.3459245449
 20
9.2257551402
 30
0.0
 10
11.339236775
 20
9.2308831494
 30
0.0
 10
11.3315924021
 20
9.2359177149
 30
0.0
 10
11.3230083542
 20
9.240848556
 30
0.0
 10
11.3135039253
 20
9.2456647448
 30
0.0
 10
11.3031008799
 20
9.2503552216
 30
0.0
 10
11.2918233893
 20
9.2549090098
 30
0.0
 10
11.2796978718
 20
9.2593152378
 30
0.0
 10
11.2667529365
 20
9.2635633051
 30
0.0
 10
11.2530193019
 20
9.2676430201
 30
0.0
 10
11.238529643
 20
9.2715445167
 30
0.0
 10
11.22331851
 20
9.275258324
 30
0.0
 10
11.2074222596
 20
9.2787754953
 30
0.0
 10
11.1908789183
 20
9.2820875265
 30
0.0
 10
11.1737280957
 20
9.2851863527
 30
0.0
 10
11.1560108558
 20
9.2880645638
 30
0.0
 10
11.1314057053
 20
9.2916396862
 30
0.0
 10
11.0995471303
 20
9.2954871372
 30
0.0
 10
11.0601947929
 20
9.299079567
 30
0.0
 10
11.0196685356
 20
9.3016633155
 30
0.0
 10
10.9783568347
 20
9.3032132111
 30
0.0
 10
10.9366554208
 20
9.3037140583
 30
0.0
 10
10.8949639442
 20
9.3031609169
 30
0.0
 10
10.8536819583
 20
9.301559239
 30
0.0
 10
10.813204902
 20
9.2989247282
 30
0.0
 10
10.7739207731
 20
9.2952830531
 30
0.0
 10
10.7421310535
 20
9.2913952965
 30
0.0
 10
10.7175901181
 20
9.2877887907
 30
0.0
 10
10.6999272511
 20
9.2848883437
 30
0.0
 10
10.6828349458
 20
9.2817680029
 30
0.0
 10
10.6663541237
 20
9.2784352298
 30
0.0
 10
10.6505242416
 20
9.2748981401
 30
0.0
 10
10.6353831633
 20
9.2711652858
 30
0.0
 10
10.6209670731
 20
9.2672456595
 30
0.0
 10
10.6073103384
 20
9.2631487753
 30
0.0
 10
10.5944454421
 20
9.2588845391
 30
0.0
 10
10.5824029008
 20
9.2544631783
 30
0.0
 10
10.571211111
 20
9.2498953235
 30
0.0
 10
10.5608962683
 20
9.2451918688
 30
0.0
 10
10.5514823117
 20
9.2403638016
 30
0.0
 10
10.5429907651
 20
9.2354221742
 30
0.0
 10
10.5354406783
 20
9.2303778811
 30
0.0
 10
10.5288487498
 20
9.2252411291
 30
0.0
 10
10.5232295741
 20
9.220021336
 30
0.0
 10
10.5185962772
 20
9.2147258747
 30
0.0
 10
10.5149625691
 20
9.2093626674
 30
0.0
 10
10.5127471411
 20
9.2047697451
 30
0.0
 10
10.5115245917
 20
9.2011032395
 30
0.0
 10
10.5108786115
 20
9.1983881911
 30
0.0
 10
10.5104906871
 20
9.1956692703
 30
0.0
 10
10.5104042555
 20
9.1938520887
 30
0.0
 10
10.5104042555
 20
9.1929478979
 30
0.0
  0
SPLINE
  5
4C1
100
AcDbEntity
  8
0
100
AcDbSpline
 62
9
  6
CONTINUOUS
 70
0
 71
3
 72
65
 73
61
 74
0
 42
0.0000001
 43
0.0000001
 44
0.0000000001
 40
0.0
 40
0.0
 40
0.0
 40
0.0
 40
0.0029537212
 40
0.005932462
 40
0.0089598514
 40
0.0120584111
 40
0.0185463735
 40
0.0255466605
 40
0.0331698194
 40
0.0414963916
 40
0.0505823787
 40
0.0604644296
 40
0.0711641731
 40
0.0826916522
 40
0.0950477614
 40
0.1082259274
 40
0.1222135247
 40
0.1369928915
 40
0.1525419718
 40
0.1688349081
 40
0.1858425815
 40
0.2035329266
 40
0.2218711834
 40
0.2408202612
 40
0.260340961
 40
0.280392106
 40
0.3219113973
 40
0.3650188125
 40
0.4093340903
 40
0.4544625561
 40
0.5
 40
0.5455374439
 40
0.5906659096
 40
0.6349811875
 40
0.6780886027
 40
0.7196078941
 40
0.739659039
 40
0.7591797388
 40
0.7781288166
 40
0.7964670734
 40
0.8141574185
 40
0.8311650918
 40
0.8474580282
 40
0.8630071085
 40
0.8777864752
 40
0.8917740726
 40
0.9049522387
 40
0.9173083477
 40
0.9288358269
 40
0.9395355704
 40
0.9494176213
 40
0.9585036084
 40
0.9668301806
 40
0.9744533395
 40
0.9814536266
 40
0.987941589
 40
0.9910401487
 40
0.994067538
 40
0.9970462788
 40
1.0
 40
1.0
 40
1.0
 40
1.0
 10
10.4751923427
 20
9.3514588025
 30
0.0
 10
10.4751923427
 20
9.3524390335
 30
0.0
 10
10.4752861882
 20
9.3544090598
 30
0.0
 10
10.4757073904
 20
9.3573566398
 30
0.0
 10
10.4764087986
 20
9.3602999909
 30
0.0
 10
10.4777362774
 20
9.3642749405
 30
0.0
 10
10.4801419104
 20
9.3692541867
 30
0.0
 10
10.4840872758
 20
9.3750680726
 30
0.0
 10
10.489117877
 20
9.3808082853
 30
0.0
 10
10.4952187631
 20
9.3864662418
 30
0.0
 10
10.5023756458
 20
9.3920339526
 30
0.0
 10
10.5105726746
 20
9.3975011274
 30
0.0
 10
10.5197916508
 20
9.4028566743
 30
0.0
 10
10.5300118073
 20
9.4080887806
 30
0.0
 10
10.5412097273
 20
9.4131853923
 30
0.0
 10
10.5533593424
 20
9.4181345532
 30
0.0
 10
10.5664321022
 20
9.4229244599
 30
0.0
 10
10.5803970919
 20
9.4275435524
 30
0.0
 10
10.5952210983
 20
9.4319806726
 30
0.0
 10
10.6108687317
 20
9.4362250985
 30
0.0
 10
10.6273025685
 20
9.4402665168
 30
0.0
 10
10.6444832328
 20
9.4440950958
 30
0.0
 10
10.6623694908
 20
9.4477015817
 30
0.0
 10
10.6809183767
 20
9.451077204
 30
0.0
 10
10.7000853588
 20
9.4542138059
 30
0.0
 10
10.7267137229
 20
9.4581121669
 30
0.0
 10
10.7612037967
 20
9.4623111466
 30
0.0
 10
10.8038198171
 20
9.4662380708
 30
0.0
 10
10.84772268
 20
9.4690708406
 30
0.0
 10
10.8924902402
 20
9.4707817437
 30
0.0
 10
10.9376923427
 20
9.4713538923
 30
0.0
 10
10.9828944453
 20
9.4707817437
 30
0.0
 10
11.0276620055
 20
9.4690708406
 30
0.0
 10
11.0715648684
 20
9.4662380708
 30
0.0
 10
11.1141808888
 20
9.4623111466
 30
0.0
 10
11.1486709625
 20
9.4581121669
 30
0.0
 10
11.1752993267
 20
9.4542138059
 30
0.0
 10
11.1944663088
 20
9.451077204
 30
0.0
 10
11.2130151947
 20
9.4477015817
 30
0.0
 10
11.2309014527
 20
9.4440950958
 30
0.0
 10
11.2480821169
 20
9.4402665168
 30
0.0
 10
11.2645159538
 20
9.4362250985
 30
0.0
 10
11.2801635872
 20
9.4319806726
 30
0.0
 10
11.2949875936
 20
9.4275435524
 30
0.0
 10
11.3089525833
 20
9.4229244599
 30
0.0
 10
11.322025343
 20
9.4181345531
 30
0.0
 10
11.3341749582
 20
9.4131853923
 30
0.0
 10
11.3453728781
 20
9.4080887806
 30
0.0
 10
11.3555930347
 20
9.4028566743
 30
0.0
 10
11.3648120109
 20
9.3975011274
 30
0.0
 10
11.3730090397
 20
9.3920339526
 30
0.0
 10
11.3801659224
 20
9.3864662417
 30
0.0
 10
11.3862668085
 20
9.3808082853
 30
0.0
 10
11.3912974097
 20
9.3750680725
 30
0.0
 10
11.3952427751
 20
9.3692541867
 30
0.0
 10
11.3976484081
 20
9.3642749405
 30
0.0
 10
11.3989758869
 20
9.3602999909
 30
0.0
 10
11.3996772951
 20
9.3573566398
 30
0.0
 10
11.4000984972
 20
9.3544090598
 30
0.0
 10
11.4001923427
 20
9.3524390335
 30
0.0
 10
11.4001923427
 20
9.3514588025
 30
0.0
  0
LINE
  5
4C2
100
AcDbEntity
  8
0
100
AcDbLine
 62
9
  6
CONTINUOUS
 10
11.3558607285
 20
9.187251412
 11
11.3558557747
 21
9.1877782219
  0
SPLINE
  5
4C3
100
AcDbEntity
  8
0
100
AcDbSpline
 62
9
  6
CONTINUOUS
 70
0
 71
3
 72
65
 73
61
 74
0
 42
0.0000001
 43
0.0000001
 44
0.0000000001
 40
0.0
 40
0.0
 40
0.0
 40
0.0
 40
0.0029493495
 40
0.0059244117
 40
0.0089486741
 40
0.0120443779
 40
0.0185258028
 40
0.0255169136
 40
0.0331277916
 40
0.0414396049
 40
0.0505092355
 40
0.0603722837
 40
0.0710507103
 40
0.08255516
 40
0.0948856631
 40
0.1080364087
 40
0.1219953101
 40
0.1367438968
 40
0.1522609236
 40
0.1685208945
 40
0.1854940934
 40
0.2031493116
 40
0.2214520111
 40
0.2403647204
 40
0.2598490672
 40
0.2798639805
 40
0.3213114598
 40
0.3643500703
 40
0.4086014969
 40
0.4536725721
 40
0.4991610819
 40
0.5446597014
 40
0.5897609985
 40
0.6340624322
 40
0.6771702794
 40
0.7187053827
 40
0.7387706688
 40
0.7583095399
 40
0.7772807634
 40
0.7956457525
 40
0.8133668054
 40
0.8304091707
 40
0.8467413482
 40
0.8623333094
 40
0.877159256
 40
0.8911975127
 40
0.9044291376
 40
0.9168415477
 40
0.9284282374
 40
0.9391884194
 40
0.9491317656
 40
0.9582789178
 40
0.9666638104
 40
0.9743412232
 40
0.981389626
 40
0.9879159021
 40
0.9910282771
 40
0.9940649023
 40
0.9970477161
 40
1.0
 40
1.0
 40
1.0
 40
1.0
 10
10.519523957
 20
9.187251412
 30
0.0
 10
10.519523957
 20
9.1881358563
 30
0.0
 10
10.5196086852
 20
9.18991359
 30
0.0
 10
10.5199886232
 20
9.1925737699
 30
0.0
 10
10.5206209608
 20
9.195230781
 30
0.0
 10
10.5218171283
 20
9.1988197457
 30
0.0
 10
10.5239845795
 20
9.2033159166
 30
0.0
 10
10.52754143
 20
9.2085649175
 30
0.0
 10
10.532075809
 20
9.2137473105
 30
0.0
 10
10.5375749845
 20
9.2188555841
 30
0.0
 10
10.5440265154
 20
9.2238821666
 30
0.0
 10
10.5514152517
 20
9.2288190924
 30
0.0
 10
10.5597254565
 20
9.2336554959
 30
0.0
 10
10.5689386387
 20
9.238380142
 30
0.0
 10
10.579033184
 20
9.242983411
 30
0.0
 10
10.5899860678
 20
9.2474537948
 30
0.0
 10
10.6017716735
 20
9.2517804798
 30
0.0
 10
10.6143619173
 20
9.255953972
 30
0.0
 10
10.6277271842
 20
9.2599634308
 30
0.0
 10
10.6418356571
 20
9.2637991554
 30
0.0
 10
10.6566535257
 20
9.2674525865
 30
0.0
 10
10.6721455488
 20
9.2709141356
 30
0.0
 10
10.6882746386
 20
9.2741755796
 30
0.0
 10
10.705002078
 20
9.2772295642
 30
0.0
 10
10.7222879358
 20
9.2800680038
 30
0.0
 10
10.7463050662
 20
9.2835974119
 30
0.0
 10
10.7774162143
 20
9.2874022974
 30
0.0
 10
10.8158618259
 20
9.2909663352
 30
0.0
 10
10.8554749678
 20
9.2935444393
 30
0.0
 10
10.8958758622
 20
9.2951119716
 30
0.0
 10
10.9366774705
 20
9.2956534557
 30
0.0
 10
10.9774887867
 20
9.2951631547
 30
0.0
 10
11.0179187167
 20
9.2936463056
 30
0.0
 10
11.057579957
 20
9.2911178878
 30
0.0
 10
11.0960922788
 20
9.2876020624
 30
0.0
 10
11.1272707871
 20
9.283836627
 30
0.0
 10
11.1513507458
 20
9.2803379492
 30
0.0
 10
11.1686898033
 20
9.277521272
 30
0.0
 10
11.1854744977
 20
9.2744883558
 30
0.0
 10
11.2016647544
 20
9.2712472267
 30
0.0
 10
11.2172217073
 20
9.2678051747
 30
0.0
 10
11.2321081183
 20
9.2641704054
 30
0.0
 10
11.2462885749
 20
9.2603524439
 30
0.0
 10
11.2597290908
 20
9.2563597883
 30
0.0
 10
11.2723976763
 20
9.2522021429
 30
0.0
 10
11.2842645077
 20
9.247890283
 30
0.0
 10
11.2953012885
 20
9.2434336533
 30
0.0
 10
11.3054822042
 20
9.2388430965
 30
0.0
 10
11.3147839806
 20
9.2341300722
 30
0.0
 10
11.3231847594
 20
9.2293041971
 30
0.0
 10
11.3306658346
 20
9.2243767909
 30
0.0
 10
11.33721121
 20
9.2193587535
 30
0.0
 10
11.3428055511
 20
9.2142581635
 30
0.0
 10
11.3474363798
 20
9.2090827787
 30
0.0
 10
11.3510910164
 20
9.2038401916
 30
0.0
 10
11.3533437701
 20
9.1993467657
 30
0.0
 10
11.3546081844
 20
9.1957578351
 30
0.0
 10
11.355290596
 20
9.193101901
 30
0.0
 10
11.3557207331
 20
9.1904424049
 30
0.0
 10
11.3558391275
 20
9.1886633896
 30
0.0
 10
11.3558557747
 20
9.1877782219
 30
0.0
  0
SPLINE
  5
4C4
100
AcDbEntity
  8
0
100
AcDbSpline
 62
7
  6
CONTINUOUS
 70
0
 71
3
 72
65
 73
61
 74
0
 42
0.0000001
 43
0.0000001
 44
0.0000000001
 40
0.0
 40
0.0
 40
0.0
 40
0.0
 40
0.0029522037
 40
0.0059302237
 40
0.0089576408
 40
0.012056781
 40
0.0185461936
 40
0.0255471654
 40
0.0331700509
 40
0.0414961608
 40
0.0505824238
 40
0.0604644106
 40
0.0711640181
 40
0.0826918012
 40
0.0950476665
 40
0.1082256692
 40
0.1222135775
 40
0.1369927553
 40
0.1525417872
 40
0.1688349946
 40
0.1858424656
 40
0.2035327936
 40
0.2218712307
 40
0.2408200919
 40
0.2603407895
 40
0.280392023
 40
0.3219111295
 40
0.3650184693
 40
0.4093338795
 40
0.454462342
 40
0.4999998377
 40
0.5455373165
 40
0.5906657382
 40
0.6349811074
 40
0.678088431
 40
0.7196075315
 40
0.7396587671
 40
0.7591794518
 40
0.7781283039
 40
0.7964667253
 40
0.814157019
 40
0.8311644714
 40
0.8474576612
 40
0.8630066681
 40
0.8777858614
 40
0.8917737933
 40
0.9049518146
 40
0.9173077425
 40
0.9288355894
 40
0.9395352467
 40
0.949417305
 40
0.9585036266
 40
0.9668297792
 40
0.9744527196
 40
0.9814537413
 40
0.9879431908
 40
0.9910423439
 40
0.9940697698
 40
0.9970477948
 40
1.0
 40
1.0
 40
1.0
 40
1.0
 10
10.5416923427
 20
9.187251412
 30
0.0
 10
10.5416923427
 20
9.1864125542
 30
0.0
 10
10.5417728311
 20
9.1847264236
 30
0.0
 10
10.5421337532
 20
9.1822033383
 30
0.0
 10
10.5427344389
 20
9.1796832712
 30
0.0
 10
10.543870772
 20
9.1762791711
 30
0.0
 10
10.5459298497
 20
9.1720146417
 30
0.0
 10
10.5493086147
 20
9.1670364643
 30
0.0
 10
10.5536158565
 20
9.1621216366
 30
0.0
 10
10.5588394673
 20
9.1572772988
 30
0.0
 10
10.5649676037
 20
9.1525106543
 30
0.0
 10
10.5719858365
 20
9.1478292835
 30
0.0
 10
10.5798791714
 20
9.1432435282
 30
0.0
 10
10.588629989
 20
9.1387640813
 30
0.0
 10
10.5982176941
 20
9.1344000924
 30
0.0
 10
10.6086203462
 20
9.1301625073
 30
0.0
 10
10.619813539
 20
9.1260616115
 30
0.0
 10
10.6317705176
 20
9.1221064306
 30
0.0
 10
10.6444630676
 20
9.118307271
 30
0.0
 10
10.6578608787
 20
9.1146733533
 30
0.0
 10
10.6719317443
 20
9.1112128114
 30
0.0
 10
10.6866420944
 20
9.1079347581
 30
0.0
 10
10.7019566029
 20
9.1048470021
 30
0.0
 10
10.7178383957
 20
9.1019565286
 30
0.0
 10
10.7342494421
 20
9.0992710169
 30
0.0
 10
10.7570490438
 20
9.095933272
 30
0.0
 10
10.786579919
 20
9.0923379687
 30
0.0
 10
10.8230683704
 20
9.0889755608
 30
0.0
 10
10.8606587082
 20
9.0865502701
 30
0.0
 10
10.8989894337
 20
9.0850853423
 30
0.0
 10
10.9376921965
 20
9.084595286
 30
0.0
 10
10.9763949479
 20
9.0850853333
 30
0.0
 10
11.0147256456
 20
9.0865502543
 30
0.0
 10
11.0523159561
 20
9.0889755358
 30
0.0
 10
11.0888043911
 20
9.0923379256
 30
0.0
 10
11.1183352608
 20
9.0959332265
 30
0.0
 10
11.1411348601
 20
9.0992709552
 30
0.0
 10
11.1575459009
 20
9.1019564663
 30
0.0
 10
11.1734276848
 20
9.1048469282
 30
0.0
 10
11.1887421794
 20
9.1079346682
 30
0.0
 10
11.2034525104
 20
9.1112127181
 30
0.0
 10
11.2175233601
 20
9.11467324
 30
0.0
 10
11.230921159
 20
9.1183071368
 30
0.0
 10
11.243613701
 20
9.1221062963
 30
0.0
 10
11.2555706906
 20
9.1260614559
 30
0.0
 10
11.266763907
 20
9.1301623359
 30
0.0
 10
11.2771665859
 20
9.1343999337
 30
0.0
 10
11.2867543402
 20
9.1387639129
 30
0.0
 10
11.2955052138
 20
9.1432433617
 30
0.0
 10
11.3033985928
 20
9.1478291454
 30
0.0
 10
11.3104168854
 20
9.1525105176
 30
0.0
 10
11.3165450774
 20
9.157277172
 30
0.0
 10
11.321768723
 20
9.1621215374
 30
0.0
 10
11.3260760085
 20
9.1670363821
 30
0.0
 10
11.3294548046
 20
9.1720145883
 30
0.0
 10
11.3315138916
 20
9.1762791447
 30
0.0
 10
11.3326502353
 20
9.1796832587
 30
0.0
 10
11.3332509268
 20
9.1822033322
 30
0.0
 10
11.3336118532
 20
9.1847264213
 30
0.0
 10
11.3336923427
 20
9.1864125538
 30
0.0
 10
11.3336923427
 20
9.187251412
 30
0.0
  0
LINE
  5
4C5
100
AcDbEntity
  8
0
100
AcDbLine
 62
9
  6
CONTINUOUS
 10
10.519523957
 20
9.187251412
 11
10.5195289108
 21
9.1867246021
  0
SPLINE
  5
4C6
100
AcDbEntity
  8
0
100
AcDbSpline
 62
9
  6
CONTINUOUS
 70
0
 71
3
 72
11
 73
7
 74
0
 42
0.0000001
 43
0.0000001
 44
0.0000000001
 40
0.0
 40
0.0
 40
0.0
 40
0.0
 40
0.260267148
 40
0.5118585967
 40
0.7574721483
 40
1.0
 40
1.0
 40
1.0
 40
1.0
 10
11.3618649051
 20
9.1796174667
 30
0.0
 10
11.362373208
 20
9.180700933
 30
0.0
 10
11.3632721997
 20
9.1828811953
 30
0.0
 10
11.3642566884
 20
9.1862291729
 30
0.0
 10
11.3648484357
 20
9.1895859571
 30
0.0
 10
11.3649804299
 20
9.1918326925
 30
0.0
 10
11.3649804299
 20
9.1929478979
 30
0.0
  0
SPLINE
  5
4C7
100
AcDbEntity
  8
0
100
AcDbSpline
 62
9
  6
CONTINUOUS
 70
0
 71
3
 72
11
 73
7
 74
0
 42
0.0000001
 43
0.0000001
 44
0.0000000001
 40
0.0
 40
0.0
 40
0.0
 40
0.0
 40
0.242441197
 40
0.4881894265
 40
0.7398876304
 40
1.0
 40
1.0
 40
1.0
 40
1.0
 10
10.5104093174
 20
9.192409599
 30
0.0
 10
10.5104294629
 20
9.191338419
 30
0.0
 10
10.5105918023
 20
9.189181869
 30
0.0
 10
10.5111971847
 20
9.1859624691
 30
0.0
 10
10.5121638845
 20
9.1827512403
 30
0.0
 10
10.5130315736
 20
9.180658097
 30
0.0
 10
10.5135197813
 20
9.1796174667
 30
0.0
  0
SPLINE
  5
4C8
100
AcDbEntity
  8
0
100
AcDbSpline
 62
9
  6
CONTINUOUS
 70
0
 71
3
 72
65
 73
61
 74
0
 42
0.0000001
 43
0.0000001
 44
0.0000000001
 40
0.0
 40
0.0
 40
0.0
 40
0.0
 40
0.0029493495
 40
0.0059244117
 40
0.0089486741
 40
0.0120443779
 40
0.0185258028
 40
0.0255169136
 40
0.0331277916
 40
0.0414396049
 40
0.0505092355
 40
0.0603722837
 40
0.0710507103
 40
0.08255516
 40
0.0948856631
 40
0.1080364087
 40
0.1219953101
 40
0.1367438968
 40
0.1522609236
 40
0.1685208945
 40
0.1854940934
 40
0.2031493116
 40
0.2214520111
 40
0.2403647204
 40
0.2598490672
 40
0.2798639805
 40
0.3213114598
 40
0.3643500703
 40
0.4086014969
 40
0.4536725721
 40
0.4991610819
 40
0.5446597014
 40
0.5897609985
 40
0.6340624322
 40
0.6771702794
 40
0.7187053827
 40
0.7387706688
 40
0.7583095399
 40
0.7772807634
 40
0.7956457525
 40
0.8133668054
 40
0.8304091707
 40
0.8467413482
 40
0.8623333094
 40
0.877159256
 40
0.8911975127
 40
0.9044291376
 40
0.9168415477
 40
0.9284282374
 40
0.9391884194
 40
0.9491317656
 40
0.9582789178
 40
0.9666638104
 40
0.9743412232
 40
0.981389626
 40
0.9879159021
 40
0.9910282771
 40
0.9940649023
 40
0.9970477161
 40
1.0
 40
1.0
 40
1.0
 40
1.0
 10
11.3558607285
 20
9.187251412
 30
0.0
 10
11.3558607285
 20
9.1863669677
 30
0.0
 10
11.3557760002
 20
9.1845892339
 30
0.0
 10
11.3553960622
 20
9.1819290541
 30
0.0
 10
11.3547637246
 20
9.179272043
 30
0.0
 10
11.3535675571
 20
9.1756830783
 30
0.0
 10
11.351400106
 20
9.1711869074
 30
0.0
 10
11.3478432555
 20
9.1659379065
 30
0.0
 10
11.3433088765
 20
9.1607555135
 30
0.0
 10
11.337809701
 20
9.1556472399
 30
0.0
 10
11.33135817
 20
9.1506206574
 30
0.0
 10
11.3239694338
 20
9.1456837316
 30
0.0
 10
11.315659229
 20
9.1408473281
 30
0.0
 10
11.3064460468
 20
9.136122682
 30
0.0
 10
11.2963515015
 20
9.1315194129
 30
0.0
 10
11.2853986177
 20
9.1270490292
 30
0.0
 10
11.273613012
 20
9.1227223441
 30
0.0
 10
11.2610227682
 20
9.118548852
 30
0.0
 10
11.2476575013
 20
9.1145393932
 30
0.0
 10
11.2335490284
 20
9.1107036686
 30
0.0
 10
11.2187311598
 20
9.1070502375
 30
0.0
 10
11.2032391366
 20
9.1035886884
 30
0.0
 10
11.1871100469
 20
9.1003272444
 30
0.0
 10
11.1703826075
 20
9.0972732598
 30
0.0
 10
11.1530967497
 20
9.0944348202
 30
0.0
 10
11.1290796193
 20
9.0909054121
 30
0.0
 10
11.0979684711
 20
9.0871005266
 30
0.0
 10
11.0595228596
 20
9.0835364888
 30
0.0
 10
11.0199097177
 20
9.0809583847
 30
0.0
 10
10.9795088233
 20
9.0793908524
 30
0.0
 10
10.9387072149
 20
9.0788493683
 30
0.0
 10
10.8978958988
 20
9.0793396692
 30
0.0
 10
10.8574659688
 20
9.0808565184
 30
0.0
 10
10.8178047285
 20
9.0833849361
 30
0.0
 10
10.7792924067
 20
9.0869007616
 30
0.0
 10
10.7481138984
 20
9.090666197
 30
0.0
 10
10.7240339397
 20
9.0941648748
 30
0.0
 10
10.7066948822
 20
9.096981552
 30
0.0
 10
10.6899101878
 20
9.1000144682
 30
0.0
 10
10.6737199311
 20
9.1032555973
 30
0.0
 10
10.6581629782
 20
9.1066976493
 30
0.0
 10
10.6432765672
 20
9.1103324186
 30
0.0
 10
10.6290961106
 20
9.1141503801
 30
0.0
 10
10.6156555946
 20
9.1181430357
 30
0.0
 10
10.6029870092
 20
9.122300681
 30
0.0
 10
10.5911201778
 20
9.126612541
 30
0.0
 10
10.580083397
 20
9.1310691707
 30
0.0
 10
10.5699024813
 20
9.1356597275
 30
0.0
 10
10.5606007048
 20
9.1403727518
 30
0.0
 10
10.5521999261
 20
9.1451986269
 30
0.0
 10
10.5447188508
 20
9.1501260331
 30
0.0
 10
10.5381734755
 20
9.1551440705
 30
0.0
 10
10.5325791344
 20
9.1602446605
 30
0.0
 10
10.5279483056
 20
9.1654200453
 30
0.0
 10
10.5242936691
 20
9.1706626324
 30
0.0
 10
10.5220409154
 20
9.1751560583
 30
0.0
 10
10.5207765011
 20
9.1787449888
 30
0.0
 10
10.5200940894
 20
9.181400923
 30
0.0
 10
10.5196639524
 20
9.1840604191
 30
0.0
 10
10.519545558
 20
9.1858394344
 30
0.0
 10
10.5195289108
 20
9.1867246021
 30
0.0
  0
SPLINE
  5
4C9
100
AcDbEntity
  8
0
100
AcDbSpline
 62
7
  6
CONTINUOUS
 70
0
 71
3
 72
11
 73
7
 74
0
 42
0.0000001
 43
0.0000001
 44
0.0000000001
 40
0.0
 40
0.0
 40
0.0
 40
0.0
 40
0.2414318136
 40
0.4864471523
 40
0.7383082261
 40
1.0
 40
1.0
 40
1.0
 40
1.0
 10
11.3776923427
 20
9.5784513716
 30
0.0
 10
11.3776923427
 20
9.5796799969
 30
0.0
 10
11.3775361285
 20
9.5821581696
 30
0.0
 10
11.3768369322
 20
9.5858587224
 30
0.0
 10
11.3756750122
 20
9.5895486654
 30
0.0
 10
11.3746171438
 20
9.5919446639
 30
0.0
 10
11.3740194713
 20
9.5931347407
 30
0.0
  0
SPLINE
  5
4CA
100
AcDbEntity
  8
0
100
AcDbSpline
 62
7
  6
CONTINUOUS
 70
0
 71
3
 72
11
 73
7
 74
0
 42
0.0000001
 43
0.0000001
 44
0.0000000001
 40
0.0
 40
0.0
 40
0.0
 40
0.0
 40
0.2615329835
 40
0.5133671758
 40
0.7584502825
 40
1.0
 40
1.0
 40
1.0
 40
1.0
 10
10.5013102853
 20
9.5930249493
 30
0.0
 10
10.500721382
 20
9.5918433383
 30
0.0
 10
10.4996791496
 20
9.5894645283
 30
0.0
 10
10.4985347787
 20
9.5858023696
 30
0.0
 10
10.497846178
 20
9.5821299007
 30
0.0
 10
10.4976923427
 20
9.5796707269
 30
0.0
 10
10.4976923427
 20
9.5784513716
 30
0.0
  0
LINE
  5
4CB
100
AcDbEntity
  8
0
100
AcDbLine
 62
7
  6
CONTINUOUS
 10
6.9376923427
 20
8.0819232071
 11
6.9376923427
 21
8.8943469301
  0
LINE
  5
4CC
100
AcDbEntity
  8
0
100
AcDbLine
 62
7
  6
CONTINUOUS
 10
14.9376923427
 20
8.0819232071
 11
14.9376923427
 21
8.8943469301
  0
SPLINE
  5
4CD
100
AcDbEntity
  8
0
100
AcDbSpline
 62
7
  6
CONTINUOUS
 70
0
 71
3
 72
9
 73
5
 74
0
 42
0.0000001
 43
0.0000001
 44
0.0000000001
 40
0.0
 40
0.0
 40
0.0
 40
0.0
 40
0.2447386903
 40
1.0
 40
1.0
 40
1.0
 40
1.0
 10
11.8875952626
 20
8.7868051616
 30
0.0
 10
11.887386636
 20
8.7875687178
 30
0.0
 10
11.8864825442
 20
8.7906740018
 30
0.0
 10
11.8853625856
 20
8.793718553
 30
0.0
 10
11.8843773245
 20
8.7959537361
 30
0.0
  0
LINE
  5
4CE
100
AcDbEntity
  8
0
100
AcDbLine
 62
7
  6
CONTINUOUS
 10
11.8843773245
 20
8.7959537361
 11
11.8824193652
 21
8.7999480372
  0
LINE
  5
4CF
100
AcDbEntity
  8
0
100
AcDbLine
 62
7
  6
CONTINUOUS
 10
11.8614185932
 20
8.8393852206
 11
11.8600123776
 21
8.8420944245
  0
SPLINE
  5
4D0
100
AcDbEntity
  8
0
100
AcDbSpline
 62
7
  6
CONTINUOUS
 70
0
 71
3
 72
9
 73
5
 74
0
 42
0.0000001
 43
0.0000001
 44
0.0000000001
 40
0.0
 40
0.0
 40
0.0
 40
0.0
 40
0.250402562
 40
1.0
 40
1.0
 40
1.0
 40
1.0
 10
9.9929652956
 20
8.7999479891
 30
0.0
 10
9.9925977009
 20
8.7992733462
 30
0.0
 10
9.9911941145
 20
8.7965441576
 30
0.0
 10
9.9900242155
 20
8.7936975509
 30
0.0
 10
9.9892608698
 20
8.791527995
 30
0.0
  0
LINE
  5
4D1
100
AcDbEntity
  8
0
100
AcDbLine
 62
7
  6
CONTINUOUS
 10
11.8909422512
 20
8.7748304265
 11
11.8913179115
 21
8.7735194652
  0
LINE
  5
4D2
100
AcDbEntity
  8
0
100
AcDbLine
 62
7
  6
CONTINUOUS
 10
10.014173619
 20
8.8397863076
 11
10.0153545327
 21
8.8420616146
  0
SPLINE
  5
4D3
100
AcDbEntity
  8
0
100
AcDbSpline
 62
7
  6
CONTINUOUS
 70
0
 71
3
 72
20
 73
16
 74
0
 42
0.0000001
 43
0.0000001
 44
0.0000000001
 40
0.0
 40
0.0
 40
0.0
 40
0.0
 40
0.039138515
 40
0.0791418069
 40
0.120808428
 40
0.1648343604
 40
0.2117997327
 40
0.2621731724
 40
0.3163258202
 40
0.3745483898
 40
0.5039746904
 40
0.6513822493
 40
0.7318729288
 40
0.8168425941
 40
1.0
 40
1.0
 40
1.0
 40
1.0
 10
11.5181923427
 20
9.5301495571
 30
0.0
 10
11.518192355
 20
9.5281249882
 30
0.0
 10
11.5178695491
 20
9.5240243298
 30
0.0
 10
11.5164302043
 20
9.517920775
 30
0.0
 10
11.5140458019
 20
9.5118498528
 30
0.0
 10
11.5107283523
 20
9.5058237501
 30
0.0
 10
11.5064879096
 20
9.4998492496
 30
0.0
 10
11.5013321239
 20
9.4939329834
 30
0.0
 10
11.4952670085
 20
9.4880812111
 30
0.0
 10
11.4856303975
 20
9.4800917138
 30
0.0
 10
11.4712042204
 20
9.47040798
 30
0.0
 10
11.4549077407
 20
9.461641375
 30
0.0
 10
11.4402479647
 20
9.4547781613
 30
0.0
 10
11.4236579402
 20
9.4477014082
 30
0.0
 10
11.4106466005
 20
9.4428689212
 30
0.0
 10
11.4016870046
 20
9.4397882866
 30
0.0
  0
SPLINE
  5
4D4
100
AcDbEntity
  8
0
100
AcDbSpline
 62
7
  6
CONTINUOUS
 70
0
 71
3
 72
20
 73
16
 74
0
 42
0.0000001
 43
0.0000001
 44
0.0000000001
 40
0.0
 40
0.0
 40
0.0
 40
0.0
 40
0.1831560782
 40
0.2681252092
 40
0.3486154452
 40
0.4960224037
 40
0.625448512
 40
0.6836711462
 40
0.7378239667
 40
0.7881976851
 40
0.8351634368
 40
0.8791898388
 40
0.9208570022
 40
0.960860883
 40
1.0
 40
1.0
 40
1.0
 40
1.0
 10
10.4736976919
 20
9.4397898304
 30
0.0
 10
10.4647381055
 20
9.4428705632
 30
0.0
 10
10.4517267806
 20
9.4477031996
 30
0.0
 10
10.4351367832
 20
9.4547801571
 30
0.0
 10
10.4204770174
 20
9.4616435694
 30
0.0
 10
10.404180541
 20
9.4704104242
 30
0.0
 10
10.3897543782
 20
9.4800944136
 30
0.0
 10
10.3801177739
 20
9.4880841123
 30
0.0
 10
10.3740526539
 20
9.4939360356
 30
0.0
 10
10.3688968608
 20
9.4998524528
 30
0.0
 10
10.3646564079
 20
9.5058271042
 30
0.0
 10
10.3613389452
 20
9.5118533573
 30
0.0
 10
10.3589545266
 20
9.5179244291
 30
0.0
 10
10.3575151616
 20
9.5240281326
 30
0.0
 10
10.3571923393
 20
9.5281288906
 30
0.0
 10
10.3571923427
 20
9.5301535103
 30
0.0
  0
SPLINE
  5
4D5
100
AcDbEntity
  8
0
100
AcDbSpline
 62
7
  6
CONTINUOUS
 70
0
 71
3
 72
18
 73
14
 74
0
 42
0.0000001
 43
0.0000001
 44
0.0000000001
 40
0.0
 40
0.0
 40
0.0
 40
0.0
 40
0.1481365093
 40
0.2940395912
 40
0.435186252
 40
0.5694462673
 40
0.6947748303
 40
0.7534919095
 40
0.8092989273
 40
0.8620048245
 40
0.911440405
 40
0.9574753721
 40
1.0
 40
1.0
 40
1.0
 40
1.0
 10
10.9376923427
 20
9.6595646029
 30
0.0
 10
10.9159555954
 20
9.6595646029
 30
0.0
 10
10.8728062115
 20
9.6588365238
 30
0.0
 10
10.8090199477
 20
9.6555850775
 30
0.0
 10
10.7474174085
 20
9.6502232153
 30
0.0
 10
10.6890645095
 20
9.6428486403
 30
0.0
 10
10.6430053244
 20
9.6349817948
 30
0.0
 10
10.608569061
 20
9.627696001
 30
0.0
 10
10.5847118645
 20
9.6219384011
 30
0.0
 10
10.5623605493
 20
9.6157929741
 30
0.0
 10
10.5416096788
 20
9.6092832438
 30
0.0
 10
10.5225457969
 20
9.6024413325
 30
0.0
 10
10.5105288083
 20
9.5974777933
 30
0.0
 10
10.5048335795
 20
9.5949283059
 30
0.0
  0
SPLINE
  5
4D6
100
AcDbEntity
  8
0
100
AcDbSpline
 62
7
  6
CONTINUOUS
 70
0
 71
3
 72
11
 73
7
 74
0
 42
0.0000001
 43
0.0000001
 44
0.0000000001
 40
0.0
 40
0.0
 40
0.0
 40
0.0
 40
0.2812538357
 40
0.5413805854
 40
0.7807358022
 40
1.0
 40
1.0
 40
1.0
 40
1.0
 10
10.4923113642
 20
9.5889664894
 30
0.0
 10
10.488653748
 20
9.5871106519
 30
0.0
 10
10.4816968114
 20
9.5833692053
 30
0.0
 10
10.4719903277
 20
9.5774044219
 30
0.0
 10
10.4634445957
 20
9.5713207047
 30
0.0
 10
10.4583184113
 20
9.5670087479
 30
0.0
 10
10.4559779904
 20
9.5648301025
 30
0.0
  0
LINE
  5
4D7
100
AcDbEntity
  8
0
100
AcDbLine
 62
7
  6
CONTINUOUS
 10
11.3801487911
 20
9.5662353031
 11
11.3827101306
 21
9.5699919374
  0
LINE
  5
4D8
100
AcDbEntity
  8
0
100
AcDbLine
 62
7
  6
CONTINUOUS
 10
11.3827101306
 20
9.5699919374
 11
11.384728442
 21
9.5737337827
  0
SPLINE
  5
4D9
100
AcDbEntity
  8
0
100
AcDbSpline
 62
7
  6
CONTINUOUS
 70
0
 71
3
 72
9
 73
5
 74
0
 42
0.0000001
 43
0.0000001
 44
0.0000000001
 40
0.0
 40
0.0
 40
0.0
 40
0.0
 40
0.2552841249
 40
1.0
 40
1.0
 40
1.0
 40
1.0
 10
11.3859900311
 20
9.5767986387
 30
0.0
 10
11.3861834202
 20
9.577344283
 30
0.0
 10
11.3868831607
 20
9.5795015507
 30
0.0
 10
11.3873402992
 20
9.5817389198
 30
0.0
 10
11.3875249763
 20
9.5834175656
 30
0.0
  0
SPLINE
  5
4DA
100
AcDbEntity
  8
0
100
AcDbSpline
 62
7
  6
CONTINUOUS
 70
0
 71
3
 72
11
 73
7
 74
0
 42
0.0000001
 43
0.0000001
 44
0.0000000001
 40
0.0
 40
0.0
 40
0.0
 40
0.0
 40
0.2722233168
 40
0.522368544
 40
0.7609351225
 40
1.0
 40
1.0
 40
1.0
 40
1.0
 10
11.3986829279
 20
9.5411231776
 30
0.0
 10
11.4002382142
 20
9.5433094461
 30
0.0
 10
11.4029069926
 20
9.5477501022
 30
0.0
 10
11.4054363219
 20
9.5548714849
 30
0.0
 10
11.4062400621
 20
9.5620657398
 30
0.0
 10
11.4056170525
 20
9.5667837547
 30
0.0
 10
11.4050503696
 20
9.5690708214
 30
0.0
  0
SPLINE
  5
4DB
100
AcDbEntity
  8
0
100
AcDbSpline
 62
7
  6
CONTINUOUS
 70
0
 71
3
 72
9
 73
5
 74
0
 42
0.0000001
 43
0.0000001
 44
0.0000000001
 40
0.0
 40
0.0
 40
0.0
 40
0.0
 40
0.4868716221
 40
1.0
 40
1.0
 40
1.0
 40
1.0
 10
11.4050503696
 20
9.5690708214
 30
0.0
 10
11.4046506066
 20
9.5706842188
 30
0.0
 10
11.4035691813
 20
9.5739373506
 30
0.0
 10
11.4020460687
 20
9.577004745
 30
0.0
 10
11.4011746979
 20
9.578524485
 30
0.0
  0
SPLINE
  5
4DC
100
AcDbEntity
  8
0
100
AcDbSpline
 62
7
  6
CONTINUOUS
 70
0
 71
3
 72
9
 73
5
 74
0
 42
0.0000001
 43
0.0000001
 44
0.0000000001
 40
0.0
 40
0.0
 40
0.0
 40
0.0
 40
0.465666479
 40
1.0
 40
1.0
 40
1.0
 40
1.0
 10
11.4194067536
 20
9.5648301065
 30
0.0
 10
11.4155132457
 20
9.5684544691
 30
0.0
 10
11.4065049293
 20
9.5755464314
 30
0.0
 10
11.3967581027
 20
9.5815393989
 30
0.0
 10
11.3914306343
 20
9.5845182609
 30
0.0
  0
SPLINE
  5
4DD
100
AcDbEntity
  8
0
100
AcDbSpline
 62
7
  6
CONTINUOUS
 70
0
 71
3
 72
9
 73
5
 74
0
 42
0.0000001
 43
0.0000001
 44
0.0000000001
 40
0.0
 40
0.0
 40
0.0
 40
0.0
 40
0.2402931973
 40
1.0
 40
1.0
 40
1.0
 40
1.0
 10
11.3882725559
 20
9.5862504153
 30
0.0
 10
11.3869422005
 20
9.5869663374
 30
0.0
 10
11.3813765573
 20
9.5898912305
 30
0.0
 10
11.375701853
 20
9.5926067579
 30
0.0
 10
11.3713477432
 20
9.5945703247
 30
0.0
  0
SPLINE
  5
4DE
100
AcDbEntity
  8
0
100
AcDbSpline
 62
7
  6
CONTINUOUS
 70
0
 71
3
 72
9
 73
5
 74
0
 42
0.0000001
 43
0.0000001
 44
0.0000000001
 40
0.0
 40
0.0
 40
0.0
 40
0.0
 40
0.4800711877
 40
1.0
 40
1.0
 40
1.0
 40
1.0
 10
11.3713477432
 20
9.5945703247
 30
0.0
 10
11.3656801906
 20
9.597126213
 30
0.0
 10
11.3537164635
 20
9.6021026884
 30
0.0
 10
11.3415322194
 20
9.6065044962
 30
0.0
 10
11.3351555845
 20
9.6086671545
 30
0.0
  0
SPLINE
  5
4DF
100
AcDbEntity
  8
0
100
AcDbSpline
 62
7
  6
CONTINUOUS
 70
0
 71
3
 72
15
 73
11
 74
0
 42
0.0000001
 43
0.0000001
 44
0.0000000001
 40
0.0
 40
0.0
 40
0.0
 40
0.0
 40
0.0970753518
 40
0.2047804734
 40
0.3219936184
 40
0.4473941806
 40
0.5794972422
 40
0.7167659929
 40
0.8575844865
 40
1.0
 40
1.0
 40
1.0
 40
1.0
 10
11.3351555845
 20
9.6086671545
 30
0.0
 10
11.3228299294
 20
9.6128474441
 30
0.0
 10
11.2964928611
 20
9.6206848992
 30
0.0
 10
11.2544688109
 20
9.6306419448
 30
0.0
 10
11.2082911319
 20
9.6393087765
 30
0.0
 10
11.1585664949
 20
9.6465671017
 30
0.0
 10
11.105940716
 20
9.6523175349
 30
0.0
 10
11.0510935137
 20
9.6564834063
 30
0.0
 10
10.9947631172
 20
9.659000347
 30
0.0
 10
10.9567865075
 20
9.6595646029
 30
0.0
 10
10.9376923427
 20
9.6595646029
 30
0.0
  0
SPLINE
  5
4E0
100
AcDbEntity
  8
0
100
AcDbSpline
 62
7
  6
CONTINUOUS
 70
0
 71
3
 72
11
 73
7
 74
0
 42
0.0000001
 43
0.0000001
 44
0.0000000001
 40
0.0
 40
0.0
 40
0.0
 40
0.0
 40
0.2503906137
 40
0.4938109481
 40
0.7404230745
 40
1.0
 40
1.0
 40
1.0
 40
1.0
 10
10.4832710584
 20
9.5828425851
 30
0.0
 10
10.4824641013
 20
9.5806073451
 30
0.0
 10
10.4812810799
 20
9.5760335694
 30
0.0
 10
10.4809933528
 20
9.5689588915
 30
0.0
 10
10.4822409546
 20
9.5619024872
 30
0.0
 10
10.4840197856
 20
9.5574042447
 30
0.0
 10
10.4851145373
 20
9.5551972135
 30
0.0
  0
SPLINE
  5
4E1
100
AcDbEntity
  8
0
100
AcDbSpline
 62
7
  6
CONTINUOUS
 70
0
 71
3
 72
11
 73
7
 74
0
 42
0.0000001
 43
0.0000001
 44
0.0000000001
 40
0.0
 40
0.0
 40
0.0
 40
0.0
 40
0.2508047723
 40
0.5009945642
 40
0.7507532575
 40
1.0
 40
1.0
 40
1.0
 40
1.0
 10
11.4199884871
 20
8.756677692
 30
0.0
 10
11.4346456809
 20
8.7789828315
 30
0.0
 10
11.4620921541
 20
8.824774751
 30
0.0
 10
11.4973069759
 20
8.8965905506
 30
0.0
 10
11.5262676225
 20
8.9709698401
 30
0.0
 10
11.541327175
 20
9.0219697004
 30
0.0
 10
11.5477560904
 20
9.0477029215
 30
0.0
  0
SPLINE
  5
4E2
100
AcDbEntity
  8
0
100
AcDbSpline
 62
7
  6
CONTINUOUS
 70
0
 71
3
 72
11
 73
7
 74
0
 42
0.0000001
 43
0.0000001
 44
0.0000000001
 40
0.0
 40
0.0
 40
0.0
 40
0.0
 40
0.2492479548
 40
0.4990060992
 40
0.7491953851
 40
1.0
 40
1.0
 40
1.0
 40
1.0
 10
10.3276286022
 20
9.0477032146
 30
0.0
 10
10.3340575008
 20
9.0219698442
 30
0.0
 10
10.3491169586
 20
8.9709698536
 30
0.0
 10
10.3780777019
 20
8.8965905414
 30
0.0
 10
10.4132925183
 20
8.8247748476
 30
0.0
 10
10.4407389382
 20
8.7789829514
 30
0.0
 10
10.4553961216
 20
8.756677811
 30
0.0
  0
LINE
  5
4E3
100
AcDbEntity
  8
0
100
AcDbLine
 62
9
  6
CONTINUOUS
 10
11.8147695403
 20
8.8402972132
 11
11.8167630429
 21
8.8390371379
  0
SPLINE
  5
4E4
100
AcDbEntity
  8
0
100
AcDbSpline
 62
9
  6
CONTINUOUS
 70
0
 71
3
 72
9
 73
5
 74
0
 42
0.0000001
 43
0.0000001
 44
0.0000000001
 40
0.0
 40
0.0
 40
0.0
 40
0.0
 40
0.4922680973
 40
1.0
 40
1.0
 40
1.0
 40
1.0
 10
11.8167630429
 20
8.8390371379
 30
0.0
 10
11.8178630687
 20
8.8367931942
 30
0.0
 10
11.819430545
 20
8.8318871947
 30
0.0
 10
11.81966267
 20
8.8267532334
 30
0.0
 10
11.8194547777
 20
8.8241840587
 30
0.0
  0
SPLINE
  5
4E5
100
AcDbEntity
  8
0
100
AcDbSpline
 62
9
  6
CONTINUOUS
 70
0
 71
3
 72
9
 73
5
 74
0
 42
0.0000001
 43
0.0000001
 44
0.0000000001
 40
0.0
 40
0.0
 40
0.0
 40
0.0
 40
0.2441975
 40
1.0
 40
1.0
 40
1.0
 40
1.0
 10
11.8194547025
 20
8.8241830686
 30
0.0
 10
11.8241584714
 20
8.8214325986
 30
0.0
 10
11.8434920072
 20
8.8102915536
 30
0.0
 10
11.8630951413
 20
8.7996205998
 30
0.0
 10
11.878028247
 20
8.791783693
 30
0.0
  0
LINE
  5
4E6
100
AcDbEntity
  8
0
100
AcDbLine
 62
9
  6
CONTINUOUS
 10
11.878028247
 20
8.791783693
 11
11.8817346335
 21
8.7898445167
  0
SPLINE
  5
4E7
100
AcDbEntity
  8
0
100
AcDbSpline
 62
7
  6
CONTINUOUS
 70
0
 71
3
 72
10
 73
6
 74
0
 42
0.0000001
 43
0.0000001
 44
0.0000000001
 40
0.0
 40
0.0
 40
0.0
 40
0.0
 40
0.2641494183
 40
0.5115489681
 40
1.0
 40
1.0
 40
1.0
 40
1.0
 10
11.8817345071
 20
8.7898273397
 30
0.0
 10
11.8816248336
 20
8.7898852617
 30
0.0
 10
11.8813928541
 20
8.7899643287
 30
0.0
 10
11.8809203117
 20
8.7899830217
 30
0.0
 10
11.8805774057
 20
8.7899106643
 30
0.0
 10
11.8803583843
 20
8.7898426185
 30
0.0
  0
LINE
  5
4E8
100
AcDbEntity
  8
0
100
AcDbLine
 62
7
  6
CONTINUOUS
 10
11.8803583843
 20
8.7898426185
 11
11.879732575
 21
8.7895365923
  0
SPLINE
  5
4E9
100
AcDbEntity
  8
0
100
AcDbSpline
 62
7
  6
CONTINUOUS
 70
0
 71
3
 72
9
 73
5
 74
0
 42
0.0000001
 43
0.0000001
 44
0.0000000001
 40
0.0
 40
0.0
 40
0.0
 40
0.0
 40
0.2543804153
 40
1.0
 40
1.0
 40
1.0
 40
1.0
 10
11.4277232066
 20
8.4236662494
 30
0.0
 10
11.4255710768
 20
8.4262969487
 30
0.0
 10
11.4171380612
 20
8.4366607245
 30
0.0
 10
11.4088259572
 20
8.4471236276
 30
0.0
 10
11.4027307891
 20
8.4550039583
 30
0.0
  0
SPLINE
  5
4EA
100
AcDbEntity
  8
0
100
AcDbSpline
 62
7
  6
CONTINUOUS
 70
0
 71
3
 72
9
 73
5
 74
0
 42
0.0000001
 43
0.0000001
 44
0.0000000001
 40
0.0
 40
0.0
 40
0.0
 40
0.0
 40
0.2543811411
 40
1.0
 40
1.0
 40
1.0
 40
1.0
 10
10.4476614789
 20
8.4236662494
 30
0.0
 10
10.4498138825
 20
8.4262972835
 30
0.0
 10
10.4582479439
 20
8.4366623516
 30
0.0
 10
10.4665610618
 20
8.4471265731
 30
0.0
 10
10.4726569477
 20
8.4550079033
 30
0.0
  0
SPLINE
  5
4EB
100
AcDbEntity
  8
0
100
AcDbSpline
 62
7
  6
CONTINUOUS
 70
0
 71
3
 72
22
 73
18
 74
0
 42
0.0000001
 43
0.0000001
 44
0.0000000001
 40
0.0
 40
0.0
 40
0.0
 40
0.0
 40
0.1027234489
 40
0.2007797004
 40
0.2932830347
 40
0.379401135
 40
0.458541545
 40
0.531039087
 40
0.5975045752
 40
0.658510783
 40
0.7661440534
 40
0.8136928828
 40
0.8575194394
 40
0.8978901734
 40
0.9350048423
 40
0.969006506
 40
1.0
 40
1.0
 40
1.0
 40
1.0
 10
10.4726569743
 20
8.455007879
 30
0.0
 10
10.4768923232
 20
8.4604837336
 30
0.0
 10
10.4850738369
 20
8.4712621843
 30
0.0
 10
10.4966500997
 20
8.4872848255
 30
0.0
 10
10.5071086364
 20
8.5027252698
 30
0.0
 10
10.5162890893
 20
8.5174791806
 30
0.0
 10
10.5240393513
 20
8.5315121015
 30
0.0
 10
10.530412903
 20
8.5447653137
 30
0.0
 10
10.5355383929
 20
8.557237937
 30
0.0
 10
10.540675959
 20
8.5722330588
 30
0.0
 10
10.544187052
 20
8.5864146747
 30
0.0
 10
10.5462368543
 20
8.5996738657
 30
0.0
 10
10.5471353424
 20
8.6085106255
 30
0.0
 10
10.5475935468
 20
8.6166753422
 30
0.0
 10
10.5477468522
 20
8.6241881307
 30
0.0
 10
10.5477298461
 20
8.6310695864
 30
0.0
 10
10.5476923785
 20
8.6354495605
 30
0.0
 10
10.5476923784
 20
8.6375382491
 30
0.0
  0
SPLINE
  5
4EC
100
AcDbEntity
  8
0
100
AcDbSpline
 62
9
  6
CONTINUOUS
 70
0
 71
3
 72
15
 73
11
 74
0
 42
0.0000001
 43
0.0000001
 44
0.0000000001
 40
0.0
 40
0.0
 40
0.0
 40
0.0
 40
0.1528407001
 40
0.2971868905
 40
0.4330601692
 40
0.5606368619
 40
0.6802744574
 40
0.7926184264
 40
0.8987348834
 40
1.0
 40
1.0
 40
1.0
 40
1.0
 10
10.0578994373
 20
8.8253382141
 30
0.0
 10
10.0728424861
 20
8.8341119001
 30
0.0
 10
10.1015568757
 20
8.8517657268
 30
0.0
 10
10.1420686854
 20
8.8795459258
 30
0.0
 10
10.1785971787
 20
8.9079413347
 30
0.0
 10
10.2109336468
 20
8.9370014803
 30
0.0
 10
10.2388935243
 20
8.9667452803
 30
0.0
 10
10.262259196
 20
8.9972282866
 30
0.0
 10
10.2809150727
 20
9.0284045557
 30
0.0
 10
10.2903715301
 20
9.050019947
 30
0.0
 10
10.2942288582
 20
9.060833532
 30
0.0
  0
LINE
  5
4ED
100
AcDbEntity
  8
0
100
AcDbLine
 62
9
  6
CONTINUOUS
 10
10.2942288582
 20
9.060833532
 11
10.2944831749
 21
9.0615499568
  0
SPLINE
  5
4EE
100
AcDbEntity
  8
0
100
AcDbSpline
 62
9
  6
CONTINUOUS
 70
0
 71
3
 72
11
 73
7
 74
0
 42
0.0000001
 43
0.0000001
 44
0.0000000001
 40
0.0
 40
0.0
 40
0.0
 40
0.0
 40
0.2532818649
 40
0.5030865258
 40
0.7513839637
 40
1.0
 40
1.0
 40
1.0
 40
1.0
 10
10.2944831749
 20
9.0615499568
 30
0.0
 10
10.2969567298
 20
9.0685522329
 30
0.0
 10
10.3012439871
 20
9.0826915801
 30
0.0
 10
10.3056803599
 20
9.1043015018
 30
0.0
 10
10.3081199722
 20
9.1260880855
 30
0.0
 10
10.3084526063
 20
9.1406755175
 30
0.0
 10
10.3083094265
 20
9.147963635
 30
0.0
  0
SPLINE
  5
4EF
100
AcDbEntity
  8
0
100
AcDbSpline
 62
9
  6
CONTINUOUS
 70
0
 71
3
 72
14
 73
10
 74
0
 42
0.0000001
 43
0.0000001
 44
0.0000000001
 40
0.0
 40
0.0
 40
0.0
 40
0.0
 40
0.1544194698
 40
0.3000191688
 40
0.4374211281
 40
0.5664772682
 40
0.6869607352
 40
0.7990286878
 40
1.0
 40
1.0
 40
1.0
 40
1.0
 10
10.060612722
 20
8.8402956799
 30
0.0
 10
10.0745777595
 20
8.8492156163
 30
0.0
 10
10.1014545719
 20
8.8669538066
 30
0.0
 10
10.1395599268
 20
8.8943914152
 30
0.0
 10
10.1740785751
 20
8.9220635526
 30
0.0
 10
10.204909244
 20
8.9499142928
 30
0.0
 10
10.2318740779
 20
8.9778815602
 30
0.0
 10
10.261397296
 20
9.013853163
 30
0.0
 10
10.2792791008
 20
9.0426686449
 30
0.0
 10
10.2882654649
 20
9.0622733295
 30
0.0
  0
SPLINE
  5
4F0
100
AcDbEntity
  8
0
100
AcDbSpline
 62
9
  6
CONTINUOUS
 70
0
 71
3
 72
11
 73
7
 74
0
 42
0.0000001
 43
0.0000001
 44
0.0000000001
 40
0.0
 40
0.0
 40
0.0
 40
0.0
 40
0.2499982688
 40
0.4999953776
 40
0.7499937567
 40
1.0
 40
1.0
 40
1.0
 40
1.0
 10
10.2967751982
 20
9.8051550803
 30
0.0
 10
10.2865133685
 20
9.7290772158
 30
0.0
 10
10.26081823
 20
9.577569272
 30
0.0
 10
10.2070841631
 20
9.3534551276
 30
0.0
 10
10.1385714262
 20
9.1334096305
 30
0.0
 10
10.083375296
 20
8.9900018097
 30
0.0
 10
10.0535052678
 20
8.9192819115
 30
0.0
  0
LINE
  5
4F1
100
AcDbEntity
  8
0
100
AcDbLine
 62
9
  6
CONTINUOUS
 10
10.0132139809
 20
8.8274911145
 11
10.010354287
 21
8.8212313838
  0
LINE
  5
4F2
100
AcDbEntity
  8
0
100
AcDbLine
 62
7
  6
CONTINUOUS
 10
10.0140059656
 20
8.8260844193
 11
10.0103542653
 21
8.8212318355
  0
SPLINE
  5
4F3
100
AcDbEntity
  8
0
100
AcDbSpline
 62
9
  6
CONTINUOUS
 70
0
 71
3
 72
10
 73
6
 74
0
 42
0.0000001
 43
0.0000001
 44
0.0000000001
 40
0.0
 40
0.0
 40
0.0
 40
0.0
 40
0.2462791228
 40
0.6224453369
 40
1.0
 40
1.0
 40
1.0
 40
1.0
 10
11.8147695403
 20
8.8402972137
 30
0.0
 10
11.8153260164
 20
8.8391663594
 30
0.0
 10
11.816511638
 20
8.8361961396
 30
0.0
 10
11.8175699874
 20
8.8311557395
 30
0.0
 10
11.8176328318
 20
8.8272710942
 30
0.0
 10
11.8174727729
 20
8.8253455646
 30
0.0
  0
SPLINE
  5
4F4
100
AcDbEntity
  8
0
100
AcDbSpline
 62
9
  6
CONTINUOUS
 70
0
 71
3
 72
11
 73
7
 74
0
 42
0.0000001
 43
0.0000001
 44
0.0000000001
 40
0.0
 40
0.0
 40
0.0
 40
0.0
 40
0.2485962808
 40
0.496878586
 40
0.7466852541
 40
1.0
 40
1.0
 40
1.0
 40
1.0
 10
11.5670752607
 20
9.1479636454
 30
0.0
 10
11.5669316322
 20
9.1406526079
 30
0.0
 10
11.5672672611
 20
9.1260190716
 30
0.0
 10
11.5697238981
 20
9.1041640463
 30
0.0
 10
11.574190415
 20
9.0824869051
 30
0.0
 10
11.5785063061
 20
9.0683052296
 30
0.0
 10
11.5809962587
 20
9.0612823287
 30
0.0
  0
SPLINE
  5
4F5
100
AcDbEntity
  8
0
100
AcDbSpline
 62
9
  6
CONTINUOUS
 70
0
 71
3
 72
15
 73
11
 74
0
 42
0.0000001
 43
0.0000001
 44
0.0000000001
 40
0.0
 40
0.0
 40
0.0
 40
0.0
 40
0.1012491942
 40
0.2073416576
 40
0.3196605361
 40
0.4392797076
 40
0.5668509711
 40
0.7027356481
 40
0.8471114726
 40
1.0
 40
1.0
 40
1.0
 40
1.0
 10
11.5809962587
 20
9.0612823287
 30
0.0
 10
11.5848375363
 20
9.0504480212
 30
0.0
 10
11.5942679145
 20
9.0287899341
 30
0.0
 10
11.6129034721
 20
8.9975507754
 30
0.0
 10
11.6362653883
 20
8.9670067713
 30
0.0
 10
11.6642391052
 20
8.9372052727
 30
0.0
 10
11.6966059234
 20
8.9080902842
 30
0.0
 10
11.7331805043
 20
8.8796425441
 30
0.0
 10
11.7737531725
 20
8.8518123635
 30
0.0
 10
11.8025143559
 20
8.8341283195
 30
0.0
 10
11.8174828325
 20
8.8253396581
 30
0.0
  0
SPLINE
  5
4F6
100
AcDbEntity
  8
0
100
AcDbSpline
 62
9
  6
CONTINUOUS
 70
0
 71
3
 72
10
 73
6
 74
0
 42
0.0000001
 43
0.0000001
 44
0.0000000001
 40
0.0
 40
0.0
 40
0.0
 40
0.0
 40
0.5098606499
 40
0.7576889089
 40
1.0
 40
1.0
 40
1.0
 40
1.0
 10
11.8174828201
 20
8.8253394992
 30
0.0
 10
11.7444553036
 20
8.7653286319
 30
0.0
 10
11.6377779196
 20
8.6738645954
 30
0.0
 10
11.5008081783
 20
8.5489227329
 30
0.0
 10
11.434951206
 20
8.4863051532
 30
0.0
 10
11.4027307426
 20
8.4550039131
 30
0.0
  0
SPLINE
  5
4F7
100
AcDbEntity
  8
0
100
AcDbSpline
 62
7
  6
CONTINUOUS
 70
0
 71
3
 72
22
 73
18
 74
0
 42
0.0000001
 43
0.0000001
 44
0.0000000001
 40
0.0
 40
0.0
 40
0.0
 40
0.0
 40
0.1027209151
 40
0.2007797567
 40
0.2932954337
 40
0.3794022088
 40
0.4585293873
 40
0.531040195
 40
0.5975091419
 40
0.6585122942
 40
0.766145429
 40
0.8136942938
 40
0.8575204837
 40
0.8978909031
 40
0.935005331
 40
0.9690067681
 40
1.0
 40
1.0
 40
1.0
 40
1.0
 10
11.4027307426
 20
8.4550039131
 30
0.0
 10
11.3984953704
 20
8.4604797481
 30
0.0
 10
11.3903138531
 20
8.4712586271
 30
0.0
 10
11.3787369617
 20
8.4872824046
 30
0.0
 10
11.368275428
 20
8.5027216657
 30
0.0
 10
11.3590967257
 20
8.5174763238
 30
0.0
 10
11.3513501123
 20
8.5315107174
 30
0.0
 10
11.3449723885
 20
8.5447625244
 30
0.0
 10
11.3398459043
 20
8.5572361901
 30
0.0
 10
11.3347094637
 20
8.5722321089
 30
0.0
 10
11.3311978201
 20
8.5864136898
 30
0.0
 10
11.3291478165
 20
8.5996731642
 30
0.0
 10
11.3282493828
 20
8.6085101039
 30
0.0
 10
11.3277911882
 20
8.6166749587
 30
0.0
 10
11.3276378644
 20
8.624187878
 30
0.0
 10
11.3276548423
 20
8.6310694531
 30
0.0
 10
11.3276922968
 20
8.6354495016
 30
0.0
 10
11.3276922957
 20
8.6375382237
 30
0.0
  0
LINE
  5
4F8
100
AcDbEntity
  8
0
100
AcDbLine
 62
9
  6
CONTINUOUS
 10
11.5165389261
 20
9.5644073279
 11
11.5195330863
 21
9.5304312299
  0
LINE
  5
4F9
100
AcDbEntity
  8
0
100
AcDbLine
 62
9
  6
CONTINUOUS
 10
11.5658197033
 20
9.1559705623
 11
11.5665453678
 21
9.1513364719
  0
LINE
  5
4FA
100
AcDbEntity
  8
0
100
AcDbLine
 62
9
  6
CONTINUOUS
 10
11.5665453678
 20
9.1513364719
 11
11.567075546
 21
9.1479657725
  0
LINE
  5
4FB
100
AcDbEntity
  8
0
100
AcDbLine
 62
9
  6
CONTINUOUS
 10
10.3083083396
 20
9.1479716366
 11
10.3088379368
 21
9.1513386429
  0
LINE
  5
4FC
100
AcDbEntity
  8
0
100
AcDbLine
 62
9
  6
CONTINUOUS
 10
10.3088379368
 20
9.1513386429
 11
10.3095641865
 21
9.1559764704
  0
SPLINE
  5
4FD
100
AcDbEntity
  8
0
100
AcDbSpline
 62
9
  6
CONTINUOUS
 70
0
 71
3
 72
41
 73
37
 74
0
 42
0.0000001
 43
0.0000001
 44
0.0000000001
 40
0.0
 40
0.0
 40
0.0
 40
0.0
 40
0.0549155754
 40
0.1088530048
 40
0.16179482
 40
0.2137432046
 40
0.3146883124
 40
0.3636911013
 40
0.4117030459
 40
0.4586680998
 40
0.5044841772
 40
0.5490164467
 40
0.5921120367
 40
0.6335887163
 40
0.6732563252
 40
0.7464584514
 40
0.8103485968
 40
0.8639342058
 40
0.8868736983
 40
0.9073051041
 40
0.9253585985
 40
0.9411906316
 40
0.9549500153
 40
0.966734239
 40
0.9766207009
 40
0.9808770645
 40
0.9846881817
 40
0.9909874966
 40
0.993481363
 40
0.995544126
 40
0.9971856685
 40
0.9984264836
 40
0.9989112817
 40
0.9993198477
 40
0.9996724512
 40
1.0
 40
1.0
 40
1.0
 40
1.0
 10
10.6474423375
 20
9.660270027
 30
0.0
 10
10.6475650968
 20
9.6752223044
 30
0.0
 10
10.6476977454
 20
9.7048614849
 30
0.0
 10
10.6476597566
 20
9.7489161626
 30
0.0
 10
10.6474166622
 20
9.7921624182
 30
0.0
 10
10.6466843643
 20
9.8482043778
 30
0.0
 10
10.6453876716
 20
9.903164207
 30
0.0
 10
10.6437645436
 20
9.9570415703
 30
0.0
 10
10.6424976866
 20
9.996224914
 30
0.0
 10
10.6411676588
 20
10.0345379986
 30
0.0
 10
10.6396876011
 20
10.071897495
 30
0.0
 10
10.6380294862
 20
10.1081949417
 30
0.0
 10
10.636164531
 20
10.1432992028
 30
0.0
 10
10.63413919
 20
10.1770676274
 30
0.0
 10
10.6313695975
 20
10.2190029266
 30
0.0
 10
10.6277924248
 20
10.2670003697
 30
0.0
 10
10.6233230978
 20
10.3187279012
 30
0.0
 10
10.6195137362
 20
10.3567726071
 30
0.0
 10
10.6165306193
 20
10.3830038513
 30
0.0
 10
10.6144759141
 20
10.3996025207
 30
0.0
 10
10.6124929144
 20
10.4142591257
 30
0.0
 10
10.6105857482
 20
10.427091667
 30
0.0
 10
10.6087619891
 20
10.4382096366
 30
0.0
 10
10.6070258249
 20
10.4476998944
 30
0.0
 10
10.6055940703
 20
10.4546137258
 30
0.0
 10
10.6044851181
 20
10.4593753
 30
0.0
 10
10.6035243487
 20
10.463167201
 30
0.0
 10
10.6025796833
 20
10.4664695928
 30
0.0
 10
10.601592704
 20
10.4692566983
 30
0.0
 10
10.600941162
 20
10.4708153963
 30
0.0
 10
10.6003207551
 20
10.4720114961
 30
0.0
 10
10.5997932975
 20
10.4727697305
 30
0.0
 10
10.5993713983
 20
10.4731725386
 30
0.0
 10
10.599085021
 20
10.4733593697
 30
0.0
 10
10.5987994322
 20
10.4734537693
 30
0.0
 10
10.5986098155
 20
10.4734494542
 30
0.0
 10
10.5985223814
 20
10.4734318578
 30
0.0
  0
SPLINE
  5
4FE
100
AcDbEntity
  8
0
100
AcDbSpline
 62
9
  6
CONTINUOUS
 70
0
 71
3
 72
44
 73
40
 74
0
 42
0.0000001
 43
0.0000001
 44
0.0000000001
 40
0.0
 40
0.0
 40
0.0
 40
0.0
 40
0.1077609526
 40
0.2106521172
 40
0.2606083689
 40
0.3097223094
 40
0.358116169
 40
0.4059277058
 40
0.4531747074
 40
0.4997663958
 40
0.5454796176
 40
0.5899865328
 40
0.6329216272
 40
0.6738948171
 40
0.7125169983
 40
0.7484501931
 40
0.7814766819
 40
0.811559716
 40
0.8388159729
 40
0.8634925329
 40
0.8857960396
 40
0.905879648
 40
0.9238509282
 40
0.9397890314
 40
0.9537541675
 40
0.9657899285
 40
0.9759360873
 40
0.9803113793
 40
0.9842273387
 40
0.9876886485
 40
0.9906990218
 40
0.9932626384
 40
0.9953859308
 40
0.9970798783
 40
0.9983657689
 40
0.9988701766
 40
0.9992959552
 40
0.9996625937
 40
1.0
 40
1.0
 40
1.0
 40
1.0
 10
11.2279423665
 20
9.6602665414
 30
0.0
 10
11.2277489871
 20
9.6895167504
 30
0.0
 10
11.227935339
 20
9.7466995557
 30
0.0
 10
11.2291299209
 20
9.8174308395
 30
0.0
 10
11.2304705431
 20
9.8722354092
 30
0.0
 10
11.2316262001
 20
9.9122467768
 30
0.0
 10
11.232902069
 20
9.9516719454
 30
0.0
 10
11.2342164373
 20
9.9905887627
 30
0.0
 10
11.2355761123
 20
10.0290145832
 30
0.0
 10
11.2370583165
 20
10.0668659371
 30
0.0
 10
11.2386750597
 20
10.1039673359
 30
0.0
 10
11.2404178289
 20
10.1400693426
 30
0.0
 10
11.2422373765
 20
10.1748791521
 30
0.0
 10
11.2440532353
 20
10.2080894938
 30
0.0
 10
11.2458363612
 20
10.2393980602
 30
0.0
 10
11.2475946424
 20
10.2685475258
 30
0.0
 10
11.2494842831
 20
10.2953660443
 30
0.0
 10
11.2515617281
 20
10.3198081876
 30
0.0
 10
11.2538312349
 20
10.3419555246
 30
0.0
 10
11.2560853346
 20
10.3619800512
 30
0.0
 10
11.2582359606
 20
10.3800565876
 30
0.0
 10
11.2602775273
 20
10.3963128166
 30
0.0
 10
11.2622204279
 20
10.4108396783
 30
0.0
 10
11.2641034575
 20
10.4236981228
 30
0.0
 10
11.2659315149
 20
10.4349349876
 30
0.0
 10
11.2676866567
 20
10.4445891526
 30
0.0
 10
11.2691384053
 20
10.4516512511
 30
0.0
 10
11.2702663801
 20
10.4565274127
 30
0.0
 10
11.2710443918
 20
10.4596214698
 30
0.0
 10
11.2717949776
 20
10.4623396756
 30
0.0
 10
11.2725173725
 20
10.4646839752
 30
0.0
 10
11.2732108766
 20
10.4666554663
 30
0.0
 10
11.273874475
 20
10.4682571494
 30
0.0
 10
11.2745074679
 20
10.4694903878
 30
0.0
 10
11.2750460018
 20
10.4702759091
 30
0.0
 10
11.2754769629
 20
10.4706986108
 30
0.0
 10
11.2757698536
 20
10.47089843
 30
0.0
 10
11.2760616937
 20
10.4710053087
 30
0.0
 10
11.2762572034
 20
10.4710093006
 30
0.0
 10
11.2763476766
 20
10.4709950654
 30
0.0
  0
SPLINE
  5
4FF
100
AcDbEntity
  8
0
100
AcDbSpline
 62
9
  6
CONTINUOUS
 70
0
 71
3
 72
10
 73
6
 74
0
 42
0.0000001
 43
0.0000001
 44
0.0000000001
 40
0.0
 40
0.0
 40
0.0
 40
0.0
 40
0.263481789
 40
0.516764772
 40
1.0
 40
1.0
 40
1.0
 40
1.0
 10
11.2279423895
 20
9.6602699333
 30
0.0
 10
11.2280846911
 20
9.6813236028
 30
0.0
 10
11.228617893
 20
9.7226146762
 30
0.0
 10
11.2305090102
 20
9.802500648
 30
0.0
 10
11.2326450036
 20
9.8613179645
 30
0.0
 10
11.2342919426
 20
9.8998969077
 30
0.0
  0
LINE
  5
500
100
AcDbEntity
  8
0
100
AcDbLine
 62
9
  6
CONTINUOUS
 10
11.2342919426
 20
9.8998969077
 11
11.2343264771
 21
9.9007050232
  0
SPLINE
  5
501
100
AcDbEntity
  8
0
100
AcDbSpline
 62
9
  6
CONTINUOUS
 70
0
 71
3
 72
43
 73
39
 74
0
 42
0.0000001
 43
0.0000001
 44
0.0000000001
 40
0.0
 40
0.0
 40
0.0
 40
0.0
 40
0.1157640824
 40
0.1726701622
 40
0.2290186152
 40
0.2846746638
 40
0.3394321466
 40
0.3930815563
 40
0.4453373055
 40
0.5442513824
 40
0.5902345403
 40
0.6335541308
 40
0.6739795152
 40
0.7113411361
 40
0.7457555484
 40
0.7774243022
 40
0.8065429784
 40
0.8332616118
 40
0.85769789
 40
0.8799686272
 40
0.9001661539
 40
0.9183416413
 40
0.9345429846
 40
0.9488158971
 40
0.9611940188
 40
0.9717091571
 40
0.9803949064
 40
0.9840607913
 40
0.9872798323
 40
0.9900574768
 40
0.9924021471
 40
0.9943278293
 40
0.995859981
 40
0.9970501757
 40
0.9980052667
 40
0.9984554058
 40
0.9989226075
 40
1.0
 40
1.0
 40
1.0
 40
1.0
 10
11.2343264771
 20
9.9007050232
 30
0.0
 10
11.2352612535
 20
9.922556244
 30
0.0
 10
11.2367731125
 20
9.95514401
 30
0.0
 10
11.2390211033
 20
9.9983539204
 30
0.0
 10
11.2407951873
 20
10.0302167894
 30
0.0
 10
11.2426913104
 20
10.0616660046
 30
0.0
 10
11.2447317889
 20
10.0925952617
 30
0.0
 10
11.2469498223
 20
10.1228682436
 30
0.0
 10
11.2500383879
 20
10.1614413214
 30
0.0
 10
11.2532467415
 20
10.1985509971
 30
0.0
 10
11.256339273
 20
10.233975912
 30
0.0
 10
11.2585728213
 20
10.2583834557
 30
0.0
 10
11.2608293024
 20
10.2811529069
 30
0.0
 10
11.263185911
 20
10.3022202118
 30
0.0
 10
11.2655883605
 20
10.3216161157
 30
0.0
 10
11.2679781436
 20
10.339443265
 30
0.0
 10
11.2702898179
 20
10.3558133964
 30
0.0
 10
11.2725042177
 20
10.3708169989
 30
0.0
 10
11.2746329453
 20
10.3845250914
 30
0.0
 10
11.2766791031
 20
10.3969987718
 30
0.0
 10
11.2786457804
 20
10.4082863156
 30
0.0
 10
11.2805362402
 20
10.4184225026
 30
0.0
 10
11.2823518306
 20
10.4274331659
 30
0.0
 10
11.2840935023
 20
10.435340179
 30
0.0
 10
11.2857534963
 20
10.4421636988
 30
0.0
 10
11.2873242204
 20
10.4479202117
 30
0.0
 10
11.2886112899
 20
10.452046037
 30
0.0
 10
11.2896064827
 20
10.4548148293
 30
0.0
 10
11.2902841815
 20
10.4565104212
 30
0.0
 10
11.2909354662
 20
10.4579462848
 30
0.0
 10
11.2915601409
 20
10.4591234687
 30
0.0
 10
11.2921579096
 20
10.4600449906
 30
0.0
 10
11.2927321464
 20
10.4607140141
 30
0.0
 10
11.2932909125
 20
10.4611411124
 30
0.0
 10
11.2937809833
 20
10.4612793068
 30
0.0
 10
11.2941359129
 20
10.4612329375
 30
0.0
 10
11.2944886744
 20
10.4610912472
 30
0.0
 10
11.2947139152
 20
10.4608922495
 30
0.0
 10
11.2948497469
 20
10.4607406492
 30
0.0
  0
SPLINE
  5
502
100
AcDbEntity
  8
0
100
AcDbSpline
 62
7
  6
CONTINUOUS
 70
0
 71
3
 72
31
 73
27
 74
0
 42
0.0000001
 43
0.0000001
 44
0.0000000001
 40
0.0
 40
0.0
 40
0.0
 40
0.0
 40
0.0719747781
 40
0.1418793375
 40
0.175765357
 40
0.2086275998
 40
0.240064566
 40
0.2694780467
 40
0.2958829716
 40
0.3075015297
 40
0.3177762826
 40
0.3264907461
 40
0.3335368636
 40
0.3392756625
 40
0.344801473
 40
0.3512397192
 40
0.3592112124
 40
0.3798172255
 40
0.4050990771
 40
0.4335687052
 40
0.4962811633
 40
0.5635241246
 40
0.6333841228
 40
0.7049219207
 40
0.8511496117
 40
1.0
 40
1.0
 40
1.0
 40
1.0
 10
11.8650604311
 20
8.821192004
 30
0.0
 10
11.8653554084
 20
8.8208004641
 30
0.0
 10
11.865940062
 20
8.8200309936
 30
0.0
 10
11.8666870226
 20
8.8190952769
 30
0.0
 10
11.8672833327
 20
8.8183805971
 30
0.0
 10
11.8677218642
 20
8.8178756533
 30
0.0
 10
11.8681532668
 20
8.8174050586
 30
0.0
 10
11.8685715101
 20
8.8169826949
 30
0.0
 10
11.8689136709
 20
8.8166752819
 30
0.0
 10
11.8691764638
 20
8.8164770508
 30
0.0
 10
11.8693530099
 20
8.8163654341
 30
0.0
 10
11.8695140467
 20
8.8162899591
 30
0.0
 10
11.8696581081
 20
8.8162545028
 30
0.0
 10
11.8697864173
 20
8.8162748663
 30
0.0
 10
11.8698817366
 20
8.8163571707
 30
0.0
 10
11.8699380078
 20
8.8164837365
 30
0.0
 10
11.8699741757
 20
8.8167208832
 30
0.0
 10
11.869945462
 20
8.8170896473
 30
0.0
 10
11.8698525004
 20
8.8175872888
 30
0.0
 10
11.8696527323
 20
8.8183556564
 30
0.0
 10
11.8693196299
 20
8.8193825046
 30
0.0
 10
11.8688503127
 20
8.8206601385
 30
0.0
 10
11.8683285418
 20
8.8219820325
 30
0.0
 10
11.8675800822
 20
8.8237924894
 30
0.0
 10
11.8665865164
 20
8.8260834909
 30
0.0
 10
11.8657624899
 20
8.8279166002
 30
0.0
 10
11.8653427403
 20
8.8288394425
 30
0.0
  0
SPLINE
  5
503
100
AcDbEntity
  8
0
100
AcDbSpline
 62
7
  6
CONTINUOUS
 70
0
 71
3
 72
9
 73
5
 74
0
 42
0.0000001
 43
0.0000001
 44
0.0000000001
 40
0.0
 40
0.0
 40
0.0
 40
0.0
 40
0.2446289846
 40
1.0
 40
1.0
 40
1.0
 40
1.0
 10
11.3864874606
 20
9.5738548426
 30
0.0
 10
11.3863583394
 20
9.5734217438
 30
0.0
 10
11.3857914712
 20
9.5716630697
 30
0.0
 10
11.3850717436
 20
9.5699546382
 30
0.0
 10
11.3844577222
 20
9.5687014822
 30
0.0
  0
LINE
  5
504
100
AcDbEntity
  8
0
100
AcDbLine
 62
7
  6
CONTINUOUS
 10
11.3844577222
 20
9.5687014822
 11
11.3822775997
 21
9.5648284077
  0
SPLINE
  5
505
100
AcDbEntity
  8
0
100
AcDbSpline
 62
7
  6
CONTINUOUS
 70
0
 71
3
 72
15
 73
11
 74
0
 42
0.0000001
 43
0.0000001
 44
0.0000000001
 40
0.0
 40
0.0
 40
0.0
 40
0.0
 40
0.1178743314
 40
0.2417727395
 40
0.3698115852
 40
0.5
 40
0.6301884147
 40
0.7582272604
 40
0.8821256685
 40
1.0
 40
1.0
 40
1.0
 40
1.0
 10
10.6474423425
 20
9.6602700278
 30
0.0
 10
10.6700738283
 20
9.6636518331
 30
0.0
 10
10.7166538149
 20
9.6695411179
 30
0.0
 10
10.7881864739
 20
9.6758010051
 30
0.0
 10
10.8622860408
 20
9.6796065768
 30
0.0
 10
10.9376923426
 20
9.6808685868
 30
0.0
 10
11.0130986444
 20
9.6796065768
 30
0.0
 10
11.0871982113
 20
9.6758010051
 30
0.0
 10
11.1587308703
 20
9.669541118
 30
0.0
 10
11.205310857
 20
9.6636518331
 30
0.0
 10
11.2279423427
 20
9.6602700278
 30
0.0
  0
SPLINE
  5
506
100
AcDbEntity
  8
0
100
AcDbSpline
 62
7
  6
CONTINUOUS
 70
0
 71
3
 72
10
 73
6
 74
0
 42
0.0000001
 43
0.0000001
 44
0.0000000001
 40
0.0
 40
0.0
 40
0.0
 40
0.0
 40
0.5213363695
 40
0.7664209085
 40
1.0
 40
1.0
 40
1.0
 40
1.0
 10
11.2279423427
 20
9.6602699407
 30
0.0
 10
11.2483321379
 20
9.6572231182
 30
0.0
 10
11.2782244523
 20
9.6521350514
 30
0.0
 10
11.3169374598
 20
9.6440514448
 30
0.0
 10
11.3353590907
 20
9.639685742
 30
0.0
 10
11.3443133129
 20
9.6374182763
 30
0.0
  0
SPLINE
  5
507
100
AcDbEntity
  8
0
100
AcDbSpline
 62
7
  6
CONTINUOUS
 70
0
 71
3
 72
9
 73
5
 74
0
 42
0.0000001
 43
0.0000001
 44
0.0000000001
 40
0.0
 40
0.0
 40
0.0
 40
0.0
 40
0.2584782997
 40
1.0
 40
1.0
 40
1.0
 40
1.0
 10
11.3443133129
 20
9.6374182763
 30
0.0
 10
11.3476318976
 20
9.6365779155
 30
0.0
 10
11.3604520057
 20
9.6332533572
 30
0.0
 10
11.3731950476
 20
9.6296277457
 30
0.0
 10
11.3825805115
 20
9.6267360146
 30
0.0
  0
SPLINE
  5
508
100
AcDbEntity
  8
0
100
AcDbSpline
 62
7
  6
CONTINUOUS
 70
0
 71
3
 72
21
 73
17
 74
0
 42
0.0000001
 43
0.0000001
 44
0.0000000001
 40
0.0
 40
0.0
 40
0.0
 40
0.0
 40
0.1846432362
 40
0.3513411065
 40
0.4278378851
 40
0.4997207693
 40
0.5669935441
 40
0.6296962193
 40
0.6879421149
 40
0.7419477007
 40
0.7920012254
 40
0.8384756947
 40
0.8818489042
 40
0.9227210807
 40
0.9618223667
 40
1.0
 40
1.0
 40
1.0
 40
1.0
 10
11.390777061
 20
9.6241519635
 30
0.0
 10
11.4005410294
 20
9.6210020706
 30
0.0
 10
11.4189798138
 20
9.6145582194
 30
0.0
 10
11.4409257837
 20
9.6053679845
 30
0.0
 10
11.4566586143
 20
9.5976786516
 30
0.0
 10
11.4671923774
 20
9.5919585233
 30
0.0
 10
11.4767805661
 20
9.5861293323
 30
0.0
 10
11.4854025617
 20
9.5801988441
 30
0.0
 10
11.493041847
 20
9.5741742983
 30
0.0
 10
11.499691096
 20
9.568067493
 30
0.0
 10
11.505344684
 20
9.5618868203
 30
0.0
 10
11.5099961752
 20
9.5556396995
 30
0.0
 10
11.5136369783
 20
9.54933327
 30
0.0
 10
11.516255473
 20
9.5429747422
 30
0.0
 10
11.5178372511
 20
9.5365776268
 30
0.0
 10
11.5181923437
 20
9.5322759508
 30
0.0
 10
11.5181923427
 20
9.5301546567
 30
0.0
  0
SPLINE
  5
509
100
AcDbEntity
  8
0
100
AcDbSpline
 62
7
  6
CONTINUOUS
 70
0
 71
3
 72
20
 73
16
 74
0
 42
0.0000001
 43
0.0000001
 44
0.0000000001
 40
0.0
 40
0.0
 40
0.0
 40
0.0
 40
0.0387205748
 40
0.0783311347
 40
0.1196511605
 40
0.1633914565
 40
0.210141008
 40
0.26037261
 40
0.3144583964
 40
0.3726881631
 40
0.4352847702
 40
0.5023807268
 40
0.650197359
 40
0.8161869741
 40
1.0
 40
1.0
 40
1.0
 40
1.0
 10
10.3571923427
 20
9.5301546557
 30
0.0
 10
10.3571923418
 20
9.5322207776
 30
0.0
 10
10.3575288193
 20
9.5364077066
 30
0.0
 10
10.3590284736
 20
9.5426373585
 30
0.0
 10
10.3615120308
 20
9.5488319091
 30
0.0
 10
10.3649664864
 20
9.5549786026
 30
0.0
 10
10.3693811306
 20
9.5610704533
 30
0.0
 10
10.374747889
 20
9.5671006551
 30
0.0
 10
10.3810606486
 20
9.5730622885
 30
0.0
 10
10.3883142143
 20
9.578947658
 30
0.0
 10
10.3965025486
 20
9.5847466005
 30
0.0
 10
10.4090594618
 20
9.5926071481
 30
0.0
 10
10.4270782084
 20
9.602073597
 30
0.0
 10
10.4514643968
 20
9.6126234126
 30
0.0
 10
10.4690273066
 20
9.6189777013
 30
0.0
 10
10.4783288562
 20
9.6220893649
 30
0.0
  0
SPLINE
  5
50A
100
AcDbEntity
  8
0
100
AcDbSpline
 62
7
  6
CONTINUOUS
 70
0
 71
3
 72
9
 73
5
 74
0
 42
0.0000001
 43
0.0000001
 44
0.0000000001
 40
0.0
 40
0.0
 40
0.0
 40
0.0
 40
0.4846921558
 40
1.0
 40
1.0
 40
1.0
 40
1.0
 10
10.4928005991
 20
9.6267349132
 30
0.0
 10
10.5015003887
 20
9.6294154358
 30
0.0
 10
10.5195618161
 20
9.634584727
 30
0.0
 10
10.5377860193
 20
9.6391410194
 30
0.0
 10
10.5472085502
 20
9.6413517424
 30
0.0
  0
SPLINE
  5
50B
100
AcDbEntity
  8
0
100
AcDbSpline
 62
7
  6
CONTINUOUS
 70
0
 71
3
 72
9
 73
5
 74
0
 42
0.0000001
 43
0.0000001
 44
0.0000000001
 40
0.0
 40
0.0
 40
0.0
 40
0.0
 40
0.4825370117
 40
1.0
 40
1.0
 40
1.0
 40
1.0
 10
10.5472085502
 20
9.6413517424
 30
0.0
 10
10.5631849401
 20
9.6451001378
 30
0.0
 10
10.596486872
 20
9.6520571524
 30
0.0
 10
10.6300375889
 20
9.6576691693
 30
0.0
 10
10.6474423425
 20
9.6602699406
 30
0.0
  0
SPLINE
  5
50C
100
AcDbEntity
  8
0
100
AcDbSpline
 62
9
  6
CONTINUOUS
 70
0
 71
3
 72
11
 73
7
 74
0
 42
0.0000001
 43
0.0000001
 44
0.0000000001
 40
0.0
 40
0.0
 40
0.0
 40
0.0
 40
0.2499480946
 40
0.4999639439
 40
0.7499794374
 40
1.0
 40
1.0
 40
1.0
 40
1.0
 10
11.5786096363
 20
9.8051551012
 30
0.0
 10
11.5888700189
 20
9.7290925808
 30
0.0
 10
11.6145815669
 20
9.5775974813
 30
0.0
 10
11.6682934081
 20
9.353482954
 30
0.0
 10
11.7368143998
 20
9.133423242
 30
0.0
 10
11.792014229
 20
8.9900067933
 30
0.0
 10
11.8218836208
 20
8.9192818454
 30
0.0
  0
LINE
  5
50D
100
AcDbEntity
  8
0
100
AcDbLine
 62
9
  6
CONTINUOUS
 10
11.8621720739
 20
8.827491973
 11
11.8650318367
 21
8.821232054
  0
SPLINE
  5
50E
100
AcDbEntity
  8
0
100
AcDbSpline
 62
7
  6
CONTINUOUS
 70
0
 71
3
 72
21
 73
17
 74
0
 42
0.0000001
 43
0.0000001
 44
0.0000000001
 40
0.0
 40
0.0
 40
0.0
 40
0.0
 40
0.163525331
 40
0.2369657117
 40
0.3052341109
 40
0.3687646758
 40
0.4281209344
 40
0.484020425
 40
0.5373554325
 40
0.5891752334
 40
0.6406232494
 40
0.6928673161
 40
0.7470241842
 40
0.8646864153
 40
0.9298881965
 40
1.0
 40
1.0
 40
1.0
 40
1.0
 10
11.4023514644
 20
9.4823687683
 30
0.0
 10
11.4070166641
 20
9.4854069617
 30
0.0
 10
11.4135763609
 20
9.4901526698
 30
0.0
 10
11.4212829917
 20
9.4971369376
 30
0.0
 10
11.4260630552
 20
9.5022463377
 30
0.0
 10
11.4300443362
 20
9.5074086317
 30
0.0
 10
11.4332182055
 20
9.5126189044
 30
0.0
 10
11.435573409
 20
9.51787183
 30
0.0
 10
11.4370979383
 20
9.5231593043
 30
0.0
 10
11.4377853974
 20
9.5284681121
 30
0.0
 10
11.4376317913
 20
9.5337822825
 30
0.0
 10
11.4366378792
 20
9.5390852874
 30
0.0
 10
11.4341317949
 20
9.5463155776
 30
0.0
 10
11.4299186461
 20
9.5533075442
 30
0.0
 10
11.4244108079
 20
9.5599344539
 30
0.0
 10
11.4211539147
 20
9.5632037208
 30
0.0
 10
11.4194067536
 20
9.5648301065
 30
0.0
  0
LINE
  5
50F
100
AcDbEntity
  8
0
100
AcDbLine
 62
9
  6
CONTINUOUS
 10
11.8797340271
 20
8.7895371124
 11
11.8822781666
 21
8.7841328095
  0
LINE
  5
510
100
AcDbEntity
  8
0
100
AcDbLine
 62
9
  6
CONTINUOUS
 10
11.8822781666
 20
8.7841328095
 11
11.883945468
 21
8.7806036547
  0
LINE
  5
511
100
AcDbEntity
  8
0
100
AcDbLine
 62
9
  6
CONTINUOUS
 10
12.1752388812
 20
8.2734691845
 11
12.1776266159
 21
8.2699785393
  0
SPLINE
  5
512
100
AcDbEntity
  8
0
100
AcDbSpline
 62
7
  6
CONTINUOUS
 70
0
 71
3
 72
36
 73
32
 74
0
 42
0.0000001
 43
0.0000001
 44
0.0000000001
 40
0.0
 40
0.0
 40
0.0
 40
0.0
 40
0.0295705048
 40
0.0577173581
 40
0.0843982823
 40
0.1096089248
 40
0.1333864968
 40
0.1447671303
 40
0.1558293172
 40
0.1770846481
 40
0.1974090891
 40
0.217140858
 40
0.2366956178
 40
0.2565336901
 40
0.2771119254
 40
0.2988366281
 40
0.3220329184
 40
0.3469325943
 40
0.3736760848
 40
0.402324358
 40
0.4328739412
 40
0.4652707774
 40
0.4994236514
 40
0.5352168254
 40
0.5725187461
 40
0.611190997
 40
0.6510940133
 40
0.7340413191
 40
0.8203762895
 40
0.9092561637
 40
1.0
 40
1.0
 40
1.0
 40
1.0
 10
12.1776251761
 20
8.2699775571
 30
0.0
 10
12.1774935236
 20
8.2594878938
 30
0.0
 10
12.1768512731
 20
8.2390149983
 30
0.0
 10
12.1745274613
 20
8.2091516918
 30
0.0
 10
12.170748859
 20
8.1809914522
 30
0.0
 10
12.1653977842
 20
8.1546624318
 30
0.0
 10
12.1594459723
 20
8.134056837
 30
0.0
 10
12.1537469873
 20
8.1186743603
 30
0.0
 10
12.1475990497
 20
8.1044369979
 30
0.0
 10
12.13874707
 20
8.0879355674
 30
0.0
 10
12.1259691058
 20
8.0702445801
 30
0.0
 10
12.1111023304
 20
8.0550827449
 30
0.0
 10
12.0941214269
 20
8.0426094042
 30
0.0
 10
12.0750537212
 20
8.0329605463
 30
0.0
 10
12.053971172
 20
8.0262269075
 30
0.0
 10
12.0309687093
 20
8.0224492191
 30
0.0
 10
12.0061517648
 20
8.0216339261
 30
0.0
 10
11.979638487
 20
8.023764907
 30
0.0
 10
11.9515645135
 20
8.028806286
 30
0.0
 10
11.9220844044
 20
8.0367040223
 30
0.0
 10
11.8913695325
 20
8.0473860973
 30
0.0
 10
11.8596033065
 20
8.060762585
 30
0.0
 10
11.8269748737
 20
8.0767268074
 30
0.0
 10
11.7936741108
 20
8.0951599987
 30
0.0
 10
11.7598867374
 20
8.1159347591
 30
0.0
 10
11.7257884095
 20
8.1389166431
 30
0.0
 10
11.6795335193
 20
8.1727597711
 30
0.0
 10
11.6220637681
 20
8.2198110518
 30
0.0
 10
11.5549751022
 20
8.2822362463
 30
0.0
 10
11.4896865148
 20
8.3504166197
 30
0.0
 10
11.4481072093
 20
8.3987494513
 30
0.0
 10
11.4277232066
 20
8.4236662494
 30
0.0
  0
SPLINE
  5
513
100
AcDbEntity
  8
0
100
AcDbSpline
 62
7
  6
CONTINUOUS
 70
0
 71
3
 72
9
 73
5
 74
0
 42
0.0000001
 43
0.0000001
 44
0.0000000001
 40
0.0
 40
0.0
 40
0.0
 40
0.0
 40
0.4850310782
 40
1.0
 40
1.0
 40
1.0
 40
1.0
 10
11.4277269842
 20
8.4236605173
 30
0.0
 10
11.498962705
 20
8.4850350561
 30
0.0
 10
11.6479639958
 20
8.6091088639
 30
0.0
 10
11.8004550324
 20
8.728851779
 30
0.0
 10
11.8797352438
 20
8.789524132
 30
0.0
  0
LINE
  5
514
100
AcDbEntity
  8
0
100
AcDbLine
 62
7
  6
CONTINUOUS
 10
9.6976923427
 20
8.2750583951
 11
9.6977595136
 21
8.2699778126
  0
SPLINE
  5
515
100
AcDbEntity
  8
0
100
AcDbSpline
 62
7
  6
CONTINUOUS
 70
0
 71
3
 72
36
 73
32
 74
0
 42
0.0000001
 43
0.0000001
 44
0.0000000001
 40
0.0
 40
0.0
 40
0.0
 40
0.0
 40
0.0295706458
 40
0.0577176832
 40
0.0843985933
 40
0.1096091806
 40
0.1333867446
 40
0.1447673738
 40
0.1558295517
 40
0.1770848717
 40
0.1974093209
 40
0.217141095
 40
0.2366958563
 40
0.2565339321
 40
0.2771121611
 40
0.2988368398
 40
0.3220331027
 40
0.3469327632
 40
0.3736762632
 40
0.4023245478
 40
0.4328741383
 40
0.4652709836
 40
0.4994238449
 40
0.5352169885
 40
0.5725188911
 40
0.6111911256
 40
0.651094122
 40
0.7340414129
 40
0.8203763375
 40
0.9092561782
 40
1.0
 40
1.0
 40
1.0
 40
1.0
 10
9.6977595136
 20
8.2699778126
 30
0.0
 10
9.6978911675
 20
8.2594880968
 30
0.0
 10
9.698533423
 20
8.2390150815
 30
0.0
 10
9.7008572209
 20
8.209151656
 30
0.0
 10
9.7046358316
 20
8.1809913689
 30
0.0
 10
9.709986923
 20
8.1546623735
 30
0.0
 10
9.7159387276
 20
8.1340567964
 30
0.0
 10
9.7216377123
 20
8.1186743236
 30
0.0
 10
9.7277856462
 20
8.1044369647
 30
0.0
 10
9.7366376381
 20
8.0879355403
 30
0.0
 10
9.7494156057
 20
8.0702445484
 30
0.0
 10
9.7642823938
 20
8.0550827105
 30
0.0
 10
9.7812633098
 20
8.0426093721
 30
0.0
 10
9.8003310251
 20
8.0329605225
 30
0.0
 10
9.8214135732
 20
8.0262268954
 30
0.0
 10
9.8444160216
 20
8.0224492115
 30
0.0
 10
9.8692329484
 20
8.0216339301
 30
0.0
 10
9.8957462208
 20
8.0237649071
 30
0.0
 10
9.9238202018
 20
8.0288062953
 30
0.0
 10
9.9533003276
 20
8.0367040353
 30
0.0
 10
9.9840152149
 20
8.0473861206
 30
0.0
 10
10.0157814468
 20
8.0607626187
 30
0.0
 10
10.048409877
 20
8.0767268385
 30
0.0
 10
10.0817106257
 20
8.0951600297
 30
0.0
 10
10.1154979864
 20
8.1159347848
 30
0.0
 10
10.1495963064
 20
8.1389166636
 30
0.0
 10
10.1958511915
 20
8.1727597909
 30
0.0
 10
10.2533209334
 20
8.219811066
 30
0.0
 10
10.32040959
 20
8.2822362535
 30
0.0
 10
10.3856981698
 20
8.3504166195
 30
0.0
 10
10.4272774746
 20
8.3987494493
 30
0.0
 10
10.4476614789
 20
8.4236662494
 30
0.0
  0
SPLINE
  5
516
100
AcDbEntity
  8
0
100
AcDbSpline
 62
7
  6
CONTINUOUS
 70
0
 71
3
 72
15
 73
11
 74
0
 42
0.0000001
 43
0.0000001
 44
0.0000000001
 40
0.0
 40
0.0
 40
0.0
 40
0.0
 40
0.1209284242
 40
0.2453164395
 40
0.3720560104
 40
0.5
 40
0.6279439896
 40
0.7546835605
 40
0.8790715758
 40
1.0
 40
1.0
 40
1.0
 40
1.0
 10
10.4476643693
 20
8.4236907333
 30
0.0
 10
10.4869059267
 20
8.4182007995
 30
0.0
 10
10.5667347197
 20
8.4086112245
 30
0.0
 10
10.6882363493
 20
8.3983780435
 30
0.0
 10
10.8123137719
 20
8.3921889304
 30
0.0
 10
10.9376923427
 20
8.3901320917
 30
0.0
 10
11.0630709136
 20
8.3921889304
 30
0.0
 10
11.1871483362
 20
8.3983780435
 30
0.0
 10
11.3086499658
 20
8.4086112245
 30
0.0
 10
11.3884787588
 20
8.4182007995
 30
0.0
 10
11.4277203161
 20
8.4236907333
 30
0.0
  0
LINE
  5
517
100
AcDbEntity
  8
0
100
AcDbLine
 62
7
  6
CONTINUOUS
 10
12.1776251727
 20
8.2699779476
 11
12.1776923427
 21
8.2750588872
  0
SPLINE
  5
518
100
AcDbEntity
  8
0
100
AcDbSpline
 62
7
  6
CONTINUOUS
 70
0
 71
3
 72
9
 73
5
 74
0
 42
0.0000001
 43
0.0000001
 44
0.0000000001
 40
0.0
 40
0.0
 40
0.0
 40
0.0
 40
0.2634757241
 40
1.0
 40
1.0
 40
1.0
 40
1.0
 10
11.3978071201
 20
9.5472120629
 30
0.0
 10
11.3984265872
 20
9.5479540872
 30
0.0
 10
11.4007085074
 20
9.5508262554
 30
0.0
 10
11.4026989471
 20
9.5539389381
 30
0.0
 10
11.403917126
 20
9.5563508456
 30
0.0
  0
SPLINE
  5
519
100
AcDbEntity
  8
0
100
AcDbSpline
 62
7
  6
CONTINUOUS
 70
0
 71
3
 72
9
 73
5
 74
0
 42
0.0000001
 43
0.0000001
 44
0.0000000001
 40
0.0
 40
0.0
 40
0.0
 40
0.0
 40
0.5137247856
 40
1.0
 40
1.0
 40
1.0
 40
1.0
 10
11.403917126
 20
9.5563508456
 30
0.0
 10
11.4050845698
 20
9.5586623015
 30
0.0
 10
11.4069261235
 20
9.5634040368
 30
0.0
 10
11.4075808943
 20
9.5684627617
 30
0.0
 10
11.4075808943
 20
9.5709139428
 30
0.0
  0
LINE
  5
51A
100
AcDbEntity
  8
0
100
AcDbLine
 62
7
  6
CONTINUOUS
 10
11.8650304137
 20
8.821231845
 11
11.8613783731
 21
8.8260848815
  0
LINE
  5
51B
100
AcDbEntity
  8
0
100
AcDbLine
 62
9
  6
CONTINUOUS
 10
9.9956520858
 20
8.7895364458
 11
9.9931069009
 21
8.7841299636
  0
LINE
  5
51C
100
AcDbEntity
  8
0
100
AcDbLine
 62
9
  6
CONTINUOUS
 10
9.9931069009
 20
8.7841299636
 11
9.9914406054
 21
8.7806029829
  0
SPLINE
  5
51D
100
AcDbEntity
  8
0
100
AcDbSpline
 62
9
  6
CONTINUOUS
 70
0
 71
3
 72
11
 73
7
 74
0
 42
0.0000001
 43
0.0000001
 44
0.0000000001
 40
0.0
 40
0.0
 40
0.0
 40
0.0
 40
0.2500023941
 40
0.500002241
 40
0.7500040593
 40
1.0
 40
1.0
 40
1.0
 40
1.0
 10
9.9806627993
 20
8.7580249001
 30
0.0
 10
9.9603989984
 20
8.7159504448
 30
0.0
 10
9.9182362751
 20
8.6325790856
 30
0.0
 10
9.8502974513
 20
8.5100186286
 30
0.0
 10
9.7777839888
 20
8.3901095453
 30
0.0
 10
9.7264922094
 20
8.3120257407
 30
0.0
 10
9.7001471867
 20
8.2734678802
 30
0.0
  0
LINE
  5
51E
100
AcDbEntity
  8
0
100
AcDbLine
 62
9
  6
CONTINUOUS
 10
9.7001471867
 20
8.2734678802
 11
9.6977595106
 21
8.2699774653
  0
SPLINE
  5
51F
100
AcDbEntity
  8
0
100
AcDbSpline
 62
7
  6
CONTINUOUS
 70
0
 71
3
 72
21
 73
17
 74
0
 42
0.0000001
 43
0.0000001
 44
0.0000000001
 40
0.0
 40
0.0
 40
0.0
 40
0.0
 40
0.0701205445
 40
0.135331731
 40
0.2530122971
 40
0.3071774133
 40
0.3594288755
 40
0.4108825719
 40
0.4627057975
 40
0.516041845
 40
0.5719399354
 40
0.6312917171
 40
0.6948149518
 40
0.7630736868
 40
0.8365027395
 40
1.0
 40
1.0
 40
1.0
 40
1.0
 10
10.4559779904
 20
9.5648301025
 30
0.0
 10
10.4542312378
 20
9.5632040895
 30
0.0
 10
10.4509750345
 20
9.5599355898
 30
0.0
 10
10.4454680791
 20
9.5533103291
 30
0.0
 10
10.4412552168
 20
9.5463201872
 30
0.0
 10
10.4387486827
 20
9.5390917312
 30
0.0
 10
10.4377538611
 20
9.5337901317
 30
0.0
 10
10.4375988745
 20
9.5284773435
 30
0.0
 10
10.4382845346
 20
9.5231698817
 30
0.0
 10
10.4398069398
 20
9.5178837238
 30
0.0
 10
10.4421596731
 20
9.5126321219
 30
0.0
 10
10.4453305136
 20
9.5074230799
 30
0.0
 10
10.4493083461
 20
9.5022619778
 30
0.0
 10
10.4540845823
 20
9.4971537254
 30
0.0
 10
10.4617854361
 20
9.4901710782
 30
0.0
 10
10.4683406424
 20
9.4854263614
 30
0.0
 10
10.473002696
 20
9.4823887221
 30
0.0
  0
LINE
  5
520
100
AcDbEntity
  8
0
100
AcDbLine
 62
9
  6
CONTINUOUS
 10
9.9877886214
 20
8.786800236
 11
9.9917114022
 21
8.788833448
  0
LINE
  5
521
100
AcDbEntity
  8
0
100
AcDbLine
 62
9
  6
CONTINUOUS
 10
9.9917114022
 20
8.788833448
 11
9.9936502516
 21
8.7898431629
  0
SPLINE
  5
522
100
AcDbEntity
  8
0
100
AcDbSpline
 62
7
  6
CONTINUOUS
 70
0
 71
3
 72
18
 73
14
 74
0
 42
0.0000001
 43
0.0000001
 44
0.0000000001
 40
0.0
 40
0.0
 40
0.0
 40
0.0
 40
0.0480248991
 40
0.1020744396
 40
0.157241937
 40
0.2113248123
 40
0.2660108278
 40
0.3232280863
 40
0.4465415633
 40
0.5773050911
 40
0.7133025806
 40
0.8544474999
 40
1.0
 40
1.0
 40
1.0
 40
1.0
 10
9.9936503715
 20
8.789827268
 30
0.0
 10
9.9935373502
 20
8.7897675909
 30
0.0
 10
9.9933218148
 20
8.7895966317
 30
0.0
 10
9.9930318339
 20
8.7892958072
 30
0.0
 10
9.9927321159
 20
8.7889807825
 30
0.0
 10
9.9924201837
 20
8.7886757897
 30
0.0
 10
9.9921102282
 20
8.7883608672
 30
0.0
 10
9.9916985211
 20
8.7878887098
 30
0.0
 10
9.9912111038
 20
8.787217409
 30
0.0
 10
9.9906426143
 20
8.7863487281
 30
0.0
 10
9.9900833039
 20
8.7854179648
 30
0.0
 10
9.9895392485
 20
8.7844331502
 30
0.0
 10
9.9891893572
 20
8.7837550118
 30
0.0
 10
9.9890155153
 20
8.7834088516
 30
0.0
  0
SPLINE
  5
523
100
AcDbEntity
  8
0
100
AcDbSpline
 62
9
  6
CONTINUOUS
 70
0
 71
3
 72
9
 73
5
 74
0
 42
0.0000001
 43
0.0000001
 44
0.0000000001
 40
0.0
 40
0.0
 40
0.0
 40
0.0
 40
0.2442129905
 40
1.0
 40
1.0
 40
1.0
 40
1.0
 10
10.0586192228
 20
8.8390356119
 30
0.0
 10
10.0580747263
 20
8.8379248903
 30
0.0
 10
10.0561936815
 20
8.8332113164
 30
0.0
 10
10.0556187362
 20
8.827998423
 30
0.0
 10
10.0559274922
 20
8.8241826312
 30
0.0
  0
SPLINE
  5
524
100
AcDbEntity
  8
0
100
AcDbSpline
 62
9
  6
CONTINUOUS
 70
0
 71
3
 72
21
 73
17
 74
0
 42
0.0000001
 43
0.0000001
 44
0.0000000001
 40
0.0
 40
0.0
 40
0.0
 40
0.0
 40
0.1779759313
 40
0.3461527158
 40
0.4263080028
 40
0.5035540115
 40
0.5777135342
 40
0.6483486221
 40
0.7146189197
 40
0.7753589467
 40
0.829695296
 40
0.8770656066
 40
0.9174289676
 40
0.9510155995
 40
0.9783493657
 40
1.0
 40
1.0
 40
1.0
 40
1.0
 10
11.5181923427
 20
9.5301550803
 30
0.0
 10
11.5181923418
 20
9.5594823617
 30
0.0
 10
11.5181762109
 20
9.6165222013
 30
0.0
 10
11.5178713337
 20
9.6867700395
 30
0.0
 10
11.5173226216
 20
9.7404169065
 30
0.0
 10
11.5167366371
 20
9.778569754
 30
0.0
 10
11.5159195118
 20
9.8151493704
 30
0.0
 10
11.5148418412
 20
9.8499129228
 30
0.0
 10
11.5135315142
 20
9.8824554528
 30
0.0
 10
11.5120746739
 20
9.912302991
 30
0.0
 10
11.5105461188
 20
9.9390279551
 30
0.0
 10
11.5090162596
 20
9.9623888209
 30
0.0
 10
11.5075369671
 20
9.9823256994
 30
0.0
 10
11.506147666
 20
9.998957863
 30
0.0
 10
11.5048618494
 20
10.0125034742
 30
0.0
 10
11.5039895552
 20
10.0205284442
 30
0.0
 10
11.5035638844
 20
10.0240706
 30
0.0
  0
SPLINE
  5
525
100
AcDbEntity
  8
0
100
AcDbSpline
 62
7
  6
CONTINUOUS
 70
0
 71
3
 72
12
 73
8
 74
0
 42
0.0000001
 43
0.0000001
 44
0.0000000001
 40
0.0
 40
0.0
 40
0.0
 40
0.0
 40
0.2568303712
 40
0.3799540295
 40
0.501699195
 40
0.7435524727
 40
1.0
 40
1.0
 40
1.0
 40
1.0
 10
9.9956521052
 20
8.7895365962
 30
0.0
 10
9.9955089738
 20
8.7896461627
 30
0.0
 10
9.9952656798
 20
8.7897679329
 30
0.0
 10
9.9949292109
 20
8.7898708606
 30
0.0
 10
9.9945977752
 20
8.7899539272
 30
0.0
 10
9.9941606793
 20
8.7900020833
 30
0.0
 10
9.9938095318
 20
8.7899113072
 30
0.0
 10
9.9936503715
 20
8.789827268
 30
0.0
  0
LINE
  5
526
100
AcDbEntity
  8
0
100
AcDbLine
 62
9
  6
CONTINUOUS
 10
9.9936502406
 20
8.7898446072
 11
9.9973564889
 21
8.7917837124
  0
SPLINE
  5
527
100
AcDbEntity
  8
0
100
AcDbSpline
 62
9
  6
CONTINUOUS
 70
0
 71
3
 72
9
 73
5
 74
0
 42
0.0000001
 43
0.0000001
 44
0.0000000001
 40
0.0
 40
0.0
 40
0.0
 40
0.0
 40
0.2557861502
 40
1.0
 40
1.0
 40
1.0
 40
1.0
 10
9.9973564889
 20
8.7917837124
 30
0.0
 10
10.0024100685
 20
8.7944358363
 30
0.0
 10
10.0221131884
 20
8.8049064749
 30
0.0
 10
10.0415930398
 20
8.8157997397
 30
0.0
 10
10.0559275676
 20
8.8241816316
 30
0.0
  0
SPLINE
  5
528
100
AcDbEntity
  8
0
100
AcDbSpline
 62
9
  6
CONTINUOUS
 70
0
 71
3
 72
37
 73
33
 74
0
 42
0.0000001
 43
0.0000001
 44
0.0000000001
 40
0.0
 40
0.0
 40
0.0
 40
0.0
 40
0.0011283877
 40
0.0020745856
 40
0.0030415608
 40
0.0042210206
 40
0.0057250692
 40
0.0076083569
 40
0.0098982438
 40
0.0126095571
 40
0.015750945
 40
0.0193277468
 40
0.0277996091
 40
0.0380592369
 40
0.0501724765
 40
0.0642075207
 40
0.0802358642
 40
0.0983570666
 40
0.1186799798
 40
0.1413132099
 40
0.1663685131
 40
0.2242017625
 40
0.292720666
 40
0.3715210517
 40
0.4597237225
 40
0.5561178074
 40
0.6069854016
 40
0.6594159603
 40
0.7684109532
 40
0.8247267767
 40
0.8821162622
 40
1.0
 40
1.0
 40
1.0
 40
1.0
 10
10.5799049123
 20
10.4633369045
 30
0.0
 10
10.5800453966
 20
10.4634985638
 30
0.0
 10
10.5803396091
 20
10.4637729942
 30
0.0
 10
10.5809102576
 20
10.4639622753
 30
0.0
 10
10.5815057737
 20
10.4638310493
 30
0.0
 10
10.5820834411
 20
10.4634314509
 30
0.0
 10
10.5826725251
 20
10.4627901957
 30
0.0
 10
10.583283499
 20
10.4618997269
 30
0.0
 10
10.5839196601
 20
10.4607569341
 30
0.0
 10
10.5845810726
 20
10.4593592244
 30
0.0
 10
10.5852674928
 20
10.4577057731
 30
0.0
 10
10.5862728988
 20
10.4550030923
 30
0.0
 10
10.5875685186
 20
10.4509700105
 30
0.0
 10
10.5891469053
 20
10.4453315201
 30
0.0
 10
10.5908179909
 20
10.4386254562
 30
0.0
 10
10.5925818554
 20
10.4308164381
 30
0.0
 10
10.594438861
 20
10.4218609504
 30
0.0
 10
10.5963897727
 20
10.4117073126
 30
0.0
 10
10.5984367865
 20
10.400296538
 30
0.0
 10
10.600583933
 20
10.3875673459
 30
0.0
 10
10.603728222
 20
10.3677870418
 30
0.0
 10
10.6078462383
 20
10.339344487
 30
0.0
 10
10.6128281507
 20
10.3007243788
 30
0.0
 10
10.6178576292
 20
10.2563035695
 30
0.0
 10
10.6227750654
 20
10.2065509329
 30
0.0
 10
10.6266095352
 20
10.1620224151
 30
0.0
 10
10.6294738348
 20
10.1242282371
 30
0.0
 10
10.6322122156
 20
10.0840270418
 30
0.0
 10
10.6345939646
 20
10.0427668003
 30
0.0
 10
10.6368288582
 20
10.000556705
 30
0.0
 10
10.6390581184
 20
9.9566568516
 30
0.0
 10
10.6406012646
 20
9.9234248862
 30
0.0
 10
10.6415540393
 20
9.9010704488
 30
0.0
  0
SPLINE
  5
529
100
AcDbEntity
  8
0
100
AcDbSpline
 62
9
  6
CONTINUOUS
 70
0
 71
3
 72
9
 73
5
 74
0
 42
0.0000001
 43
0.0000001
 44
0.0000000001
 40
0.0
 40
0.0
 40
0.0
 40
0.0
 40
0.4857511303
 40
1.0
 40
1.0
 40
1.0
 40
1.0
 10
10.6415540393
 20
9.9010704488
 30
0.0
 10
10.6432148972
 20
9.8621026345
 30
0.0
 10
10.646093803
 20
9.7818540253
 30
0.0
 10
10.6471652467
 20
9.7015605185
 30
0.0
 10
10.6474430103
 20
9.660270046
 30
0.0
  0
SPLINE
  5
52A
100
AcDbEntity
  8
0
100
AcDbSpline
 62
9
  6
CONTINUOUS
 70
0
 71
3
 72
10
 73
6
 74
0
 42
0.0000001
 43
0.0000001
 44
0.0000000001
 40
0.0
 40
0.0
 40
0.0
 40
0.0
 40
0.5098604395
 40
0.7576887373
 40
1.0
 40
1.0
 40
1.0
 40
1.0
 10
10.057899493
 20
8.8253380244
 30
0.0
 10
10.1309272647
 20
8.7653273038
 30
0.0
 10
10.2376050165
 20
8.6738634149
 30
0.0
 10
10.3745751823
 20
8.548921601
 30
0.0
 10
10.4404323583
 20
8.4863039788
 30
0.0
 10
10.4726529224
 20
8.4550026992
 30
0.0
  0
LINE
  5
52B
100
AcDbEntity
  8
0
100
AcDbLine
 62
9
  6
CONTINUOUS
 10
10.0586192225
 20
8.8390356123
 11
10.0606127216
 21
8.8402956794
  0
SPLINE
  5
52C
100
AcDbEntity
  8
0
100
AcDbSpline
 62
9
  6
CONTINUOUS
 70
0
 71
3
 72
16
 73
12
 74
0
 42
0.0000001
 43
0.0000001
 44
0.0000000001
 40
0.0
 40
0.0
 40
0.0
 40
0.0
 40
0.3410692166
 40
0.4971128557
 40
0.6409957064
 40
0.7678449433
 40
0.8709749661
 40
0.9125881673
 40
0.9475346859
 40
0.9764281309
 40
1.0
 40
1.0
 40
1.0
 40
1.0
 10
10.3571923441
 20
9.5303594851
 30
0.0
 10
10.3571930938
 20
9.5863201821
 30
0.0
 10
10.3576410299
 20
9.6678865593
 30
0.0
 10
10.3596420916
 20
9.7730397493
 30
0.0
 10
10.3616251195
 20
9.8430357331
 30
0.0
 10
10.363958551
 20
9.9043333845
 30
0.0
 10
10.3661280593
 20
9.948843276
 30
0.0
 10
10.367904533
 20
9.9782724917
 30
0.0
 10
10.3691060142
 20
9.9955331941
 30
0.0
 10
10.3702624728
 20
10.0098288515
 30
0.0
 10
10.3710744485
 20
10.0183990986
 30
0.0
 10
10.3714754447
 20
10.0222457925
 30
0.0
  0
SPLINE
  5
52D
100
AcDbEntity
  8
0
100
AcDbSpline
 62
9
  6
CONTINUOUS
 70
0
 71
3
 72
9
 73
5
 74
0
 42
0.0000001
 43
0.0000001
 44
0.0000000001
 40
0.0
 40
0.0
 40
0.0
 40
0.0
 40
0.4922573166
 40
1.0
 40
1.0
 40
1.0
 40
1.0
 10
10.0606127216
 20
8.8402956794
 30
0.0
 10
10.0595019738
 20
8.838038445
 30
0.0
 10
10.0579214324
 20
8.8330993846
 30
0.0
 10
10.0576945446
 20
8.8279299268
 30
0.0
 10
10.0579095058
 20
8.8253439825
 30
0.0
  0
SPLINE
  5
52E
100
AcDbEntity
  8
0
100
AcDbSpline
 62
9
  6
CONTINUOUS
 70
0
 71
3
 72
15
 73
11
 74
0
 42
0.0000001
 43
0.0000001
 44
0.0000000001
 40
0.0
 40
0.0
 40
0.0
 40
0.0
 40
0.0970866815
 40
0.2012190415
 40
0.3131819915
 40
0.4335029956
 40
0.5624453434
 40
0.699982222
 40
0.8457899468
 40
1.0
 40
1.0
 40
1.0
 40
1.0
 10
11.5869040025
 20
9.0627621058
 30
0.0
 10
11.5912349288
 20
9.0532645196
 30
0.0
 10
11.6014194762
 20
9.0341163674
 30
0.0
 10
11.6202870134
 20
9.0061651985
 30
0.0
 10
11.6432515517
 20
8.978160065
 30
0.0
 10
11.6702320661
 20
8.9501751493
 30
0.0
 10
11.7010976591
 20
8.9222620945
 30
0.0
 10
11.7356814171
 20
8.8944973782
 30
0.0
 10
11.7738352134
 20
8.86694631
 30
0.0
 10
11.8007788706
 20
8.8491945641
 30
0.0
 10
11.8147695403
 20
8.8402972137
 30
0.0
  0
SPLINE
  5
52F
100
AcDbEntity
  8
0
100
AcDbSpline
 62
7
  6
CONTINUOUS
 70
0
 71
3
 72
15
 73
11
 74
0
 42
0.0000001
 43
0.0000001
 44
0.0000000001
 40
0.0
 40
0.0
 40
0.0
 40
0.0
 40
0.280647148
 40
0.4154984178
 40
0.5455071228
 40
0.6702778531
 40
0.7892731436
 40
0.8451678556
 40
0.8978742573
 40
1.0
 40
1.0
 40
1.0
 40
1.0
 10
11.8869914385
 20
8.7821301247
 30
0.0
 10
11.8866559125
 20
8.7828406326
 30
0.0
 10
11.8861404769
 20
8.7838840774
 30
0.0
 10
11.8854109563
 20
8.7852260831
 30
0.0
 10
11.8848569777
 20
8.7861662022
 30
0.0
 10
11.8842881839
 20
8.7870448327
 30
0.0
 10
11.8838037676
 20
8.7877305427
 30
0.0
 10
11.8834020377
 20
8.7882257203
 30
0.0
 10
11.8829975566
 20
8.7886558236
 30
0.0
 10
11.8826782164
 20
8.7889494698
 30
0.0
 10
11.8824789491
 20
8.7891545253
 30
0.0
  0
LINE
  5
530
100
AcDbEntity
  8
0
100
AcDbLine
 62
7
  6
CONTINUOUS
 10
11.8824789491
 20
8.7891545253
 11
11.8817345071
 21
8.7898273397
  0
SPLINE
  5
531
100
AcDbEntity
  8
0
100
AcDbSpline
 62
7
  6
CONTINUOUS
 70
0
 71
3
 72
31
 73
27
 74
0
 42
0.0000001
 43
0.0000001
 44
0.0000000001
 40
0.0
 40
0.0
 40
0.0
 40
0.0
 40
0.1488506357
 40
0.2950782714
 40
0.3666159464
 40
0.43647559
 40
0.5037179525
 40
0.5664288981
 40
0.5948957243
 40
0.6201782638
 40
0.6407791391
 40
0.6487474011
 40
0.6551858581
 40
0.6607116421
 40
0.6664509638
 40
0.6735002328
 40
0.6822163808
 40
0.6924914667
 40
0.7041114317
 40
0.7305185228
 40
0.7599333007
 40
0.7913711302
 40
0.8242339822
 40
0.8581204661
 40
0.9280259423
 40
1.0
 40
1.0
 40
1.0
 40
1.0
 10
10.0100417023
 20
8.828838945
 30
0.0
 10
10.0096219624
 20
8.8279161189
 30
0.0
 10
10.0087979571
 20
8.8260830431
 30
0.0
 10
10.0078044202
 20
8.8237920836
 30
0.0
 10
10.0070559863
 20
8.8219816627
 30
0.0
 10
10.0065342357
 20
8.8206597995
 30
0.0
 10
10.0060649509
 20
8.8193822006
 30
0.0
 10
10.005731867
 20
8.8183554055
 30
0.0
 10
10.0055321533
 20
8.8175870621
 30
0.0
 10
10.005439225
 20
8.8170894839
 30
0.0
 10
10.0054104786
 20
8.8167207669
 30
0.0
 10
10.0054467944
 20
8.8164836966
 30
0.0
 10
10.0055030824
 20
8.8163571866
 30
0.0
 10
10.0055983655
 20
8.8162748165
 30
0.0
 10
10.0057267377
 20
8.8162545749
 30
0.0
 10
10.005870796
 20
8.8162901143
 30
0.0
 10
10.0060318656
 20
8.8163655961
 30
0.0
 10
10.0062084218
 20
8.8164772335
 30
0.0
 10
10.0064712132
 20
8.8166754995
 30
0.0
 10
10.0068133834
 20
8.8169829367
 30
0.0
 10
10.0072316299
 20
8.817405322
 30
0.0
 10
10.0076630303
 20
8.8178759267
 30
0.0
 10
10.0081015573
 20
8.818380874
 30
0.0
 10
10.0086978621
 20
8.8190955515
 30
0.0
 10
10.009444794
 20
8.8200312656
 30
0.0
 10
10.010029459
 20
8.8208007044
 30
0.0
 10
10.0103244272
 20
8.8211922326
 30
0.0
  0
SPLINE
  5
532
100
AcDbEntity
  8
0
100
AcDbSpline
 62
7
  6
CONTINUOUS
 70
0
 71
3
 72
9
 73
5
 74
0
 42
0.0000001
 43
0.0000001
 44
0.0000000001
 40
0.0
 40
0.0
 40
0.0
 40
0.0
 40
0.5149689221
 40
1.0
 40
1.0
 40
1.0
 40
1.0
 10
9.9956494364
 20
8.7895241362
 30
0.0
 10
10.0749296488
 20
8.7288517824
 30
0.0
 10
10.2274206872
 20
8.6091088659
 30
0.0
 10
10.3764219797
 20
8.4850350568
 30
0.0
 10
10.4476577013
 20
8.4236605174
 30
0.0
  0
ELLIPSE
  5
533
100
AcDbEntity
  8
0
100
AcDbEllipse
 62
7
  6
CONTINUOUS
 10
6.9376923427
 20
9.0696538507
 30
0.0
 11
1.0411369379
 21
0.9898582626
 31
0.0
 40
0.5769821704
 41
-3.1197341656
 42
-2.0725366144
  0
ELLIPSE
  5
534
100
AcDbEntity
  8
0
100
AcDbEllipse
 62
7
  6
CONTINUOUS
 10
6.9376923427
 20
9.0696538507
 30
0.0
 11
-1.0411369379
 21
0.9898582626
 31
0.0
 40
0.5769821704
 41
-4.2106486927
 42
-3.1634511416
  0
ELLIPSE
  5
535
100
AcDbEntity
  8
0
100
AcDbEllipse
 62
7
  6
CONTINUOUS
 10
14.9376923427
 20
9.0696538507
 30
0.0
 11
1.0411369379
 21
0.9898582626
 31
0.0
 40
0.5769821704
 41
-3.1197341656
 42
-2.0725366144
  0
ELLIPSE
  5
536
100
AcDbEntity
  8
0
100
AcDbEllipse
 62
7
  6
CONTINUOUS
 10
14.9376923427
 20
9.0696538507
 30
0.0
 11
-1.0411369379
 21
0.9898582626
 31
0.0
 40
0.5769821704
 41
-4.2106486927
 42
-3.1634511416
  0
ENDSEC
  0
SECTION
  2
OBJECTS
  0
DICTIONARY
  5
C
100
AcDbDictionary
280
0
281
1
  3
ACAD_GROUP
350
D
  3
ACAD_MLINESTYLE
350
17
  3
ACAD_LAYOUT
350
1A
  3
ACAD_PLOTSETTINGS
350
19
  3
ACAD_PLOTSTYLENAME
350
E
  0
DICTIONARY
  5
D
102
{ACAD_REACTORS
330
C
102
}
100
AcDbDictionary
280
0
281
1
  0
ACDBDICTIONARYWDFLT
  5
E
102
{ACAD_REACTORS
330
C
102
}
100
AcDbDictionary
281
1
  3
Normal
350
F
100
AcDbDictionaryWithDefault
340
F
  0
DICTIONARY
  5
17
102
{ACAD_REACTORS
330
C
102
}
100
AcDbDictionary
280
0
281
1
  3
Standard
350
18
  0
DICTIONARY
  5
19
102
{ACAD_REACTORS
330
C
102
}
100
AcDbDictionary
281
1
  0
DICTIONARY
  5
1A
102
{ACAD_REACTORS
330
C
102
}
100
AcDbDictionary
281
1
  3
Model
350
537
  3
Layout1
350
538
  0
ACDBPLACEHOLDER
  5
F
102
{ACAD_REACTORS
330
E
102
}
  0
MLINESTYLE
  5
18
102
{ACAD_REACTORS
330
17
102
}
100
AcDbMlineStyle
  2
STANDARD
 70
0
  3

 62
256
 51
90.0
 52
90.0
 71
2
 49
0.5
 62
256
  6
BYLAYER
 49
-0.5
 62
256
  6
BYLAYER
  0
LAYOUT
  5
537
102
{ACAD_REACTORS
330
1A
102
}
100
AcDbPlotSettings
  1

  2
none_device
  4
ANSI_C_(22.00_x_17.00_Inches)
  6

 40
0.0
 41
0.0
 42
0.0
 43
0.0
 44
558.8
 45
431.8
 46
0.0
 47
0.0
 48
0.0
 49
0.0
140
0.0
141
0.0
142
1.0
143
1.0
 70
1024
 72
0
 73
0
 74
0
  7

 75
0
147
1.0
148
0.0
149
0.0
100
AcDbLayout
  1
Model
 70
0
 71
0
 10
0.0
 20
0.0
 11
22.0
 21
17.0
 12
0.0
 22
0.0
 32
0.0
 14
0.0
 24
0.0
 34
0.0
 15
0.0
 25
0.0
 35
0.0
146
0.0
 13
0.0
 23
0.0
 33
0.0
 16
1.0
 26
0.0
 36
0.0
 17
0.0
 27
1.0
 37
0.0
 76
0
330
202
345
0
346
0
  0
LAYOUT
  5
538
102
{ACAD_REACTORS
330
1A
102
}
100
AcDbPlotSettings
  1

  2
none_device
  4
ANSI_C_(22.00_x_17.00_Inches)
  6

 40
0.0
 41
0.0
 42
0.0
 43
0.0
 44
558.8
 45
431.8
 46
0.0
 47
0.0
 48
0.0
 49
0.0
140
0.0
141
0.0
142
1.0
143
1.0
 70
0
 72
0
 73
0
 74
0
  7

 75
0
147
1.0
148
0.0
149
0.0
100
AcDbLayout
  1
Layout1
 70
0
 71
1
 10
0.0
 20
0.0
 11
22.0
 21
17.0
 12
0.0
 22
0.0
 32
0.0
 14
0.0
 24
0.0
 34
0.0
 15
0.0
 25
0.0
 35
0.0
146
0.0
 13
0.0
 23
0.0
 33
0.0
 16
1.0
 26
0.0
 36
0.0
 17
0.0
 27
1.0
 37
0.0
 76
0
330
203
345
0
346
0
  0
ENDSEC
  0
EOF
