999
DXF file: 1233-1_front.dxf
999
Pro/ENGINEER 2018400 by Parametric Technology Corporation
  0
SECTION
  2
HEADER
  9
$ACADVER
  1
AC1027
  9
$DWGCODEPAGE
  3
ANSI_1252
  9
$EXTMAX
 10
11.0
 20
8.5
 30
0.0
  9
$EXTMIN
 10
0.0
 20
0.0
 30
0.0
  9
$LIMMIN
 10
0.0
 20
0.0
  9
$LIMMAX
 10
11.0
 20
8.5
  9
$VIEWCTR
 10
5.5
 20
4.25
  9
$VIEWSIZE
 40
8.5
  9
$CLAYER
  8
0
  9
$LTSCALE
 40
0.605
  9
$CELTYPE
  6
BYLAYER
  9
$DIMSCALE
 40
1.0
  9
$DIMASZ
 40
0.1
  9
$DIMEXO
 40
0.0625
  9
$DIMDLI
 40
0.418
  9
$DIMEXE
 40
0.125
  9
$DIMCEN
 40
0.099
  9
$DIMLFAC
 40
1.0
  9
$DIMBLK
  1
_FILLED
  9
$DIMALT
 70
1
  9
$DIMALTD
 70
1
  9
$DIMALTTD
 70
2
  9
$DIMALTF
 40
25.4
  9
$DIMTXT
 40
0.08
  9
$DIMTOL
 70
1
  9
$DIMLIM
 70
0
  9
$DIMTFAC
 40
1.0
  9
$DIMTP
 40
0.01
  9
$DIMTM
 40
0.01
  9
$DIMGAP
 40
0.09
  9
$DIMDSEP
 70
46
  9
$AUNITS
 70
0
  9
$PDMODE
 70
3
  9
$PDSIZE
 40
0.3125
  9
$HANDSEED
  5
379
  9
$TILEMODE
 70
1
  9
$MEASUREMENT
 70
0
  9
$INSUNITS
 70
1
  0
ENDSEC
  0
SECTION
  2
CLASSES
  0
CLASS
  1
ACDBDICTIONARYWDFLT
  2
AcDbDictionaryWithDefault
  3
AutoCAD 2000
 90
0
 91
1
280
0
281
0
  0
CLASS
  1
ACDBPLACEHOLDER
  2
AcDbPlaceHolder
  3
AutoCAD 2000
 90
0
 91
1
280
0
281
0
  0
CLASS
  1
LAYOUT
  2
AcDbLayout
  3
AutoCAD 2000
 90
0
 91
0
280
0
281
0
  0
ENDSEC
  0
SECTION
  2
TABLES
  0
TABLE
  2
VPORT
  5
8
100
AcDbSymbolTable
 70
2
  0
VPORT
  5
1F4
100
AcDbSymbolTableRecord
100
AcDbViewportTableRecord
  2
*ACTIVE
 70
0
 10
0.0
 20
0.0
 11
1.0
 21
1.0
 12
5.5
 22
4.25
 13
0.0
 23
0.0
 14
1.0
 24
1.0
 15
0.0
 25
0.0
 16
0.0
 26
0.0
 36
1.0
 17
0.0
 27
0.0
 37
0.0
 40
8.5
 41
1.2941176471
 42
50.0
 43
0.0
 44
0.0
 50
0.0
 51
0.0
 71
0
 72
100
 73
1
 74
1
 75
0
 76
0
 77
0
 78
0
  0
ENDTAB
  0
TABLE
  2
LTYPE
  5
5
100
AcDbSymbolTable
 70
6
  0
LTYPE
  5
14
100
AcDbSymbolTableRecord
100
AcDbLinetypeTableRecord
  2
BYBLOCK
 70
0
  3

 72
65
 73
0
 40
0.0
  0
LTYPE
  5
15
100
AcDbSymbolTableRecord
100
AcDbLinetypeTableRecord
  2
BYLAYER
 70
0
  3

 72
65
 73
0
 40
0.0
  0
LTYPE
  5
16
100
AcDbSymbolTableRecord
100
AcDbLinetypeTableRecord
  2
CONTINUOUS
 70
64
  3
Solid line
 72
65
 73
0
 40
0.0
  0
LTYPE
  5
1F5
100
AcDbSymbolTableRecord
100
AcDbLinetypeTableRecord
  2
CENTER
 70
64
  3
____ _ ____ _ ____ _ ____ _ ____ _ ____ _ ____
 72
65
 73
4
 40
0.6
 49
0.375
 74
0
 49
-0.075
 74
0
 49
0.075
 74
0
 49
-0.075
 74
0
  0
LTYPE
  5
1F6
100
AcDbSymbolTableRecord
100
AcDbLinetypeTableRecord
  2
HIDDEN
 70
64
  3
- - - - - - - - - - - - - - - - - - - -
 72
65
 73
2
 40
0.2
 49
0.1
 74
0
 49
-0.1
 74
0
  0
LTYPE
  5
1F7
100
AcDbSymbolTableRecord
100
AcDbLinetypeTableRecord
  2
PHANTOM
 70
64
  3
_____ _ _ _____ _ _ _____ _ _ _____
 72
65
 73
6
 40
0.8
 49
0.45
 74
0
 49
-0.05
 74
0
 49
0.1
 74
0
 49
-0.05
 74
0
 49
0.1
 74
0
 49
-0.05
 74
0
  0
LTYPE
  5
1F8
100
AcDbSymbolTableRecord
100
AcDbLinetypeTableRecord
  2
DOT
 70
64
  3
. . . . . . . . . . . . . . . . . . . .
 72
65
 73
2
 40
0.2
 49
0.1
 74
0
 49
-0.1
 74
0
  0
LTYPE
  5
1F9
100
AcDbSymbolTableRecord
100
AcDbLinetypeTableRecord
  2
DASHED
 70
64
  3
- - - - - - - - - - - - - - - - - - - -
 72
65
 73
2
 40
0.2
 49
0.1
 74
0
 49
-0.1
 74
0
  0
ENDTAB
  0
TABLE
  2
LAYER
  5
2
100
AcDbSymbolTable
 70
36
  0
LAYER
  5
10
100
AcDbSymbolTableRecord
100
AcDbLayerTableRecord
  2
0
 70
0
 62
7
  6
CONTINUOUS
370
-3
390
F
  0
LAYER
  5
1FA
100
AcDbSymbolTableRecord
100
AcDbLayerTableRecord
  2
DEFAULT_1
 70
0
 62
7
  6
CENTER
370
-3
390
F
  0
LAYER
  5
1FB
100
AcDbSymbolTableRecord
100
AcDbLayerTableRecord
  2
DEFAULT_2
 70
0
 62
8
  6
HIDDEN
370
-3
390
F
  0
LAYER
  5
1FC
100
AcDbSymbolTableRecord
100
AcDbLayerTableRecord
  2
DEFAULT_3
 70
0
 62
7
  6
PHANTOM
370
-3
390
F
  0
LAYER
  5
1FD
100
AcDbSymbolTableRecord
100
AcDbLayerTableRecord
  2
DEFAULT_COORDINATE_SYSTEM
 70
0
 62
7
  6
CONTINUOUS
370
-3
390
F
  0
LAYER
  5
1FE
100
AcDbSymbolTableRecord
100
AcDbLayerTableRecord
  2
DEFAULT_DATUM_AXES
 70
0
 62
7
  6
CONTINUOUS
370
-3
390
F
  0
LAYER
  5
1FF
100
AcDbSymbolTableRecord
100
AcDbLayerTableRecord
  2
DEFAULT_DATUM_PLANES
 70
0
 62
7
  6
CONTINUOUS
370
-3
390
F
  0
ENDTAB
  0
TABLE
  2
STYLE
  5
3
100
AcDbSymbolTable
 70
1
  0
STYLE
  5
11
100
AcDbSymbolTableRecord
100
AcDbTextStyleTableRecord
  2
STANDARD
 70
0
 40
0.0
 41
0.8
 50
0.0
 71
0
 42
0.2
  3
txt
  4

  0
STYLE
  5
200
100
AcDbSymbolTableRecord
100
AcDbTextStyleTableRecord
  2
TEXTSTYLE_1
 70
0
 40
0.0
 41
0.8
 50
0.0
 71
0
 42
0.2
  3
gdt
  4

  0
ENDTAB
  0
TABLE
  2
VIEW
  5
6
100
AcDbSymbolTable
 70
0
  0
ENDTAB
  0
TABLE
  2
UCS
  5
7
100
AcDbSymbolTable
 70
0
  0
ENDTAB
  0
TABLE
  2
APPID
  5
9
100
AcDbSymbolTable
 70
1
  0
APPID
  5
201
100
AcDbSymbolTableRecord
100
AcDbRegAppTableRecord
  2
ACAD
 70
0
  0
ENDTAB
  0
TABLE
  2
BLOCK_RECORD
  5
1
100
AcDbSymbolTable
 70
0
  0
BLOCK_RECORD
  5
202
100
AcDbSymbolTableRecord
100
AcDbBlockTableRecord
  2
*Model_Space
  0
BLOCK_RECORD
  5
203
100
AcDbSymbolTableRecord
100
AcDbBlockTableRecord
  2
*Paper_Space
  0
BLOCK_RECORD
  5
204
100
AcDbSymbolTableRecord
100
AcDbBlockTableRecord
  2
_FILLED
  0
ENDTAB
  0
TABLE
  2
DIMSTYLE
  5
A
100
AcDbSymbolTable
 70
1
100
AcDbDimStyleTable
 71
0
  0
DIMSTYLE
105
205
100
AcDbSymbolTableRecord
100
AcDbDimStyleTableRecord
  2
STANDARD
 70
0
  3

  4

 40
1.0
 41
0.1
 42
0.0625
 43
0.38
 44
0.125
 45
0.0
 46
0.0
 47
0.01
 48
0.01
140
0.08
141
0.09
142
0.0
143
25.4
144
1.0
145
0.0
146
1.0
147
0.09
 71
1.0
 72
0.0
 73
1
 74
1
 75
0
 76
0
 77
0
 78
4
 79
1
170
1
171
1
172
0
173
0
174
0
175
0
176
0
177
0
178
0
270
2
179
2
271
2
272
2
273
2
274
2
275
0
280
0
281
0
282
0
283
1
284
4
285
0
286
0
287
3
288
0
340
11
278
46
341
204
342
204
343
204
344
204
  0
ENDTAB
  0
ENDSEC
  0
SECTION
  2
BLOCKS
  0
BLOCK
  5
20
100
AcDbEntity
  8
0
100
AcDbBlockBegin
  2
*Model_Space
 70
0
 10
0.0
 20
0.0
 30
0.0
  3
*Model_Space
  1

  0
ENDBLK
  5
21
100
AcDbEntity
  8
0
100
AcDbBlockEnd
  0
BLOCK
  5
1C
100
AcDbEntity
  8
0
100
AcDbBlockBegin
  2
*Paper_Space
 70
0
 10
0.0
 20
0.0
 30
0.0
  3
*Paper_Space
  1

  0
ENDBLK
  5
1D
100
AcDbEntity
  8
0
100
AcDbBlockEnd
  0
BLOCK
  5
206
100
AcDbEntity
  8
0
100
AcDbBlockBegin
  2
_FILLED
 70
64
 10
0.0
 20
0.0
  3
_FILLED
  1

  0
SOLID
  5
207
100
AcDbEntity
  8
0
  6
BYBLOCK
 62
0
100
AcDbTrace
 10
0.0
 20
0.0
 11
-1.0
 21
0.2
 12
-1.0
 22
-0.2
 13
-1.0
 23
-0.2
  0
ENDBLK
  5
208
100
AcDbEntity
  8
0
  6
BYBLOCK
 62
0
100
AcDbBlockEnd
  0
ENDSEC
  0
SECTION
  2
ENTITIES
  0
MTEXT
  5
209
100
AcDbEntity
  8
0
100
AcDbMText
 62
2
  6
CONTINUOUS
  7
STANDARD
 71
3
 72
1
 10
5.4884704969
 20
1.2038300756
 30
0.0
 11
1.0
 21
0.0
 31
0.0
 73
2
 44
0.9
  1
SCALE  .500
 40
0.08
 41
0.704
  0
LINE
  5
20A
100
AcDbEntity
  8
0
100
AcDbLine
 62
7
  6
CONTINUOUS
 10
0.0
 20
0.0
 11
0.0
 21
8.5
  0
LINE
  5
20B
100
AcDbEntity
  8
0
100
AcDbLine
 62
7
  6
CONTINUOUS
 10
0.0
 20
0.0
 11
11.0
 21
0.0
  0
LINE
  5
20C
100
AcDbEntity
  8
0
100
AcDbLine
 62
7
  6
CONTINUOUS
 10
0.0
 20
8.5
 11
11.0
 21
8.5
  0
LINE
  5
20D
100
AcDbEntity
  8
0
100
AcDbLine
 62
7
  6
CONTINUOUS
 10
11.0
 20
0.0
 11
11.0
 21
8.5
  0
LINE
  5
20E
100
AcDbEntity
  8
0
100
AcDbLine
 62
7
  6
CONTINUOUS
 10
4.498408057
 20
1.8637757278
 11
5.6484087132
 21
1.8637757278
  0
LINE
  5
20F
100
AcDbEntity
  8
0
100
AcDbLine
 62
7
  6
CONTINUOUS
 10
4.5043083851
 20
1.9787757278
 11
5.6425083851
 21
1.9787757278
  0
LINE
  5
210
100
AcDbEntity
  8
0
100
AcDbLine
 62
7
  6
CONTINUOUS
 10
4.9570823209
 20
7.1440646059
 11
4.9674537778
 21
7.1502239981
  0
LINE
  5
211
100
AcDbEntity
  8
0
100
AcDbLine
 62
7
  6
CONTINUOUS
 10
5.0771326116
 20
6.9562205644
 11
5.2621326116
 21
7.0115234306
  0
LINE
  5
212
100
AcDbEntity
  8
0
100
AcDbLine
 62
7
  6
CONTINUOUS
 10
5.0786752367
 20
6.9526317863
 11
5.2636752367
 21
7.0079346525
  0
LINE
  5
213
100
AcDbEntity
  8
0
100
AcDbLine
 62
7
  6
CONTINUOUS
 10
4.9708905284
 20
7.1475638057
 11
4.9812682145
 21
7.1537183763
  0
LINE
  5
214
100
AcDbEntity
  8
0
100
AcDbLine
 62
7
  6
CONTINUOUS
 10
5.0681415335
 20
6.9526317863
 11
4.8831415335
 21
6.8602495954
  0
LINE
  5
215
100
AcDbEntity
  8
0
100
AcDbLine
 62
7
  6
CONTINUOUS
 10
5.0696841586
 20
6.9490430082
 11
4.8846841586
 21
6.8566608174
  0
LINE
  5
216
100
AcDbEntity
  8
0
100
AcDbLine
 62
7
  6
CONTINUOUS
 10
4.9570823209
 20
7.1440646059
 11
4.826776442
 21
7.0184978927
  0
LINE
  5
217
100
AcDbEntity
  8
0
100
AcDbLine
 62
7
  6
CONTINUOUS
 10
4.9708905284
 20
7.1475638057
 11
4.9372048058
 21
7.1151032176
  0
LINE
  5
218
100
AcDbEntity
  8
0
100
AcDbLine
 62
7
  6
CONTINUOUS
 10
4.8700634033
 20
7.0504037175
 11
4.8259083851
 21
7.0078545973
  0
LINE
  5
219
100
AcDbEntity
  8
0
100
AcDbLine
 62
7
  6
CONTINUOUS
 10
4.9863705105
 20
7.1194116117
 11
4.8780000196
 21
7.0149825064
  0
LINE
  5
21A
100
AcDbEntity
  8
0
100
AcDbLine
 62
7
  6
CONTINUOUS
 10
4.9930546496
 20
7.1159525359
 11
4.8846841586
 21
7.0115234306
  0
LINE
  5
21B
100
AcDbEntity
  8
0
100
AcDbLine
 62
7
  6
CONTINUOUS
 10
4.8259083851
 20
7.0078545973
 11
4.8167583168
 21
6.9951916291
  0
LINE
  5
21C
100
AcDbEntity
  8
0
100
AcDbLine
 62
7
  6
CONTINUOUS
 10
4.826776442
 20
7.0184978927
 11
4.8176113352
 21
7.0058312572
  0
LINE
  5
21D
100
AcDbEntity
  8
0
100
AcDbLine
 62
7
  6
CONTINUOUS
 10
5.3209083851
 20
6.8102759399
 11
5.3300584533
 21
6.8176134804
  0
LINE
  5
21E
100
AcDbEntity
  8
0
100
AcDbLine
 62
7
  6
CONTINUOUS
 10
5.3200403282
 20
6.7943072168
 11
5.329205435
 21
6.8016290848
  0
LWPOLYLINE
  5
21F
100
AcDbEntity
  8
0
100
AcDbPolyline
 62
7
  6
CONTINUOUS
 90
27
 70
0
 10
4.8446644738
 20
6.2875496368
 10
4.8445176487
 20
6.2874732304
 10
4.8436181537
 20
6.2869797815
 10
4.8427426514
 20
6.2864554649
 10
4.8418919558
 20
6.2859011705
 10
4.8410670567
 20
6.28531795
 10
4.8402690583
 20
6.2847069512
 10
4.8394989842
 20
6.2840693764
 10
4.8387575885
 20
6.2834062781
 10
4.838045545
 20
6.2827186469
 10
4.8373637498
 20
6.2820077745
 10
4.8367130022
 20
6.2812749031
 10
4.8360938131
 20
6.2805210612
 10
4.8355071026
 20
6.2797478327
 10
4.8349534418
 20
6.2789564916
 10
4.8344328638
 20
6.2781475875
 10
4.833946116
 20
6.2773226918
 10
4.833493752
 20
6.2764833269
 10
4.8330756831
 20
6.2756298114
 10
4.8326925177
 20
6.2747637971
 10
4.8323446981
 20
6.2738869258
 10
4.8320321063
 20
6.2729993437
 10
4.8317551921
 20
6.2721028079
 10
4.8315142556
 20
6.2711990752
 10
4.8313091845
 20
6.2702881916
 10
4.8311401671
 20
6.2693713208
 10
4.8310033332
 20
6.268417211
  0
LINE
  5
220
100
AcDbEntity
  8
0
100
AcDbLine
 62
7
  6
CONTINUOUS
 10
5.1537621206
 20
6.752231712
 11
5.2621326116
 21
6.8566608174
  0
LINE
  5
221
100
AcDbEntity
  8
0
100
AcDbLine
 62
7
  6
CONTINUOUS
 10
5.1606444958
 20
6.7418462994
 11
5.2690149868
 21
6.8462754047
  0
LINE
  5
222
100
AcDbEntity
  8
0
100
AcDbLine
 62
7
  6
CONTINUOUS
 10
5.1606444958
 20
6.7339347091
 11
5.2690149868
 21
6.8383638144
  0
LINE
  5
223
100
AcDbEntity
  8
0
100
AcDbLine
 62
7
  6
CONTINUOUS
 10
5.1759262418
 20
6.6705667314
 11
5.3209083851
 21
6.8102759399
  0
LINE
  5
224
100
AcDbEntity
  8
0
100
AcDbLine
 62
7
  6
CONTINUOUS
 10
5.1897344493
 20
6.6687405036
 11
5.3200403282
 21
6.7943072168
  0
LINE
  5
225
100
AcDbEntity
  8
0
100
AcDbLine
 62
7
  6
CONTINUOUS
 10
5.1897344493
 20
6.6687405036
 11
5.1793629924
 21
6.6572363439
  0
LINE
  5
226
100
AcDbEntity
  8
0
100
AcDbLine
 62
7
  6
CONTINUOUS
 10
5.1759262418
 20
6.6705667314
 11
5.1655485557
 21
6.6590867332
  0
LINE
  5
227
100
AcDbEntity
  8
0
100
AcDbLine
 62
7
  6
CONTINUOUS
 10
5.2309389027
 20
6.5329971544
 11
5.138659662
 21
6.4440740679
  0
LINE
  5
228
100
AcDbEntity
  8
0
100
AcDbLine
 62
7
  6
CONTINUOUS
 10
5.2196583851
 20
6.5216925914
 11
5.1339871186
 21
6.43913715
  0
LINE
  5
229
100
AcDbEntity
  8
0
100
AcDbLine
 62
7
  6
CONTINUOUS
 10
5.0734083851
 20
6.9577070849
 11
5.1500378941
 21
7.1174390564
  0
LINE
  5
22A
100
AcDbEntity
  8
0
100
AcDbLine
 62
7
  6
CONTINUOUS
 10
4.6828913001
 20
5.9067350879
 11
4.6741702229
 21
5.8952757432
  0
LWPOLYLINE
  5
22B
100
AcDbEntity
  8
0
100
AcDbPolyline
 62
7
  6
CONTINUOUS
 90
28
 70
0
 10
4.8982610408
 20
6.1936830903
 10
4.892840226
 20
6.1873324325
 10
4.886964038
 20
6.1801912485
 10
4.8812219007
 20
6.1729370375
 10
4.8756123483
 20
6.1655675555
 10
4.8701408581
 20
6.1580894773
 10
4.8648187509
 20
6.1505186647
 10
4.8596473229
 20
6.1428580143
 10
4.8546278272
 20
6.1351102733
 10
4.8497697588
 20
6.1272916087
 10
4.8450737659
 20
6.1194052066
 10
4.8405406648
 20
6.1114543662
 10
4.8361785178
 20
6.1034557791
 10
4.8319870941
 20
6.0954121445
 10
4.8279671123
 20
6.0873276357
 10
4.8241254024
 20
6.0792194382
 10
4.8204596842
 20
6.0710870162
 10
4.8169685686
 20
6.0629314058
 10
4.8136576675
 20
6.0547711421
 10
4.8105244652
 20
6.0466067887
 10
4.8075663929
 20
6.0384382418
 10
4.8047870043
 20
6.0302832031
 10
4.802183337
 20
6.0221423207
 10
4.7997523854
 20
6.0140153344
 10
4.7974960492
 20
6.0059191353
 10
4.7954125032
 20
5.9978599336
 10
4.7934971762
 20
5.9898327165
 10
4.7919149003
 20
5.9826356393
  0
LINE
  5
22C
100
AcDbEntity
  8
0
100
AcDbLine
 62
7
  6
CONTINUOUS
 10
5.0696841586
 20
6.9490430082
 11
4.9930546496
 21
6.752231712
  0
LINE
  5
22D
100
AcDbEntity
  8
0
100
AcDbLine
 62
7
  6
CONTINUOUS
 10
5.0734083851
 20
6.9475564877
 11
4.9967788761
 21
6.7507451915
  0
LINE
  5
22E
100
AcDbEntity
  8
0
100
AcDbLine
 62
7
  6
CONTINUOUS
 10
5.0771326116
 20
6.9562205644
 11
5.1537621206
 21
7.1159525359
  0
LINE
  5
22F
100
AcDbEntity
  8
0
100
AcDbLine
 62
7
  6
CONTINUOUS
 10
5.2309389027
 20
6.5329971544
 11
5.329205435
 21
6.8016290848
  0
LINE
  5
230
100
AcDbEntity
  8
0
100
AcDbLine
 62
7
  6
CONTINUOUS
 10
5.3019539368
 20
6.2871656204
 11
5.3021522908
 21
6.2875496302
  0
LINE
  5
231
100
AcDbEntity
  8
0
100
AcDbLine
 62
7
  6
CONTINUOUS
 10
4.4984083851
 20
1.8637757278
 11
4.5062016574
 21
2.0154093535
  0
LINE
  5
232
100
AcDbEntity
  8
0
100
AcDbLine
 62
7
  6
CONTINUOUS
 10
4.5053045327
 20
1.9981129429
 11
4.505409813
 21
2.0001480721
  0
LINE
  5
233
100
AcDbEntity
  8
0
100
AcDbLine
 62
7
  6
CONTINUOUS
 10
4.8176113352
 20
7.0058312572
 11
4.8167583168
 21
6.9951916291
  0
LINE
  5
234
100
AcDbEntity
  8
0
100
AcDbLine
 62
7
  6
CONTINUOUS
 10
4.8259083851
 20
7.0078545973
 11
4.826776442
 21
7.0184978927
  0
LINE
  5
235
100
AcDbEntity
  8
0
100
AcDbLine
 62
7
  6
CONTINUOUS
 10
4.75852483
 20
5.5267493946
 11
4.758515184
 21
5.5266378504
  0
LINE
  5
236
100
AcDbEntity
  8
0
100
AcDbLine
 62
7
  6
CONTINUOUS
 10
4.7593127271
 20
5.535726888
 11
4.75852483
 21
5.5267493946
  0
LINE
  5
237
100
AcDbEntity
  8
0
100
AcDbLine
 62
7
  6
CONTINUOUS
 10
4.7597978059
 20
5.5409425859
 11
4.7593127271
 21
5.535726888
  0
LINE
  5
238
100
AcDbEntity
  8
0
100
AcDbLine
 62
7
  6
CONTINUOUS
 10
4.7603213699
 20
5.5462934821
 11
4.7597978059
 21
5.5409425859
  0
LINE
  5
239
100
AcDbEntity
  8
0
100
AcDbLine
 62
7
  6
CONTINUOUS
 10
4.7608463657
 20
5.5513920735
 11
4.7603213699
 21
5.5462934821
  0
LINE
  5
23A
100
AcDbEntity
  8
0
100
AcDbLine
 62
7
  6
CONTINUOUS
 10
4.7613332688
 20
5.5559059197
 11
4.7608463657
 21
5.5513920735
  0
LINE
  5
23B
100
AcDbEntity
  8
0
100
AcDbLine
 62
7
  6
CONTINUOUS
 10
4.7588072467
 20
5.5302002531
 11
4.7588788474
 21
5.53084727
  0
LINE
  5
23C
100
AcDbEntity
  8
0
100
AcDbLine
 62
7
  6
CONTINUOUS
 10
4.7617785575
 20
5.5598716553
 11
4.7613332688
 21
5.5559059197
  0
LINE
  5
23D
100
AcDbEntity
  8
0
100
AcDbLine
 62
7
  6
CONTINUOUS
 10
4.7584260045
 20
5.5269735397
 11
4.7588805563
 21
5.5308467728
  0
LINE
  5
23E
100
AcDbEntity
  8
0
100
AcDbLine
 62
7
  6
CONTINUOUS
 10
4.7583791008
 20
5.5265917707
 11
4.7584260045
 21
5.5269735397
  0
LWPOLYLINE
  5
23F
100
AcDbEntity
  8
0
100
AcDbPolyline
 62
7
  6
CONTINUOUS
 90
30
 70
0
 10
4.8310032227
 20
6.2684172246
 10
4.8293612755
 20
6.2559134824
 10
4.8273732495
 20
6.2425763593
 10
4.8251552987
 20
6.2293383385
 10
4.8227121792
 20
6.216213943
 10
4.820045098
 20
6.2031974981
 10
4.8171499089
 20
6.1902635015
 10
4.8140276898
 20
6.1774160755
 10
4.8106798351
 20
6.1646599799
 10
4.8071007978
 20
6.1519707565
 10
4.8032924568
 20
6.1393520711
 10
4.7992567751
 20
6.1268078522
 10
4.7949860657
 20
6.1143145892
 10
4.7904807983
 20
6.1018766815
 10
4.7857414063
 20
6.0894984261
 10
4.78075719
 20
6.0771572829
 10
4.775527789
 20
6.0648588831
 10
4.7700535514
 20
6.0526066323
 10
4.7643218758
 20
6.0403760498
 10
4.7583325731
 20
6.0281723473
 10
4.7520852001
 20
6.0160000752
 10
4.7455638152
 20
6.0038354454
 10
4.7387667797
 20
5.9916843608
 10
4.7316928792
 20
5.979553092
 10
4.7243245102
 20
5.9674192108
 10
4.7166601851
 20
5.9552883486
 10
4.7086985826
 20
5.9431660827
 10
4.7004200665
 20
5.9310313742
 10
4.6918161853
 20
5.9188823142
 10
4.6828913001
 20
5.9067350879
  0
LINE
  5
240
100
AcDbEntity
  8
0
100
AcDbLine
 62
7
  6
CONTINUOUS
 10
4.8167583168
 20
6.9951916291
 11
4.8167583168
 21
6.8176134804
  0
LINE
  5
241
100
AcDbEntity
  8
0
100
AcDbLine
 62
7
  6
CONTINUOUS
 10
4.8259083851
 20
7.0078545973
 11
4.8259083851
 21
6.8102759399
  0
LINE
  5
242
100
AcDbEntity
  8
0
100
AcDbLine
 62
7
  6
CONTINUOUS
 10
4.8284083851
 20
6.9184186117
 11
4.8284083851
 21
6.9090652686
  0
LINE
  5
243
100
AcDbEntity
  8
0
100
AcDbLine
 62
7
  6
CONTINUOUS
 10
4.8734083851
 20
7.0041813061
 11
4.8734083851
 21
6.8485846589
  0
LINE
  5
244
100
AcDbEntity
  8
0
100
AcDbLine
 62
7
  6
CONTINUOUS
 10
4.8778017834
 20
6.8462754047
 11
4.8778017834
 21
6.8383638144
  0
LINE
  5
245
100
AcDbEntity
  8
0
100
AcDbLine
 62
7
  6
CONTINUOUS
 10
4.8831415335
 20
7.0079346525
 11
4.8831415335
 21
6.8602495954
  0
LINE
  5
246
100
AcDbEntity
  8
0
100
AcDbLine
 62
7
  6
CONTINUOUS
 10
4.8844023065
 20
5.5960180563
 11
4.8791855737
 21
5.2113206381
  0
LINE
  5
247
100
AcDbEntity
  8
0
100
AcDbLine
 62
7
  6
CONTINUOUS
 10
5.138659662
 20
6.4440740679
 11
5.1793629924
 21
6.6572363439
  0
LINE
  5
248
100
AcDbEntity
  8
0
100
AcDbLine
 62
7
  6
CONTINUOUS
 10
4.8713807312
 20
6.6387825225
 11
4.8873220049
 21
6.4108116887
  0
LINE
  5
249
100
AcDbEntity
  8
0
100
AcDbLine
 62
7
  6
CONTINUOUS
 10
4.8259083851
 20
6.8102759399
 11
4.826776442
 21
6.7943072168
  0
LINE
  5
24A
100
AcDbEntity
  8
0
100
AcDbLine
 62
7
  6
CONTINUOUS
 10
4.8176113352
 20
6.8016290848
 11
4.8167583168
 21
6.8176134804
  0
LINE
  5
24B
100
AcDbEntity
  8
0
100
AcDbLine
 62
7
  6
CONTINUOUS
 10
4.9271583851
 20
6.5221269041
 11
4.9271583851
 21
6.5216925914
  0
LINE
  5
24C
100
AcDbEntity
  8
0
100
AcDbLine
 62
7
  6
CONTINUOUS
 10
4.9861722743
 20
6.7418462994
 11
4.9861722743
 21
6.7339347091
  0
LINE
  5
24D
100
AcDbEntity
  8
0
100
AcDbLine
 62
7
  6
CONTINUOUS
 10
4.9967788761
 20
6.7507451915
 11
4.9967788761
 21
6.7297010967
  0
LINE
  5
24E
100
AcDbEntity
  8
0
100
AcDbLine
 62
7
  6
CONTINUOUS
 10
4.9967788761
 20
7.1174390564
 11
4.9967788761
 21
7.1236104115
  0
LINE
  5
24F
100
AcDbEntity
  8
0
100
AcDbLine
 62
7
  6
CONTINUOUS
 10
5.0128296516
 20
6.4440740679
 11
5.0128296516
 21
6.43913715
  0
LINE
  5
250
100
AcDbEntity
  8
0
100
AcDbLine
 62
7
  6
CONTINUOUS
 10
5.0734083851
 20
6.2703376646
 11
5.0734083851
 21
6.3619203955
  0
LINE
  5
251
100
AcDbEntity
  8
0
100
AcDbLine
 62
7
  6
CONTINUOUS
 10
5.2992786892
 20
5.6302238428
 11
5.2992806214
 21
5.6302299791
  0
LWPOLYLINE
  5
252
100
AcDbEntity
  8
0
100
AcDbPolyline
 62
7
  6
CONTINUOUS
 90
34
 70
0
 10
5.2992786912
 20
5.6302238491
 10
5.3003523468
 20
5.6335126638
 10
5.3017270718
 20
5.6374209578
 10
5.3031734379
 20
5.6412305371
 10
5.3046876497
 20
5.6449436985
 10
5.306262992
 20
5.6485554456
 10
5.3078889684
 20
5.6520538982
 10
5.3095595754
 20
5.6554385921
 10
5.3112689488
 20
5.6587093626
 10
5.3130054745
 20
5.6618559094
 10
5.3147625224
 20
5.6648783457
 10
5.316534237
 20
5.6677780616
 10
5.3183092259
 20
5.6705478393
 10
5.3200796162
 20
5.6731869648
 10
5.3218409141
 20
5.6756996979
 10
5.3235865984
 20
5.6780870429
 10
5.3253096997
 20
5.6803494285
 10
5.3270061769
 20
5.682491011
 10
5.3286744161
 20
5.6845184038
 10
5.3303095459
 20
5.6864337049
 10
5.3319072137
 20
5.6882394674
 10
5.3334672768
 20
5.6899425891
 10
5.3349858074
 20
5.6915453031
 10
5.3364590181
 20
5.6930498606
 10
5.3378875719
 20
5.6944627231
 10
5.3392681315
 20
5.6957859472
 10
5.3405975795
 20
5.697021702
 10
5.3418774046
 20
5.6981761484
 10
5.3431050276
 20
5.6992513765
 10
5.3442776276
 20
5.7002491766
 10
5.3453966961
 20
5.7011747929
 10
5.3464612091
 20
5.7020310357
 10
5.3474675595
 20
5.7028185448
 10
5.348032381
 20
5.7032510749
  0
LINE
  5
253
100
AcDbEntity
  8
0
100
AcDbLine
 62
7
  6
CONTINUOUS
 10
5.2437181216
 20
4.4136083603
 11
4.9030986486
 21
4.4136083603
  0
LINE
  5
254
100
AcDbEntity
  8
0
100
AcDbLine
 62
7
  6
CONTINUOUS
 10
5.2624144516
 20
5.5960180537
 11
5.2676313548
 21
5.2113085857
  0
LINE
  5
255
100
AcDbEntity
  8
0
100
AcDbLine
 62
7
  6
CONTINUOUS
 10
5.1339871186
 20
6.4440740679
 11
5.1339871186
 21
6.43913715
  0
LINE
  5
256
100
AcDbEntity
  8
0
100
AcDbLine
 62
7
  6
CONTINUOUS
 10
5.1500378941
 20
6.7507451915
 11
5.1500378941
 21
6.7297010967
  0
LINE
  5
257
100
AcDbEntity
  8
0
100
AcDbLine
 62
7
  6
CONTINUOUS
 10
5.1500378941
 20
7.1174390564
 11
5.1500378941
 21
7.1236104115
  0
LINE
  5
258
100
AcDbEntity
  8
0
100
AcDbLine
 62
7
  6
CONTINUOUS
 10
5.1606444958
 20
6.7418462994
 11
5.1606444958
 21
6.7339347091
  0
LINE
  5
259
100
AcDbEntity
  8
0
100
AcDbLine
 62
7
  6
CONTINUOUS
 10
5.2196583851
 20
6.5221269041
 11
5.2196583851
 21
6.5216925914
  0
LINE
  5
25A
100
AcDbEntity
  8
0
100
AcDbLine
 62
7
  6
CONTINUOUS
 10
5.2636752367
 20
6.8602495954
 11
5.2636752367
 21
7.0079346525
  0
LINE
  5
25B
100
AcDbEntity
  8
0
100
AcDbLine
 62
7
  6
CONTINUOUS
 10
5.2690149868
 20
6.8462754047
 11
5.2690149868
 21
6.8383638144
  0
LINE
  5
25C
100
AcDbEntity
  8
0
100
AcDbLine
 62
7
  6
CONTINUOUS
 10
5.2734083851
 20
6.8485846589
 11
5.2734083851
 21
7.0041813061
  0
LINE
  5
25D
100
AcDbEntity
  8
0
100
AcDbLine
 62
7
  6
CONTINUOUS
 10
5.329205435
 20
6.8016290848
 11
5.3300584533
 21
6.8176134804
  0
LINE
  5
25E
100
AcDbEntity
  8
0
100
AcDbLine
 62
7
  6
CONTINUOUS
 10
5.3209083851
 20
6.8102759399
 11
5.3200403282
 21
6.7943072168
  0
LINE
  5
25F
100
AcDbEntity
  8
0
100
AcDbLine
 62
7
  6
CONTINUOUS
 10
5.2754360389
 20
6.6387825225
 11
5.2594947653
 21
6.4108116887
  0
LWPOLYLINE
  5
260
100
AcDbEntity
  8
0
100
AcDbPolyline
 62
7
  6
CONTINUOUS
 90
46
 70
0
 10
4.8475377357
 20
5.6302254476
 10
4.847643505
 20
5.6298952311
 10
4.8482921975
 20
5.6280701905
 10
4.8490380975
 20
5.6262767998
 10
4.8498790237
 20
5.6245158986
 10
4.8508123194
 20
5.6227892214
 10
4.851834782
 20
5.6210989828
 10
4.8529436774
 20
5.6194460788
 10
4.8541379071
 20
5.6178290309
 10
4.8554175004
 20
5.6162454777
 10
4.856781215
 20
5.6146950617
 10
4.858229347
 20
5.6131758559
 10
4.8597658519
 20
5.611682932
 10
4.8613915288
 20
5.6102153475
 10
4.8631082284
 20
5.6087714619
 10
4.8649233524
 20
5.607345692
 10
4.8668407309
 20
5.6059362988
 10
4.8688625871
 20
5.6045430355
 10
4.8709952369
 20
5.6031631653
 10
4.873244461
 20
5.6017948976
 10
4.8756123574
 20
5.6004389244
 10
4.8780994759
 20
5.5990967016
 10
4.8807100233
 20
5.5977676723
 10
4.8834470097
 20
5.5964520213
 10
4.8863074947
 20
5.5951525817
 10
4.8892955928
 20
5.5938687833
 10
4.8924125094
 20
5.5926014711
 10
4.8956481701
 20
5.5913556258
 10
4.8990037638
 20
5.5901312911
 10
4.9024797806
 20
5.588928862
 10
4.9060615931
 20
5.587753612
 10
4.9097483059
 20
5.5866056492
 10
4.9135387629
 20
5.585485203
 10
4.9174144239
 20
5.5843973098
 10
4.9213726106
 20
5.5833419408
 10
4.9254106196
 20
5.5823190746
 10
4.9295067038
 20
5.5813331977
 10
4.9336568531
 20
5.5803839673
 10
4.9378569611
 20
5.5794710335
 10
4.9420824101
 20
5.5785981985
 10
4.9463281993
 20
5.5777647102
 10
4.9505893839
 20
5.5769698115
 10
4.9548391581
 20
5.5762165391
 10
4.9590644582
 20
5.5755049403
 10
4.9632671024
 20
5.5748325052
 10
4.9667126446
 20
5.5743065037
  0
LINE
  5
261
100
AcDbEntity
  8
0
100
AcDbLine
 62
7
  6
CONTINUOUS
 10
4.8475370764
 20
5.6302270319
 11
4.8475381018
 21
5.6302237766
  0
LINE
  5
262
100
AcDbEntity
  8
0
100
AcDbLine
 62
7
  6
CONTINUOUS
 10
5.3184083851
 20
6.9184186117
 11
5.3184083851
 21
6.9090652686
  0
LINE
  5
263
100
AcDbEntity
  8
0
100
AcDbLine
 62
7
  6
CONTINUOUS
 10
5.3209083851
 20
6.8102759399
 11
5.3209083851
 21
7.0078545973
  0
LINE
  5
264
100
AcDbEntity
  8
0
100
AcDbLine
 62
7
  6
CONTINUOUS
 10
5.3300584533
 20
6.8176134804
 11
5.3300584533
 21
6.9951916291
  0
LINE
  5
265
100
AcDbEntity
  8
0
100
AcDbLine
 62
7
  6
CONTINUOUS
 10
5.0081571082
 20
6.4440740679
 11
4.9674537778
 21
6.6572363439
  0
LINE
  5
266
100
AcDbEntity
  8
0
100
AcDbLine
 62
7
  6
CONTINUOUS
 10
5.3860796382
 20
5.5503518941
 11
5.3855416274
 21
5.5553771806
  0
LINE
  5
267
100
AcDbEntity
  8
0
100
AcDbLine
 62
7
  6
CONTINUOUS
 10
5.3865494502
 20
5.5457538515
 11
5.3860796382
 21
5.5503518941
  0
LINE
  5
268
100
AcDbEntity
  8
0
100
AcDbLine
 62
7
  6
CONTINUOUS
 10
5.3870319521
 20
5.5408062461
 11
5.3865494502
 21
5.5457538515
  0
LINE
  5
269
100
AcDbEntity
  8
0
100
AcDbLine
 62
7
  6
CONTINUOUS
 10
5.3875502543
 20
5.5352166477
 11
5.3870319521
 21
5.5408062461
  0
LINE
  5
26A
100
AcDbEntity
  8
0
100
AcDbLine
 62
7
  6
CONTINUOUS
 10
5.3883133072
 20
5.5265028361
 11
5.3875502543
 21
5.5352166477
  0
LINE
  5
26B
100
AcDbEntity
  8
0
100
AcDbLine
 62
7
  6
CONTINUOUS
 10
5.3209083851
 20
7.0078545973
 11
5.3200403282
 21
7.0184978927
  0
LINE
  5
26C
100
AcDbEntity
  8
0
100
AcDbLine
 62
7
  6
CONTINUOUS
 10
5.329205435
 20
7.0058312572
 11
5.3300584533
 21
6.9951916291
  0
LINE
  5
26D
100
AcDbEntity
  8
0
100
AcDbLine
 62
7
  6
CONTINUOUS
 10
5.6406151128
 20
2.0154093535
 11
5.6484083851
 21
1.8637757278
  0
LINE
  5
26E
100
AcDbEntity
  8
0
100
AcDbLine
 62
7
  6
CONTINUOUS
 10
4.9158778675
 20
6.5329971544
 11
4.8176113352
 21
6.8016290848
  0
LWPOLYLINE
  5
26F
100
AcDbEntity
  8
0
100
AcDbPolyline
 62
7
  6
CONTINUOUS
 90
27
 70
0
 10
5.3158134367
 20
6.2684172117
 10
5.3156893145
 20
6.2692930752
 10
5.3155232324
 20
6.2702110875
 10
5.3153210434
 20
6.2711231536
 10
5.3150829302
 20
6.2720281138
 10
5.3148087829
 20
6.272925944
 10
5.3144989044
 20
6.2738148856
 10
5.3141537392
 20
6.2746931718
 10
5.313773166
 20
6.2755606778
 10
5.3133576266
 20
6.2764157579
 10
5.3129077248
 20
6.2772567528
 10
5.3124233647
 20
6.2780833658
 10
5.3119050949
 20
6.278894067
 10
5.3113536615
 20
6.2796872776
 10
5.3107690884
 20
6.280462461
 10
5.3101519388
 20
6.2812183379
 10
5.3095031361
 20
6.2819533147
 10
5.3088231913
 20
6.2826663535
 10
5.308112904
 20
6.2833562064
 10
5.307373171
 20
6.284021577
 10
5.3066046673
 20
6.2846614672
 10
5.305808149
 20
6.2852748233
 10
5.3049846387
 20
6.2858604355
 10
5.3041352424
 20
6.2864171541
 10
5.3032609554
 20
6.2869439234
 10
5.3023625963
 20
6.2874398478
 10
5.3021522953
 20
6.2875496388
  0
LINE
  5
270
100
AcDbEntity
  8
0
100
AcDbLine
 62
7
  6
CONTINUOUS
 10
5.388437669
 20
5.5265917739
 11
5.388446842
 21
5.5265198721
  0
LINE
  5
271
100
AcDbEntity
  8
0
100
AcDbLine
 62
7
  6
CONTINUOUS
 10
5.3883882386
 20
5.5269942005
 11
5.388437669
 21
5.5265917739
  0
LINE
  5
272
100
AcDbEntity
  8
0
100
AcDbLine
 62
7
  6
CONTINUOUS
 10
5.3879364796
 20
5.530844414
 11
5.3883882386
 21
5.5269942005
  0
LINE
  5
273
100
AcDbEntity
  8
0
100
AcDbLine
 62
7
  6
CONTINUOUS
 10
5.3879381438
 20
5.5308448989
 11
5.3880073359
 21
5.5302194213
  0
LINE
  5
274
100
AcDbEntity
  8
0
100
AcDbLine
 62
7
  6
CONTINUOUS
 10
5.3855416274
 20
5.5553771806
 11
5.3850382025
 21
5.5598717443
  0
LINE
  5
275
100
AcDbEntity
  8
0
100
AcDbLine
 62
7
  6
CONTINUOUS
 10
4.8448628273
 20
6.2871656264
 11
4.8446644738
 21
6.2875496368
  0
LWPOLYLINE
  5
276
100
AcDbEntity
  8
0
100
AcDbPolyline
 62
7
  6
CONTINUOUS
 90
37
 70
0
 10
5.3550254346
 20
5.9806994345
 10
5.3540213922
 20
5.9851228909
 10
5.3527874642
 20
5.9903019645
 10
5.3515075349
 20
5.9954148262
 10
5.350188748
 20
6.0004433403
 10
5.3488282692
 20
6.0054076768
 10
5.3474112437
 20
6.0103656586
 10
5.3459373936
 20
6.0153179011
 10
5.3444065039
 20
6.0202645497
 10
5.3428000088
 20
6.0252616113
 10
5.341115614
 20
6.0303090108
 10
5.3393510234
 20
6.0354064151
 10
5.3374837961
 20
6.0406084044
 10
5.3355076106
 20
6.0459190872
 10
5.3334196092
 20
6.0513326209
 10
5.3311988898
 20
6.0568877412
 10
5.3288321825
 20
6.0625990866
 10
5.3263190995
 20
6.0684489143
 10
5.3236565361
 20
6.0744270044
 10
5.3208349893
 20
6.0805373227
 10
5.31784986
 20
6.0867723918
 10
5.3147065723
 20
6.0931050876
 10
5.3113990673
 20
6.0995331162
 10
5.307921451
 20
6.1060532399
 10
5.3042816288
 20
6.1126371835
 10
5.3004752092
 20
6.119280729
 10
5.2964969342
 20
6.1259808274
 10
5.2923557211
 20
6.1327113426
 10
5.288047883
 20
6.1394682979
 10
5.2835693064
 20
6.1462481229
 10
5.278930592
 20
6.1530258174
 10
5.2741290356
 20
6.1597974657
 10
5.2691615283
 20
6.1665595382
 10
5.2640404195
 20
6.1732883241
 10
5.2587691244
 20
6.179973809
 10
5.2533407537
 20
6.186619162
 10
5.2482654998
 20
6.1926253912
  0
LWPOLYLINE
  5
277
100
AcDbEntity
  8
0
100
AcDbPolyline
 62
7
  6
CONTINUOUS
 90
34
 70
0
 10
4.7987843864
 20
5.7032510769
 10
4.7993492143
 20
5.702818542
 10
4.8003555712
 20
5.7020310275
 10
4.8014200909
 20
5.7011747789
 10
4.8025391669
 20
5.7002491559
 10
4.8037117744
 20
5.6992513488
 10
4.8049394042
 20
5.6981761138
 10
4.8062192358
 20
5.6970216605
 10
4.8075486895
 20
5.6957858992
 10
4.808929252
 20
5.6944626708
 10
4.8103578046
 20
5.693049808
 10
4.8118310117
 20
5.6915452527
 10
4.8133495385
 20
5.689942541
 10
4.8149095984
 20
5.6882394213
 10
4.8165072627
 20
5.686433661
 10
4.8181423885
 20
5.684518363
 10
4.8198106233
 20
5.682490974
 10
4.8215070957
 20
5.6803493963
 10
4.8232301916
 20
5.6780870165
 10
4.8249758697
 20
5.675699679
 10
4.8267371611
 20
5.6731869545
 10
4.8285075452
 20
5.6705478378
 10
4.8302825281
 20
5.6677780694
 10
4.8320542372
 20
5.664878363
 10
4.8338112808
 20
5.661855935
 10
4.8355478034
 20
5.6587093952
 10
4.8372571748
 20
5.6554386304
 10
4.8389277813
 20
5.6520539398
 10
4.8405537587
 20
5.6485554877
 10
4.8421291031
 20
5.6449437385
 10
4.8436433183
 20
5.6412305713
 10
4.845089689
 20
5.6374209825
 10
4.8464644193
 20
5.6335126753
 10
4.8475380404
 20
5.6302239714
  0
LINE
  5
278
100
AcDbEntity
  8
0
100
AcDbLine
 62
7
  6
CONTINUOUS
 10
5.0734083851
 20
6.9475564877
 11
5.1500378941
 21
6.7507451915
  0
LINE
  5
279
100
AcDbEntity
  8
0
100
AcDbLine
 62
7
  6
CONTINUOUS
 10
5.0771326116
 20
6.9490430082
 11
5.1537621206
 21
6.752231712
  0
LWPOLYLINE
  5
27A
100
AcDbEntity
  8
0
100
AcDbPolyline
 62
7
  6
CONTINUOUS
 90
46
 70
0
 10
5.1801044153
 20
5.574306552
 10
5.18348122
 20
5.5748218723
 10
5.1876827507
 20
5.5754936019
 10
5.1919086521
 20
5.5762047043
 10
5.1961604954
 20
5.5769576801
 10
5.2004245396
 20
5.5777524457
 10
5.204673442
 20
5.5785859087
 10
5.2089023496
 20
5.5794588337
 10
5.2131063901
 20
5.5803720188
 10
5.2172609076
 20
5.5813216758
 10
5.2213619782
 20
5.5823081909
 10
5.2254054491
 20
5.5833318936
 10
5.2293690851
 20
5.5843882104
 10
5.2332501262
 20
5.5854771673
 10
5.2370458973
 20
5.5865987927
 10
5.2407374881
 20
5.5877479494
 10
5.2443237451
 20
5.5889244059
 10
5.2478038481
 20
5.5901280506
 10
5.2511629036
 20
5.591353502
 10
5.2544013762
 20
5.5926003433
 10
5.2575205302
 20
5.5938685345
 10
5.2605102367
 20
5.5951530126
 10
5.263371614
 20
5.5964528705
 10
5.2661089217
 20
5.5977687242
 10
5.268719474
 20
5.5990978299
 10
5.2712063332
 20
5.6004399759
 10
5.2735737507
 20
5.60179573
 10
5.2758225316
 20
5.603163784
 10
5.2779548112
 20
5.6045434698
 10
5.2799763534
 20
5.6059365453
 10
5.2818935655
 20
5.607345824
 10
5.2837086645
 20
5.6087715742
 10
5.2854254265
 20
5.6102155144
 10
5.2870512875
 20
5.6116832588
 10
5.2885881429
 20
5.6131765327
 10
5.2900366904
 20
5.6146962367
 10
5.2914006985
 20
5.6162471333
 10
5.2926804218
 20
5.6178310825
 10
5.2938747139
 20
5.619448483
 10
5.2949836046
 20
5.6211016673
 10
5.2960060005
 20
5.6227921
 10
5.2969391625
 20
5.6245188531
 10
5.2977798866
 20
5.6262796581
 10
5.2985255668
 20
5.6280727529
 10
5.2991740641
 20
5.6298973132
 10
5.2992806531
 20
5.6302301348
  0
LWPOLYLINE
  5
27B
100
AcDbEntity
  8
0
100
AcDbPolyline
 62
7
  6
CONTINUOUS
 90
22
 70
0
 10
5.0734083659
 20
5.5668925142
 10
5.0778489828
 20
5.5669046192
 10
5.0831978981
 20
5.5669511935
 10
5.0885457496
 20
5.5670327008
 10
5.0938885998
 20
5.5671491088
 10
5.0992229904
 20
5.5673003985
 10
5.1045459491
 20
5.5674865809
 10
5.1098538342
 20
5.5677076619
 10
5.1151429296
 20
5.5679636279
 10
5.1204106653
 20
5.5682544226
 10
5.1256546664
 20
5.568579987
 10
5.1308714932
 20
5.568940205
 10
5.1360571791
 20
5.5693349097
 10
5.1412083803
 20
5.5697639645
 10
5.1463226315
 20
5.570227309
 10
5.1513973107
 20
5.5707248801
 10
5.1564290364
 20
5.5712564542
 10
5.1614144723
 20
5.5718217512
 10
5.1663508988
 20
5.5724205792
 10
5.171235086
 20
5.5730527115
 10
5.1760632546
 20
5.5737178626
 10
5.1801043646
 20
5.5743066048
  0
LWPOLYLINE
  5
27C
100
AcDbEntity
  8
0
100
AcDbPolyline
 62
7
  6
CONTINUOUS
 90
22
 70
0
 10
4.966712585
 20
5.574306536
 10
4.9706840305
 20
5.5737276757
 10
4.975508225
 20
5.5730624773
 10
4.9803887823
 20
5.5724302259
 10
4.9853218852
 20
5.5718312065
 10
4.9903043403
 20
5.571265636
 10
4.9953335401
 20
5.5707336901
 10
5.0004061486
 20
5.5702356482
 10
5.0055186559
 20
5.569771785
 10
5.0106684785
 20
5.569342182
 10
5.0158531911
 20
5.5689468978
 10
5.0210694192
 20
5.5685860734
 10
5.0263131934
 20
5.5682598776
 10
5.0315811065
 20
5.5679684262
 10
5.0368707522
 20
5.5677117815
 10
5.0421795802
 20
5.5674900215
 10
5.0475040611
 20
5.5673031857
 10
5.0528405489
 20
5.5671512697
 10
5.0581859608
 20
5.5670342648
 10
5.0635367939
 20
5.5669521895
 10
5.0688891324
 20
5.566905074
 10
5.0734083659
 20
5.5668925347
  0
LINE
  5
27D
100
AcDbEntity
  8
0
100
AcDbLine
 62
7
  6
CONTINUOUS
 10
5.0696841586
 20
6.9562205644
 11
4.9930546496
 21
7.1159525359
  0
LINE
  5
27E
100
AcDbEntity
  8
0
100
AcDbLine
 62
7
  6
CONTINUOUS
 10
5.0734083851
 20
6.9577070849
 11
4.9967788761
 21
7.1174390564
  0
LWPOLYLINE
  5
27F
100
AcDbEntity
  8
0
100
AcDbPolyline
 62
7
  6
CONTINUOUS
 90
31
 70
0
 10
5.4726465125
 20
5.8952757365
 10
5.4639681819
 20
5.9066786329
 10
5.4550396116
 20
5.9188288564
 10
5.4464330661
 20
5.9309790994
 10
5.4381530025
 20
5.94311334
 10
5.4301908772
 20
5.955233881
 10
5.4225267963
 20
5.9673624052
 10
5.415159547
 20
5.9794934051
 10
5.4080873468
 20
5.9916211513
 10
5.4012916353
 20
6.0037679509
 10
5.3947712172
 20
6.0159275764
 10
5.3885246446
 20
6.0280941217
 10
5.3825357788
 20
6.0402921281
 10
5.3768042996
 20
6.0525172185
 10
5.3713302037
 20
6.0647642095
 10
5.3661008205
 20
6.0770581269
 10
5.3611161229
 20
6.089395532
 10
5.3563757056
 20
6.1017705841
 10
5.3518689781
 20
6.1142058895
 10
5.3475964655
 20
6.1266972699
 10
5.3435587457
 20
6.1392403958
 10
5.3397482569
 20
6.1518587633
 10
5.3361670706
 20
6.1645484822
 10
5.3328171038
 20
6.1773060033
 10
5.3296925177
 20
6.1901557062
 10
5.3267947181
 20
6.2030927375
 10
5.3241248694
 20
6.2161129888
 10
5.3216788897
 20
6.2292420948
 10
5.3194580829
 20
6.2424857574
 10
5.3174673258
 20
6.2558293724
 10
5.3158135449
 20
6.268417225
  0
LINE
  5
280
100
AcDbEntity
  8
0
100
AcDbLine
 62
7
  6
CONTINUOUS
 10
4.6186295781
 20
5.8637757278
 11
4.7849516716
 21
5.8637757278
  0
LINE
  5
281
100
AcDbEntity
  8
0
100
AcDbLine
 62
7
  6
CONTINUOUS
 10
5.3625160106
 20
5.8637757278
 11
5.5281871921
 21
5.8637757278
  0
LINE
  5
282
100
AcDbEntity
  8
0
100
AcDbLine
 62
7
  6
CONTINUOUS
 10
4.674170211
 20
5.8952757278
 11
4.7860179067
 21
5.8952757278
  0
LINE
  5
283
100
AcDbEntity
  8
0
100
AcDbLine
 62
7
  6
CONTINUOUS
 10
5.3614639345
 20
5.8952757278
 11
5.4726465193
 21
5.8952757278
  0
LINE
  5
284
100
AcDbEntity
  8
0
100
AcDbLine
 62
7
  6
CONTINUOUS
 10
5.0128296516
 20
6.43913715
 11
4.9271583851
 21
6.5216925914
  0
LINE
  5
285
100
AcDbEntity
  8
0
100
AcDbLine
 62
7
  6
CONTINUOUS
 10
5.0081571082
 20
6.4440740679
 11
4.9158778675
 21
6.5329971544
  0
LINE
  5
286
100
AcDbEntity
  8
0
100
AcDbLine
 62
7
  6
CONTINUOUS
 10
4.9708905284
 20
6.6705667314
 11
4.9812682145
 21
6.6590867332
  0
LINE
  5
287
100
AcDbEntity
  8
0
100
AcDbLine
 62
7
  6
CONTINUOUS
 10
4.9570823209
 20
6.6687405036
 11
4.9674537778
 21
6.6572363439
  0
LINE
  5
288
100
AcDbEntity
  8
0
100
AcDbLine
 62
7
  6
CONTINUOUS
 10
4.826776442
 20
6.7943072168
 11
4.8176113352
 21
6.8016290848
  0
LINE
  5
289
100
AcDbEntity
  8
0
100
AcDbLine
 62
7
  6
CONTINUOUS
 10
4.8259083851
 20
6.8102759399
 11
4.8167583168
 21
6.8176134804
  0
LINE
  5
28A
100
AcDbEntity
  8
0
100
AcDbLine
 62
7
  6
CONTINUOUS
 10
4.826776442
 20
6.7943072168
 11
4.9570823209
 21
6.6687405036
  0
LINE
  5
28B
100
AcDbEntity
  8
0
100
AcDbLine
 62
7
  6
CONTINUOUS
 10
4.8259083851
 20
6.8102759399
 11
4.9708905284
 21
6.6705667314
  0
LINE
  5
28C
100
AcDbEntity
  8
0
100
AcDbLine
 62
7
  6
CONTINUOUS
 10
4.8778017834
 20
6.8383638144
 11
4.9861722743
 21
6.7339347091
  0
LINE
  5
28D
100
AcDbEntity
  8
0
100
AcDbLine
 62
7
  6
CONTINUOUS
 10
4.8778017834
 20
6.8462754047
 11
4.9861722743
 21
6.7418462994
  0
LINE
  5
28E
100
AcDbEntity
  8
0
100
AcDbLine
 62
7
  6
CONTINUOUS
 10
4.8846841586
 20
6.8566608174
 11
4.9930546496
 21
6.752231712
  0
LWPOLYLINE
  5
28F
100
AcDbEntity
  8
0
100
AcDbPolyline
 62
7
  6
CONTINUOUS
 90
19
 70
0
 10
4.9484102894
 20
6.3202759521
 10
4.9436121306
 20
6.3196678059
 10
4.9378864214
 20
6.3188293319
 10
4.9321635021
 20
6.3178681367
 10
4.9264545511
 20
6.3167862506
 10
4.9207534746
 20
6.31558281
 10
4.9150367987
 20
6.3142520229
 10
4.9093073654
 20
6.3127932987
 10
4.9035678736
 20
6.3112061769
 10
4.8977952051
 20
6.3094822576
 10
4.8919925389
 20
6.307620099
 10
4.8861629034
 20
6.3056184477
 10
4.8802839019
 20
6.3034665174
 10
4.8743590527
 20
6.3011620661
 10
4.8683919322
 20
6.2987031852
 10
4.8623612975
 20
6.2960770358
 10
4.8562629697
 20
6.2932769469
 10
4.8501094385
 20
6.2903040007
 10
4.8446644779
 20
6.2875496288
  0
LINE
  5
290
100
AcDbEntity
  8
0
100
AcDbLine
 62
7
  6
CONTINUOUS
 10
5.3138427803
 20
6.2681753121
 11
5.3158134367
 21
6.2684172117
  0
LINE
  5
291
100
AcDbEntity
  8
0
100
AcDbLine
 62
7
  6
CONTINUOUS
 10
4.9484083854
 20
6.3202757278
 11
5.1984083851
 21
6.3202757278
  0
LINE
  5
292
100
AcDbEntity
  8
0
100
AcDbLine
 62
7
  6
CONTINUOUS
 10
4.8329739076
 20
6.2681753214
 11
4.8310032227
 21
6.2684172246
  0
LINE
  5
293
100
AcDbEntity
  8
0
100
AcDbLine
 62
7
  6
CONTINUOUS
 10
5.2152281336
 20
6.3177611754
 11
5.2151592249
 21
6.3177729395
  0
LINE
  5
294
100
AcDbEntity
  8
0
100
AcDbLine
 62
7
  6
CONTINUOUS
 10
5.2157758541
 20
6.3176612248
 11
5.2151593562
 21
6.317773645
  0
LWPOLYLINE
  5
295
100
AcDbEntity
  8
0
100
AcDbPolyline
 62
7
  6
CONTINUOUS
 90
28
 70
0
 10
5.247885935
 20
6.1928748888
 10
5.2356149261
 20
6.195182348
 10
5.2223520139
 20
6.1974820953
 10
5.2090358664
 20
6.1995912942
 10
5.195672557
 20
6.2015095072
 10
5.1822717481
 20
6.2032357482
 10
5.1688468144
 20
6.2047687322
 10
5.1554058373
 20
6.2061079772
 10
5.1419566827
 20
6.2072530244
 10
5.1285125225
 20
6.2082030758
 10
5.1150812519
 20
6.2089579003
 10
5.1016707295
 20
6.2095172764
 10
5.0882940191
 20
6.2098808909
 10
5.0749584508
 20
6.2100487838
 10
5.0616719458
 20
6.210021398
 10
5.048448289
 20
6.2098018792
 10
5.0352949485
 20
6.2093944608
 10
5.0222189833
 20
6.2088033268
 10
5.0092333107
 20
6.2080330052
 10
4.9963444349
 20
6.2070878005
 10
4.9835594142
 20
6.2059720098
 10
4.9708915965
 20
6.2046905922
 10
4.9583461819
 20
6.2032478548
 10
4.9459302054
 20
6.2016482565
 10
4.9336590973
 20
6.1998975298
 10
4.9215413328
 20
6.1980007691
 10
4.9095787065
 20
6.1959620152
 10
4.8986659146
 20
6.193955535
  0
LWPOLYLINE
  5
296
100
AcDbEntity
  8
0
100
AcDbPolyline
 62
7
  6
CONTINUOUS
 90
19
 70
0
 10
5.3021522908
 20
6.2875496302
 10
5.2967762124
 20
6.2902698837
 10
5.290623143
 20
6.2932442706
 10
5.2845253166
 20
6.2960457912
 10
5.2784952153
 20
6.2986733545
 10
5.2725286635
 20
6.3011336427
 10
5.2666044001
 20
6.3034395105
 10
5.2607259871
 20
6.305592858
 10
5.2548969516
 20
6.3075959324
 10
5.2490948777
 20
6.3094595365
 10
5.2433227932
 20
6.3111849189
 10
5.2375838701
 20
6.3127735114
 10
5.2318549648
 20
6.3142337317
 10
5.2261387858
 20
6.3155660473
 10
5.2204381582
 20
6.3167710324
 10
5.2147295644
 20
6.3178544863
 10
5.2090069126
 20
6.3188172873
 10
5.2032814472
 20
6.3196573726
 10
5.1984067634
 20
6.3202759188
  0
LINE
  5
297
100
AcDbEntity
  8
0
100
AcDbLine
 62
7
  6
CONTINUOUS
 10
5.3200403282
 20
7.0184978927
 11
5.329205435
 21
7.0058312572
  0
LINE
  5
298
100
AcDbEntity
  8
0
100
AcDbLine
 62
7
  6
CONTINUOUS
 10
5.3209083851
 20
7.0078545973
 11
5.3300584533
 21
6.9951916291
  0
LINE
  5
299
100
AcDbEntity
  8
0
100
AcDbLine
 62
7
  6
CONTINUOUS
 10
4.9661390716
 20
6.3619203951
 11
5.1806776986
 21
6.3619203951
  0
LINE
  5
29A
100
AcDbEntity
  8
0
100
AcDbLine
 62
7
  6
CONTINUOUS
 10
5.2440026927
 20
6.3946431314
 11
4.9028140775
 21
6.3946431314
  0
LINE
  5
29B
100
AcDbEntity
  8
0
100
AcDbLine
 62
7
  6
CONTINUOUS
 10
5.2594947653
 20
6.4108116887
 11
5.1419331861
 21
6.4108116887
  0
LINE
  5
29C
100
AcDbEntity
  8
0
100
AcDbLine
 62
7
  6
CONTINUOUS
 10
5.0057656901
 20
6.4108116887
 11
4.8873220049
 21
6.4108116887
  0
LINE
  5
29D
100
AcDbEntity
  8
0
100
AcDbLine
 62
7
  6
CONTINUOUS
 10
5.1339871186
 20
6.43913715
 11
5.0128296516
 21
6.43913715
  0
LINE
  5
29E
100
AcDbEntity
  8
0
100
AcDbLine
 62
7
  6
CONTINUOUS
 10
5.138659662
 20
6.4440740679
 11
5.0081571082
 21
6.4440740679
  0
LINE
  5
29F
100
AcDbEntity
  8
0
100
AcDbLine
 62
7
  6
CONTINUOUS
 10
5.2621326116
 20
7.0115234306
 11
5.1537621206
 21
7.1159525359
  0
LINE
  5
2A0
100
AcDbEntity
  8
0
100
AcDbLine
 62
7
  6
CONTINUOUS
 10
5.2688167506
 20
7.0149825064
 11
5.1604462596
 21
7.1194116117
  0
LINE
  5
2A1
100
AcDbEntity
  8
0
100
AcDbLine
 62
7
  6
CONTINUOUS
 10
5.3209083851
 20
7.0078545973
 11
5.2767531811
 21
7.0504038965
  0
LINE
  5
2A2
100
AcDbEntity
  8
0
100
AcDbLine
 62
7
  6
CONTINUOUS
 10
5.2096121297
 20
7.1151030583
 11
5.1759262418
 21
7.1475638057
  0
LINE
  5
2A3
100
AcDbEntity
  8
0
100
AcDbLine
 62
7
  6
CONTINUOUS
 10
5.3200403282
 20
7.0184978927
 11
5.1897344493
 21
7.1440646059
  0
LINE
  5
2A4
100
AcDbEntity
  8
0
100
AcDbLine
 62
7
  6
CONTINUOUS
 10
4.9812682145
 20
6.6590867332
 11
4.9674537778
 21
6.6572363439
  0
LINE
  5
2A5
100
AcDbEntity
  8
0
100
AcDbLine
 62
7
  6
CONTINUOUS
 10
4.9708905284
 20
6.6705667314
 11
4.9570823209
 21
6.6687405036
  0
LINE
  5
2A6
100
AcDbEntity
  8
0
100
AcDbLine
 62
7
  6
CONTINUOUS
 10
5.2754360389
 20
6.6387825225
 11
5.2696355732
 21
6.6387825225
  0
LINE
  5
2A7
100
AcDbEntity
  8
0
100
AcDbLine
 62
7
  6
CONTINUOUS
 10
4.877181197
 20
6.6387825225
 11
4.8713807312
 21
6.6387825225
  0
LINE
  5
2A8
100
AcDbEntity
  8
0
100
AcDbLine
 62
7
  6
CONTINUOUS
 10
4.9812682145
 20
6.6590867332
 11
5.1655485557
 21
6.6590867332
  0
LINE
  5
2A9
100
AcDbEntity
  8
0
100
AcDbLine
 62
7
  6
CONTINUOUS
 10
4.9708905284
 20
6.6705667314
 11
5.1759262418
 21
6.6705667314
  0
LINE
  5
2AA
100
AcDbEntity
  8
0
100
AcDbLine
 62
7
  6
CONTINUOUS
 10
5.1759262418
 20
6.6705667314
 11
5.1897344493
 21
6.6687405036
  0
LINE
  5
2AB
100
AcDbEntity
  8
0
100
AcDbLine
 62
7
  6
CONTINUOUS
 10
5.1655485557
 20
6.6590867332
 11
5.1793629924
 21
6.6572363439
  0
LINE
  5
2AC
100
AcDbEntity
  8
0
100
AcDbLine
 62
7
  6
CONTINUOUS
 10
5.0771326116
 20
6.9490430082
 11
5.2621326116
 21
6.8566608174
  0
LINE
  5
2AD
100
AcDbEntity
  8
0
100
AcDbLine
 62
7
  6
CONTINUOUS
 10
5.0786752367
 20
6.9526317863
 11
5.2636752367
 21
6.8602495954
  0
LINE
  5
2AE
100
AcDbEntity
  8
0
100
AcDbLine
 62
7
  6
CONTINUOUS
 10
4.9967788761
 20
6.7297010967
 11
5.1500378941
 21
6.7297010967
  0
LINE
  5
2AF
100
AcDbEntity
  8
0
100
AcDbLine
 62
7
  6
CONTINUOUS
 10
4.9967788761
 20
6.737612687
 11
5.1500378941
 21
6.737612687
  0
LINE
  5
2B0
100
AcDbEntity
  8
0
100
AcDbLine
 62
7
  6
CONTINUOUS
 10
4.9967788761
 20
6.7507451915
 11
5.1500378941
 21
6.7507451915
  0
LINE
  5
2B1
100
AcDbEntity
  8
0
100
AcDbLine
 62
7
  6
CONTINUOUS
 10
5.0681415335
 20
6.9526317863
 11
4.8831415335
 21
7.0079346525
  0
LINE
  5
2B2
100
AcDbEntity
  8
0
100
AcDbLine
 62
7
  6
CONTINUOUS
 10
5.0696841586
 20
6.9562205644
 11
4.8846841586
 21
7.0115234306
  0
LINE
  5
2B3
100
AcDbEntity
  8
0
100
AcDbLine
 62
7
  6
CONTINUOUS
 10
5.1759262418
 20
7.1475638057
 11
5.1655485557
 21
7.1537183763
  0
LINE
  5
2B4
100
AcDbEntity
  8
0
100
AcDbLine
 62
7
  6
CONTINUOUS
 10
5.1897344493
 20
7.1440646059
 11
5.1793629924
 21
7.1502239981
  0
LINE
  5
2B5
100
AcDbEntity
  8
0
100
AcDbLine
 62
7
  6
CONTINUOUS
 10
4.9708905284
 20
7.1475638057
 11
4.9570823209
 21
7.1440646059
  0
LINE
  5
2B6
100
AcDbEntity
  8
0
100
AcDbLine
 62
7
  6
CONTINUOUS
 10
4.9812682145
 20
7.1537183763
 11
4.9674537778
 21
7.1502239981
  0
LINE
  5
2B7
100
AcDbEntity
  8
0
100
AcDbLine
 62
7
  6
CONTINUOUS
 10
5.1500378941
 20
7.1174390564
 11
4.9967788761
 21
7.1174390564
  0
LINE
  5
2B8
100
AcDbEntity
  8
0
100
AcDbLine
 62
7
  6
CONTINUOUS
 10
5.1500378941
 20
7.1236104115
 11
4.9967788761
 21
7.1236104115
  0
LINE
  5
2B9
100
AcDbEntity
  8
0
100
AcDbLine
 62
7
  6
CONTINUOUS
 10
5.1759262418
 20
7.1475638057
 11
5.1344949191
 21
7.1475638057
  0
LINE
  5
2BA
100
AcDbEntity
  8
0
100
AcDbLine
 62
7
  6
CONTINUOUS
 10
5.012321758
 20
7.1475638057
 11
4.9708905284
 21
7.1475638057
  0
LINE
  5
2BB
100
AcDbEntity
  8
0
100
AcDbLine
 62
7
  6
CONTINUOUS
 10
5.1655485557
 20
7.1537183763
 11
5.0992380322
 21
7.1537183763
  0
LINE
  5
2BC
100
AcDbEntity
  8
0
100
AcDbLine
 62
7
  6
CONTINUOUS
 10
5.0475787689
 20
7.1537183763
 11
4.9812682145
 21
7.1537183763
  0
LINE
  5
2BD
100
AcDbEntity
  8
0
100
AcDbLine
 62
7
  6
CONTINUOUS
 10
5.1655485557
 20
7.1537183763
 11
5.1793629924
 21
7.1502239981
  0
LINE
  5
2BE
100
AcDbEntity
  8
0
100
AcDbLine
 62
7
  6
CONTINUOUS
 10
5.1759262418
 20
7.1475638057
 11
5.1897344493
 21
7.1440646059
  0
ARC
  5
2BF
100
AcDbEntity
  8
0
100
AcDbCircle
 62
7
  6
CONTINUOUS
 10
1.8827994368
 20
5.991187749
 40
2.9109816288
100
AcDbArc
 50
351.6108607594
 51
355.1090544236
  0
ARC
  5
2C0
100
AcDbEntity
  8
0
100
AcDbCircle
 62
7
  6
CONTINUOUS
 10
3.496635243
 20
6.3559780158
 40
1.4527530173
100
AcDbArc
 50
353.8742777723
 51
356.5481953646
  0
ARC
  5
2C1
100
AcDbEntity
  8
0
100
AcDbCircle
 62
7
  6
CONTINUOUS
 10
3.543001036
 20
6.3563644886
 40
1.4193913338
100
AcDbArc
 50
353.7846905315
 51
356.451312864
  0
ARC
  5
2C2
100
AcDbEntity
  8
0
100
AcDbCircle
 62
7
  6
CONTINUOUS
 10
5.0734111378
 20
6.2278937475
 40
1.0349622531
100
AcDbArc
 50
259.1834755118
 51
280.8162142565
  0
ARC
  5
2C3
100
AcDbEntity
  8
0
100
AcDbCircle
 62
7
  6
CONTINUOUS
 10
5.0478524335
 20
6.0980358455
 40
0.5290761781
100
AcDbArc
 50
261.1924836352
 51
261.5019999968
  0
ARC
  5
2C4
100
AcDbEntity
  8
0
100
AcDbCircle
 62
7
  6
CONTINUOUS
 10
5.0734083851
 20
5.7913037332
 40
0.3062
100
AcDbArc
 50
13.6907851686
 51
19.8174295984
  0
ARC
  5
2C5
100
AcDbEntity
  8
0
100
AcDbCircle
 62
7
  6
CONTINUOUS
 10
5.0734083851
 20
5.7913037332
 40
0.3062
100
AcDbArc
 50
160.1500375663
 51
166.3092148314
  0
ARC
  5
2C6
100
AcDbEntity
  8
0
100
AcDbCircle
 62
7
  6
CONTINUOUS
 10
4.8915838014
 20
6.2952757278
 40
0.1
100
AcDbArc
 50
41.7934055852
 51
83.5519233076
  0
ARC
  5
2C7
100
AcDbEntity
  8
0
100
AcDbCircle
 62
7
  6
CONTINUOUS
 10
4.9717920947
 20
6.2663754676
 40
0.0251301642
100
AcDbArc
 50
173.2440223667
 51
175.1290211521
  0
ARC
  5
2C8
100
AcDbEntity
  8
0
100
AcDbCircle
 62
7
  6
CONTINUOUS
 10
4.9475002552
 20
6.3452592283
 40
0.0249999999
100
AcDbArc
 50
272.0817389687
 51
41.7934079728
  0
ARC
  5
2C9
100
AcDbEntity
  8
0
100
AcDbCircle
 62
7
  6
CONTINUOUS
 10
4.9412254878
 20
6.2956076829
 40
0.0230062494
100
AcDbArc
 50
337.2215390229
 51
339.093544735
  0
ARC
  5
2CA
100
AcDbEntity
  8
0
100
AcDbCircle
 62
7
  6
CONTINUOUS
 10
4.9047793758
 20
6.412032427
 40
0.0175
100
AcDbArc
 50
184.0
 51
263.5519233076
  0
ARC
  5
2CB
100
AcDbEntity
  8
0
100
AcDbCircle
 62
7
  6
CONTINUOUS
 10
5.0559537981
 20
6.9184197371
 40
0.227545413
100
AcDbArc
 50
180.0002833596
 51
182.3543230794
  0
ARC
  5
2CC
100
AcDbEntity
  8
0
100
AcDbCircle
 62
7
  6
CONTINUOUS
 10
5.0616140094
 20
6.9185871532
 40
0.1799292045
100
AcDbArc
 50
247.6021801103
 51
248.8791118055
  0
ARC
  5
2CD
100
AcDbEntity
  8
0
100
AcDbCircle
 62
7
  6
CONTINUOUS
 10
5.0094924626
 20
7.1130955214
 40
0.1774497586
100
AcDbArc
 50
291.1119667486
 51
292.4067413355
  0
ARC
  5
2CE
100
AcDbEntity
  8
0
100
AcDbCircle
 62
7
  6
CONTINUOUS
 10
5.073402117
 20
6.5827330591
 40
0.1462591434
100
AcDbArc
 50
259.0705388762
 51
280.929409061
  0
ARC
  5
2CF
100
AcDbEntity
  8
0
100
AcDbCircle
 62
7
  6
CONTINUOUS
 10
5.0704514678
 20
6.577241601
 40
0.1399350125
100
AcDbArc
 50
221.2286421606
 51
230.9125788522
  0
ARC
  5
2D0
100
AcDbEntity
  8
0
100
AcDbCircle
 62
7
  6
CONTINUOUS
 10
5.0208884766
 20
6.9753453106
 40
0.0620903683
100
AcDbArc
 50
334.937082141
 51
338.5423154156
  0
ARC
  5
2D1
100
AcDbEntity
  8
0
100
AcDbCircle
 62
7
  6
CONTINUOUS
 10
4.9409282936
 20
6.8829631197
 40
0.0620903682
100
AcDbArc
 50
201.4576845825
 51
205.0629178608
  0
ARC
  5
2D2
100
AcDbEntity
  8
0
100
AcDbCircle
 62
7
  6
CONTINUOUS
 10
5.0653554307
 20
6.9321232951
 40
0.0268212672
100
AcDbArc
 50
63.9536176138
 51
72.527674302
  0
ARC
  5
2D3
100
AcDbEntity
  8
0
100
AcDbCircle
 62
7
  6
CONTINUOUS
 10
5.0048318304
 20
7.0918552666
 40
0.0268212672
100
AcDbArc
 50
107.4723256938
 51
116.0463823904
  0
ARC
  5
2D4
100
AcDbEntity
  8
0
100
AcDbCircle
 62
7
  6
CONTINUOUS
 10
4.8938259224
 20
6.6403520432
 40
0.0225
100
AcDbArc
 50
156.0534556054
 51
184.0
  0
ARC
  5
2D5
100
AcDbEntity
  8
0
100
AcDbCircle
 62
7
  6
CONTINUOUS
 10
4.8884083851
 20
7.0041813061
 40
0.015
100
AcDbArc
 50
133.938610748
 51
179.999999997
  0
ARC
  5
2D6
100
AcDbEntity
  8
0
100
AcDbCircle
 62
7
  6
CONTINUOUS
 10
4.9967788761
 20
7.1086104115
 40
0.015
100
AcDbArc
 50
90.0
 51
133.9390298768
  0
ARC
  5
2D7
100
AcDbEntity
  8
0
100
AcDbCircle
 62
7
  6
CONTINUOUS
 10
8.2640434957
 20
5.9911910582
 40
2.911007994
100
AcDbArc
 50
184.8942200505
 51
188.3891285443
  0
ARC
  5
2D8
100
AcDbEntity
  8
0
100
AcDbCircle
 62
7
  6
CONTINUOUS
 10
6.6427480285
 20
6.3553695787
 40
1.4452963857
100
AcDbArc
 50
183.4454871374
 51
186.1693476302
  0
ARC
  5
2D9
100
AcDbEntity
  8
0
100
AcDbCircle
 62
7
  6
CONTINUOUS
 10
6.5913441242
 20
6.3552754278
 40
1.4068762633
100
AcDbArc
 50
183.5358577209
 51
186.2599455044
  0
ARC
  5
2DA
100
AcDbEntity
  8
0
100
AcDbCircle
 62
7
  6
CONTINUOUS
 10
5.098641493
 20
6.1001344636
 40
0.5311994638
100
AcDbArc
 50
278.4990182885
 51
278.8072912601
  0
ARC
  5
2DB
100
AcDbEntity
  8
0
100
AcDbCircle
 62
7
  6
CONTINUOUS
 10
5.166319685
 20
6.0481990663
 40
0.2739630759
100
AcDbArc
 50
79.7309334506
 51
80.5243163552
  0
ARC
  5
2DC
100
AcDbEntity
  8
0
100
AcDbCircle
 62
7
  6
CONTINUOUS
 10
5.1663564615
 20
6.0484181671
 40
0.2737409101
100
AcDbArc
 50
80.5243591197
 51
80.9579960684
  0
ARC
  5
2DD
100
AcDbEntity
  8
0
100
AcDbCircle
 62
7
  6
CONTINUOUS
 10
5.1663936152
 20
6.0486525932
 40
0.2735035582
100
AcDbArc
 50
80.957964634
 51
81.5825801195
  0
ARC
  5
2DE
100
AcDbEntity
  8
0
100
AcDbCircle
 62
7
  6
CONTINUOUS
 10
5.1664408281
 20
6.0489716022
 40
0.2731810744
100
AcDbArc
 50
81.5825815001
 51
82.1708479595
  0
ARC
  5
2DF
100
AcDbEntity
  8
0
100
AcDbCircle
 62
7
  6
CONTINUOUS
 10
5.1665137781
 20
6.0495086923
 40
0.2726390534
100
AcDbArc
 50
82.1706604707
 51
83.2818852975
  0
ARC
  5
2E0
100
AcDbEntity
  8
0
100
AcDbCircle
 62
7
  6
CONTINUOUS
 10
5.2552329687
 20
6.2952757278
 40
0.1
100
AcDbArc
 50
96.4480766924
 51
138.2065944148
  0
ARC
  5
2E1
100
AcDbEntity
  8
0
100
AcDbCircle
 62
7
  6
CONTINUOUS
 10
5.1751126194
 20
6.2663844062
 40
0.0250417795
100
AcDbArc
 50
4.8667464554
 51
6.7593434447
  0
ARC
  5
2E2
100
AcDbEntity
  8
0
100
AcDbCircle
 62
7
  6
CONTINUOUS
 10
5.199316515
 20
6.3452592283
 40
0.0249999999
100
AcDbArc
 50
138.2065920272
 51
267.9182610313
  0
ARC
  5
2E3
100
AcDbEntity
  8
0
100
AcDbCircle
 62
7
  6
CONTINUOUS
 10
5.2420373944
 20
6.412032427
 40
0.0175
100
AcDbArc
 50
276.4480766924
 51
356.0
  0
ARC
  5
2E4
100
AcDbEntity
  8
0
100
AcDbCircle
 62
7
  6
CONTINUOUS
 10
5.1980556077
 20
6.2953583231
 40
0.0108973772
100
AcDbArc
 50
225.7729243214
 51
227.9926486768
  0
ARC
  5
2E5
100
AcDbEntity
  8
0
100
AcDbCircle
 62
7
  6
CONTINUOUS
 10
5.1789407067
 20
6.2679989252
 40
0.0082211196
100
AcDbArc
 50
3.5562824512
 51
5.8211424165
  0
ARC
  5
2E6
100
AcDbEntity
  8
0
100
AcDbCircle
 62
7
  6
CONTINUOUS
 10
5.1382435175
 20
7.1153984469
 40
0.1799292018
100
AcDbArc
 50
247.6021801009
 51
248.8791118149
  0
ARC
  5
2E7
100
AcDbEntity
  8
0
100
AcDbCircle
 62
7
  6
CONTINUOUS
 10
5.0861219707
 20
6.9162842277
 40
0.1774497613
100
AcDbArc
 50
291.1119667583
 51
292.4067413259
  0
ARC
  5
2E8
100
AcDbEntity
  8
0
100
AcDbCircle
 62
7
  6
CONTINUOUS
 10
5.0763647231
 20
6.5772422035
 40
0.1399358476
100
AcDbArc
 50
309.0836500712
 51
318.7676652986
  0
ARC
  5
2E9
100
AcDbEntity
  8
0
100
AcDbCircle
 62
7
  6
CONTINUOUS
 10
5.1259282936
 20
6.9753453106
 40
0.0620903682
100
AcDbArc
 50
201.4576845829
 51
205.0629178605
  0
ARC
  5
2EA
100
AcDbEntity
  8
0
100
AcDbCircle
 62
7
  6
CONTINUOUS
 10
5.2058884766
 20
6.8829631197
 40
0.0620903682
100
AcDbArc
 50
334.9370821392
 51
338.5423154175
  0
ARC
  5
2EB
100
AcDbEntity
  8
0
100
AcDbCircle
 62
7
  6
CONTINUOUS
 10
5.1419849396
 20
7.0918552661
 40
0.0268212677
100
AcDbArc
 50
63.9536176968
 51
72.527674219
  0
ARC
  5
2EC
100
AcDbEntity
  8
0
100
AcDbCircle
 62
7
  6
CONTINUOUS
 10
5.0814613395
 20
6.9321232951
 40
0.0268212672
100
AcDbArc
 50
107.4723256946
 51
116.0463823896
  0
ARC
  5
2ED
100
AcDbEntity
  8
0
100
AcDbCircle
 62
7
  6
CONTINUOUS
 10
5.2529908478
 20
6.6403520432
 40
0.0225
100
AcDbArc
 50
356.0
 51
23.9465443946
  0
ARC
  5
2EE
100
AcDbEntity
  8
0
100
AcDbCircle
 62
7
  6
CONTINUOUS
 10
5.1500378941
 20
7.1086104115
 40
0.015
100
AcDbArc
 50
46.0610872811
 51
90.0
  0
ARC
  5
2EF
100
AcDbEntity
  8
0
100
AcDbCircle
 62
7
  6
CONTINUOUS
 10
5.2584083851
 20
7.0041813061
 40
0.015
100
AcDbArc
 50
0.0000001562
 51
46.0613892522
  0
ARC
  5
2F0
100
AcDbEntity
  8
0
100
AcDbCircle
 62
7
  6
CONTINUOUS
 10
5.1600692565
 20
7.1190198278
 40
0.0005437157
100
AcDbArc
 50
46.101441317
 51
55.3427674787
  0
SPLINE
  5
2F1
100
AcDbEntity
  8
0
100
AcDbSpline
 62
7
  6
CONTINUOUS
 70
0
 71
3
 72
34
 73
30
 74
0
 42
0.0000001
 43
0.0000001
 44
0.0000000001
 40
0.0
 40
0.0
 40
0.0
 40
0.0
 40
0.1003793168
 40
0.1976365655
 40
0.2917414511
 40
0.3825908767
 40
0.4699556308
 40
0.5122196118
 40
0.5534533733
 40
0.5935582436
 40
0.6324020442
 40
0.6697930217
 40
0.705549469
 40
0.7715098123
 40
0.8014018233
 40
0.8290625549
 40
0.8543882839
 40
0.8773489273
 40
0.8980194765
 40
0.9165162822
 40
0.9329668996
 40
0.947495095
 40
0.9602163663
 40
0.9712380405
 40
0.9806509687
 40
0.9885353432
 40
0.994962872
 40
0.9976510411
 40
1.0
 40
1.0
 40
1.0
 40
1.0
 10
5.3636583851
 20
5.7275257278
 30
0.0
 10
5.3636583851
 20
5.7360071592
 30
0.0
 10
5.3636526354
 20
5.7527062308
 30
0.0
 10
5.3635957328
 20
5.7773565376
 30
0.0
 10
5.3634688967
 20
5.8012013821
 30
0.0
 10
5.3632530792
 20
5.8242097211
 30
0.0
 10
5.3629766371
 20
5.8428368583
 30
0.0
 10
5.3626808949
 20
5.8572706897
 30
0.0
 10
5.3624218792
 20
5.8677111706
 30
0.0
 10
5.3621201125
 20
5.8778614053
 30
0.0
 10
5.3617748404
 20
5.8876853655
 30
0.0
 10
5.3613947301
 20
5.8971403354
 30
0.0
 10
5.3608646305
 20
5.908882155
 30
0.0
 10
5.3602828947
 20
5.919987274
 30
0.0
 10
5.3596587273
 20
5.9304047162
 30
0.0
 10
5.3592061512
 20
5.9373928223
 30
0.0
 10
5.3587619325
 20
5.9437945104
 30
0.0
 10
5.3583323789
 20
5.9496051083
 30
0.0
 10
5.3579204523
 20
5.9548383744
 30
0.0
 10
5.3575272752
 20
5.9595212961
 30
0.0
 10
5.3571531769
 20
5.9636849346
 30
0.0
 10
5.356798133
 20
5.9673602438
 30
0.0
 10
5.3564618838
 20
5.9705764295
 30
0.0
 10
5.3561441459
 20
5.9733598673
 30
0.0
 10
5.3558447716
 20
5.9757339218
 30
0.0
 10
5.3555636867
 20
5.9777187973
 30
0.0
 10
5.3553333255
 20
5.9791367961
 30
0.0
 10
5.3551549285
 20
5.980088962
 30
0.0
 10
5.3550684002
 20
5.9805057239
 30
0.0
 10
5.3550254333
 20
5.9806994897
 30
0.0
  0
SPLINE
  5
2F2
100
AcDbEntity
  8
0
100
AcDbSpline
 62
7
  6
CONTINUOUS
 70
0
 71
3
 72
31
 73
27
 74
0
 42
0.0000001
 43
0.0000001
 44
0.0000000001
 40
0.0
 40
0.0
 40
0.0
 40
0.0
 40
0.1004767694
 40
0.1980092805
 40
0.2924688916
 40
0.3837426255
 40
0.4715481435
 40
0.5553297994
 40
0.6342447503
 40
0.7071322301
 40
0.7726177595
 40
0.8021776701
 40
0.8294571102
 40
0.8543748423
 40
0.8769423787
 40
0.8972569758
 40
0.915491828
 40
0.9317939961
 40
0.9462840428
 40
0.9590619972
 40
0.9702176357
 40
0.9798264816
 40
0.9879574519
 40
0.9946651241
 40
0.9975014266
 40
1.0
 40
1.0
 40
1.0
 40
1.0
 10
4.7831583851
 20
5.7275257278
 30
0.0
 10
4.7831583851
 20
5.7360790975
 30
0.0
 10
4.7831895064
 20
5.7529352221
 30
0.0
 10
4.783342159
 20
5.7778320811
 30
0.0
 10
4.7836083399
 20
5.8019445318
 30
0.0
 10
4.7839936261
 20
5.8252272397
 30
0.0
 10
4.7844911046
 20
5.8475986073
 30
0.0
 10
4.7850846942
 20
5.8689151615
 30
0.0
 10
4.7857595356
 20
5.8889586877
 30
0.0
 10
4.7864938089
 20
5.9074414715
 30
0.0
 10
4.7871501643
 20
5.9217222756
 30
0.0
 10
4.7876833686
 20
5.9321218872
 30
0.0
 10
4.7880655954
 20
5.9390712051
 30
0.0
 10
4.7884416916
 20
5.9454246615
 30
0.0
 10
4.7888096943
 20
5.951184597
 30
0.0
 10
4.7891686127
 20
5.9563749845
 30
0.0
 10
4.7895173446
 20
5.9610313713
 30
0.0
 10
4.789855548
 20
5.9651912454
 30
0.0
 10
4.7901827586
 20
5.9688858549
 30
0.0
 10
4.7904985827
 20
5.9721415384
 30
0.0
 10
4.7908023356
 20
5.9749807849
 30
0.0
 10
4.7910935422
 20
5.9774233752
 30
0.0
 10
4.7913714254
 20
5.9794859856
 30
0.0
 10
4.7916022729
 20
5.9809729858
 30
0.0
 10
4.7917828099
 20
5.9819821597
 30
0.0
 10
4.791870996
 20
5.9824277034
 30
0.0
 10
4.7919149081
 20
5.9826358193
 30
0.0
  0
SPLINE
  5
2F3
100
AcDbEntity
  8
0
100
AcDbSpline
 62
7
  6
CONTINUOUS
 70
0
 71
3
 72
17
 73
13
 74
0
 42
0.0000001
 43
0.0000001
 44
0.0000000001
 40
0.0
 40
0.0
 40
0.0
 40
0.0
 40
0.0517206819
 40
0.103754871
 40
0.1564082875
 40
0.2099709157
 40
0.3208178953
 40
0.438269672
 40
0.5638574455
 40
0.6987746316
 40
0.8439291885
 40
1.0
 40
1.0
 40
1.0
 40
1.0
 10
4.7831583851
 20
5.7275256924
 30
0.0
 10
4.783158385
 20
5.7270103452
 30
0.0
 10
4.7832005613
 20
5.7259760427
 30
0.0
 10
4.7833894461
 20
5.7244275006
 30
0.0
 10
4.7837032898
 20
5.7228805583
 30
0.0
 10
4.7842937475
 20
5.7207980507
 30
0.0
 10
4.785357675
 20
5.7181880706
 30
0.0
 10
4.7871077655
 20
5.7151171552
 30
0.0
 10
4.7893377133
 20
5.7120734838
 30
0.0
 10
4.7920407978
 20
5.7090606787
 30
0.0
 10
4.7952111613
 20
5.706082019
 30
0.0
 10
4.7975461105
 20
5.7041917835
 30
0.0
 10
4.7987843837
 20
5.7032510369
 30
0.0
  0
SPLINE
  5
2F4
100
AcDbEntity
  8
0
100
AcDbSpline
 62
7
  6
CONTINUOUS
 70
0
 71
3
 72
23
 73
19
 74
0
 42
0.0000001
 43
0.0000001
 44
0.0000000001
 40
0.0
 40
0.0
 40
0.0
 40
0.0
 40
0.0614875932
 40
0.1230134886
 40
0.1846167059
 40
0.2463313043
 40
0.3081875521
 40
0.3702101419
 40
0.4324172832
 40
0.4948200006
 40
0.5574217904
 40
0.6202184719
 40
0.6831984334
 40
0.7463430789
 40
0.809627597
 40
0.8730219256
 40
0.9364912435
 40
1.0
 40
1.0
 40
1.0
 40
1.0
 10
4.8284083851
 20
6.9184186117
 30
0.0
 10
4.8284083851
 20
6.9261691995
 30
0.0
 10
4.8291985522
 20
6.9416867667
 30
0.0
 10
4.8327422365
 20
6.9647251297
 30
0.0
 10
4.8386092748
 20
6.9873159008
 30
0.0
 10
4.8467418467
 20
7.0092368965
 30
0.0
 10
4.8570596486
 20
7.0302768452
 30
0.0
 10
4.8694614037
 20
7.0502324827
 30
0.0
 10
4.8838256173
 20
7.0689119752
 30
0.0
 10
4.9000121305
 20
7.0861362947
 30
0.0
 10
4.9178636743
 20
7.1017408265
 30
0.0
 10
4.9372072599
 20
7.1155770579
 30
0.0
 10
4.957856146
 20
7.1275135772
 30
0.0
 10
4.9796115968
 20
7.1374373022
 30
0.0
 10
5.0022644314
 20
7.145254547
 30
0.0
 10
5.0255982339
 20
7.1508914208
 30
0.0
 10
5.0493869174
 20
7.1542949811
 30
0.0
 10
5.0654030271
 20
7.155053616
 30
0.0
 10
5.0734083851
 20
7.155053616
 30
0.0
  0
SPLINE
  5
2F5
100
AcDbEntity
  8
0
100
AcDbSpline
 62
7
  6
CONTINUOUS
 70
0
 71
3
 72
23
 73
19
 74
0
 42
0.0000001
 43
0.0000001
 44
0.0000000001
 40
0.0
 40
0.0
 40
0.0
 40
0.0
 40
0.0635087634
 40
0.1269780851
 40
0.1903724161
 40
0.2536569345
 40
0.3168015787
 40
0.3797815375
 40
0.4425782154
 40
0.5051800009
 40
0.5675827141
 40
0.6297898514
 40
0.6918124381
 40
0.7536686841
 40
0.8153832822
 40
0.8769865014
 40
0.9385124002
 40
1.0
 40
1.0
 40
1.0
 40
1.0
 10
5.0734083851
 20
7.155053616
 30
0.0
 10
5.0814137439
 20
7.155053616
 30
0.0
 10
5.0974298551
 20
7.154294981
 30
0.0
 10
5.1212185401
 20
7.15089142
 30
0.0
 10
5.1445523434
 20
7.1452545457
 30
0.0
 10
5.1672051779
 20
7.1374373003
 30
0.0
 10
5.1889606281
 20
7.1275135751
 30
0.0
 10
5.2096095132
 20
7.1155770561
 30
0.0
 10
5.2289530975
 20
7.1017408251
 30
0.0
 10
5.2468046401
 20
7.0861362943
 30
0.0
 10
5.2629911523
 20
7.0689119759
 30
0.0
 10
5.2773553651
 20
7.0502324847
 30
0.0
 10
5.2897571198
 20
7.0302768482
 30
0.0
 10
5.3000749218
 20
7.0092369004
 30
0.0
 10
5.3082074942
 20
6.9873159049
 30
0.0
 10
5.3140745329
 20
6.9647251332
 30
0.0
 10
5.3176182179
 20
6.9416867688
 30
0.0
 10
5.3184083851
 20
6.9261692004
 30
0.0
 10
5.3184083851
 20
6.9184186117
 30
0.0
  0
SPLINE
  5
2F6
100
AcDbEntity
  8
0
100
AcDbSpline
 62
7
  6
CONTINUOUS
 70
0
 71
3
 72
11
 73
7
 74
0
 42
0.0000001
 43
0.0000001
 44
0.0000000001
 40
0.0
 40
0.0
 40
0.0
 40
0.0
 40
0.250000287
 40
0.5000003782
 40
0.7500002761
 40
1.0
 40
1.0
 40
1.0
 40
1.0
 10
5.5015435841
 20
5.3594828926
 30
0.0
 10
5.5045934354
 20
5.4014582866
 30
0.0
 10
5.5103436481
 20
5.4854349878
 30
0.0
 10
5.5177717474
 20
5.6114764435
 30
0.0
 10
5.5238569941
 20
5.7375901535
 30
0.0
 10
5.5269240216
 20
5.821708737
 30
0.0
 10
5.5281871921
 20
5.8637757278
 30
0.0
  0
SPLINE
  5
2F7
100
AcDbEntity
  8
0
100
AcDbSpline
 62
7
  6
CONTINUOUS
 70
0
 71
3
 72
83
 73
79
 74
0
 42
0.0000001
 43
0.0000001
 44
0.0000000001
 40
0.0
 40
0.0
 40
0.0
 40
0.0
 40
0.0078120659
 40
0.0117187284
 40
0.0156253246
 40
0.0195319832
 40
0.0234386396
 40
0.0273452931
 40
0.0312519349
 40
0.0351585989
 40
0.0390652404
 40
0.0429719079
 40
0.0468785456
 40
0.0507852175
 40
0.0546918501
 40
0.0625043972
 40
0.0703170613
 40
0.078129824
 40
0.0859426242
 40
0.0937554728
 40
0.1015684318
 40
0.1093813064
 40
0.1171941978
 40
0.121100613
 40
0.1250070765
 40
0.1289135905
 40
0.1328200576
 40
0.1367264503
 40
0.1406328267
 40
0.1484455424
 40
0.1562582262
 40
0.1640709415
 40
0.1679773104
 40
0.1718836361
 40
0.1796962302
 40
0.1875088949
 40
0.1953214678
 40
0.2031339154
 40
0.2109464068
 40
0.214852678
 40
0.2187589446
 40
0.226571424
 40
0.2343838574
 40
0.24219627
 40
0.2500086885
 40
0.2656335527
 40
0.28125848
 40
0.2968833886
 40
0.3125083139
 40
0.3437579209
 40
0.3750076237
 40
0.4062574255
 40
0.4375072389
 40
0.4531322616
 40
0.4687572412
 40
0.4843822099
 40
0.5000072057
 40
0.5156321875
 40
0.531257095
 40
0.5625068481
 40
0.5937565656
 40
0.625006169
 40
0.6562557911
 40
0.6875052074
 40
0.7187546511
 40
0.7343793891
 40
0.7500041033
 40
0.7812534699
 40
0.7968781357
 40
0.8125028012
 40
0.8281274837
 40
0.8437522017
 40
0.8593769385
 40
0.8750016777
 40
0.9062511627
 40
0.9375008474
 40
0.9687505698
 40
1.0
 40
1.0
 40
1.0
 40
1.0
 10
4.5062016574
 20
2.0154093535
 30
0.0
 10
4.5140075304
 20
2.0197720083
 30
0.0
 10
4.5254895785
 20
2.0267371626
 30
0.0
 10
4.54025604
 20
2.0368344084
 30
0.0
 10
4.5510496708
 20
2.0448068442
 30
0.0
 10
4.5615456232
 20
2.0531667518
 30
0.0
 10
4.5717320152
 20
2.0619013543
 30
0.0
 10
4.5815985664
 20
2.0709955383
 30
0.0
 10
4.5911370071
 20
2.0804331801
 30
0.0
 10
4.6003419471
 20
2.0901962095
 30
0.0
 10
4.6092094459
 20
2.1002665891
 30
0.0
 10
4.6177387119
 20
2.1106247944
 30
0.0
 10
4.625930089
 20
2.1212520507
 30
0.0
 10
4.6337868319
 20
2.1321289187
 30
0.0
 10
4.6438210622
 20
2.1469384342
 30
0.0
 10
4.655554503
 20
2.1659846553
 30
0.0
 10
4.6683978632
 20
2.1895523125
 30
0.0
 10
4.6800838214
 20
2.21371341
 30
0.0
 10
4.690697973
 20
2.2383623369
 30
0.0
 10
4.7003299242
 20
2.2634100625
 30
0.0
 10
4.7090698905
 20
2.2887815377
 30
0.0
 10
4.7170088607
 20
2.314413831
 30
0.0
 10
4.7230261231
 20
2.3359497232
 30
0.0
 10
4.7275236535
 20
2.3532617915
 30
0.0
 10
4.7307500959
 20
2.3662832114
 30
0.0
 10
4.7338408467
 20
2.3793374921
 30
0.0
 10
4.7368079931
 20
2.3924203081
 30
0.0
 10
4.7396588258
 20
2.4055287903
 30
0.0
 10
4.7433098749
 20
2.4230384836
 30
0.0
 10
4.7476039099
 20
2.4449808359
 30
0.0
 10
4.7523605915
 20
2.4713857471
 30
0.0
 10
4.7560129306
 20
2.4934437189
 30
0.0
 10
4.7587590672
 20
2.5111177779
 30
0.0
 10
4.7613916369
 20
2.528808976
 30
0.0
 10
4.7644799354
 20
2.5509525337
 30
0.0
 10
4.7678972543
 20
2.5775631662
 30
0.0
 10
4.7710617824
 20
2.6042047839
 30
0.0
 10
4.7740067648
 20
2.6308712658
 30
0.0
 10
4.7763034686
 20
2.653110053
 30
0.0
 10
4.7780618387
 20
2.6709090173
 30
0.0
 10
4.779773174
 20
2.6887125517
 30
0.0
 10
4.7818297025
 20
2.7109747316
 30
0.0
 10
4.7841637171
 20
2.7377012568
 30
0.0
 10
4.7863638733
 20
2.7644390741
 30
0.0
 10
4.789117849
 20
2.8001037962
 30
0.0
 10
4.7922264767
 20
2.8447099573
 30
0.0
 10
4.7954426691
 20
2.8982705749
 30
0.0
 10
4.7981627445
 20
2.9518587665
 30
0.0
 10
4.8011453159
 20
3.0233389573
 30
0.0
 10
4.8036992786
 20
3.1127341443
 30
0.0
 10
4.8049956118
 20
3.2200430843
 30
0.0
 10
4.8046308552
 20
3.3273590062
 30
0.0
 10
4.8030291622
 20
3.4167752165
 30
0.0
 10
4.8010146608
 20
3.4882892964
 30
0.0
 10
4.7991482502
 20
3.5419138683
 30
0.0
 10
4.7969405561
 20
3.5955253825
 30
0.0
 10
4.794407011
 20
3.6491224626
 30
0.0
 10
4.7915627178
 20
3.7027038604
 30
0.0
 10
4.7873763506
 20
3.7741233938
 30
0.0
 10
4.7814509144
 20
3.8633555035
 30
0.0
 10
4.7733806574
 20
3.9703650769
 30
0.0
 10
4.7644962491
 20
4.0773096864
 30
0.0
 10
4.7549402041
 20
4.1841957118
 30
0.0
 10
4.7448558405
 20
4.2910327643
 30
0.0
 10
4.7361358547
 20
4.3800329099
 30
0.0
 10
4.7290441069
 20
4.4512215165
 30
0.0
 10
4.7219000001
 20
4.5224048017
 30
0.0
 10
4.7147115208
 20
4.5935835325
 30
0.0
 10
4.7075465252
 20
4.6647645748
 30
0.0
 10
4.7022015099
 20
4.7181532328
 30
0.0
 10
4.6969021715
 20
4.7715465094
 30
0.0
 10
4.6916655891
 20
4.8249460643
 30
0.0
 10
4.6865030958
 20
4.8783529057
 30
0.0
 10
4.6797334762
 20
4.9495729626
 30
0.0
 10
4.6715128401
 20
5.0386211089
 30
0.0
 10
4.6621236464
 20
5.1455220823
 30
0.0
 10
4.653302964
 20
5.2524715207
 30
0.0
 10
4.6478653659
 20
5.323806476
 30
0.0
 10
4.6452731861
 20
5.3594828926
 30
0.0
  0
SPLINE
  5
2F8
100
AcDbEntity
  8
0
100
AcDbSpline
 62
7
  6
CONTINUOUS
 70
0
 71
3
 72
11
 73
7
 74
0
 42
0.0000001
 43
0.0000001
 44
0.0000000001
 40
0.0
 40
0.0
 40
0.0
 40
0.0
 40
0.250000287
 40
0.5000003782
 40
0.7500002761
 40
1.0
 40
1.0
 40
1.0
 40
1.0
 10
4.6452731861
 20
5.3594828926
 30
0.0
 10
4.6422233347
 20
5.4014582866
 30
0.0
 10
4.6364731221
 20
5.4854349878
 30
0.0
 10
4.6290450228
 20
5.6114764435
 30
0.0
 10
4.6229597761
 20
5.7375901535
 30
0.0
 10
4.6198927486
 20
5.821708737
 30
0.0
 10
4.6186295781
 20
5.8637757278
 30
0.0
  0
LINE
  5
2F9
100
AcDbEntity
  8
0
100
AcDbLine
 62
7
  6
CONTINUOUS
 10
5.3841839736
 20
5.5664837882
 11
5.3850382025
 21
5.5598717443
  0
LINE
  5
2FA
100
AcDbEntity
  8
0
100
AcDbLine
 62
7
  6
CONTINUOUS
 10
4.7617785575
 20
5.5598716553
 11
4.7626327966
 21
5.5664837882
  0
SPLINE
  5
2FB
100
AcDbEntity
  8
0
100
AcDbSpline
 62
7
  6
CONTINUOUS
 70
0
 71
3
 72
17
 73
13
 74
0
 42
0.0000001
 43
0.0000001
 44
0.0000000001
 40
0.0
 40
0.0
 40
0.0
 40
0.0
 40
0.1560708348
 40
0.3012254072
 40
0.4361426012
 40
0.5617303754
 40
0.6791821463
 40
0.7900291147
 40
0.8435917359
 40
0.8962451448
 40
0.948279326
 40
1.0
 40
1.0
 40
1.0
 40
1.0
 10
5.3480323853
 20
5.7032510181
 30
0.0
 10
5.3492706587
 20
5.7041917643
 30
0.0
 10
5.3516056082
 20
5.706081999
 30
0.0
 10
5.3547759721
 20
5.7090606575
 30
0.0
 10
5.357479057
 20
5.7120734614
 30
0.0
 10
5.3597090049
 20
5.7151171317
 30
0.0
 10
5.3614590956
 20
5.7181880459
 30
0.0
 10
5.362523023
 20
5.7207980251
 30
0.0
 10
5.3631134808
 20
5.7228805319
 30
0.0
 10
5.3634273243
 20
5.7244274737
 30
0.0
 10
5.3636162091
 20
5.7259760151
 30
0.0
 10
5.3636583852
 20
5.7270103173
 30
0.0
 10
5.3636583851
 20
5.7275256642
 30
0.0
  0
LINE
  5
2FC
100
AcDbEntity
  8
0
100
AcDbLine
 62
7
  6
CONTINUOUS
 10
4.8982577353
 20
6.1936896912
 11
4.8986656155
 21
6.193957322
  0
LINE
  5
2FD
100
AcDbEntity
  8
0
100
AcDbLine
 62
7
  6
CONTINUOUS
 10
5.2482654998
 20
6.1926253912
 11
5.247885935
 21
6.1928748888
  0
SPLINE
  5
2FE
100
AcDbEntity
  8
0
100
AcDbSpline
 62
7
  6
CONTINUOUS
 70
0
 71
3
 72
83
 73
79
 74
0
 42
0.0000001
 43
0.0000001
 44
0.0000000001
 40
0.0
 40
0.0
 40
0.0
 40
0.0
 40
0.0078120656
 40
0.0117187279
 40
0.015625324
 40
0.0195319825
 40
0.0234386387
 40
0.0273452921
 40
0.0312519338
 40
0.0351585977
 40
0.039065239
 40
0.0429719064
 40
0.0468785439
 40
0.0507852158
 40
0.0546918482
 40
0.0625043951
 40
0.0703170588
 40
0.0781298213
 40
0.0859426214
 40
0.0937554698
 40
0.1015684288
 40
0.1093813036
 40
0.1171941947
 40
0.1211006102
 40
0.1250070742
 40
0.1289135884
 40
0.1328200551
 40
0.1367264477
 40
0.1406328242
 40
0.1484455402
 40
0.1562582242
 40
0.1640709396
 40
0.1679773084
 40
0.171883634
 40
0.1796962283
 40
0.1875088933
 40
0.1953214659
 40
0.2031339135
 40
0.2109464053
 40
0.2148526766
 40
0.2187589432
 40
0.2265714226
 40
0.2343838559
 40
0.2421962685
 40
0.250008687
 40
0.2656335514
 40
0.2812584788
 40
0.2968833874
 40
0.3125083129
 40
0.34375792
 40
0.375007623
 40
0.4062574251
 40
0.4375072385
 40
0.4531322613
 40
0.4687572409
 40
0.4843822095
 40
0.5000072052
 40
0.5156321869
 40
0.5312570944
 40
0.5625068475
 40
0.5937565651
 40
0.6250061685
 40
0.6562557907
 40
0.687505207
 40
0.7187546507
 40
0.7343793888
 40
0.750004103
 40
0.7812534696
 40
0.7968781354
 40
0.8125028009
 40
0.8281274834
 40
0.8437522015
 40
0.8593769384
 40
0.8750016776
 40
0.9062511627
 40
0.9375008474
 40
0.9687505697
 40
1.0
 40
1.0
 40
1.0
 40
1.0
 10
5.6406151128
 20
2.0154093535
 30
0.0
 10
5.63280924
 20
2.0197720082
 30
0.0
 10
5.6213271924
 20
2.0267371623
 30
0.0
 10
5.6065607313
 20
2.0368344074
 30
0.0
 10
5.5957671011
 20
2.0448068431
 30
0.0
 10
5.5852711487
 20
2.0531667501
 30
0.0
 10
5.5750847573
 20
2.0619013525
 30
0.0
 10
5.5652182061
 20
2.0709955359
 30
0.0
 10
5.5556797659
 20
2.0804331775
 30
0.0
 10
5.5464748259
 20
2.0901962062
 30
0.0
 10
5.5376073274
 20
2.1002665855
 30
0.0
 10
5.5290780614
 20
2.1106247902
 30
0.0
 10
5.5208866846
 20
2.1212520462
 30
0.0
 10
5.5130299417
 20
2.1321289136
 30
0.0
 10
5.5029957118
 20
2.1469384286
 30
0.0
 10
5.491262271
 20
2.1659846488
 30
0.0
 10
5.4784189109
 20
2.189552305
 30
0.0
 10
5.4667329523
 20
2.2137134015
 30
0.0
 10
5.4561188011
 20
2.2383623279
 30
0.0
 10
5.4464868503
 20
2.2634100531
 30
0.0
 10
5.4377468813
 20
2.2887815274
 30
0.0
 10
5.4298079107
 20
2.3144138207
 30
0.0
 10
5.4237906551
 20
2.335949715
 30
0.0
 10
5.4192931256
 20
2.3532617841
 30
0.0
 10
5.4160666791
 20
2.366283204
 30
0.0
 10
5.4129759184
 20
2.3793374829
 30
0.0
 10
5.4100087535
 20
2.3924202944
 30
0.0
 10
5.407157924
 20
2.4055287769
 30
0.0
 10
5.4035068909
 20
2.4230384739
 30
0.0
 10
5.3992128787
 20
2.4449808313
 30
0.0
 10
5.3944561888
 20
2.4713857414
 30
0.0
 10
5.390803841
 20
2.493443712
 30
0.0
 10
5.3880577021
 20
2.5111177705
 30
0.0
 10
5.3854251336
 20
2.5288089689
 30
0.0
 10
5.3823368303
 20
2.5509525263
 30
0.0
 10
5.3789195071
 20
2.5775631586
 30
0.0
 10
5.3757549841
 20
2.6042047771
 30
0.0
 10
5.3728100229
 20
2.6308712613
 30
0.0
 10
5.3705133295
 20
2.6531100501
 30
0.0
 10
5.3687549552
 20
2.6709090145
 30
0.0
 10
5.3670436002
 20
2.6887125471
 30
0.0
 10
5.3649870588
 20
2.7109747258
 30
0.0
 10
5.3626530414
 20
2.7377012507
 30
0.0
 10
5.3604528902
 20
2.7644390684
 30
0.0
 10
5.3576989244
 20
2.8001037915
 30
0.0
 10
5.3545902979
 20
2.844709953
 30
0.0
 10
5.3513741009
 20
2.8982705707
 30
0.0
 10
5.3486540246
 20
2.9518587625
 30
0.0
 10
5.3456714546
 20
3.0233389537
 30
0.0
 10
5.3431174921
 20
3.1127341412
 30
0.0
 10
5.3418211581
 20
3.2200430819
 30
0.0
 10
5.3421859152
 20
3.3273590045
 30
0.0
 10
5.3437876083
 20
3.4167752151
 30
0.0
 10
5.345802109
 20
3.4882892951
 30
0.0
 10
5.3476685188
 20
3.541913867
 30
0.0
 10
5.3498762129
 20
3.5955253811
 30
0.0
 10
5.3524097583
 20
3.6491224609
 30
0.0
 10
5.3552540521
 20
3.7027038585
 30
0.0
 10
5.3594404199
 20
3.7741233919
 30
0.0
 10
5.3653658559
 20
3.8633555017
 30
0.0
 10
5.3734361126
 20
3.9703650752
 30
0.0
 10
5.3823205209
 20
4.0773096848
 30
0.0
 10
5.3918765661
 20
4.1841957104
 30
0.0
 10
5.4019609293
 20
4.2910327631
 30
0.0
 10
5.4106809146
 20
4.3800329088
 30
0.0
 10
5.417772662
 20
4.4512215155
 30
0.0
 10
5.424916769
 20
4.5224048007
 30
0.0
 10
5.4321052499
 20
4.5935835313
 30
0.0
 10
5.4392702466
 20
4.6647645736
 30
0.0
 10
5.4446152624
 20
4.7181532317
 30
0.0
 10
5.4499146002
 20
4.7715465085
 30
0.0
 10
5.4551511815
 20
4.8249460637
 30
0.0
 10
5.4603136745
 20
4.8783529053
 30
0.0
 10
5.467083294
 20
4.9495729624
 30
0.0
 10
5.4753039304
 20
5.0386211087
 30
0.0
 10
5.484693124
 20
5.1455220821
 30
0.0
 10
5.4935138062
 20
5.2524715206
 30
0.0
 10
5.4989514043
 20
5.323806476
 30
0.0
 10
5.5015435841
 20
5.3594828926
 30
0.0
  0
SPLINE
  5
2FF
100
AcDbEntity
  8
0
100
AcDbSpline
 62
7
  6
CONTINUOUS
 70
0
 71
3
 72
15
 73
11
 74
0
 42
0.0000001
 43
0.0000001
 44
0.0000000001
 40
0.0
 40
0.0
 40
0.0
 40
0.0
 40
0.1163070332
 40
0.2360177613
 40
0.3587049291
 40
0.483910584
 40
0.6111518814
 40
0.7399265129
 40
0.8697178656
 40
1.0
 40
1.0
 40
1.0
 40
1.0
 10
5.2185333847
 20
5.7925834858
 30
0.0
 10
5.216633506
 20
5.788684927
 30
0.0
 10
5.2129608812
 20
5.780683492
 30
0.0
 10
5.207905354
 20
5.7682964174
 30
0.0
 10
5.203243869
 20
5.7554023138
 30
0.0
 10
5.1990012693
 20
5.7420697059
 30
0.0
 10
5.1951999931
 20
5.728369069
 30
0.0
 10
5.1918601958
 20
5.7143729085
 30
0.0
 10
5.188999616
 20
5.7001555842
 30
0.0
 10
5.1874228991
 20
5.6905846044
 30
0.0
 10
5.1867176318
 20
5.6857781147
 30
0.0
  0
SPLINE
  5
300
100
AcDbEntity
  8
0
100
AcDbSpline
 62
7
  6
CONTINUOUS
 70
0
 71
3
 72
15
 73
11
 74
0
 42
0.0000001
 43
0.0000001
 44
0.0000000001
 40
0.0
 40
0.0
 40
0.0
 40
0.0
 40
0.1456347119
 40
0.2853952179
 40
0.4191249618
 40
0.5467943119
 40
0.6684745672
 40
0.7843560196
 40
0.894743209
 40
1.0
 40
1.0
 40
1.0
 40
1.0
 10
4.9563621229
 20
6.2875494678
 30
0.0
 10
4.9585999816
 20
6.2897316794
 30
0.0
 10
4.9630906342
 20
6.2939022264
 30
0.0
 10
4.9700089232
 20
6.2996590509
 30
0.0
 10
4.9769466302
 20
6.3047673383
 30
0.0
 10
4.9838716468
 20
6.3092107401
 30
0.0
 10
4.9907508364
 20
6.3129826641
 30
0.0
 10
4.99755107
 20
6.316086553
 30
0.0
 10
5.0042398236
 20
6.3185340199
 30
0.0
 10
5.0087069585
 20
6.319768564
 30
0.0
 10
5.0109083851
 20
6.3202757278
 30
0.0
  0
LINE
  5
301
100
AcDbEntity
  8
0
100
AcDbLine
 62
7
  6
CONTINUOUS
 10
4.9560380961
 20
6.287246343
 11
4.9563621229
 21
6.2875494678
  0
LINE
  5
302
100
AcDbEntity
  8
0
100
AcDbLine
 62
7
  6
CONTINUOUS
 10
4.9560380961
 20
6.287246343
 11
4.8448628245
 21
6.2871656174
  0
LINE
  5
303
100
AcDbEntity
  8
0
100
AcDbLine
 62
7
  6
CONTINUOUS
 10
5.0734083851
 20
6.2873580996
 11
4.9627171071
 21
6.2873980579
  0
SPLINE
  5
304
100
AcDbEntity
  8
0
100
AcDbSpline
 62
7
  6
CONTINUOUS
 70
0
 71
3
 72
15
 73
11
 74
0
 42
0.0000001
 43
0.0000001
 44
0.0000000001
 40
0.0
 40
0.0
 40
0.0
 40
0.0
 40
0.1467561759
 40
0.286308793
 40
0.4188876012
 40
0.5449663625
 40
0.6652128618
 40
0.7804707853
 40
0.8917198943
 40
1.0
 40
1.0
 40
1.0
 40
1.0
 10
4.9627171071
 20
6.2873980579
 30
0.0
 10
4.9646139595
 20
6.2895923639
 30
0.0
 10
4.9684196199
 20
6.2937843763
 30
0.0
 10
4.9743296252
 20
6.2995891949
 30
0.0
 10
4.9802962037
 20
6.3047312533
 30
0.0
 10
4.9863162742
 20
6.3091978232
 30
0.0
 10
4.9923861497
 20
6.3129855489
 30
0.0
 10
4.9985013318
 20
6.3160999875
 30
0.0
 10
5.0046562055
 20
6.3185537435
 30
0.0
 10
5.008827874
 20
6.3197743483
 30
0.0
 10
5.0109083855
 20
6.3202757279
 30
0.0
  0
SPLINE
  5
305
100
AcDbEntity
  8
0
100
AcDbSpline
 62
7
  6
CONTINUOUS
 70
0
 71
3
 72
33
 73
29
 74
0
 42
0.0000001
 43
0.0000001
 44
0.0000000001
 40
0.0
 40
0.0
 40
0.0
 40
0.0
 40
0.0147648699
 40
0.0297535664
 40
0.0451695281
 40
0.0611999092
 40
0.0780097468
 40
0.0957392995
 40
0.1145046118
 40
0.1343999672
 40
0.155499522
 40
0.1778614139
 40
0.2015297524
 40
0.2265374527
 40
0.2529068305
 40
0.2806513816
 40
0.3097779181
 40
0.340287025
 40
0.3721739618
 40
0.4054261727
 40
0.4400271937
 40
0.4759571288
 40
0.5517069611
 40
0.6324627302
 40
0.7179707242
 40
0.8079432005
 40
0.9020681125
 40
1.0
 40
1.0
 40
1.0
 40
1.0
 10
5.3000271829
 20
5.6349829236
 30
0.0
 10
5.3000271367
 20
5.6356239159
 30
0.0
 10
5.2999445738
 20
5.6369170553
 30
0.0
 10
5.2995751841
 20
5.6388476862
 30
0.0
 10
5.2989609431
 20
5.6407725486
 30
0.0
 10
5.2981037559
 20
5.6426884791
 30
0.0
 10
5.2970056224
 20
5.6445934953
 30
0.0
 10
5.2956684714
 20
5.6464857985
 30
0.0
 10
5.2940942285
 20
5.6483638229
 30
0.0
 10
5.2922847169
 20
5.6502258787
 30
0.0
 10
5.2902420649
 20
5.6520704658
 30
0.0
 10
5.2879683421
 20
5.6538958315
 30
0.0
 10
5.2854659104
 20
5.6557003821
 30
0.0
 10
5.2827372231
 20
5.6574823517
 30
0.0
 10
5.2797850638
 20
5.6592400784
 30
0.0
 10
5.2766124589
 20
5.6609719067
 30
0.0
 10
5.2732226288
 20
5.6626761385
 30
0.0
 10
5.2696190772
 20
5.6643512657
 30
0.0
 10
5.2658055727
 20
5.6659956008
 30
0.0
 10
5.2617861726
 20
5.6676073046
 30
0.0
 10
5.2575651976
 20
5.6691843882
 30
0.0
 10
5.2515683674
 20
5.6712755156
 30
0.0
 10
5.2435957943
 20
5.6737795448
 30
0.0
 10
5.233464244
 20
5.676568816
 30
0.0
 10
5.222649392
 20
5.6791806187
 30
0.0
 10
5.2111970758
 20
5.6816039512
 30
0.0
 10
5.1991558857
 20
5.6838289205
 30
0.0
 10
5.1909224899
 20
5.6851497422
 30
0.0
 10
5.1867176318
 20
5.6857781147
 30
0.0
  0
SPLINE
  5
306
100
AcDbEntity
  8
0
100
AcDbSpline
 62
7
  6
CONTINUOUS
 70
0
 71
3
 72
17
 73
13
 74
0
 42
0.0000001
 43
0.0000001
 44
0.0000000001
 40
0.0
 40
0.0
 40
0.0
 40
0.0
 40
0.1260411267
 40
0.2517652412
 40
0.3771731056
 40
0.4397712206
 40
0.5022934502
 40
0.6270979641
 40
0.7516283876
 40
0.8138085206
 40
0.8759328593
 40
1.0
 40
1.0
 40
1.0
 40
1.0
 10
5.3636583843
 20
5.7275257282
 30
0.0
 10
5.3599239
 20
5.7245310441
 30
0.0
 10
5.352677851
 20
5.7182769505
 30
0.0
 10
5.3425346902
 20
5.7081453409
 30
0.0
 10
5.3347347813
 20
5.6991224447
 30
0.0
 10
5.3289176102
 20
5.6915907221
 30
0.0
 10
5.3233949745
 20
5.6838685356
 30
0.0
 10
5.3170427008
 20
5.6738584641
 30
0.0
 10
5.3114562956
 20
5.6634163011
 30
0.0
 10
5.3074700899
 20
5.654845423
 30
0.0
 10
5.3038133973
 20
5.6461484531
 30
0.0
 10
5.3014393841
 20
5.6394782617
 30
0.0
 10
5.3000271829
 20
5.6349829236
 30
0.0
  0
SPLINE
  5
307
100
AcDbEntity
  8
0
100
AcDbSpline
 62
7
  6
CONTINUOUS
 70
0
 71
3
 72
31
 73
27
 74
0
 42
0.0000001
 43
0.0000001
 44
0.0000000001
 40
0.0
 40
0.0
 40
0.0
 40
0.0
 40
0.0306737373
 40
0.0613531434
 40
0.0920438383
 40
0.1227513215
 40
0.1534809165
 40
0.1842377322
 40
0.2150266011
 40
0.2458520236
 40
0.2767181399
 40
0.3076286871
 40
0.3385869485
 40
0.3695957375
 40
0.4006573764
 40
0.4317736589
 40
0.4629458425
 40
0.494174652
 40
0.5567835791
 40
0.6196141871
 40
0.6826528997
 40
0.7458783184
 40
0.8092620913
 40
0.8727700457
 40
0.9363628114
 40
1.0
 40
1.0
 40
1.0
 40
1.0
 10
5.3184083851
 20
6.9090652686
 30
0.0
 10
5.3184083851
 20
6.9052025622
 30
0.0
 10
5.3182115059
 20
6.8974749896
 30
0.0
 10
5.3173263552
 20
6.8859130892
 30
0.0
 10
5.3158535099
 20
6.8744066813
 30
0.0
 10
5.313796454
 20
6.8629839064
 30
0.0
 10
5.3111601973
 20
6.8516721867
 30
0.0
 10
5.3079511316
 20
6.8404988033
 30
0.0
 10
5.3041769373
 20
6.8294906942
 30
0.0
 10
5.2998467375
 20
6.8186743885
 30
0.0
 10
5.2949710253
 20
6.8080759282
 30
0.0
 10
5.2895615154
 20
6.7977208695
 30
0.0
 10
5.2836312422
 20
6.7876341701
 30
0.0
 10
5.2771945691
 20
6.7778400997
 30
0.0
 10
5.270266969
 20
6.7683622482
 30
0.0
 10
5.2628651885
 20
6.7592235319
 30
0.0
 10
5.2550068404
 20
6.7504456932
 30
0.0
 10
5.2439386024
 20
6.739243914
 30
0.0
 10
5.2290510844
 20
6.7262456732
 30
0.0
 10
5.2097088222
 20
6.7124273214
 30
0.0
 10
5.1890547032
 20
6.700502053
 30
0.0
 10
5.1672885921
 20
6.6905854093
 30
0.0
 10
5.1446199219
 20
6.6827720559
 30
0.0
 10
5.1212660982
 20
6.6771370882
 30
0.0
 10
5.097454404
 20
6.6737343028
 30
0.0
 10
5.0814221388
 20
6.6729758075
 30
0.0
 10
5.0734083851
 20
6.6729758075
 30
0.0
  0
SPLINE
  5
308
100
AcDbEntity
  8
0
100
AcDbSpline
 62
7
  6
CONTINUOUS
 70
0
 71
3
 72
31
 73
27
 74
0
 42
0.0000001
 43
0.0000001
 44
0.0000000001
 40
0.0
 40
0.0
 40
0.0
 40
0.0
 40
0.0306737373
 40
0.0613531434
 40
0.0920438383
 40
0.1227513215
 40
0.1534809165
 40
0.1842377322
 40
0.2150266011
 40
0.2458520236
 40
0.2767181399
 40
0.3076286871
 40
0.3385869485
 40
0.3695957375
 40
0.4006573764
 40
0.4317736589
 40
0.4629458425
 40
0.494174652
 40
0.5567835791
 40
0.6196141871
 40
0.6826528997
 40
0.7458783184
 40
0.8092620913
 40
0.8727700457
 40
0.9363628114
 40
1.0
 40
1.0
 40
1.0
 40
1.0
 10
5.3184083851
 20
6.9184186117
 30
0.0
 10
5.3184083851
 20
6.9145559053
 30
0.0
 10
5.3182115059
 20
6.9068283327
 30
0.0
 10
5.3173263552
 20
6.8952664324
 30
0.0
 10
5.3158535099
 20
6.8837600245
 30
0.0
 10
5.313796454
 20
6.8723372495
 30
0.0
 10
5.3111601973
 20
6.8610255299
 30
0.0
 10
5.3079511316
 20
6.8498521464
 30
0.0
 10
5.3041769373
 20
6.8388440374
 30
0.0
 10
5.2998467375
 20
6.8280277317
 30
0.0
 10
5.2949710253
 20
6.8174292714
 30
0.0
 10
5.2895615154
 20
6.8070742127
 30
0.0
 10
5.2836312422
 20
6.7969875132
 30
0.0
 10
5.2771945691
 20
6.7871934428
 30
0.0
 10
5.270266969
 20
6.7777155914
 30
0.0
 10
5.2628651885
 20
6.7685768751
 30
0.0
 10
5.2550068404
 20
6.7597990364
 30
0.0
 10
5.2439386024
 20
6.7485972572
 30
0.0
 10
5.2290510844
 20
6.7355990164
 30
0.0
 10
5.2097088222
 20
6.7217806646
 30
0.0
 10
5.1890547032
 20
6.7098553961
 30
0.0
 10
5.1672885921
 20
6.6999387525
 30
0.0
 10
5.1446199219
 20
6.692125399
 30
0.0
 10
5.1212660982
 20
6.6864904314
 30
0.0
 10
5.097454404
 20
6.6830876459
 30
0.0
 10
5.0814221388
 20
6.6823291507
 30
0.0
 10
5.0734083851
 20
6.6823291507
 30
0.0
  0
SPLINE
  5
309
100
AcDbEntity
  8
0
100
AcDbSpline
 62
7
  6
CONTINUOUS
 70
0
 71
3
 72
35
 73
31
 74
0
 42
0.0000001
 43
0.0000001
 44
0.0000000001
 40
0.0
 40
0.0
 40
0.0
 40
0.0
 40
0.0147676724
 40
0.0297599604
 40
0.0451873729
 40
0.0612377661
 40
0.069550737
 40
0.0780778568
 40
0.0958333856
 40
0.1146203772
 40
0.1345285226
 40
0.1556293552
 40
0.1779793748
 40
0.2016228016
 40
0.2265938948
 40
0.2529188555
 40
0.2806173634
 40
0.3097038097
 40
0.340188282
 40
0.3720734658
 40
0.4053431754
 40
0.439974041
 40
0.4759399594
 40
0.5132125957
 40
0.5517617816
 40
0.6325590234
 40
0.7180676384
 40
0.8080060607
 40
0.9020829052
 40
1.0
 40
1.0
 40
1.0
 40
1.0
 10
5.3636583851
 20
5.7275257081
 30
0.0
 10
5.3636583852
 20
5.7283466905
 30
0.0
 10
5.3635504339
 20
5.7300030429
 30
0.0
 10
5.3630691343
 20
5.7324748863
 30
0.0
 10
5.3622721324
 20
5.7349384224
 30
0.0
 10
5.3613589178
 20
5.7369581117
 30
0.0
 10
5.3604821005
 20
5.7385633107
 30
0.0
 10
5.359479471
 20
5.7402053679
 30
0.0
 10
5.3580265761
 20
5.7422509229
 30
0.0
 10
5.3560051654
 20
5.7446553422
 30
0.0
 10
5.3536855649
 20
5.7470401841
 30
0.0
 10
5.3510705947
 20
5.7494032139
 30
0.0
 10
5.3481628318
 20
5.7517423034
 30
0.0
 10
5.3449648504
 20
5.7540551578
 30
0.0
 10
5.3414791989
 20
5.7563394208
 30
0.0
 10
5.337708433
 20
5.7585926698
 30
0.0
 10
5.3336551183
 20
5.7608124392
 30
0.0
 10
5.3293218377
 20
5.7629962354
 30
0.0
 10
5.3247113739
 20
5.7651414375
 30
0.0
 10
5.3198275928
 20
5.7672450551
 30
0.0
 10
5.3146765289
 20
5.769305808
 30
0.0
 10
5.3092651058
 20
5.7713218869
 30
0.0
 10
5.3036004745
 20
5.7732914018
 30
0.0
 10
5.2976897856
 20
5.7752124925
 30
0.0
 10
5.2893592963
 20
5.7777465811
 30
0.0
 10
5.2783763014
 20
5.7807675676
 30
0.0
 10
5.2645279477
 20
5.7841159795
 30
0.0
 10
5.2498688303
 20
5.7872267375
 30
0.0
 10
5.2344564944
 20
5.7900845869
 30
0.0
 10
5.2239171363
 20
5.7917789654
 30
0.0
 10
5.2185333851
 20
5.792583455
 30
0.0
  0
SPLINE
  5
30A
100
AcDbEntity
  8
0
100
AcDbSpline
 62
7
  6
CONTINUOUS
 70
0
 71
3
 72
9
 73
5
 74
0
 42
0.0000001
 43
0.0000001
 44
0.0000000001
 40
0.0
 40
0.0
 40
0.0
 40
0.0
 40
0.4944487109
 40
1.0
 40
1.0
 40
1.0
 40
1.0
 10
4.8467895873
 20
5.6349828326
 30
0.0
 10
4.8467896446
 20
5.6341870461
 30
0.0
 10
4.8469176723
 20
5.632575176
 30
0.0
 10
4.8472927054
 20
5.631003147
 30
0.0
 10
4.8475370608
 20
5.6302270506
 30
0.0
  0
SPLINE
  5
30B
100
AcDbEntity
  8
0
100
AcDbSpline
 62
7
  6
CONTINUOUS
 70
0
 71
3
 72
17
 73
13
 74
0
 42
0.0000001
 43
0.0000001
 44
0.0000000001
 40
0.0
 40
0.0
 40
0.0
 40
0.0
 40
0.1260418201
 40
0.2517664179
 40
0.3771745558
 40
0.4397727303
 40
0.5022949697
 40
0.627099361
 40
0.7516294817
 40
0.8138094001
 40
0.8759334835
 40
1.0
 40
1.0
 40
1.0
 40
1.0
 10
4.7831583859
 20
5.7275257282
 30
0.0
 10
4.7868928674
 20
5.7245309969
 30
0.0
 10
4.7941389104
 20
5.7182768258
 30
0.0
 10
4.8042820719
 20
5.7081451356
 30
0.0
 10
4.8120819846
 20
5.6991221991
 30
0.0
 10
4.8178991584
 20
5.6915904595
 30
0.0
 10
4.8234217921
 20
5.6838682716
 30
0.0
 10
4.8297740642
 20
5.6738582152
 30
0.0
 10
4.8353604721
 20
5.6634160785
 30
0.0
 10
4.8393466793
 20
5.6548452313
 30
0.0
 10
4.843003371
 20
5.6461483038
 30
0.0
 10
4.8453773853
 20
5.6394781468
 30
0.0
 10
4.8467895873
 20
5.6349828326
 30
0.0
  0
SPLINE
  5
30C
100
AcDbEntity
  8
0
100
AcDbSpline
 62
7
  6
CONTINUOUS
 70
0
 71
3
 72
33
 73
29
 74
0
 42
0.0000001
 43
0.0000001
 44
0.0000000001
 40
0.0
 40
0.0
 40
0.0
 40
0.0
 40
0.0979319216
 40
0.1920568908
 40
0.2820293762
 40
0.3675374016
 40
0.4482931662
 40
0.5240429982
 40
0.5599729352
 40
0.5945739534
 40
0.6278261545
 40
0.6597130683
 40
0.6902221501
 40
0.7193486713
 40
0.7470932145
 40
0.773462591
 40
0.7984702858
 40
0.8221386106
 40
0.8445004607
 40
0.8655999454
 40
0.8854952704
 40
0.9042606689
 40
0.9219903162
 40
0.938800039
 40
0.9548301463
 40
0.9702460119
 40
0.9852349113
 40
1.0
 40
1.0
 40
1.0
 40
1.0
 10
4.9600988341
 20
5.6857780693
 30
0.0
 10
4.9558939853
 20
5.685149671
 30
0.0
 10
4.9476606126
 20
5.683828772
 30
0.0
 10
4.9356194133
 20
5.6816039388
 30
0.0
 10
4.9241671188
 20
5.6791805671
 30
0.0
 10
4.9133522934
 20
5.6765687281
 30
0.0
 10
4.9032207482
 20
5.673779498
 30
0.0
 10
4.8952481945
 20
5.6712754506
 30
0.0
 10
4.8892513787
 20
5.6691843135
 30
0.0
 10
4.8850304138
 20
5.6676072249
 30
0.0
 10
4.8810110225
 20
5.6659955222
 30
0.0
 10
4.8771975264
 20
5.664351191
 30
0.0
 10
4.873593983
 20
5.6626760678
 30
0.0
 10
4.8702041615
 20
5.660971837
 30
0.0
 10
4.8670315669
 20
5.6592400041
 30
0.0
 10
4.8640794189
 20
5.6574822705
 30
0.0
 10
4.8613507438
 20
5.6557002934
 30
0.0
 10
4.8588483236
 20
5.6538957401
 30
0.0
 10
4.8565746095
 20
5.65207038
 30
0.0
 10
4.8545319597
 20
5.6502258065
 30
0.0
 10
4.852722452
 20
5.6483637527
 30
0.0
 10
4.8511482312
 20
5.6464857056
 30
0.0
 10
4.8498111083
 20
5.6445933842
 30
0.0
 10
4.8487129836
 20
5.6426883831
 30
0.0
 10
4.8478557871
 20
5.6407724839
 30
0.0
 10
4.8472415363
 20
5.6388476352
 30
0.0
 10
4.846872143
 20
5.636916993
 30
0.0
 10
4.8467896056
 20
5.6356238335
 30
0.0
 10
4.8467895873
 20
5.6349828326
 30
0.0
  0
SPLINE
  5
30D
100
AcDbEntity
  8
0
100
AcDbSpline
 62
7
  6
CONTINUOUS
 70
0
 71
3
 72
15
 73
11
 74
0
 42
0.0000001
 43
0.0000001
 44
0.0000000001
 40
0.0
 40
0.0
 40
0.0
 40
0.0
 40
0.1163061746
 40
0.236016519
 40
0.3587036286
 40
0.4839094337
 40
0.6111509991
 40
0.7399259462
 40
0.8697176074
 40
1.0
 40
1.0
 40
1.0
 40
1.0
 10
4.9282833854
 20
5.7925834857
 30
0.0
 10
4.9301831009
 20
5.7886848914
 30
0.0
 10
4.9338554497
 20
5.7806833996
 30
0.0
 10
4.9389107039
 20
5.7682962929
 30
0.0
 10
4.9435720392
 20
5.7554021736
 30
0.0
 10
4.9478145946
 20
5.7420695641
 30
0.0
 10
4.9516159155
 20
5.7283689379
 30
0.0
 10
4.9549558334
 20
5.7143727984
 30
0.0
 10
4.957816598
 20
5.700155504
 30
0.0
 10
4.9593934783
 20
5.6905845472
 30
0.0
 10
4.9600988341
 20
5.6857780693
 30
0.0
  0
SPLINE
  5
30E
100
AcDbEntity
  8
0
100
AcDbSpline
 62
7
  6
CONTINUOUS
 70
0
 71
3
 72
11
 73
7
 74
0
 42
0.0000001
 43
0.0000001
 44
0.0000000001
 40
0.0
 40
0.0
 40
0.0
 40
0.0
 40
0.2641277428
 40
0.5164979254
 40
0.7604276699
 40
1.0
 40
1.0
 40
1.0
 40
1.0
 10
5.1771487713
 20
5.5747684221
 30
0.0
 10
5.1773922398
 20
5.5746592799
 30
0.0
 10
5.1778815798
 20
5.5744736121
 30
0.0
 10
5.178632069
 20
5.5742986804
 30
0.0
 10
5.1793754943
 20
5.5742364166
 30
0.0
 10
5.1798650206
 20
5.574270799
 30
0.0
 10
5.1801043708
 20
5.5743065632
 30
0.0
  0
SPLINE
  5
30F
100
AcDbEntity
  8
0
100
AcDbSpline
 62
7
  6
CONTINUOUS
 70
0
 71
3
 72
11
 73
7
 74
0
 42
0.0000001
 43
0.0000001
 44
0.0000000001
 40
0.0
 40
0.0
 40
0.0
 40
0.0
 40
0.2641278559
 40
0.5164979009
 40
0.7604275138
 40
1.0
 40
1.0
 40
1.0
 40
1.0
 10
4.9696682606
 20
5.574768383
 30
0.0
 10
4.9694247913
 20
5.5746592403
 30
0.0
 10
4.9689354495
 20
5.5744735723
 30
0.0
 10
4.9681849571
 20
5.5742986437
 30
0.0
 10
4.9674415287
 20
5.5742363866
 30
0.0
 10
4.9669520013
 20
5.5742707759
 30
0.0
 10
4.9667126507
 20
5.5743065441
 30
0.0
  0
SPLINE
  5
310
100
AcDbEntity
  8
0
100
AcDbSpline
 62
7
  6
CONTINUOUS
 70
0
 71
3
 72
15
 73
11
 74
0
 42
0.0000001
 43
0.0000001
 44
0.0000000001
 40
0.0
 40
0.0
 40
0.0
 40
0.0
 40
0.1266510951
 40
0.2530842394
 40
0.3791188645
 40
0.5045975397
 40
0.6294234324
 40
0.7535646068
 40
0.8770523818
 40
1.0
 40
1.0
 40
1.0
 40
1.0
 10
4.8659278739
 20
5.6212738477
 30
0.0
 10
4.8648657198
 20
5.6212738489
 30
0.0
 10
4.8627395987
 20
5.6214377318
 30
0.0
 10
4.8596330362
 20
5.6221693487
 30
0.0
 10
4.8566848718
 20
5.6233681933
 30
0.0
 10
4.8539707659
 20
5.6250043267
 30
0.0
 10
4.8515594333
 20
5.6270364907
 30
0.0
 10
4.8495123251
 20
5.6294137171
 30
0.0
 10
4.8478819544
 20
5.6320748045
 30
0.0
 10
4.8470986513
 20
5.633999141
 30
0.0
 10
4.8467896248
 20
5.6349828379
 30
0.0
  0
SPLINE
  5
311
100
AcDbEntity
  8
0
100
AcDbSpline
 62
7
  6
CONTINUOUS
 70
0
 71
3
 72
19
 73
15
 74
0
 42
0.0000001
 43
0.0000001
 44
0.0000000001
 40
0.0
 40
0.0
 40
0.0
 40
0.0
 40
0.0880064152
 40
0.1364090792
 40
0.1878990064
 40
0.2425064803
 40
0.3001829868
 40
0.3608159908
 40
0.4242388617
 40
0.5585284148
 40
0.7009839089
 40
0.7745049396
 40
0.849090305
 40
1.0
 40
1.0
 40
1.0
 40
1.0
 10
4.9696679988
 20
5.6677793517
 30
0.0
 10
4.9691038514
 20
5.6680322523
 30
0.0
 10
4.9682808183
 20
5.6685438023
 30
0.0
 10
4.9672716138
 20
5.6693954862
 30
0.0
 10
4.9665057686
 20
5.6701667342
 30
0.0
 10
4.9657606143
 20
5.6710445664
 30
0.0
 10
4.9650403488
 20
5.6720238446
 30
0.0
 10
4.964349473
 20
5.673098326
 30
0.0
 10
4.9634562668
 20
5.6746791169
 30
0.0
 10
4.9624484016
 20
5.6768504564
 30
0.0
 10
4.9616173738
 20
5.6791697437
 30
0.0
 10
4.9610476496
 20
5.6811303121
 30
0.0
 10
4.9605428077
 20
5.6831697364
 30
0.0
 10
4.9602527501
 20
5.6847291693
 30
0.0
 10
4.9600988337
 20
5.685778069
 30
0.0
  0
SPLINE
  5
312
100
AcDbEntity
  8
0
100
AcDbSpline
 62
7
  6
CONTINUOUS
 70
0
 71
3
 72
19
 73
15
 74
0
 42
0.0000001
 43
0.0000001
 44
0.0000000001
 40
0.0
 40
0.0
 40
0.0
 40
0.0
 40
0.0880060577
 40
0.1364086091
 40
0.1878984615
 40
0.2425058934
 40
0.3001823858
 40
0.3608153994
 40
0.4242382996
 40
0.5585279573
 40
0.700983595
 40
0.7745047046
 40
0.8490901502
 40
1.0
 40
1.0
 40
1.0
 40
1.0
 10
5.1771485096
 20
5.6677793908
 30
0.0
 10
5.1777126506
 20
5.6680322956
 30
0.0
 10
5.1785356733
 20
5.668543851
 30
0.0
 10
5.179544864
 20
5.6693955396
 30
0.0
 10
5.1803106993
 20
5.6701667911
 30
0.0
 10
5.181055844
 20
5.6710446261
 30
0.0
 10
5.1817761003
 20
5.6720239066
 30
0.0
 10
5.1824669674
 20
5.6730983897
 30
0.0
 10
5.1833601627
 20
5.6746791822
 30
0.0
 10
5.184368016
 20
5.6768505221
 30
0.0
 10
5.185199035
 20
5.6791698079
 30
0.0
 10
5.185768754
 20
5.6811303742
 30
0.0
 10
5.1862735921
 20
5.6831697959
 30
0.0
 10
5.1865636486
 20
5.6847292263
 30
0.0
 10
5.1867175652
 20
5.6857781242
 30
0.0
  0
SPLINE
  5
313
100
AcDbEntity
  8
0
100
AcDbSpline
 62
7
  6
CONTINUOUS
 70
0
 71
3
 72
16
 73
12
 74
0
 42
0.0000001
 43
0.0000001
 44
0.0000000001
 40
0.0
 40
0.0
 40
0.0
 40
0.0
 40
0.1241633518
 40
0.2485147244
 40
0.310776486
 40
0.3730988005
 40
0.4979321509
 40
0.6230414979
 40
0.7484333869
 40
0.8740960332
 40
1.0
 40
1.0
 40
1.0
 40
1.0
 10
5.1419331861
 20
6.4108116887
 30
0.0
 10
5.1437578987
 20
6.4131180888
 30
0.0
 10
5.1472402414
 20
6.4178707938
 30
0.0
 10
5.1511950075
 20
6.4240848365
 30
0.0
 10
5.1541365878
 20
6.429195754
 30
0.0
 10
5.1569376631
 20
6.434397953
 30
0.0
 10
5.1601759904
 20
6.4410518373
 30
0.0
 10
5.1636552102
 20
6.449236744
 30
0.0
 10
5.1667388392
 20
6.4575996106
 30
0.0
 10
5.1694307391
 20
6.4661159886
 30
0.0
 10
5.1709628404
 20
6.4718768204
 30
0.0
 10
5.1716630006
 20
6.4747756186
 30
0.0
  0
SPLINE
  5
314
100
AcDbEntity
  8
0
100
AcDbSpline
 62
7
  6
CONTINUOUS
 70
0
 71
3
 72
15
 73
11
 74
0
 42
0.0000001
 43
0.0000001
 44
0.0000000001
 40
0.0
 40
0.0
 40
0.0
 40
0.0
 40
0.1266510662
 40
0.2530842108
 40
0.3791188581
 40
0.5045975667
 40
0.6294234909
 40
0.7535646808
 40
0.8770524408
 40
1.0
 40
1.0
 40
1.0
 40
1.0
 10
5.2808888963
 20
5.621273926
 30
0.0
 10
5.2819510505
 20
5.621273929
 30
0.0
 10
5.2840771718
 20
5.6214378156
 30
0.0
 10
5.2871837342
 20
5.6221694375
 30
0.0
 10
5.2901318985
 20
5.6233682867
 30
0.0
 10
5.2928460043
 20
5.6250044237
 30
0.0
 10
5.2952573368
 20
5.6270365906
 30
0.0
 10
5.2973044448
 20
5.6294138189
 30
0.0
 10
5.2989348155
 20
5.632074907
 30
0.0
 10
5.2997181188
 20
5.6339992435
 30
0.0
 10
5.3000271454
 20
5.6349829403
 30
0.0
  0
SPLINE
  5
315
100
AcDbEntity
  8
0
100
AcDbSpline
 62
7
  6
CONTINUOUS
 70
0
 71
3
 72
15
 73
11
 74
0
 42
0.0000001
 43
0.0000001
 44
0.0000000001
 40
0.0
 40
0.0
 40
0.0
 40
0.0
 40
0.1258824649
 40
0.251522876
 40
0.3768957905
 40
0.5019931152
 40
0.6268246717
 40
0.751408547
 40
0.8757893791
 40
1.0
 40
1.0
 40
1.0
 40
1.0
 10
4.9759797928
 20
6.4740087352
 30
0.0
 10
4.9766901164
 20
6.4711424984
 30
0.0
 10
4.9782414786
 20
6.4654473293
 30
0.0
 10
4.9809585305
 20
6.4570307784
 30
0.0
 10
4.9840625806
 20
6.4487684464
 30
0.0
 10
4.9875565564
 20
6.4406837457
 30
0.0
 10
4.9914480661
 20
6.4328029348
 30
0.0
 10
4.9957513577
 20
6.4251576556
 30
0.0
 10
5.000486728
 20
6.4177890442
 30
0.0
 10
5.0039521558
 20
6.4130922341
 30
0.0
 10
5.0057656901
 20
6.4108116887
 30
0.0
  0
SPLINE
  5
316
100
AcDbEntity
  8
0
100
AcDbSpline
 62
7
  6
CONTINUOUS
 70
0
 71
3
 72
23
 73
19
 74
0
 42
0.0000001
 43
0.0000001
 44
0.0000000001
 40
0.0
 40
0.0
 40
0.0
 40
0.0
 40
0.0433721391
 40
0.0885531052
 40
0.1355359705
 40
0.1843589553
 40
0.235111297
 40
0.2879374537
 40
0.3430393794
 40
0.4006766508
 40
0.4611643718
 40
0.5248689987
 40
0.5922024669
 40
0.6636151802
 40
0.7395885089
 40
0.8206274102
 40
0.9072536586
 40
1.0
 40
1.0
 40
1.0
 40
1.0
 10
5.3884465519
 20
5.5265198359
 30
0.0
 10
5.3888178755
 20
5.5235150772
 30
0.0
 10
5.3896515337
 20
5.5173891254
 30
0.0
 10
5.3912281832
 20
5.5080582591
 30
0.0
 10
5.3932489618
 20
5.4984232373
 30
0.0
 10
5.3958061124
 20
5.4885132261
 30
0.0
 10
5.3989920604
 20
5.4783576012
 30
0.0
 10
5.4028993107
 20
5.4679861146
 30
0.0
 10
5.4076203181
 20
5.4574288724
 30
0.0
 10
5.4132473476
 20
5.4467163071
 30
0.0
 10
5.4198723524
 20
5.4358790792
 30
0.0
 10
5.4275869038
 20
5.4249479378
 30
0.0
 10
5.4364821843
 20
5.4139535669
 30
0.0
 10
5.4466490618
 20
5.4029264423
 30
0.0
 10
5.458178153
 20
5.3918967728
 30
0.0
 10
5.4711601314
 20
5.3808943503
 30
0.0
 10
5.4856850824
 20
5.3699490612
 30
0.0
 10
5.4960832251
 20
5.362961377
 30
0.0
 10
5.5015435841
 20
5.3594828926
 30
0.0
  0
SPLINE
  5
317
100
AcDbEntity
  8
0
100
AcDbSpline
 62
7
  6
CONTINUOUS
 70
0
 71
3
 72
21
 73
17
 74
0
 42
0.0000001
 43
0.0000001
 44
0.0000000001
 40
0.0
 40
0.0
 40
0.0
 40
0.0
 40
0.0621888032
 40
0.1243750126
 40
0.1865708757
 40
0.2487856876
 40
0.3110271066
 40
0.373302471
 40
0.4356201125
 40
0.4979906657
 40
0.6229013222
 40
0.7481690716
 40
0.8109755856
 40
0.8738852166
 40
0.9368948803
 40
1.0
 40
1.0
 40
1.0
 40
1.0
 10
5.3841839721
 20
5.566483798
 30
0.0
 10
5.3850373201
 20
5.5585480973
 30
0.0
 10
5.3863168205
 20
5.542627805
 30
0.0
 10
5.3869591115
 20
5.5186807742
 30
0.0
 10
5.3863316476
 20
5.4947294195
 30
0.0
 10
5.384441328
 20
5.4708377017
 30
0.0
 10
5.3812950982
 20
5.4470683638
 30
0.0
 10
5.3768999115
 20
5.4234847
 30
0.0
 10
5.3712623258
 20
5.4001490468
 30
0.0
 10
5.3620958554
 20
5.3694411036
 30
0.0
 10
5.3475528476
 20
5.3319708875
 30
0.0
 10
5.3291334958
 20
5.2961860231
 30
0.0
 10
5.31219283
 20
5.2687744985
 30
0.0
 10
5.2984040231
 20
5.2488471276
 30
0.0
 10
5.2835861715
 20
5.2296258985
 30
0.0
 10
5.2730543482
 20
5.217324066
 30
0.0
 10
5.267631345
 20
5.211308612
 30
0.0
  0
SPLINE
  5
318
100
AcDbEntity
  8
0
100
AcDbSpline
 62
7
  6
CONTINUOUS
 70
0
 71
3
 72
22
 73
18
 74
0
 42
0.0000001
 43
0.0000001
 44
0.0000000001
 40
0.0
 40
0.0
 40
0.0
 40
0.0
 40
0.0453605497
 40
0.0932538647
 40
0.1436325543
 40
0.1964520644
 40
0.2516627233
 40
0.3092118129
 40
0.3690446191
 40
0.4311040387
 40
0.4953311703
 40
0.5616643845
 40
0.6300392058
 40
0.700388515
 40
0.7726412903
 40
0.8467197432
 40
1.0
 40
1.0
 40
1.0
 40
1.0
 10
5.5662634424
 20
1.9787757278
 30
0.0
 10
5.5630356708
 20
1.9787757278
 30
0.0
 10
5.5563997525
 20
1.9788490722
 30
0.0
 10
5.5461833283
 20
1.979160635
 30
0.0
 10
5.535444039
 20
1.9796823139
 30
0.0
 10
5.5241958006
 20
1.9804233094
 30
0.0
 10
5.5124532438
 20
1.9813972062
 30
0.0
 10
5.5002323598
 20
1.9826206146
 30
0.0
 10
5.487550701
 20
1.9841148601
 30
0.0
 10
5.4744275946
 20
1.9859053118
 30
0.0
 10
5.4608845054
 20
1.9880211971
 30
0.0
 10
5.446945686
 20
1.9904967659
 30
0.0
 10
5.4326386056
 20
1.9933705296
 30
0.0
 10
5.4179948088
 20
1.9966852292
 30
0.0
 10
5.4030502527
 20
2.0004882861
 30
0.0
 10
5.3825486336
 20
2.0063439525
 30
0.0
 10
5.367207697
 20
2.0115353061
 30
0.0
 10
5.3570117489
 20
2.0154093535
 30
0.0
  0
SPLINE
  5
319
100
AcDbEntity
  8
0
100
AcDbSpline
 62
7
  6
CONTINUOUS
 70
0
 71
3
 72
23
 73
19
 74
0
 42
0.0000001
 43
0.0000001
 44
0.0000000001
 40
0.0
 40
0.0
 40
0.0
 40
0.0
 40
0.0575283802
 40
0.1158706794
 40
0.1750362554
 40
0.2350178618
 40
0.2957870385
 40
0.3573031192
 40
0.4195153975
 40
0.4823656684
 40
0.5457906318
 40
0.6097234493
 40
0.6740946538
 40
0.7388331531
 40
0.8038659012
 40
0.8691201793
 40
0.9345252831
 40
1.0
 40
1.0
 40
1.0
 40
1.0
 10
5.3570117489
 20
2.0154093535
 30
0.0
 10
5.3518729848
 20
2.0134174658
 30
0.0
 10
5.34141768
 20
2.0096723415
 30
0.0
 10
5.3253844745
 20
2.0047440155
 30
0.0
 10
5.3089380792
 20
2.0004096408
 30
0.0
 10
5.2921215027
 20
1.9966147013
 30
0.0
 10
5.2749734852
 20
1.9933077589
 30
0.0
 10
5.2575303135
 20
1.9904413523
 30
0.0
 10
5.2398255341
 20
1.9879726136
 30
0.0
 10
5.2218905597
 20
1.9858630426
 30
0.0
 10
5.2037549552
 20
1.9840784447
 30
0.0
 10
5.1854466696
 20
1.9825896472
 30
0.0
 10
5.166992422
 20
1.9813713951
 30
0.0
 10
5.1484179888
 20
1.9804024662
 30
0.0
 10
5.1297482828
 20
1.9796663678
 30
0.0
 10
5.1110073775
 20
1.9791496631
 30
0.0
 10
5.0922195608
 20
1.9788432974
 30
0.0
 10
5.0796809642
 20
1.9787757278
 30
0.0
 10
5.0734083851
 20
1.9787757278
 30
0.0
  0
SPLINE
  5
31A
100
AcDbEntity
  8
0
100
AcDbSpline
 62
7
  6
CONTINUOUS
 70
0
 71
3
 72
15
 73
11
 74
0
 42
0.0000001
 43
0.0000001
 44
0.0000000001
 40
0.0
 40
0.0
 40
0.0
 40
0.0
 40
0.116170212
 40
0.2358633197
 40
0.3585838099
 40
0.4838314259
 40
0.6111026838
 40
0.7398921142
 40
0.8696933307
 40
1.0
 40
1.0
 40
1.0
 40
1.0
 10
5.2185333851
 20
5.7925834537
 30
0.0
 10
5.2129571892
 20
5.7934167004
 30
0.0
 10
5.2016159931
 20
5.7949787542
 30
0.0
 10
5.1843287927
 20
5.7969943055
 30
0.0
 10
5.166567095
 20
5.7987150068
 30
0.0
 10
5.1484100139
 20
5.800135299
 30
0.0
 10
5.1299365472
 20
5.8012496724
 30
0.0
 10
5.1112257328
 20
5.8020526456
 30
0.0
 10
5.0923567039
 20
5.8025387659
 30
0.0
 10
5.07973258
 20
5.8026479231
 30
0.0
 10
5.0734083851
 20
5.8026479231
 30
0.0
  0
LINE
  5
31B
100
AcDbEntity
  8
0
100
AcDbLine
 62
7
  6
CONTINUOUS
 10
4.9596707749
 20
6.2685088728
 11
4.9596973373
 21
6.2688327383
  0
SPLINE
  5
31C
100
AcDbEntity
  8
0
100
AcDbSpline
 62
7
  6
CONTINUOUS
 70
0
 71
3
 72
12
 73
8
 74
0
 42
0.0000001
 43
0.0000001
 44
0.0000000001
 40
0.0
 40
0.0
 40
0.0
 40
0.0
 40
0.2500002117
 40
0.375000596
 40
0.5000007376
 40
0.7500005374
 40
1.0
 40
1.0
 40
1.0
 40
1.0
 10
5.0734083851
 20
6.2703376646
 30
0.0
 10
5.0639314207
 20
6.2703376403
 30
0.0
 10
5.0497158966
 20
6.2702814625
 30
0.0
 10
5.0307627618
 20
6.2701042501
 30
0.0
 10
5.011810329
 20
6.2698637522
 30
0.0
 10
4.988121325
 20
6.2694575449
 30
0.0
 10
4.9691717979
 20
6.269049329
 30
0.0
 10
4.9596973373
 20
6.2688327383
 30
0.0
  0
SPLINE
  5
31D
100
AcDbEntity
  8
0
100
AcDbSpline
 62
7
  6
CONTINUOUS
 70
0
 71
3
 72
12
 73
8
 74
0
 42
0.0000001
 43
0.0000001
 44
0.0000000001
 40
0.0
 40
0.0
 40
0.0
 40
0.0
 40
0.2499994626
 40
0.4999992624
 40
0.624999404
 40
0.7499997884
 40
1.0
 40
1.0
 40
1.0
 40
1.0
 10
5.1871194329
 20
6.2688327392
 30
0.0
 10
5.1776449723
 20
6.2690493334
 30
0.0
 10
5.1586954452
 20
6.2694575467
 30
0.0
 10
5.1350064411
 20
6.2698637473
 30
0.0
 10
5.1160540083
 20
6.2701042439
 30
0.0
 10
5.0971008736
 20
6.2702814591
 30
0.0
 10
5.0828853495
 20
6.270337641
 30
0.0
 10
5.0734083851
 20
6.2703376646
 30
0.0
  0
SPLINE
  5
31E
100
AcDbEntity
  8
0
100
AcDbSpline
 62
7
  6
CONTINUOUS
 70
0
 71
3
 72
22
 73
18
 74
0
 42
0.0000001
 43
0.0000001
 44
0.0000000001
 40
0.0
 40
0.0
 40
0.0
 40
0.0
 40
0.124988142
 40
0.1874889054
 40
0.2499892657
 40
0.3124901191
 40
0.3749910018
 40
0.4374917095
 40
0.49999253
 40
0.5624933565
 40
0.6249941988
 40
0.6874950738
 40
0.7499960995
 40
0.8124968899
 40
0.8749974407
 40
0.9375003465
 40
1.0
 40
1.0
 40
1.0
 40
1.0
 10
5.4709311979
 20
5.8952757236
 30
0.0
 10
5.4604735192
 20
5.9087638395
 30
0.0
 10
5.4453622214
 20
5.9294549744
 30
0.0
 10
5.4265124929
 20
5.9579197855
 30
0.0
 10
5.4130525768
 20
5.979705448
 30
0.0
 10
5.4003032624
 20
6.0019142488
 30
0.0
 10
5.3882943873
 20
6.0245323994
 30
0.0
 10
5.377054136
 20
6.0475423512
 30
0.0
 10
5.3666090594
 20
6.0709241858
 30
0.0
 10
5.3569838908
 20
6.0946554541
 30
0.0
 10
5.348197382
 20
6.1187099322
 30
0.0
 10
5.3402649364
 20
6.143059492
 30
0.0
 10
5.3331999508
 20
6.1676747615
 30
0.0
 10
5.3270101002
 20
6.1925244321
 30
0.0
 10
5.3216987585
 20
6.2175768431
 30
0.0
 10
5.3172637074
 20
6.2427985425
 30
0.0
 10
5.3148871718
 20
6.2597055078
 30
0.0
 10
5.3138427125
 20
6.2681757613
 30
0.0
  0
SPLINE
  5
31F
100
AcDbEntity
  8
0
100
AcDbSpline
 62
7
  6
CONTINUOUS
 70
0
 71
3
 72
17
 73
13
 74
0
 42
0.0000001
 43
0.0000001
 44
0.0000000001
 40
0.0
 40
0.0
 40
0.0
 40
0.0
 40
0.1254324581
 40
0.2507631957
 40
0.3133807931
 40
0.3759623919
 40
0.5010155274
 40
0.6259286697
 40
0.688335846
 40
0.7507130726
 40
0.8753939184
 40
1.0
 40
1.0
 40
1.0
 40
1.0
 10
5.3138427125
 20
6.2681757613
 30
0.0
 10
5.3090878614
 20
6.2683652827
 30
0.0
 10
5.2995812078
 20
6.268724549
 30
0.0
 10
5.2876978008
 20
6.2690928382
 30
0.0
 10
5.2781959303
 20
6.2693200136
 30
0.0
 10
5.2687034918
 20
6.2694952522
 30
0.0
 10
5.2568464053
 20
6.2696111924
 30
0.0
 10
5.2449953686
 20
6.2695859266
 30
0.0
 10
5.2355229717
 20
6.2694773425
 30
0.0
 10
5.2260602235
 20
6.2693113611
 30
0.0
 10
5.2142400726
 20
6.2690079546
 30
0.0
 10
5.2047881169
 20
6.2686848795
 30
0.0
 10
5.2000641172
 20
6.2685089168
 30
0.0
  0
SPLINE
  5
320
100
AcDbEntity
  8
0
100
AcDbSpline
 62
7
  6
CONTINUOUS
 70
0
 71
3
 72
21
 73
17
 74
0
 42
0.0000001
 43
0.0000001
 44
0.0000000001
 40
0.0
 40
0.0
 40
0.0
 40
0.0
 40
0.0621888032
 40
0.1243750126
 40
0.1865708757
 40
0.2487856876
 40
0.3110271066
 40
0.373302471
 40
0.4356201125
 40
0.4979906657
 40
0.6229013222
 40
0.7481690716
 40
0.8109755856
 40
0.8738852167
 40
0.9368948803
 40
1.0
 40
1.0
 40
1.0
 40
1.0
 10
4.7626327981
 20
5.566483798
 30
0.0
 10
4.7617794501
 20
5.5585480973
 30
0.0
 10
4.7604999497
 20
5.542627805
 30
0.0
 10
4.7598576587
 20
5.5186807742
 30
0.0
 10
4.7604851226
 20
5.4947294195
 30
0.0
 10
4.7623754422
 20
5.4708377017
 30
0.0
 10
4.7655216719
 20
5.4470683638
 30
0.0
 10
4.7699168587
 20
5.4234846999
 30
0.0
 10
4.7755544443
 20
5.4001490467
 30
0.0
 10
4.7847209148
 20
5.3694411035
 30
0.0
 10
4.7992639226
 20
5.3319708874
 30
0.0
 10
4.8176832744
 20
5.296186023
 30
0.0
 10
4.8346239403
 20
5.2687744984
 30
0.0
 10
4.8484127472
 20
5.2488471276
 30
0.0
 10
4.8632305987
 20
5.2296258984
 30
0.0
 10
4.8737624221
 20
5.2173240659
 30
0.0
 10
4.8791854252
 20
5.211308612
 30
0.0
  0
SPLINE
  5
321
100
AcDbEntity
  8
0
100
AcDbSpline
 62
7
  6
CONTINUOUS
 70
0
 71
3
 72
9
 73
5
 74
0
 42
0.0000001
 43
0.0000001
 44
0.0000000001
 40
0.0
 40
0.0
 40
0.0
 40
0.0
 40
0.5055480841
 40
1.0
 40
1.0
 40
1.0
 40
1.0
 10
5.2992806339
 20
5.6302299971
 30
0.0
 10
5.299524705
 20
5.6310056503
 30
0.0
 10
5.2998993094
 20
5.6325767467
 30
0.0
 10
5.3000271602
 20
5.6341876239
 30
0.0
 10
5.3000271828
 20
5.6349829236
 30
0.0
  0
SPLINE
  5
322
100
AcDbEntity
  8
0
100
AcDbSpline
 62
7
  6
CONTINUOUS
 70
0
 71
3
 72
22
 73
18
 74
0
 42
0.0000001
 43
0.0000001
 44
0.0000000001
 40
0.0
 40
0.0
 40
0.0
 40
0.0
 40
0.0624996536
 40
0.1250025665
 40
0.1875031262
 40
0.2500039172
 40
0.3125049555
 40
0.3750058313
 40
0.4375066682
 40
0.5000074884
 40
0.5625083016
 40
0.6250090206
 40
0.6875098958
 40
0.750010738
 40
0.8125111034
 40
0.8750118614
 40
1.0
 40
1.0
 40
1.0
 40
1.0
 10
4.8329740555
 20
6.268175756
 30
0.0
 10
4.8319295993
 20
6.2597055017
 30
0.0
 10
4.8295531091
 20
6.242798529
 30
0.0
 10
4.8251181498
 20
6.2175768101
 30
0.0
 10
4.8198068324
 20
6.1925243881
 30
0.0
 10
4.8136167812
 20
6.1676747618
 30
0.0
 10
4.8065516938
 20
6.1430595218
 30
0.0
 10
4.7986193841
 20
6.1187099162
 30
0.0
 10
4.7898329131
 20
6.0946554231
 30
0.0
 10
4.7802077323
 20
6.0709241611
 30
0.0
 10
4.769762666
 20
6.0475423228
 30
0.0
 10
4.7585226173
 20
6.0245322735
 30
0.0
 10
4.7465138625
 20
6.0019140534
 30
0.0
 10
4.7337642092
 20
5.979705445
 30
0.0
 10
4.7203041011
 20
5.9579199056
 30
0.0
 10
4.70145452
 20
5.9294550053
 30
0.0
 10
4.6863435064
 20
5.9087636428
 30
0.0
 10
4.6758855728
 20
5.8952757241
 30
0.0
  0
SPLINE
  5
323
100
AcDbEntity
  8
0
100
AcDbSpline
 62
7
  6
CONTINUOUS
 70
0
 71
3
 72
17
 73
13
 74
0
 42
0.0000001
 43
0.0000001
 44
0.0000000001
 40
0.0
 40
0.0
 40
0.0
 40
0.0
 40
0.124606108
 40
0.2492870478
 40
0.3116643185
 40
0.3740715178
 40
0.4989846405
 40
0.624037708
 40
0.686619276
 40
0.7492368537
 40
0.874567571
 40
1.0
 40
1.0
 40
1.0
 40
1.0
 10
4.946752672
 20
6.2685093268
 30
0.0
 10
4.9420286708
 20
6.2686852889
 30
0.0
 10
4.9325767064
 20
6.2690082781
 30
0.0
 10
4.9207565434
 20
6.2693114981
 30
0.0
 10
4.9112937862
 20
6.2694773607
 30
0.0
 10
4.901821386
 20
6.2695858765
 30
0.0
 10
4.889970351
 20
6.2696111404
 30
0.0
 10
4.8781132675
 20
6.2694952417
 30
0.0
 10
4.8686208322
 20
6.2693200235
 30
0.0
 10
4.8591189634
 20
6.2690928498
 30
0.0
 10
4.8472355585
 20
6.2687245447
 30
0.0
 10
4.8377289061
 20
6.2683652722
 30
0.0
 10
4.8329740555
 20
6.268175756
 30
0.0
  0
SPLINE
  5
324
100
AcDbEntity
  8
0
100
AcDbSpline
 62
7
  6
CONTINUOUS
 70
0
 71
3
 72
22
 73
18
 74
0
 42
0.0000001
 43
0.0000001
 44
0.0000000001
 40
0.0
 40
0.0
 40
0.0
 40
0.0
 40
0.1532802835
 40
0.2273587419
 40
0.2996115056
 40
0.3699608045
 40
0.4383356035
 40
0.504668789
 40
0.5688958981
 40
0.6309552905
 40
0.6907880793
 40
0.7483371785
 40
0.803547848
 40
0.8563673691
 40
0.9067460859
 40
0.9546394364
 40
1.0
 40
1.0
 40
1.0
 40
1.0
 10
4.7898050213
 20
2.0154093535
 30
0.0
 10
4.7796090714
 20
2.0115353054
 30
0.0
 10
4.7642681328
 20
2.0063439507
 30
0.0
 10
4.743766512
 20
2.0004882848
 30
0.0
 10
4.728821957
 20
1.9966852285
 30
0.0
 10
4.7141781634
 20
1.993370529
 30
0.0
 10
4.699871087
 20
1.9904967673
 30
0.0
 10
4.6859322729
 20
1.9880211983
 30
0.0
 10
4.6723891893
 20
1.9859053136
 30
0.0
 10
4.6592660874
 20
1.9841148645
 30
0.0
 10
4.6465844316
 20
1.9826206146
 30
0.0
 10
4.634363547
 20
1.9813972096
 30
0.0
 10
4.6226209882
 20
1.9804233108
 30
0.0
 10
4.6113727465
 20
1.9796823133
 30
0.0
 10
4.6006334518
 20
1.9791606364
 30
0.0
 10
4.5904170222
 20
1.9788490711
 30
0.0
 10
4.5837811004
 20
1.9787757278
 30
0.0
 10
4.5805533278
 20
1.9787757278
 30
0.0
  0
SPLINE
  5
325
100
AcDbEntity
  8
0
100
AcDbSpline
 62
7
  6
CONTINUOUS
 70
0
 71
3
 72
23
 73
19
 74
0
 42
0.0000001
 43
0.0000001
 44
0.0000000001
 40
0.0
 40
0.0
 40
0.0
 40
0.0
 40
0.0654746837
 40
0.1308797008
 40
0.1961339246
 40
0.2611666575
 40
0.3259051437
 40
0.390276344
 40
0.4542091936
 40
0.5176342047
 40
0.5804845127
 40
0.6426968137
 40
0.7042129104
 40
0.7649821072
 40
0.8249637303
 40
0.8841293233
 40
0.9424716268
 40
1.0
 40
1.0
 40
1.0
 40
1.0
 10
5.0734083851
 20
1.9787757278
 30
0.0
 10
5.0671358092
 20
1.9787757278
 30
0.0
 10
5.0545972241
 20
1.9788432997
 30
0.0
 10
5.035809424
 20
1.9791496605
 30
0.0
 10
5.0170685338
 20
1.9796663689
 30
0.0
 10
4.9983988356
 20
1.9804024638
 30
0.0
 10
4.9798244053
 20
1.981371389
 30
0.0
 10
4.9613701566
 20
1.9825896469
 30
0.0
 10
4.9430618632
 20
1.9840784371
 30
0.0
 10
4.9249262477
 20
1.9858630387
 30
0.0
 10
4.9069912631
 20
1.9879726105
 30
0.0
 10
4.8892864763
 20
1.9904413488
 30
0.0
 10
4.871843299
 20
1.993307756
 30
0.0
 10
4.8546952766
 20
1.9966146996
 30
0.0
 10
4.8378786949
 20
2.0004096395
 30
0.0
 10
4.8214322961
 20
2.0047440154
 30
0.0
 10
4.8053990893
 20
2.0096723417
 30
0.0
 10
4.7949437848
 20
2.013417466
 30
0.0
 10
4.7898050213
 20
2.0154093535
 30
0.0
  0
SPLINE
  5
326
100
AcDbEntity
  8
0
100
AcDbSpline
 62
7
  6
CONTINUOUS
 70
0
 71
3
 72
60
 73
56
 74
0
 42
0.0000001
 43
0.0000001
 44
0.0000000001
 40
0.0
 40
0.0
 40
0.0
 40
0.0
 40
0.0108954351
 40
0.016659981
 40
0.0226339268
 40
0.0288118268
 40
0.0351849467
 40
0.041741834
 40
0.0484691711
 40
0.0553525315
 40
0.0623770038
 40
0.0695278715
 40
0.0767910043
 40
0.0841529898
 40
0.0916016895
 40
0.0991258424
 40
0.1067155413
 40
0.1143617874
 40
0.1220568255
 40
0.137565941
 40
0.1453689357
 40
0.1531977757
 40
0.1610482816
 40
0.16891669
 40
0.1768009331
 40
0.1846992149
 40
0.2005314973
 40
0.208463316
 40
0.216404132
 40
0.2323087724
 40
0.2482378318
 40
0.2641845603
 40
0.2801442998
 40
0.2961130946
 40
0.3120896963
 40
0.3280735375
 40
0.3440639549
 40
0.360060183
 40
0.3920670548
 40
0.4240891081
 40
0.4561218511
 40
0.488161272
 40
0.5202038038
 40
0.5522463553
 40
0.5842861575
 40
0.616320894
 40
0.6483484205
 40
0.6803672577
 40
0.7123760097
 40
0.7443739575
 40
0.7763609323
 40
0.8083367627
 40
0.8722572343
 40
0.9361416487
 40
1.0
 40
1.0
 40
1.0
 40
1.0
 10
5.3570117489
 20
2.0154093535
 30
0.0
 10
5.3511454395
 20
2.0219666427
 30
0.0
 10
5.3427933276
 20
2.0325612412
 30
0.0
 10
5.332622348
 20
2.0477520907
 30
0.0
 10
5.3251669574
 20
2.0601585319
 30
0.0
 10
5.3180459385
 20
2.0733194183
 30
0.0
 10
5.3112698263
 20
2.0871867304
 30
0.0
 10
5.3048453242
 20
2.1017062306
 30
0.0
 10
5.2987741192
 20
2.1168214079
 30
0.0
 10
5.2930536883
 20
2.1324749456
 30
0.0
 10
5.2876776775
 20
2.148610585
 30
0.0
 10
5.2826362954
 20
2.1651743696
 30
0.0
 10
5.2779174364
 20
2.1821157109
 30
0.0
 10
5.2735069398
 20
2.1993880193
 30
0.0
 10
5.2693893151
 20
2.2169488361
 30
0.0
 10
5.2655482099
 20
2.234760184
 30
0.0
 10
5.26196691
 20
2.2527880977
 30
0.0
 10
5.2586283462
 20
2.2710027469
 30
0.0
 10
5.254467265
 20
2.2955659935
 30
0.0
 10
5.2507381782
 20
2.3203284563
 30
0.0
 10
5.2473671777
 20
2.3452489417
 30
0.0
 10
5.2449942155
 20
2.3640628324
 30
0.0
 10
5.2427644139
 20
2.3829473203
 30
0.0
 10
5.2406610924
 20
2.401891308
 30
0.0
 10
5.2386774431
 20
2.42088698
 30
0.0
 10
5.23618001
 20
2.4462945467
 30
0.0
 10
5.2338937045
 20
2.47176103
 30
0.0
 10
5.2318008821
 20
2.4972780894
 30
0.0
 10
5.2298290675
 20
2.5228634103
 30
0.0
 10
5.2275832359
 20
2.5549043363
 30
0.0
 10
5.2251863134
 20
2.5934142395
 30
0.0
 10
5.2230347629
 20
2.6319831019
 30
0.0
 10
5.2210772084
 20
2.6705943241
 30
0.0
 10
5.2192623055
 20
2.7092366313
 30
0.0
 10
5.2175895333
 20
2.7479048411
 30
0.0
 10
5.2160582204
 20
2.7865963805
 30
0.0
 10
5.2146662821
 20
2.825309045
 30
0.0
 10
5.2129912914
 20
2.8769586475
 30
0.0
 10
5.2112291195
 20
2.9415578421
 30
0.0
 10
5.2096233543
 20
3.019114393
 30
0.0
 10
5.2085053486
 20
3.0967057708
 30
0.0
 10
5.2078541449
 20
3.1743189603
 30
0.0
 10
5.207649345
 20
3.2519424945
 30
0.0
 10
5.2078708693
 20
3.3295662542
 30
0.0
 10
5.2084996065
 20
3.407181457
 30
0.0
 10
5.2095183311
 20
3.4847803589
 30
0.0
 10
5.2109092984
 20
3.5623565164
 30
0.0
 10
5.212650567
 20
3.6399045809
 30
0.0
 10
5.2147212721
 20
3.7174206228
 30
0.0
 10
5.2170961617
 20
3.7949021628
 30
0.0
 10
5.2197466668
 20
3.8723481327
 30
0.0
 10
5.2236103988
 20
3.9755455236
 30
0.0
 10
5.2289908996
 20
4.1044615913
 30
0.0
 10
5.2361130614
 20
4.2590716961
 30
0.0
 10
5.2411583229
 20
4.3621044157
 30
0.0
 10
5.2437181216
 20
4.4136083603
 30
0.0
  0
SPLINE
  5
327
100
AcDbEntity
  8
0
100
AcDbSpline
 62
7
  6
CONTINUOUS
 70
0
 71
3
 72
11
 73
7
 74
0
 42
0.0000001
 43
0.0000001
 44
0.0000000001
 40
0.0
 40
0.0
 40
0.0
 40
0.0
 40
0.2664125371
 40
0.523248773
 40
0.7684202402
 40
1.0
 40
1.0
 40
1.0
 40
1.0
 10
5.1419331861
 20
6.4108116887
 30
0.0
 10
5.1401984487
 20
6.4132041802
 30
0.0
 10
5.1368736254
 20
6.4179636084
 30
0.0
 10
5.1322599938
 20
6.4251334756
 30
0.0
 10
5.1281412606
 20
6.4321543212
 30
0.0
 10
5.1256751788
 20
6.4368354063
 30
0.0
 10
5.1245390575
 20
6.4391393444
 30
0.0
  0
SPLINE
  5
328
100
AcDbEntity
  8
0
100
AcDbSpline
 62
7
  6
CONTINUOUS
 70
0
 71
3
 72
60
 73
56
 74
0
 42
0.0000001
 43
0.0000001
 44
0.0000000001
 40
0.0
 40
0.0
 40
0.0
 40
0.0
 40
0.0638583511
 40
0.1277427662
 40
0.1916632352
 40
0.2236390667
 40
0.2556260407
 40
0.2876239873
 40
0.3196327415
 40
0.3516515783
 40
0.3836791057
 40
0.4157138459
 40
0.4477536519
 40
0.4797962083
 40
0.5118387439
 40
0.5438781662
 40
0.5759109104
 40
0.6079329663
 40
0.6399398393
 40
0.6559360676
 40
0.6719264873
 40
0.6879103339
 40
0.703886938
 40
0.7198557234
 40
0.7358154638
 40
0.7517622033
 40
0.7676912627
 40
0.7835959093
 40
0.7915367218
 40
0.7994685366
 40
0.8153008162
 40
0.8231991124
 40
0.8310833759
 40
0.8389517798
 40
0.84680227
 40
0.8546311173
 40
0.86243411
 40
0.8779432378
 40
0.8856382662
 40
0.8932845164
 40
0.9008742071
 40
0.9083983617
 40
0.9158470522
 40
0.9232090339
 40
0.9304721644
 40
0.9376230277
 40
0.9446474967
 40
0.9515308538
 40
0.958258187
 40
0.9648150708
 40
0.9711881876
 40
0.9773660841
 40
0.9833400269
 40
0.9891045705
 40
1.0
 40
1.0
 40
1.0
 40
1.0
 10
4.9030986486
 20
4.4136083603
 30
0.0
 10
4.9056584473
 20
4.3621044159
 30
0.0
 10
4.9107037093
 20
4.259071696
 30
0.0
 10
4.9178258689
 20
4.1044615927
 30
0.0
 10
4.9232063713
 20
3.9755455257
 30
0.0
 10
4.9270701085
 20
3.8723481369
 30
0.0
 10
4.9297206123
 20
3.7949021676
 30
0.0
 10
4.9320954943
 20
3.7174206271
 30
0.0
 10
4.9341661774
 20
3.6399045842
 30
0.0
 10
4.9359074699
 20
3.5623565181
 30
0.0
 10
4.9372984545
 20
3.4847803575
 30
0.0
 10
4.9383171685
 20
3.4071814486
 30
0.0
 10
4.9389458995
 20
3.3295662357
 30
0.0
 10
4.9391674246
 20
3.2519424661
 30
0.0
 10
4.9389626264
 20
3.1743189236
 30
0.0
 10
4.9383114192
 20
3.096705729
 30
0.0
 10
4.9371934091
 20
3.0191143471
 30
0.0
 10
4.9355876651
 20
2.9415577917
 30
0.0
 10
4.9338254795
 20
2.8769585941
 30
0.0
 10
4.9321504512
 20
2.8253089898
 30
0.0
 10
4.9307585158
 20
2.7865963189
 30
0.0
 10
4.929227283
 20
2.7479047682
 30
0.0
 10
4.9275546106
 20
2.7092365552
 30
0.0
 10
4.9257395017
 20
2.6705942623
 30
0.0
 10
4.9237818078
 20
2.6319830457
 30
0.0
 10
4.9216304695
 20
2.5934141621
 30
0.0
 10
4.9192335818
 20
2.5549042423
 30
0.0
 10
4.9169877092
 20
2.522863317
 30
0.0
 10
4.9150159057
 20
2.4972779962
 30
0.0
 10
4.9129230261
 20
2.4717609496
 30
0.0
 10
4.9106366112
 20
2.4462944704
 30
0.0
 10
4.9081392934
 20
2.4208868669
 30
0.0
 10
4.9061558119
 20
2.4018911527
 30
0.0
 10
4.9040524931
 20
2.3829471639
 30
0.0
 10
4.9018225212
 20
2.3640627065
 30
0.0
 10
4.8994495331
 20
2.3452488278
 30
0.0
 10
4.8960785518
 20
2.3203283256
 30
0.0
 10
4.8923495122
 20
2.2955658547
 30
0.0
 10
4.8881883913
 20
2.2710026094
 30
0.0
 10
4.8848498384
 20
2.2527879696
 30
0.0
 10
4.8812685307
 20
2.2347600594
 30
0.0
 10
4.8774274328
 20
2.2169487229
 30
0.0
 10
4.8733098034
 20
2.1993879166
 30
0.0
 10
4.8688993109
 20
2.1821156198
 30
0.0
 10
4.8641804495
 20
2.1651742882
 30
0.0
 10
4.8591390704
 20
2.1486105111
 30
0.0
 10
4.8537630595
 20
2.1324748811
 30
0.0
 10
4.8480426283
 20
2.1168213524
 30
0.0
 10
4.8419714266
 20
2.1017061832
 30
0.0
 10
4.835546927
 20
2.087186691
 30
0.0
 10
4.8287708156
 20
2.0733193877
 30
0.0
 10
4.8216497988
 20
2.060158509
 30
0.0
 10
4.8141944116
 20
2.047752074
 30
0.0
 10
4.8040234364
 20
2.0325612323
 30
0.0
 10
4.7956713277
 20
2.0219666393
 30
0.0
 10
4.7898050213
 20
2.0154093535
 30
0.0
  0
SPLINE
  5
329
100
AcDbEntity
  8
0
100
AcDbSpline
 62
7
  6
CONTINUOUS
 70
0
 71
3
 72
37
 73
33
 74
0
 42
0.0000001
 43
0.0000001
 44
0.0000000001
 40
0.0
 40
0.0
 40
0.0
 40
0.0
 40
0.0219003666
 40
0.0444924777
 40
0.0678245186
 40
0.0919312052
 40
0.1168360791
 40
0.142556176
 40
0.1691002695
 40
0.1964624532
 40
0.2246196838
 40
0.2535350408
 40
0.2831670383
 40
0.3134713164
 40
0.3444005361
 40
0.3759081638
 40
0.4079484004
 40
0.4404767027
 40
0.473449622
 40
0.5068258048
 40
0.5405665864
 40
0.5746357527
 40
0.6090012403
 40
0.6436341374
 40
0.71360085
 40
0.7843604107
 40
0.8199889717
 40
0.855761366
 40
0.8916643227
 40
0.9276835263
 40
0.9638016836
 40
1.0
 40
1.0
 40
1.0
 40
1.0
 10
5.363119991
 20
5.8329837401
 30
0.0
 10
5.3659951389
 20
5.8306660609
 30
0.0
 10
5.3716930424
 20
5.8257771181
 30
0.0
 10
5.3799276045
 20
5.8178314766
 30
0.0
 10
5.3879543974
 20
5.809161563
 30
0.0
 10
5.3957547586
 20
5.7997751506
 30
0.0
 10
5.4033112812
 20
5.7896839985
 30
0.0
 10
5.4106049748
 20
5.7789017366
 30
0.0
 10
5.4176160425
 20
5.7674452965
 30
0.0
 10
5.4243293479
 20
5.7553402076
 30
0.0
 10
5.4307350374
 20
5.7426207497
 30
0.0
 10
5.4368300192
 20
5.7293277542
 30
0.0
 10
5.4426114135
 20
5.7155025188
 30
0.0
 10
5.4480782754
 20
5.7011861701
 30
0.0
 10
5.453233479
 20
5.6864195572
 30
0.0
 10
5.4580803806
 20
5.6712415664
 30
0.0
 10
5.4626235103
 20
5.6556890038
 30
0.0
 10
5.4668694883
 20
5.6397970068
 30
0.0
 10
5.4708259073
 20
5.6235986381
 30
0.0
 10
5.4745018137
 20
5.6071249205
 30
0.0
 10
5.4779066436
 20
5.5904044852
 30
0.0
 10
5.4810508234
 20
5.5734635006
 30
0.0
 10
5.4839437431
 20
5.5563252887
 30
0.0
 10
5.487490262
 20
5.533161261
 30
0.0
 10
5.4913298318
 20
5.5038372913
 30
0.0
 10
5.4944229895
 20
5.4742574078
 30
0.0
 10
5.4965019175
 20
5.4503752961
 30
0.0
 10
5.4978707386
 20
5.4323324847
 30
0.0
 10
5.4990510021
 20
5.414210397
 30
0.0
 10
5.5000486386
 20
5.3960189806
 30
0.0
 10
5.5008811645
 20
5.3777694777
 30
0.0
 10
5.5013372028
 20
5.3655833969
 30
0.0
 10
5.5015435841
 20
5.3594828926
 30
0.0
  0
SPLINE
  5
32A
100
AcDbEntity
  8
0
100
AcDbSpline
 62
7
  6
CONTINUOUS
 70
0
 71
3
 72
15
 73
11
 74
0
 42
0.0000001
 43
0.0000001
 44
0.0000000001
 40
0.0
 40
0.0
 40
0.0
 40
0.0
 40
0.1267675501
 40
0.253200782
 40
0.3791770675
 40
0.5045988548
 40
0.6294029016
 40
0.753560867
 40
0.8770805932
 40
1.0
 40
1.0
 40
1.0
 40
1.0
 10
5.3138427288
 20
6.2681757607
 30
0.0
 10
5.3137469272
 20
6.2691522069
 30
0.0
 10
5.3134423083
 20
6.2710933234
 30
0.0
 10
5.3126533884
 20
6.2739264895
 30
0.0
 10
5.3115458065
 20
6.2766400841
 30
0.0
 10
5.3101374916
 20
6.279195974
 30
0.0
 10
5.3084505148
 20
6.2815598711
 30
0.0
 10
5.3065102456
 20
6.2837010016
 30
0.0
 10
5.3043455359
 20
6.2855922094
 30
0.0
 10
5.3027685427
 20
6.2866741781
 30
0.0
 10
5.3019539513
 20
6.2871656151
 30
0.0
  0
SPLINE
  5
32B
100
AcDbEntity
  8
0
100
AcDbSpline
 62
7
  6
CONTINUOUS
 70
0
 71
3
 72
19
 73
15
 74
0
 42
0.0000001
 43
0.0000001
 44
0.0000000001
 40
0.0
 40
0.0
 40
0.0
 40
0.0
 40
0.1335970034
 40
0.2656968681
 40
0.3956015062
 40
0.5228795748
 40
0.585468429
 40
0.6472994859
 40
0.7082614289
 40
0.768209916
 40
0.8271933874
 40
0.8854676717
 40
0.9431514411
 40
1.0
 40
1.0
 40
1.0
 40
1.0
 10
5.1999803404
 20
6.2693318071
 30
0.0
 10
5.1998720106
 20
6.2702460883
 30
0.0
 10
5.1995807463
 20
6.2720564327
 30
0.0
 10
5.1989175057
 20
6.2747041688
 30
0.0
 10
5.1980396895
 20
6.2772429371
 30
0.0
 10
5.1971280646
 20
6.2792533073
 30
0.0
 10
5.1962959211
 20
6.2807759423
 30
0.0
 10
5.19562686
 20
6.2818649537
 30
0.0
 10
5.1949145616
 20
6.2829041115
 30
0.0
 10
5.1941647717
 20
6.2838920237
 30
0.0
 10
5.193377056
 20
6.2848260166
 30
0.0
 10
5.1925466245
 20
6.2857010602
 30
0.0
 10
5.1916748685
 20
6.2865133747
 30
0.0
 10
5.1910677809
 20
6.2870184931
 30
0.0
 10
5.1907599991
 20
6.2872608836
 30
0.0
  0
LINE
  5
32C
100
AcDbEntity
  8
0
100
AcDbLine
 62
7
  6
CONTINUOUS
 10
5.1843793171
 20
6.2867003745
 11
5.1840996617
 21
6.287398065
  0
SPLINE
  5
32D
100
AcDbEntity
  8
0
100
AcDbSpline
 62
7
  6
CONTINUOUS
 70
0
 71
3
 72
21
 73
17
 74
0
 42
0.0000001
 43
0.0000001
 44
0.0000000001
 40
0.0
 40
0.0
 40
0.0
 40
0.0
 40
0.1463569622
 40
0.2184003878
 40
0.2893979235
 40
0.3591657202
 40
0.4275231329
 40
0.4942886816
 40
0.5592888717
 40
0.6223702994
 40
0.6833875039
 40
0.7422023343
 40
0.7986817547
 40
0.9043278465
 40
0.9534342326
 40
1.0
 40
1.0
 40
1.0
 40
1.0
 10
5.1871194329
 20
6.268832739
 30
0.0
 10
5.1870960581
 20
6.2697183211
 30
0.0
 10
5.1870435933
 20
6.2710394372
 30
0.0
 10
5.1869415396
 20
6.2727882003
 30
0.0
 10
5.1868491173
 20
6.2740730493
 30
0.0
 10
5.1867385007
 20
6.2753340717
 30
0.0
 10
5.1866094558
 20
6.2765675904
 30
0.0
 10
5.1864634027
 20
6.2777701443
 30
0.0
 10
5.1863010796
 20
6.2789383829
 30
0.0
 10
5.1861219652
 20
6.2800689672
 30
0.0
 10
5.1859256015
 20
6.2811586619
 30
0.0
 10
5.1857131849
 20
6.2822046271
 30
0.0
 10
5.1854173759
 20
6.28350885
 30
0.0
 10
5.1850864872
 20
6.2847450734
 30
0.0
 10
5.1846999249
 20
6.2859010622
 30
0.0
 10
5.1844895582
 20
6.2864409676
 30
0.0
 10
5.1843793171
 20
6.2867003745
 30
0.0
  0
SPLINE
  5
32E
100
AcDbEntity
  8
0
100
AcDbSpline
 62
7
  6
CONTINUOUS
 70
0
 71
3
 72
15
 73
11
 74
0
 42
0.0000001
 43
0.0000001
 44
0.0000000001
 40
0.0
 40
0.0
 40
0.0
 40
0.0
 40
0.1463654584
 40
0.2894115095
 40
0.427540641
 40
0.5593050306
 40
0.6833937442
 40
0.7986933203
 40
0.9043850455
 40
1.0
 40
1.0
 40
1.0
 40
1.0
 10
4.9596973373
 20
6.2688327382
 30
0.0
 10
4.9597202816
 20
6.269718338
 30
0.0
 10
4.9597879647
 20
6.2714689701
 30
0.0
 10
4.9599578479
 20
6.2740514617
 30
0.0
 10
4.9601949433
 20
6.276539963
 30
0.0
 10
4.9604986454
 20
6.2789056651
 30
0.0
 10
4.9608681332
 20
6.2811221294
 30
0.0
 10
4.9613029739
 20
6.2831659096
 30
0.0
 10
4.9618072107
 20
6.2850159174
 30
0.0
 10
4.9622161569
 20
6.2861656346
 30
0.0
 10
4.9624374514
 20
6.2867003762
 30
0.0
  0
SPLINE
  5
32F
100
AcDbEntity
  8
0
100
AcDbSpline
 62
7
  6
CONTINUOUS
 70
0
 71
3
 72
15
 73
11
 74
0
 42
0.0000001
 43
0.0000001
 44
0.0000000001
 40
0.0
 40
0.0
 40
0.0
 40
0.0
 40
0.1229194141
 40
0.2464391285
 40
0.3705970855
 40
0.4954011298
 40
0.6208229182
 40
0.7467992079
 40
0.8732324452
 40
1.0
 40
1.0
 40
1.0
 40
1.0
 10
4.8448628244
 20
6.2871656171
 30
0.0
 10
4.8440482326
 20
6.28667418
 30
0.0
 10
4.8424712381
 20
6.2855922117
 30
0.0
 10
4.8403065276
 20
6.283701003
 30
0.0
 10
4.8383662576
 20
6.2815598718
 30
0.0
 10
4.8366792801
 20
6.2791959737
 30
0.0
 10
4.8352709646
 20
6.2766400827
 30
0.0
 10
4.8341633821
 20
6.2739264869
 30
0.0
 10
4.8333744616
 20
6.2710933195
 30
0.0
 10
4.8330698425
 20
6.2691522021
 30
0.0
 10
4.8329740409
 20
6.2681757554
 30
0.0
  0
SPLINE
  5
330
100
AcDbEntity
  8
0
100
AcDbSpline
 62
7
  6
CONTINUOUS
 70
0
 71
3
 72
13
 73
9
 74
0
 42
0.0000001
 43
0.0000001
 44
0.0000000001
 40
0.0
 40
0.0
 40
0.0
 40
0.0
 40
0.2655934985
 40
0.5226197707
 40
0.6468059198
 40
0.7676833325
 40
0.8853356849
 40
1.0
 40
1.0
 40
1.0
 40
1.0
 10
4.9468364296
 20
6.2693318054
 30
0.0
 10
4.9470512537
 20
6.2711462384
 30
0.0
 10
4.9477718634
 20
6.2746887596
 30
0.0
 10
4.9494148382
 20
6.2788524531
 30
0.0
 10
4.9511356365
 20
6.2818530728
 30
0.0
 10
4.9525922526
 20
6.2838848626
 30
0.0
 10
4.9542165994
 20
6.285698295
 30
0.0
 10
4.9554167141
 20
6.2867604283
 30
0.0
 10
4.9560380955
 20
6.2872463426
 30
0.0
  0
SPLINE
  5
331
100
AcDbEntity
  8
0
100
AcDbSpline
 62
7
  6
CONTINUOUS
 70
0
 71
3
 72
15
 73
11
 74
0
 42
0.0000001
 43
0.0000001
 44
0.0000000001
 40
0.0
 40
0.0
 40
0.0
 40
0.0
 40
0.1303066693
 40
0.2601078858
 40
0.3888973162
 40
0.5161685741
 40
0.6414161901
 40
0.7641366803
 40
0.883829788
 40
1.0
 40
1.0
 40
1.0
 40
1.0
 10
5.0734083851
 20
5.8026479233
 30
0.0
 10
5.0670841902
 20
5.8026479233
 30
0.0
 10
5.0544600663
 20
5.8025387661
 30
0.0
 10
5.0355910374
 20
5.8020526458
 30
0.0
 10
5.016880223
 20
5.8012496726
 30
0.0
 10
4.9984067563
 20
5.8001352992
 30
0.0
 10
4.9802496752
 20
5.798715007
 30
0.0
 10
4.9624879775
 20
5.7969943056
 30
0.0
 10
4.945200777
 20
5.7949787543
 30
0.0
 10
4.933859581
 20
5.7934167005
 30
0.0
 10
4.9282833851
 20
5.7925834539
 30
0.0
  0
SPLINE
  5
332
100
AcDbEntity
  8
0
100
AcDbSpline
 62
7
  6
CONTINUOUS
 70
0
 71
3
 72
50
 73
46
 74
0
 42
0.0000001
 43
0.0000001
 44
0.0000000001
 40
0.0
 40
0.0
 40
0.0
 40
0.0
 40
0.0003681776
 40
0.000757806
 40
0.0011947879
 40
0.0016973752
 40
0.002277394
 40
0.0029427678
 40
0.0036989468
 40
0.0045497275
 40
0.0054978514
 40
0.0065453689
 40
0.0089443883
 40
0.0117573708
 40
0.014992929
 40
0.0186582184
 40
0.0227598564
 40
0.0273060693
 40
0.0323054782
 40
0.0377665298
 40
0.0436995186
 40
0.057030405
 40
0.0724073014
 40
0.0899669301
 40
0.10985479
 40
0.1322150009
 40
0.1571770336
 40
0.1848281767
 40
0.2151404477
 40
0.2480097588
 40
0.283305949
 40
0.3208796498
 40
0.3605591284
 40
0.402151881
 40
0.4454513885
 40
0.4902579645
 40
0.5364040308
 40
0.5837598965
 40
0.6817554142
 40
0.7323020693
 40
0.783850015
 40
0.8363900153
 40
0.8899222763
 40
0.9444570712
 40
1.0
 40
1.0
 40
1.0
 40
1.0
 10
4.8986656155
 20
6.193957322
 30
0.0
 10
4.8987143067
 20
6.1939665763
 30
0.0
 10
4.8988180231
 20
6.1939704969
 30
0.0
 10
4.8989754905
 20
6.1939298525
 30
0.0
 10
4.8991346819
 20
6.1938454418
 30
0.0
 10
4.8992962982
 20
6.1937187906
 30
0.0
 10
4.8994612297
 20
6.1935502577
 30
0.0
 10
4.8996298252
 20
6.1933396476
 30
0.0
 10
4.8998022467
 20
6.1930866978
 30
0.0
 10
4.8999785396
 20
6.192791164
 30
0.0
 10
4.9001587098
 20
6.192452851
 30
0.0
 10
4.90041582
 20
6.1919199117
 30
0.0
 10
4.9007430032
 20
6.1911428378
 30
0.0
 10
4.9011352527
 20
6.1900751718
 30
0.0
 10
4.901542454
 20
6.1888323121
 30
0.0
 10
4.9019644253
 20
6.1874124271
 30
0.0
 10
4.9024010106
 20
6.1858132876
 30
0.0
 10
4.9028520303
 20
6.1840322754
 30
0.0
 10
4.903317411
 20
6.1820663953
 30
0.0
 10
4.9037972615
 20
6.1799123102
 30
0.0
 10
4.9044831984
 20
6.1766553132
 30
0.0
 10
4.9053714265
 20
6.1720771599
 30
0.0
 10
4.9064566067
 20
6.1659438516
 30
0.0
 10
4.9075977517
 20
6.1589247731
 30
0.0
 10
4.9087928743
 20
6.1509626939
 30
0.0
 10
4.9100387575
 20
6.1420011421
 30
0.0
 10
4.9113317546
 20
6.1319915088
 30
0.0
 10
4.9126599612
 20
6.1209075316
 30
0.0
 10
4.9140131607
 20
6.1087549275
 30
0.0
 10
4.9153748316
 20
6.095568176
 30
0.0
 10
4.9167241043
 20
6.0813978839
 30
0.0
 10
4.9180416871
 20
6.0663041327
 30
0.0
 10
4.9193098505
 20
6.0503557008
 30
0.0
 10
4.9205137348
 20
6.0336294138
 30
0.0
 10
4.9216417062
 20
6.0162061458
 30
0.0
 10
4.922687038
 20
5.9981637355
 30
0.0
 10
4.9236542844
 20
5.9795701731
 30
0.0
 10
4.9248508707
 20
5.953819154
 30
0.0
 10
4.9258612354
 20
5.927466824
 30
0.0
 10
4.9266829416
 20
5.900543851
 30
0.0
 10
4.9272093732
 20
5.8797340502
 30
0.0
 10
4.9276406199
 20
5.8585200784
 30
0.0
 10
4.9279733909
 20
5.8369021961
 30
0.0
 10
4.9281997409
 20
5.8148786692
 30
0.0
 10
4.9282703586
 20
5.8000604659
 30
0.0
 10
4.9282833851
 20
5.7925834855
 30
0.0
  0
LINE
  5
333
100
AcDbEntity
  8
0
100
AcDbLine
 62
7
  6
CONTINUOUS
 10
5.247885935
 20
6.1928748888
 11
5.2476975069
 21
6.1928737487
  0
SPLINE
  5
334
100
AcDbEntity
  8
0
100
AcDbSpline
 62
7
  6
CONTINUOUS
 70
0
 71
3
 72
45
 73
41
 74
0
 42
0.0000001
 43
0.0000001
 44
0.0000000001
 40
0.0
 40
0.0
 40
0.0
 40
0.0
 40
0.0010289884
 40
0.0017001484
 40
0.0024952606
 40
0.003422183
 40
0.0044853964
 40
0.0056874554
 40
0.0070297634
 40
0.0085130033
 40
0.0101373884
 40
0.0138087831
 40
0.0180410311
 40
0.0228289828
 40
0.0281663815
 40
0.0340460966
 40
0.0404582964
 40
0.0473914265
 40
0.0627730407
 40
0.0800953768
 40
0.0992613751
 40
0.1201732907
 40
0.1427332728
 40
0.1668448779
 40
0.1924122579
 40
0.21938567
 40
0.2778640192
 40
0.3430414131
 40
0.4157757117
 40
0.4552581536
 40
0.4969643198
 40
0.5409741109
 40
0.5873578547
 40
0.6865032958
 40
0.7382960249
 40
0.7909062876
 40
0.8438587319
 40
0.8966787494
 40
0.9488865251
 40
1.0
 40
1.0
 40
1.0
 40
1.0
 10
5.2476975069
 20
6.1928737487
 30
0.0
 10
5.2475621312
 20
6.1928467418
 30
0.0
 10
5.2473587656
 20
6.1927176458
 30
0.0
 10
5.2471265571
 20
6.1924786254
 30
0.0
 10
5.2469306758
 20
6.1922226811
 30
0.0
 10
5.2467303401
 20
6.1919071439
 30
0.0
 10
5.2465244451
 20
6.191531299
 30
0.0
 10
5.2463134415
 20
6.1910955964
 30
0.0
 10
5.2460973558
 20
6.1906002343
 30
0.0
 10
5.2458763622
 20
6.1900455784
 30
0.0
 10
5.2455623879
 20
6.1891919681
 30
0.0
 10
5.2451626185
 20
6.1879774847
 30
0.0
 10
5.2446825866
 20
6.1863437185
 30
0.0
 10
5.2441860677
 20
6.1844825071
 30
0.0
 10
5.2436742394
 20
6.182397137
 30
0.0
 10
5.2431484167
 20
6.1800911899
 30
0.0
 10
5.2426097777
 20
6.1775688681
 30
0.0
 10
5.2418495793
 20
6.1737906698
 30
0.0
 10
5.2408829954
 20
6.1685614299
 30
0.0
 10
5.2397276867
 20
6.1616992013
 30
0.0
 10
5.2385509139
 20
6.1540889491
 30
0.0
 10
5.237362883
 20
6.1457700426
 30
0.0
 10
5.2361738017
 20
6.1367815839
 30
0.0
 10
5.2349938187
 20
6.1271623812
 30
0.0
 10
5.2338323222
 20
6.1169448015
 30
0.0
 10
5.232275413
 20
6.1021325448
 30
0.0
 10
5.2304086453
 20
6.0820105539
 30
0.0
 10
5.2283368023
 20
6.0557448946
 30
0.0
 10
5.2267445281
 20
6.0319995236
 30
0.0
 10
5.2255126388
 20
6.011386822
 30
0.0
 10
5.2245874552
 20
5.9946163514
 30
0.0
 10
5.2236859359
 20
5.9769174952
 30
0.0
 10
5.2224910192
 20
5.9515180668
 30
0.0
 10
5.2213948239
 20
5.9250688438
 30
0.0
 10
5.2204369944
 20
5.8977786611
 30
0.0
 10
5.2197966717
 20
5.8766783648
 30
0.0
 10
5.2192639143
 20
5.8554372038
 30
0.0
 10
5.2188578305
 20
5.8342472119
 30
0.0
 10
5.2185976438
 20
5.8133016288
 30
0.0
 10
5.2185333851
 20
5.7994405812
 30
0.0
 10
5.2185333851
 20
5.7925834855
 30
0.0
  0
SPLINE
  5
335
100
AcDbEntity
  8
0
100
AcDbSpline
 62
7
  6
CONTINUOUS
 70
0
 71
3
 72
37
 73
33
 74
0
 42
0.0000001
 43
0.0000001
 44
0.0000000001
 40
0.0
 40
0.0
 40
0.0
 40
0.0
 40
0.0362181495
 40
0.0723559196
 40
0.108394441
 40
0.1443163622
 40
0.1801073219
 40
0.2157539957
 40
0.2865479928
 40
0.3565461195
 40
0.3911933199
 40
0.4255719293
 40
0.4596529054
 40
0.4934039117
 40
0.5267885662
 40
0.5597679253
 40
0.5923004536
 40
0.6243424362
 40
0.6558491346
 40
0.686774539
 40
0.7170718434
 40
0.7466935881
 40
0.7755953538
 40
0.8037355647
 40
0.8310775831
 40
0.8575989283
 40
0.8832945439
 40
0.9081736929
 40
0.9322538171
 40
0.9555589178
 40
0.978124711
 40
1.0
 40
1.0
 40
1.0
 40
1.0
 10
4.6452731861
 20
5.3594828926
 30
0.0
 10
4.6454799329
 20
5.3655942046
 30
0.0
 10
4.6459368558
 20
5.3778018421
 30
0.0
 10
4.646771264
 20
5.3960835579
 30
0.0
 10
4.6477714386
 20
5.4143069415
 30
0.0
 10
4.6489549516
 20
5.4324606951
 30
0.0
 10
4.6503277254
 20
5.4505348235
 30
0.0
 10
4.6524128718
 20
5.4744578775
 30
0.0
 10
4.6555157643
 20
5.5040875852
 30
0.0
 10
4.6593681785
 20
5.5334600231
 30
0.0
 10
4.6629269409
 20
5.5566612242
 30
0.0
 10
4.665830029
 20
5.5738259993
 30
0.0
 10
4.6689854515
 20
5.5907923715
 30
0.0
 10
4.6724026894
 20
5.6075368391
 30
0.0
 10
4.6760922083
 20
5.6240330244
 30
0.0
 10
4.6800634775
 20
5.6402520917
 30
0.0
 10
4.6843255706
 20
5.6561627835
 30
0.0
 10
4.6888860763
 20
5.6717318102
 30
0.0
 10
4.6937516089
 20
5.6869237857
 30
0.0
 10
4.6989266599
 20
5.701701646
 30
0.0
 10
4.7044145848
 20
5.7160262245
 30
0.0
 10
4.710218216
 20
5.7298564005
 30
0.0
 10
4.7163364424
 20
5.7431508398
 30
0.0
 10
4.7227663877
 20
5.7558680033
 30
0.0
 10
4.7295047603
 20
5.7679669955
 30
0.0
 10
4.7365414606
 20
5.7794136781
 30
0.0
 10
4.7438608726
 20
5.7901828987
 30
0.0
 10
4.7514431531
 20
5.8002578357
 30
0.0
 10
4.7592691854
 20
5.8096249356
 30
0.0
 10
4.7673216599
 20
5.8182723957
 30
0.0
 10
4.7755814312
 20
5.8261929939
 30
0.0
 10
4.7812959591
 20
5.8310633237
 30
0.0
 10
4.7841792684
 20
5.8333712943
 30
0.0
  0
SPLINE
  5
336
100
AcDbEntity
  8
0
100
AcDbSpline
 62
7
  6
CONTINUOUS
 70
0
 71
3
 72
35
 73
31
 74
0
 42
0.0000001
 43
0.0000001
 44
0.0000000001
 40
0.0
 40
0.0
 40
0.0
 40
0.0
 40
0.0207851734
 40
0.0426038308
 40
0.0654202614
 40
0.0892024524
 40
0.1139064358
 40
0.1394799308
 40
0.1658690681
 40
0.1930207361
 40
0.2208848071
 40
0.249409997
 40
0.2785416761
 40
0.3082259707
 40
0.3384121724
 40
0.3690487869
 40
0.400075835
 40
0.4314320618
 40
0.463106915
 40
0.495141482
 40
0.5604739533
 40
0.6278207014
 40
0.6975524622
 40
0.7698437503
 40
0.8069278397
 40
0.8446063599
 40
0.8828331494
 40
0.921535061
 40
0.9606234195
 40
1.0
 40
1.0
 40
1.0
 40
1.0
 10
4.8791866787
 20
5.2113195585
 30
0.0
 10
4.8791134312
 20
5.2057896857
 30
0.0
 10
4.8789749317
 20
5.194454825
 30
0.0
 10
4.8788007308
 20
5.1770491656
 30
0.0
 10
4.8786643133
 20
5.1588457133
 30
0.0
 10
4.878580225
 20
5.1398742229
 30
0.0
 10
4.8785565038
 20
5.1201689788
 30
0.0
 10
4.8785990741
 20
5.0997701287
 30
0.0
 10
4.8787085788
 20
5.0787202615
 30
0.0
 10
4.8788856007
 20
5.0570613753
 30
0.0
 10
4.8791316681
 20
5.0348347839
 30
0.0
 10
4.879448801
 20
5.012082213
 30
0.0
 10
4.8798418075
 20
4.9888464405
 30
0.0
 10
4.8803143759
 20
4.9651701121
 30
0.0
 10
4.8808640655
 20
4.9410949241
 30
0.0
 10
4.8814892365
 20
4.916664193
 30
0.0
 10
4.8821839109
 20
4.8919239104
 30
0.0
 10
4.8829409579
 20
4.8669090875
 30
0.0
 10
4.8837586215
 20
4.8416279568
 30
0.0
 10
4.8849418983
 20
4.8073138634
 30
0.0
 10
4.8865935753
 20
4.7635190911
 30
0.0
 10
4.8888330317
 20
4.7097096227
 30
0.0
 10
4.8913181035
 20
4.6540575194
 30
0.0
 10
4.8935589929
 20
4.6064547586
 30
0.0
 10
4.8954515199
 20
4.5673735909
 30
0.0
 10
4.8969287305
 20
4.537346559
 30
0.0
 10
4.8984436613
 20
4.5068904112
 30
0.0
 10
4.8999846424
 20
4.476059978
 30
0.0
 10
4.9015402499
 20
4.4449239665
 30
0.0
 10
4.9025785722
 20
4.4240724595
 30
0.0
 10
4.9030986486
 20
4.4136083603
 30
0.0
  0
SPLINE
  5
337
100
AcDbEntity
  8
0
100
AcDbSpline
 62
7
  6
CONTINUOUS
 70
0
 71
3
 72
26
 73
22
 74
0
 42
0.0000001
 43
0.0000001
 44
0.0000000001
 40
0.0
 40
0.0
 40
0.0
 40
0.0
 40
0.0784651089
 40
0.1553908637
 40
0.2301505384
 40
0.3024431941
 40
0.4395150327
 40
0.504859329
 40
0.568576469
 40
0.6309495186
 40
0.661573844
 40
0.6917510262
 40
0.7505636983
 40
0.8069583299
 40
0.8341105843
 40
0.8605000817
 40
0.8860752608
 40
0.910783162
 40
0.9345705134
 40
0.9573918792
 40
1.0
 40
1.0
 40
1.0
 40
1.0
 10
5.2437181216
 20
4.4136083603
 30
0.0
 10
5.2447544548
 20
4.4344597057
 30
0.0
 10
5.2468216525
 20
4.4757525877
 30
0.0
 10
5.2498744458
 20
4.5369122211
 30
0.0
 10
5.2527823667
 20
4.5964347421
 30
0.0
 10
5.2563419537
 20
4.6719473492
 30
0.0
 10
5.2595129835
 20
4.7449704078
 30
0.0
 10
5.2621954783
 20
4.8157293958
 30
0.0
 10
5.2639100078
 20
4.8666353542
 30
0.0
 10
5.2651207021
 20
4.9083147284
 30
0.0
 10
5.26594636
 20
4.9410772136
 30
0.0
 10
5.2666627245
 20
4.9728947316
 30
0.0
 10
5.2673751794
 20
5.0115705965
 30
0.0
 10
5.2678548188
 20
5.049445168
 30
0.0
 10
5.2680937817
 20
5.0786948222
 30
0.0
 10
5.2682028908
 20
5.0997450845
 30
0.0
 10
5.2682462394
 20
5.1201452183
 30
0.0
 10
5.268225986
 20
5.1398530389
 30
0.0
 10
5.2681465755
 20
5.1588280013
 30
0.0
 10
5.2679746165
 20
5.1825651823
 30
0.0
 10
5.2677814998
 20
5.19997291
 30
0.0
 10
5.2676313574
 20
5.2113085886
 30
0.0
  0
SPLINE
  5
338
100
AcDbEntity
  8
0
100
AcDbSpline
 62
7
  6
CONTINUOUS
 70
0
 71
3
 72
11
 73
7
 74
0
 42
0.0000001
 43
0.0000001
 44
0.0000000001
 40
0.0
 40
0.0
 40
0.0
 40
0.0
 40
0.23611425
 40
0.4812427742
 40
0.735906117
 40
1.0
 40
1.0
 40
1.0
 40
1.0
 10
4.9563621241
 20
6.2875494656
 30
0.0
 10
4.9568513787
 20
6.287676839
 30
0.0
 10
4.9578696221
 20
6.2878606484
 30
0.0
 10
4.959448576
 20
6.2879227187
 30
0.0
 10
4.9610817431
 20
6.287776295
 30
0.0
 10
4.9621711617
 20
6.2875453836
 30
0.0
 10
4.9627171035
 20
6.2873980513
 30
0.0
  0
SPLINE
  5
339
100
AcDbEntity
  8
0
100
AcDbSpline
 62
7
  6
CONTINUOUS
 70
0
 71
3
 72
11
 73
7
 74
0
 42
0.0000001
 43
0.0000001
 44
0.0000000001
 40
0.0
 40
0.0
 40
0.0
 40
0.0
 40
0.2316761376
 40
0.4752110042
 40
0.7313725918
 40
1.0
 40
1.0
 40
1.0
 40
1.0
 10
4.956038096
 20
6.2872463427
 30
0.0
 10
4.9565280835
 20
6.287354881
 30
0.0
 10
4.9575535864
 20
6.2874918519
 30
0.0
 10
4.9591427683
 20
6.2874621402
 30
0.0
 10
4.9607917117
 20
6.2872044576
 30
0.0
 10
4.9618876503
 20
6.2868910109
 30
0.0
 10
4.9624374512
 20
6.2867003854
 30
0.0
  0
SPLINE
  5
33A
100
AcDbEntity
  8
0
100
AcDbSpline
 62
7
  6
CONTINUOUS
 70
0
 71
3
 72
14
 73
10
 74
0
 42
0.0000001
 43
0.0000001
 44
0.0000000001
 40
0.0
 40
0.0
 40
0.0
 40
0.0
 40
0.0846462511
 40
0.1845550973
 40
0.2981435974
 40
0.423566648
 40
0.5587626874
 40
0.7014956939
 40
1.0
 40
1.0
 40
1.0
 40
1.0
 10
4.946836438
 20
6.269331804
 30
0.0
 10
4.9471987854
 20
6.2693607846
 30
0.0
 10
4.9479905694
 20
6.2694019641
 30
0.0
 10
4.9492708698
 20
6.2694241668
 30
0.0
 10
4.9507264149
 20
6.2694110266
 30
0.0
 10
4.9523327724
 20
6.2693625291
 30
0.0
 10
4.9540630117
 20
6.2692792972
 30
0.0
 10
4.9565334637
 20
6.2691212725
 30
0.0
 10
4.9584216891
 20
6.268959143
 30
0.0
 10
4.9596973373
 20
6.2688327382
 30
0.0
  0
SPLINE
  5
33B
100
AcDbEntity
  8
0
100
AcDbSpline
 62
7
  6
CONTINUOUS
 70
0
 71
3
 72
14
 73
10
 74
0
 42
0.0000001
 43
0.0000001
 44
0.0000000001
 40
0.0
 40
0.0
 40
0.0
 40
0.0
 40
0.084762684
 40
0.1847723244
 40
0.2984379073
 40
0.423905373
 40
0.5591036865
 40
0.7017871957
 40
1.0
 40
1.0
 40
1.0
 40
1.0
 10
4.9467530206
 20
6.2685088277
 30
0.0
 10
4.9471157757
 20
6.2685522336
 30
0.0
 10
4.9479091751
 20
6.2686247633
 30
0.0
 10
4.9491935995
 20
6.2686972923
 30
0.0
 10
4.9506548606
 20
6.2687410301
 30
0.0
 10
4.9522683326
 20
6.268755002
 30
0.0
 10
4.9540068544
 20
6.2687387812
 30
0.0
 10
4.9564892061
 20
6.2686761021
 30
0.0
 10
4.9583877677
 20
6.2685864766
 30
0.0
 10
4.9596707749
 20
6.2685088731
 30
0.0
  0
SPLINE
  5
33C
100
AcDbEntity
  8
0
100
AcDbSpline
 62
7
  6
CONTINUOUS
 70
0
 71
3
 72
11
 73
7
 74
0
 42
0.0000001
 43
0.0000001
 44
0.0000000001
 40
0.0
 40
0.0
 40
0.0
 40
0.0
 40
0.2640938785
 40
0.5187572311
 40
0.763885744
 40
1.0
 40
1.0
 40
1.0
 40
1.0
 10
5.1840996649
 20
6.2873980521
 30
0.0
 10
5.1846456066
 20
6.2875453844
 30
0.0
 10
5.1857350253
 20
6.2877762959
 30
0.0
 10
5.1873681925
 20
6.2879227196
 30
0.0
 10
5.1889471464
 20
6.2878606496
 30
0.0
 10
5.1899653899
 20
6.2876768402
 30
0.0
 10
5.1904546446
 20
6.2875494668
 30
0.0
  0
SPLINE
  5
33D
100
AcDbEntity
  8
0
100
AcDbSpline
 62
7
  6
CONTINUOUS
 70
0
 71
3
 72
11
 73
7
 74
0
 42
0.0000001
 43
0.0000001
 44
0.0000000001
 40
0.0
 40
0.0
 40
0.0
 40
0.0
 40
0.2686275096
 40
0.52478852
 40
0.7683236084
 40
1.0
 40
1.0
 40
1.0
 40
1.0
 10
5.1843793179
 20
6.286700411
 30
0.0
 10
5.1849291208
 20
6.2868910302
 30
0.0
 10
5.1860250597
 20
6.2872044673
 30
0.0
 10
5.1876740014
 20
6.2874621489
 30
0.0
 10
5.1892631822
 20
6.2874918516
 30
0.0
 10
5.190288685
 20
6.2873548803
 30
0.0
 10
5.1907786727
 20
6.2872463421
 30
0.0
  0
SPLINE
  5
33E
100
AcDbEntity
  8
0
100
AcDbSpline
 62
7
  6
CONTINUOUS
 70
0
 71
3
 72
14
 73
10
 74
0
 42
0.0000001
 43
0.0000001
 44
0.0000000001
 40
0.0
 40
0.0
 40
0.0
 40
0.0
 40
0.2985263663
 40
0.4412658373
 40
0.5764640007
 40
0.7018845821
 40
0.8154664119
 40
0.9153653809
 40
1.0
 40
1.0
 40
1.0
 40
1.0
 10
5.1871194329
 20
6.2688325445
 30
0.0
 10
5.1883948325
 20
6.2689589163
 30
0.0
 10
5.1902826728
 20
6.2691209961
 30
0.0
 10
5.1927525929
 20
6.2692789528
 30
0.0
 10
5.1944823939
 20
6.2693621332
 30
0.0
 10
5.1960882898
 20
6.2694105809
 30
0.0
 10
5.1975433616
 20
6.2694236757
 30
0.0
 10
5.1988231954
 20
6.269401435
 30
0.0
 10
5.1996146722
 20
6.2693602353
 30
0.0
 10
5.1999768706
 20
6.2693312468
 30
0.0
  0
SPLINE
  5
33F
100
AcDbEntity
  8
0
100
AcDbSpline
 62
7
  6
CONTINUOUS
 70
0
 71
3
 72
14
 73
10
 74
0
 42
0.0000001
 43
0.0000001
 44
0.0000000001
 40
0.0
 40
0.0
 40
0.0
 40
0.0
 40
0.2982097981
 40
0.4408924627
 40
0.5760905114
 40
0.7015583155
 40
0.8152247897
 40
0.9152357515
 40
1.0
 40
1.0
 40
1.0
 40
1.0
 10
5.1871459953
 20
6.2685088731
 30
0.0
 10
5.1884290178
 20
6.2685864648
 30
0.0
 10
5.1903276038
 20
6.2686760781
 30
0.0
 10
5.192809991
 20
6.2687387525
 30
0.0
 10
5.1945485467
 20
6.2687549756
 30
0.0
 10
5.1961620573
 20
6.2687410115
 30
0.0
 10
5.197623361
 20
6.2686972862
 30
0.0
 10
5.1989078302
 20
6.268624774
 30
0.0
 10
5.1997012604
 20
6.2685522595
 30
0.0
 10
5.2000640312
 20
6.2685088622
 30
0.0
  0
SPLINE
  5
340
100
AcDbEntity
  8
0
100
AcDbSpline
 62
7
  6
CONTINUOUS
 70
0
 71
3
 72
23
 73
19
 74
0
 42
0.0000001
 43
0.0000001
 44
0.0000000001
 40
0.0
 40
0.0
 40
0.0
 40
0.0
 40
0.0654011685
 40
0.1307113473
 40
0.1958693531
 40
0.260816044
 40
0.3254945274
 40
0.3898503913
 40
0.4538319626
 40
0.5173905938
 40
0.5804697456
 40
0.6429714495
 40
0.7047902303
 40
0.7658249181
 40
0.8259751689
 40
0.885128629
 40
0.9431728008
 40
1.0
 40
1.0
 40
1.0
 40
1.0
 10
4.6452731861
 20
5.3594828926
 30
0.0
 10
4.648099772
 20
5.3382067965
 30
0.0
 10
4.6540141742
 20
5.295718882
 30
0.0
 10
4.6637153939
 20
5.2321738148
 30
0.0
 10
4.6742769303
 20
5.1689169334
 30
0.0
 10
4.6857327342
 20
5.1060263523
 30
0.0
 10
4.698116785
 20
5.0435800063
 30
0.0
 10
4.7114630736
 20
4.981655861
 30
0.0
 10
4.7258055817
 20
4.920331851
 30
0.0
 10
4.7411774922
 20
4.8596894847
 30
0.0
 10
4.7576064638
 20
4.799827966
 30
0.0
 10
4.7751060761
 20
4.7408655274
 30
0.0
 10
4.7936860454
 20
4.6829382414
 30
0.0
 10
4.8133546297
 20
4.6261868705
 30
0.0
 10
4.8341174019
 20
4.570759143
 30
0.0
 10
4.8559433424
 20
4.5167979018
 30
0.0
 10
4.8787991733
 20
4.4644525081
 30
0.0
 10
4.8948813816
 20
4.4303496818
 30
0.0
 10
4.9030986486
 20
4.4136083603
 30
0.0
  0
SPLINE
  5
341
100
AcDbEntity
  8
0
100
AcDbSpline
 62
7
  6
CONTINUOUS
 70
0
 71
3
 72
23
 73
19
 74
0
 42
0.0000001
 43
0.0000001
 44
0.0000000001
 40
0.0
 40
0.0
 40
0.0
 40
0.0
 40
0.0927598965
 40
0.1793958521
 40
0.2604412362
 40
0.3364184224
 40
0.407832929
 40
0.4751666327
 40
0.5388703718
 40
0.599356429
 40
0.6569915073
 40
0.71209085
 40
0.7649140647
 40
0.8156630342
 40
0.8644820551
 40
0.9114601303
 40
0.9566351932
 40
1.0
 40
1.0
 40
1.0
 40
1.0
 10
4.6452731861
 20
5.3594828926
 30
0.0
 10
4.6507362325
 20
5.362963089
 30
0.0
 10
4.6611392435
 20
5.369954226
 30
0.0
 10
4.6756704359
 20
5.3809051574
 30
0.0
 10
4.688657173
 20
5.3919132546
 30
0.0
 10
4.7001896771
 20
5.4029485851
 30
0.0
 10
4.7103587592
 20
5.4139813103
 30
0.0
 10
4.7192551741
 20
5.4249811736
 30
0.0
 10
4.7269699286
 20
5.4359176508
 30
0.0
 10
4.7335943455
 20
5.4467600094
 30
0.0
 10
4.7392201377
 20
5.4574774518
 30
0.0
 10
4.7439394009
 20
5.46803927
 30
0.0
 10
4.747844543
 20
5.4784149854
 30
0.0
 10
4.751028162
 20
5.4885744469
 30
0.0
 10
4.753582905
 20
5.4984878588
 30
0.0
 10
4.7556013385
 20
5.5081258026
 30
0.0
 10
4.757175846
 20
5.5174590701
 30
0.0
 10
4.758008297
 20
5.5235864083
 30
0.0
 10
4.7583791008
 20
5.5265917707
 30
0.0
  0
SPLINE
  5
342
100
AcDbEntity
  8
0
100
AcDbSpline
 62
7
  6
CONTINUOUS
 70
0
 71
3
 72
23
 73
19
 74
0
 42
0.0000001
 43
0.0000001
 44
0.0000000001
 40
0.0
 40
0.0
 40
0.0
 40
0.0
 40
0.0654011685
 40
0.1307113473
 40
0.1958693531
 40
0.260816044
 40
0.3254945274
 40
0.3898503913
 40
0.4538319626
 40
0.5173905938
 40
0.5804697456
 40
0.6429714495
 40
0.7047902303
 40
0.7658249181
 40
0.8259751689
 40
0.885128629
 40
0.9431728008
 40
1.0
 40
1.0
 40
1.0
 40
1.0
 10
5.5015435841
 20
5.3594828926
 30
0.0
 10
5.4987169982
 20
5.3382067965
 30
0.0
 10
5.492802596
 20
5.295718882
 30
0.0
 10
5.4831013763
 20
5.2321738148
 30
0.0
 10
5.4725398399
 20
5.1689169334
 30
0.0
 10
5.4610840359
 20
5.1060263523
 30
0.0
 10
5.4486999851
 20
5.0435800063
 30
0.0
 10
5.4353536965
 20
4.981655861
 30
0.0
 10
5.4210111885
 20
4.920331851
 30
0.0
 10
5.4056392779
 20
4.8596894847
 30
0.0
 10
5.3892103064
 20
4.799827966
 30
0.0
 10
5.371710694
 20
4.7408655274
 30
0.0
 10
5.3531307248
 20
4.6829382414
 30
0.0
 10
5.3334621405
 20
4.6261868705
 30
0.0
 10
5.3126993683
 20
4.570759143
 30
0.0
 10
5.2908734278
 20
4.5167979018
 30
0.0
 10
5.2680175968
 20
4.4644525081
 30
0.0
 10
5.2519353886
 20
4.4303496818
 30
0.0
 10
5.2437181216
 20
4.4136083603
 30
0.0
  0
SPLINE
  5
343
100
AcDbEntity
  8
0
100
AcDbSpline
 62
7
  6
CONTINUOUS
 70
0
 71
3
 72
35
 73
31
 74
0
 42
0.0000001
 43
0.0000001
 44
0.0000000001
 40
0.0
 40
0.0
 40
0.0
 40
0.0
 40
0.0964009821
 40
0.1869568119
 40
0.2716095817
 40
0.3117188418
 40
0.350351045
 40
0.38751147
 40
0.4232087423
 40
0.4574565382
 40
0.4902753706
 40
0.521692227
 40
0.5517426889
 40
0.5804742044
 40
0.6079462273
 40
0.6342333111
 40
0.6594300616
 40
0.707002412
 40
0.7297142197
 40
0.7519448776
 40
0.7739100426
 40
0.7958478736
 40
0.8180086323
 40
0.8406504388
 40
0.8640293698
 40
0.8883906765
 40
0.9139668111
 40
0.9409706789
 40
0.9695925223
 40
1.0
 40
1.0
 40
1.0
 40
1.0
 10
5.5662634424
 20
1.9787757278
 30
0.0
 10
5.5693085227
 20
1.9787757278
 30
0.0
 10
5.5752143429
 20
1.9788372315
 30
0.0
 10
5.5837895175
 20
1.9791365881
 30
0.0
 10
5.5905784964
 20
1.9795676266
 30
0.0
 10
5.5957193239
 20
1.9800290383
 30
0.0
 10
5.5993591391
 20
1.9804252261
 30
0.0
 10
5.6028516797
 20
1.9808797198
 30
0.0
 10
5.6061958612
 20
1.9813943658
 30
0.0
 10
5.6093906636
 20
1.9819713044
 30
0.0
 10
5.6124350594
 20
1.9826133223
 30
0.0
 10
5.615328137
 20
1.9833231069
 30
0.0
 10
5.618069079
 20
1.9841035563
 30
0.0
 10
5.6206570323
 20
1.9849583348
 30
0.0
 10
5.6230911588
 20
1.9858910072
 30
0.0
 10
5.6253711339
 20
1.9869056408
 30
0.0
 10
5.6281502392
 20
1.9883455697
 30
0.0
 10
5.6306910614
 20
1.9899946899
 30
0.0
 10
5.6329313932
 20
1.9918758148
 30
0.0
 10
5.634428011
 20
1.993372172
 30
0.0
 10
5.6357653943
 20
1.9949809223
 30
0.0
 10
5.6369428106
 20
1.9967077049
 30
0.0
 10
5.6379597329
 20
1.9985580399
 30
0.0
 10
5.6388160965
 20
2.0005374985
 30
0.0
 10
5.6395123714
 20
2.00265184
 30
0.0
 10
5.6400493246
 20
2.0049072197
 30
0.0
 10
5.6404284149
 20
2.007310072
 30
0.0
 10
5.6406510884
 20
2.0098672228
 30
0.0
 10
5.6407192638
 20
2.012585417
 30
0.0
 10
5.640665004
 20
2.0144501494
 30
0.0
 10
5.6406151128
 20
2.0154093535
 30
0.0
  0
SPLINE
  5
344
100
AcDbEntity
  8
0
100
AcDbSpline
 62
7
  6
CONTINUOUS
 70
0
 71
3
 72
35
 73
31
 74
0
 42
0.0000001
 43
0.0000001
 44
0.0000000001
 40
0.0
 40
0.0
 40
0.0
 40
0.0
 40
0.096400979
 40
0.1869567992
 40
0.2716095635
 40
0.3117188225
 40
0.3503510258
 40
0.3875114509
 40
0.4232087219
 40
0.4574565179
 40
0.4902753516
 40
0.5216922083
 40
0.5517426723
 40
0.5804741916
 40
0.6079462165
 40
0.6342333022
 40
0.6594300551
 40
0.707002408
 40
0.7297142175
 40
0.7519448766
 40
0.7739100421
 40
0.7958478735
 40
0.8180086326
 40
0.8406504393
 40
0.8640293707
 40
0.8883906775
 40
0.9139668117
 40
0.9409706791
 40
0.9695925223
 40
1.0
 40
1.0
 40
1.0
 40
1.0
 10
4.5805533278
 20
1.9787757278
 30
0.0
 10
4.5775082476
 20
1.9787757278
 30
0.0
 10
4.5716024278
 20
1.9788372317
 30
0.0
 10
4.5630272537
 20
1.9791365878
 30
0.0
 10
4.5562382754
 20
1.9795676269
 30
0.0
 10
4.551097448
 20
1.9800290379
 30
0.0
 10
4.5474576329
 20
1.9804252259
 30
0.0
 10
4.5439650924
 20
1.9808797198
 30
0.0
 10
4.5406209108
 20
1.9813943653
 30
0.0
 10
4.5374261084
 20
1.9819713039
 30
0.0
 10
4.5343817126
 20
1.9826133221
 30
0.0
 10
4.5314886348
 20
1.9833231063
 30
0.0
 10
4.5287476926
 20
1.9841035557
 30
0.0
 10
4.5261597391
 20
1.9849583344
 30
0.0
 10
4.5237256123
 20
1.9858910067
 30
0.0
 10
4.521445637
 20
1.9869056404
 30
0.0
 10
4.5186665316
 20
1.9883455694
 30
0.0
 10
4.516125709
 20
1.9899946896
 30
0.0
 10
4.5138853772
 20
1.9918758147
 30
0.0
 10
4.5123887592
 20
1.9933721719
 30
0.0
 10
4.511051376
 20
1.9949809222
 30
0.0
 10
4.5098739596
 20
1.9967077049
 30
0.0
 10
4.5088570373
 20
1.9985580399
 30
0.0
 10
4.5080006737
 20
2.0005374986
 30
0.0
 10
4.5073043987
 20
2.0026518401
 30
0.0
 10
4.5067674456
 20
2.0049072198
 30
0.0
 10
4.5063883553
 20
2.0073100721
 30
0.0
 10
4.5061656818
 20
2.0098672228
 30
0.0
 10
4.5060975063
 20
2.012585417
 30
0.0
 10
4.5061517662
 20
2.0144501494
 30
0.0
 10
4.5062016574
 20
2.0154093535
 30
0.0
  0
SPLINE
  5
345
100
AcDbEntity
  8
0
100
AcDbSpline
 62
7
  6
CONTINUOUS
 70
0
 71
3
 72
20
 73
16
 74
0
 42
0.0000001
 43
0.0000001
 44
0.0000000001
 40
0.0
 40
0.0
 40
0.0
 40
0.0
 40
0.1977824512
 40
0.3779277626
 40
0.5379856061
 40
0.6098564542
 40
0.676004599
 40
0.7362791561
 40
0.7905785748
 40
0.8388781121
 40
0.8812429578
 40
0.9178942898
 40
0.949272205
 40
0.9761904921
 40
1.0
 40
1.0
 40
1.0
 40
1.0
 10
5.1537621206
 20
7.1159525359
 30
0.0
 10
5.1541550175
 20
7.1162754601
 30
0.0
 10
5.1549151773
 20
7.1168812548
 30
0.0
 10
5.1560283566
 20
7.1177031031
 30
0.0
 10
5.1569087563
 20
7.1182937163
 30
0.0
 10
5.157564283
 20
7.1186911492
 30
0.0
 10
5.1580093927
 20
7.1189401256
 30
0.0
 10
5.1584241625
 20
7.1191500448
 30
0.0
 10
5.1588071102
 20
7.1193201465
 30
0.0
 10
5.1591568671
 20
7.1194499399
 30
0.0
 10
5.1594723714
 20
7.1195389777
 30
0.0
 10
5.1597528216
 20
7.1195870944
 30
0.0
 10
5.1599980127
 20
7.1195937376
 30
0.0
 10
5.160207843
 20
7.1195581072
 30
0.0
 10
5.1603281006
 20
7.1195019044
 30
0.0
 10
5.1603784489
 20
7.1194670713
 30
0.0
  0
SPLINE
  5
346
100
AcDbEntity
  8
0
100
AcDbSpline
 62
7
  6
CONTINUOUS
 70
0
 71
3
 72
15
 73
11
 74
0
 42
0.0000001
 43
0.0000001
 44
0.0000000001
 40
0.0
 40
0.0
 40
0.0
 40
0.0
 40
0.127407945
 40
0.2546110707
 40
0.3813943831
 40
0.5075377186
 40
0.6327922008
 40
0.7568678176
 40
0.87942495
 40
1.0
 40
1.0
 40
1.0
 40
1.0
 10
5.073408385
 20
6.405191172
 30
0.0
 10
5.0763327581
 20
6.4051911732
 30
0.0
 10
5.0821769271
 20
6.4052398649
 30
0.0
 10
5.0909285892
 20
6.4054632753
 30
0.0
 10
5.09964582
 20
6.4058449482
 30
0.0
 10
5.1083091797
 20
6.4063975629
 30
0.0
 10
5.1168962707
 20
6.4071383332
 30
0.0
 10
5.1253800329
 20
6.4080901328
 30
0.0
 10
5.1337253036
 20
6.4092809666
 30
0.0
 10
5.1392201473
 20
6.4102651623
 30
0.0
 10
5.1419331861
 20
6.4108116887
 30
0.0
  0
SPLINE
  5
347
100
AcDbEntity
  8
0
100
AcDbSpline
 62
7
  6
CONTINUOUS
 70
0
 71
3
 72
15
 73
11
 74
0
 42
0.0000001
 43
0.0000001
 44
0.0000000001
 40
0.0
 40
0.0
 40
0.0
 40
0.0
 40
0.1207006954
 40
0.2433336709
 40
0.3674432746
 40
0.4926959385
 40
0.6188078269
 40
0.7455368906
 40
0.8726701052
 40
1.0
 40
1.0
 40
1.0
 40
1.0
 10
5.0057656901
 20
6.4108116887
 30
0.0
 10
5.0084464149
 20
6.4102692802
 30
0.0
 10
5.0138743572
 20
6.4092902124
 30
0.0
 10
5.0221165801
 20
6.408101492
 30
0.0
 10
5.0304930231
 20
6.4071488891
 30
0.0
 10
5.0389694852
 20
6.4064059009
 30
0.0
 10
5.0475196239
 20
6.4058505385
 30
0.0
 10
5.0561216999
 20
6.4054661404
 30
0.0
 10
5.0647569194
 20
6.4052405413
 30
0.0
 10
5.0705231201
 20
6.4051911745
 30
0.0
 10
5.073408385
 20
6.405191172
 30
0.0
  0
SPLINE
  5
348
100
AcDbEntity
  8
0
100
AcDbSpline
 62
7
  6
CONTINUOUS
 70
0
 71
3
 72
11
 73
7
 74
0
 42
0.0000001
 43
0.0000001
 44
0.0000000001
 40
0.0
 40
0.0
 40
0.0
 40
0.0
 40
0.2665068385
 40
0.5233988924
 40
0.7685495
 40
1.0
 40
1.0
 40
1.0
 40
1.0
 10
5.0057656901
 20
6.4108116887
 30
0.0
 10
5.0075035478
 20
6.4132017998
 30
0.0
 10
5.010832134
 20
6.417958002
 30
0.0
 10
5.0154434903
 20
6.4251272766
 30
0.0
 10
5.0195508483
 20
6.4321500936
 30
0.0
 10
5.0220029615
 20
6.4368344986
 30
0.0
 10
5.023130112
 20
6.4391401421
 30
0.0
  0
LINE
  5
349
100
AcDbEntity
  8
0
100
AcDbLine
 62
7
  6
CONTINUOUS
 10
5.0681415335
 20
6.9526317863
 11
5.0696841586
 21
6.9562205644
  0
SPLINE
  5
34A
100
AcDbEntity
  8
0
100
AcDbSpline
 62
7
  6
CONTINUOUS
 70
0
 71
3
 72
33
 73
29
 74
0
 42
0.0000001
 43
0.0000001
 44
0.0000000001
 40
0.0
 40
0.0
 40
0.0
 40
0.0
 40
0.0147635036
 40
0.0297476917
 40
0.045157508
 40
0.0611815662
 40
0.0779865267
 40
0.0957133432
 40
0.1144774853
 40
0.134372613
 40
0.1554728974
 40
0.1778365816
 40
0.2015073194
 40
0.2265174524
 40
0.2528891524
 40
0.2806361888
 40
0.3097652312
 40
0.3402758618
 40
0.3721627459
 40
0.4054143244
 40
0.4400153005
 40
0.4759458811
 40
0.5516973374
 40
0.6324549195
 40
0.7179650126
 40
0.807939446
 40
0.9020661173
 40
1.0
 40
1.0
 40
1.0
 40
1.0
 10
5.2808888963
 20
5.621273926
 30
0.0
 10
5.2808888325
 20
5.6218607143
 30
0.0
 10
5.2808131138
 20
5.6230443793
 30
0.0
 10
5.280474546
 20
5.6248113588
 30
0.0
 10
5.2799118731
 20
5.6265728008
 30
0.0
 10
5.279126814
 20
5.6283259954
 30
0.0
 10
5.2781211024
 20
5.6300692403
 30
0.0
 10
5.2768965509
 20
5.6318009967
 30
0.0
 10
5.2754550467
 20
5.6335199335
 30
0.0
 10
5.2737983294
 20
5.6352245707
 30
0.0
 10
5.2719282925
 20
5.6369135198
 30
0.0
 10
5.2698468029
 20
5.6385851784
 30
0.0
 10
5.2675559955
 20
5.640238039
 30
0.0
 10
5.2650581064
 20
5.6418704232
 30
0.0
 10
5.2623556224
 20
5.6434806991
 30
0.0
 10
5.2594512325
 20
5.6450672031
 30
0.0
 10
5.2563478553
 20
5.6466282219
 30
0.0
 10
5.2530487005
 20
5.6481621738
 30
0.0
 10
5.2495571941
 20
5.6496673258
 30
0.0
 10
5.2458770926
 20
5.6511421745
 30
0.0
 10
5.2420123527
 20
5.6525851053
 30
0.0
 10
5.2365215647
 20
5.654498245
 30
0.0
 10
5.2292218899
 20
5.6567893055
 30
0.0
 10
5.2199458624
 20
5.6593423661
 30
0.0
 10
5.2100445888
 20
5.6617343052
 30
0.0
 10
5.1995599065
 20
5.6639547829
 30
0.0
 10
5.1885361108
 20
5.6659940116
 30
0.0
 10
5.1809982322
 20
5.667204119
 30
0.0
 10
5.1771485096
 20
5.6677793908
 30
0.0
  0
SPLINE
  5
34B
100
AcDbEntity
  8
0
100
AcDbSpline
 62
7
  6
CONTINUOUS
 70
0
 71
3
 72
28
 73
24
 74
0
 42
0.0000001
 43
0.0000001
 44
0.0000000001
 40
0.0
 40
0.0
 40
0.0
 40
0.0
 40
0.0189979701
 40
0.038419855
 40
0.0585028986
 40
0.0794612268
 40
0.101466674
 40
0.1246460062
 40
0.14908633
 40
0.1748397607
 40
0.2019253315
 40
0.230335787
 40
0.2909609137
 40
0.3562634504
 40
0.4255217282
 40
0.4978399381
 40
0.5722011979
 40
0.6475131658
 40
0.7226497304
 40
0.7964907218
 40
0.8679635093
 40
0.9360812038
 40
1.0
 40
1.0
 40
1.0
 40
1.0
 10
5.1359083845
 20
6.3202757278
 30
0.0
 10
5.13561224
 20
6.3202972572
 30
0.0
 10
5.1350156689
 20
6.3203836398
 30
0.0
 10
5.1341347245
 20
6.3206380846
 30
0.0
 10
5.1332661528
 20
6.3210167008
 30
0.0
 10
5.1324146206
 20
6.3215167919
 30
0.0
 10
5.1315840486
 20
6.3221354037
 30
0.0
 10
5.1307783583
 20
6.32286921
 30
0.0
 10
5.1300012401
 20
6.323714355
 30
0.0
 10
5.1292564104
 20
6.3246666348
 30
0.0
 10
5.1285472601
 20
6.3257212665
 30
0.0
 10
5.1276343342
 20
6.3272910755
 30
0.0
 10
5.126612805
 20
6.3294822548
 30
0.0
 10
5.1256048879
 20
6.3323659741
 30
0.0
 10
5.1248085866
 20
6.3355036837
 30
0.0
 10
5.1242396378
 20
6.3388336507
 30
0.0
 10
5.1239092806
 20
6.3422905101
 30
0.0
 10
5.1238241041
 20
6.3458060168
 30
0.0
 10
5.1239858149
 20
6.3493107251
 30
0.0
 10
5.1243911567
 20
6.3527353745
 30
0.0
 10
5.1250321445
 20
6.3560125529
 30
0.0
 10
5.1258958684
 20
6.3590774792
 30
0.0
 10
5.1266354009
 20
6.3610083377
 30
0.0
 10
5.1270430411
 20
6.3619203956
 30
0.0
  0
SPLINE
  5
34C
100
AcDbEntity
  8
0
100
AcDbSpline
 62
7
  6
CONTINUOUS
 70
0
 71
3
 72
28
 73
24
 74
0
 42
0.0000001
 43
0.0000001
 44
0.0000000001
 40
0.0
 40
0.0
 40
0.0
 40
0.0
 40
0.0189981575
 40
0.03842021
 40
0.0585033983
 40
0.0794618468
 40
0.1014673899
 40
0.1246467945
 40
0.1490871689
 40
0.1748406303
 40
0.2019262139
 40
0.2303366666
 40
0.2909617482
 40
0.3562642007
 40
0.4255223688
 40
0.4978404556
 40
0.5722015895
 40
0.6475134379
 40
0.7226498972
 40
0.7964908041
 40
0.8679635333
 40
0.9360811997
 40
1.0
 40
1.0
 40
1.0
 40
1.0
 10
5.0109083863
 20
6.3202757279
 30
0.0
 10
5.0112045341
 20
6.3202972572
 30
0.0
 10
5.0118011117
 20
6.3203836399
 30
0.0
 10
5.0126820657
 20
6.3206380846
 30
0.0
 10
5.0135506464
 20
6.3210167007
 30
0.0
 10
5.0144021869
 20
6.3215167919
 30
0.0
 10
5.0152327664
 20
6.3221354036
 30
0.0
 10
5.0160384636
 20
6.32286921
 30
0.0
 10
5.0168155878
 20
6.323714355
 30
0.0
 10
5.0175604228
 20
6.3246666349
 30
0.0
 10
5.0182695777
 20
6.3257212667
 30
0.0
 10
5.0191825085
 20
6.3272910753
 30
0.0
 10
5.0202040419
 20
6.3294822546
 30
0.0
 10
5.0212119611
 20
6.3323659742
 30
0.0
 10
5.0220082616
 20
6.335503684
 30
0.0
 10
5.0225772069
 20
6.3388336511
 30
0.0
 10
5.0229075581
 20
6.3422905106
 30
0.0
 10
5.0229927264
 20
6.3458060174
 30
0.0
 10
5.0228310057
 20
6.3493107257
 30
0.0
 10
5.0224256525
 20
6.3527353751
 30
0.0
 10
5.0217846523
 20
6.3560125535
 30
0.0
 10
5.0209209153
 20
6.3590774799
 30
0.0
 10
5.0201813739
 20
6.3610083379
 30
0.0
 10
5.0197737292
 20
6.3619203955
 30
0.0
  0
LINE
  5
34D
100
AcDbEntity
  8
0
100
AcDbLine
 62
7
  6
CONTINUOUS
 10
5.0771326116
 20
6.9562205644
 11
5.0786752367
 21
6.9526317863
  0
SPLINE
  5
34E
100
AcDbEntity
  8
0
100
AcDbSpline
 62
7
  6
CONTINUOUS
 70
0
 71
3
 72
20
 73
16
 74
0
 42
0.0000001
 43
0.0000001
 44
0.0000000001
 40
0.0
 40
0.0
 40
0.0
 40
0.0
 40
0.1899288953
 40
0.3657469162
 40
0.524009941
 40
0.5956533113
 40
0.6619044362
 40
0.7225522692
 40
0.7774621263
 40
0.8266142532
 40
0.870133344
 40
0.9083579778
 40
0.9419397906
 40
0.9719625764
 40
1.0
 40
1.0
 40
1.0
 40
1.0
 10
4.8831415335
 20
6.8602495954
 30
0.0
 10
4.8824532451
 20
6.860180619
 30
0.0
 10
4.8811304262
 20
6.8600186426
 30
0.0
 10
4.8792496295
 20
6.8596897622
 30
0.0
 10
4.8778108759
 20
6.8593468789
 30
0.0
 10
4.8767783368
 20
6.859033903
 30
0.0
 10
4.8760963527
 20
6.8587926389
 30
0.0
 10
4.8754844965
 20
6.858538493
 30
0.0
 10
4.8749460935
 20
6.8582727969
 30
0.0
 10
4.8744839285
 20
6.857996996
 30
0.0
 10
4.8741002842
 20
6.8577122878
 30
0.0
 10
4.8737969633
 20
6.8574196056
 30
0.0
 10
4.8735757467
 20
6.8571190593
 30
0.0
 10
4.873439679
 20
6.8568108277
 30
0.0
 10
4.8734083851
 20
6.8565983636
 30
0.0
 10
4.8734083851
 20
6.8564962491
 30
0.0
  0
SPLINE
  5
34F
100
AcDbEntity
  8
0
100
AcDbSpline
 62
7
  6
CONTINUOUS
 70
0
 71
3
 72
19
 73
15
 74
0
 42
0.0000001
 43
0.0000001
 44
0.0000000001
 40
0.0
 40
0.0
 40
0.0
 40
0.0
 40
0.1752774327
 40
0.3423704323
 40
0.4976516658
 40
0.6377895247
 40
0.7012642944
 40
0.7599114345
 40
0.8134649369
 40
0.8617052255
 40
0.9044770941
 40
0.9417148668
 40
0.9734757904
 40
1.0
 40
1.0
 40
1.0
 40
1.0
 10
4.8846841586
 20
6.8566608174
 30
0.0
 10
4.8841905593
 20
6.8561152149
 30
0.0
 10
4.8832416571
 20
6.8550355527
 30
0.0
 10
4.8819120147
 20
6.8534239343
 30
0.0
 10
4.8807295413
 20
6.851883607
 30
0.0
 10
4.8798620578
 20
6.8506511601
 30
0.0
 10
4.8792656729
 20
6.8497256671
 30
0.0
 10
4.8788855669
 20
6.8490936003
 30
0.0
 10
4.8785596936
 20
6.8485040212
 30
0.0
 10
4.8782898288
 20
6.8479602225
 30
0.0
 10
4.8780773271
 20
6.8474652433
 30
0.0
 10
4.8779231372
 20
6.8470215302
 30
0.0
 10
4.8778279524
 20
6.846631368
 30
0.0
 10
4.8778017834
 20
6.8463867429
 30
0.0
 10
4.8778017834
 20
6.8462754047
 30
0.0
  0
SPLINE
  5
350
100
AcDbEntity
  8
0
100
AcDbSpline
 62
7
  6
CONTINUOUS
 70
0
 71
3
 72
19
 73
15
 74
0
 42
0.0000001
 43
0.0000001
 44
0.0000000001
 40
0.0
 40
0.0
 40
0.0
 40
0.0
 40
0.1752774327
 40
0.3423704323
 40
0.4976516658
 40
0.6377895247
 40
0.7012642944
 40
0.7599114345
 40
0.8134649369
 40
0.8617052255
 40
0.9044770941
 40
0.9417148668
 40
0.9734757904
 40
1.0
 40
1.0
 40
1.0
 40
1.0
 10
5.1537621206
 20
6.752231712
 30
0.0
 10
5.1542557199
 20
6.7516861096
 30
0.0
 10
5.1552046221
 20
6.7506064474
 30
0.0
 10
5.1565342645
 20
6.748994829
 30
0.0
 10
5.1577167379
 20
6.7474545016
 30
0.0
 10
5.1585842214
 20
6.7462220548
 30
0.0
 10
5.1591806063
 20
6.7452965617
 30
0.0
 10
5.1595607123
 20
6.744664495
 30
0.0
 10
5.1598865856
 20
6.7440749159
 30
0.0
 10
5.1601564504
 20
6.7435311171
 30
0.0
 10
5.1603689522
 20
6.743036138
 30
0.0
 10
5.160523142
 20
6.7425924249
 30
0.0
 10
5.1606183269
 20
6.7422022627
 30
0.0
 10
5.1606444958
 20
6.7419576376
 30
0.0
 10
5.1606444958
 20
6.7418462994
 30
0.0
  0
SPLINE
  5
351
100
AcDbEntity
  8
0
100
AcDbSpline
 62
7
  6
CONTINUOUS
 70
0
 71
3
 72
32
 73
28
 74
0
 42
0.0000001
 43
0.0000001
 44
0.0000000001
 40
0.0
 40
0.0
 40
0.0
 40
0.0
 40
0.0979635299
 40
0.1920586952
 40
0.281959648
 40
0.3673648638
 40
0.4479989641
 40
0.5236183597
 40
0.5940166151
 40
0.6272086383
 40
0.6590409474
 40
0.6895035758
 40
0.7185924876
 40
0.7463084578
 40
0.7726596346
 40
0.7976608365
 40
0.8213355872
 40
0.843717183
 40
0.8648501775
 40
0.8847931333
 40
0.9036204725
 40
0.9214263812
 40
0.9383262089
 40
0.9544594102
 40
0.9699898893
 40
0.9851030164
 40
1.0
 40
1.0
 40
1.0
 40
1.0
 10
5.1799742894
 20
5.5751984232
 30
0.0
 10
5.1837297767
 20
5.5757803555
 30
0.0
 10
5.1910803963
 20
5.5770011908
 30
0.0
 10
5.2018260417
 20
5.5790496613
 30
0.0
 10
5.2120392141
 20
5.5812721746
 30
0.0
 10
5.221678255
 20
5.5836590996
 30
0.0
 10
5.2307037951
 20
5.5862003661
 30
0.0
 10
5.2390784213
 20
5.5888854105
 30
0.0
 10
5.245608516
 20
5.5912781547
 30
0.0
 10
5.2504723685
 20
5.5932648525
 30
0.0
 10
5.2538643443
 20
5.5947545786
 30
0.0
 10
5.257068881
 20
5.5962718309
 30
0.0
 10
5.2600827637
 20
5.5978149795
 30
0.0
 10
5.2629029619
 20
5.5993825281
 30
0.0
 10
5.2655267555
 20
5.6009727968
 30
0.0
 10
5.2679516043
 20
5.6025842373
 30
0.0
 10
5.2701751953
 20
5.6042152502
 30
0.0
 10
5.2721954129
 20
5.6058642588
 30
0.0
 10
5.2740102421
 20
5.6075297961
 30
0.0
 10
5.2756178652
 20
5.6092103585
 30
0.0
 10
5.2770164286
 20
5.6109046504
 30
0.0
 10
5.2782043594
 20
5.6126112041
 30
0.0
 10
5.2791799757
 20
5.6143286976
 30
0.0
 10
5.2799415738
 20
5.616055653
 30
0.0
 10
5.2804873334
 20
5.6177904852
 30
0.0
 10
5.2808155611
 20
5.6195305761
 30
0.0
 10
5.2808888784
 20
5.6206960262
 30
0.0
 10
5.2808888963
 20
5.621273926
 30
0.0
  0
SPLINE
  5
352
100
AcDbEntity
  8
0
100
AcDbSpline
 62
7
  6
CONTINUOUS
 70
0
 71
3
 72
15
 73
11
 74
0
 42
0.0000001
 43
0.0000001
 44
0.0000000001
 40
0.0
 40
0.0
 40
0.0
 40
0.0
 40
0.1303794197
 40
0.2602412349
 40
0.3890617107
 40
0.5163323821
 40
0.6415480786
 40
0.7642128786
 40
0.8838522028
 40
1.0
 40
1.0
 40
1.0
 40
1.0
 10
5.0734083867
 20
5.567573979
 30
0.0
 10
5.0779316981
 20
5.567574021
 30
0.0
 10
5.0869605479
 20
5.5676509638
 30
0.0
 10
5.1004546856
 20
5.5679945486
 30
0.0
 10
5.1138332392
 20
5.5685651848
 30
0.0
 10
5.1270388519
 20
5.5693605346
 30
0.0
 10
5.1400151127
 20
5.5703770156
 30
0.0
 10
5.152706645
 20
5.5716103833
 30
0.0
 10
5.1650591236
 20
5.5730554056
 30
0.0
 10
5.1731634341
 20
5.5741730232
 30
0.0
 10
5.1771487713
 20
5.5747684221
 30
0.0
  0
LINE
  5
353
100
AcDbEntity
  8
0
100
AcDbLine
 62
7
  6
CONTINUOUS
 10
4.8831415335
 20
7.0079346525
 11
4.8846841586
 21
7.0115234306
  0
SPLINE
  5
354
100
AcDbEntity
  8
0
100
AcDbSpline
 62
7
  6
CONTINUOUS
 70
0
 71
3
 72
20
 73
16
 74
0
 42
0.0000001
 43
0.0000001
 44
0.0000000001
 40
0.0
 40
0.0
 40
0.0
 40
0.0
 40
0.2014053824
 40
0.3841779648
 40
0.5456910314
 40
0.6178064298
 40
0.6838671312
 40
0.7437188413
 40
0.7972733826
 40
0.8445276633
 40
0.885601605
 40
0.9208078405
 40
0.9507602736
 40
0.9765651071
 40
1.0
 40
1.0
 40
1.0
 40
1.0
 10
4.8846841586
 20
7.0115234306
 30
0.0
 10
4.8842795499
 20
7.0118559808
 30
0.0
 10
4.8834978149
 20
7.0124784139
 30
0.0
 10
4.8823544372
 20
7.0133194265
 30
0.0
 10
4.8814524423
 20
7.0139196301
 30
0.0
 10
4.8807832895
 20
7.0143193634
 30
0.0
 10
4.8803315186
 20
7.0145668013
 30
0.0
 10
4.8799124049
 20
7.0147725086
 30
0.0
 10
4.8795275481
 20
7.0149357421
 30
0.0
 10
4.8791783409
 20
7.0150559845
 30
0.0
 10
4.8788658482
 20
7.0151328523
 30
0.0
 10
4.8785907079
 20
7.0151661076
 30
0.0
 10
4.878352916
 20
7.0151549778
 30
0.0
 10
4.8781526051
 20
7.0150977183
 30
0.0
 10
4.8780439653
 20
7.0150248398
 30
0.0
 10
4.8780000761
 20
7.0149825617
 30
0.0
  0
SPLINE
  5
355
100
AcDbEntity
  8
0
100
AcDbSpline
 62
7
  6
CONTINUOUS
 70
0
 71
3
 72
20
 73
16
 74
0
 42
0.0000001
 43
0.0000001
 44
0.0000000001
 40
0.0
 40
0.0
 40
0.0
 40
0.0
 40
0.1899288954
 40
0.3657469165
 40
0.5240099414
 40
0.5956533117
 40
0.6619044366
 40
0.7225522696
 40
0.7774621266
 40
0.8266142535
 40
0.8701333443
 40
0.908357978
 40
0.9419397907
 40
0.9719625764
 40
1.0
 40
1.0
 40
1.0
 40
1.0
 10
4.8831415335
 20
7.0079346525
 30
0.0
 10
4.8824532451
 20
7.0078656761
 30
0.0
 10
4.8811304262
 20
7.0077036997
 30
0.0
 10
4.8792496295
 20
7.0073748192
 30
0.0
 10
4.8778108759
 20
7.0070319359
 30
0.0
 10
4.8767783368
 20
7.00671896
 30
0.0
 10
4.8760963527
 20
7.0064776959
 30
0.0
 10
4.8754844965
 20
7.00622355
 30
0.0
 10
4.8749460935
 20
7.0059578539
 30
0.0
 10
4.8744839285
 20
7.005682053
 30
0.0
 10
4.8741002842
 20
7.0053973448
 30
0.0
 10
4.8737969633
 20
7.0051046627
 30
0.0
 10
4.8735757467
 20
7.0048041163
 30
0.0
 10
4.873439679
 20
7.0044958847
 30
0.0
 10
4.8734083851
 20
7.0042834206
 30
0.0
 10
4.8734083851
 20
7.0041813061
 30
0.0
  0
SPLINE
  5
356
100
AcDbEntity
  8
0
100
AcDbSpline
 62
7
  6
CONTINUOUS
 70
0
 71
3
 72
19
 73
15
 74
0
 42
0.0000001
 43
0.0000001
 44
0.0000000001
 40
0.0
 40
0.0
 40
0.0
 40
0.0
 40
0.1752774326
 40
0.342370432
 40
0.4976516654
 40
0.6377895243
 40
0.701264294
 40
0.7599114342
 40
0.8134649365
 40
0.8617052252
 40
0.9044770938
 40
0.9417148666
 40
0.9734757903
 40
1.0
 40
1.0
 40
1.0
 40
1.0
 10
4.9930546496
 20
6.752231712
 30
0.0
 10
4.9925610503
 20
6.7516861096
 30
0.0
 10
4.9916121481
 20
6.7506064474
 30
0.0
 10
4.9902825057
 20
6.748994829
 30
0.0
 10
4.9891000323
 20
6.7474545016
 30
0.0
 10
4.9882325488
 20
6.7462220548
 30
0.0
 10
4.9876361638
 20
6.7452965618
 30
0.0
 10
4.9872560579
 20
6.744664495
 30
0.0
 10
4.9869301846
 20
6.7440749159
 30
0.0
 10
4.9866603197
 20
6.7435311171
 30
0.0
 10
4.986447818
 20
6.743036138
 30
0.0
 10
4.9862936282
 20
6.7425924249
 30
0.0
 10
4.9861984433
 20
6.7422022627
 30
0.0
 10
4.9861722743
 20
6.7419576376
 30
0.0
 10
4.9861722743
 20
6.7418462994
 30
0.0
  0
SPLINE
  5
357
100
AcDbEntity
  8
0
100
AcDbSpline
 62
7
  6
CONTINUOUS
 70
0
 71
3
 72
15
 73
11
 74
0
 42
0.0000001
 43
0.0000001
 44
0.0000000001
 40
0.0
 40
0.0
 40
0.0
 40
0.0
 40
0.1250459742
 40
0.2500764555
 40
0.3750842098
 40
0.5000789521
 40
0.6250629592
 40
0.7500401022
 40
0.875021964
 40
1.0
 40
1.0
 40
1.0
 40
1.0
 10
4.9484083854
 20
6.3202757278
 30
0.0
 10
4.9438826197
 20
6.3197426442
 30
0.0
 10
4.9348567762
 20
6.3184491747
 30
0.0
 10
4.9214342496
 20
6.3158358859
 30
0.0
 10
4.9081586822
 20
6.3125638016
 30
0.0
 10
4.8950588304
 20
6.30865418
 30
0.0
 10
4.8821584943
 20
6.3041338723
 30
0.0
 10
4.869476648
 20
6.2990348049
 30
0.0
 10
4.8570279201
 20
6.2933924814
 30
0.0
 10
4.8488899514
 20
6.2892931563
 30
0.0
 10
4.8448628245
 20
6.2871656174
 30
0.0
  0
SPLINE
  5
358
100
AcDbEntity
  8
0
100
AcDbSpline
 62
7
  6
CONTINUOUS
 70
0
 71
3
 72
19
 73
15
 74
0
 42
0.0000001
 43
0.0000001
 44
0.0000000001
 40
0.0
 40
0.0
 40
0.0
 40
0.0
 40
0.1752774326
 40
0.342370432
 40
0.4976516654
 40
0.6377895243
 40
0.701264294
 40
0.7599114342
 40
0.8134649365
 40
0.8617052252
 40
0.9044770938
 40
0.9417148666
 40
0.9734757903
 40
1.0
 40
1.0
 40
1.0
 40
1.0
 10
5.2621326116
 20
6.8566608174
 30
0.0
 10
5.2626262109
 20
6.8561152149
 30
0.0
 10
5.2635751131
 20
6.8550355527
 30
0.0
 10
5.2649047555
 20
6.8534239343
 30
0.0
 10
5.2660872289
 20
6.851883607
 30
0.0
 10
5.2669547124
 20
6.8506511601
 30
0.0
 10
5.2675510973
 20
6.8497256671
 30
0.0
 10
5.2679312033
 20
6.8490936003
 30
0.0
 10
5.2682570765
 20
6.8485040212
 30
0.0
 10
5.2685269414
 20
6.8479602225
 30
0.0
 10
5.2687394431
 20
6.8474652433
 30
0.0
 10
5.268893633
 20
6.8470215302
 30
0.0
 10
5.2689888178
 20
6.846631368
 30
0.0
 10
5.2690149868
 20
6.8463867429
 30
0.0
 10
5.2690149868
 20
6.8462754047
 30
0.0
  0
SPLINE
  5
359
100
AcDbEntity
  8
0
100
AcDbSpline
 62
7
  6
CONTINUOUS
 70
0
 71
3
 72
20
 73
16
 74
0
 42
0.0000001
 43
0.0000001
 44
0.0000000001
 40
0.0
 40
0.0
 40
0.0
 40
0.0
 40
0.1899288954
 40
0.3657469165
 40
0.5240099414
 40
0.5956533117
 40
0.6619044366
 40
0.7225522696
 40
0.7774621266
 40
0.8266142535
 40
0.8701333443
 40
0.908357978
 40
0.9419397907
 40
0.9719625764
 40
1.0
 40
1.0
 40
1.0
 40
1.0
 10
5.2636752367
 20
6.8602495954
 30
0.0
 10
5.2643635251
 20
6.860180619
 30
0.0
 10
5.2656863439
 20
6.8600186426
 30
0.0
 10
5.2675671407
 20
6.8596897622
 30
0.0
 10
5.2690058943
 20
6.8593468789
 30
0.0
 10
5.2700384334
 20
6.859033903
 30
0.0
 10
5.2707204175
 20
6.8587926389
 30
0.0
 10
5.2713322737
 20
6.858538493
 30
0.0
 10
5.2718706767
 20
6.8582727969
 30
0.0
 10
5.2723328417
 20
6.857996996
 30
0.0
 10
5.272716486
 20
6.8577122878
 30
0.0
 10
5.2730198069
 20
6.8574196056
 30
0.0
 10
5.2732410235
 20
6.8571190593
 30
0.0
 10
5.2733770912
 20
6.8568108277
 30
0.0
 10
5.2734083851
 20
6.8565983636
 30
0.0
 10
5.2734083851
 20
6.8564962491
 30
0.0
  0
SPLINE
  5
35A
100
AcDbEntity
  8
0
100
AcDbSpline
 62
7
  6
CONTINUOUS
 70
0
 71
3
 72
20
 73
16
 74
0
 42
0.0000001
 43
0.0000001
 44
0.0000000001
 40
0.0
 40
0.0
 40
0.0
 40
0.0
 40
0.2014086302
 40
0.3841835477
 40
0.5456978737
 40
0.617813459
 40
0.6838740434
 40
0.7437253304
 40
0.7972791567
 40
0.8445324528
 40
0.8856051969
 40
0.9208101154
 40
0.9507612932
 40
0.9765652303
 40
1.0
 40
1.0
 40
1.0
 40
1.0
 10
4.9930546496
 20
7.1159525359
 30
0.0
 10
4.9926500303
 20
7.1162850948
 30
0.0
 10
4.9918682758
 20
7.116907543
 30
0.0
 10
4.9907248708
 20
7.1177485727
 30
0.0
 10
4.9898228566
 20
7.1183487847
 30
0.0
 10
4.9891536917
 20
7.1187485199
 30
0.0
 10
4.988701915
 20
7.1189959561
 30
0.0
 10
4.9882827976
 20
7.1192016592
 30
0.0
 10
4.9878979394
 20
7.1193648861
 30
0.0
 10
4.987548733
 20
7.1194851195
 30
0.0
 10
4.9872362435
 20
7.1195619759
 30
0.0
 10
4.9869611084
 20
7.1195952173
 30
0.0
 10
4.9867233235
 20
7.1195840707
 30
0.0
 10
4.9865230217
 20
7.1195267907
 30
0.0
 10
4.9864143933
 20
7.1194538969
 30
0.0
 10
4.9863705101
 20
7.1194116122
 30
0.0
  0
SPLINE
  5
35B
100
AcDbEntity
  8
0
100
AcDbSpline
 62
7
  6
CONTINUOUS
 70
0
 71
3
 72
20
 73
16
 74
0
 42
0.0000001
 43
0.0000001
 44
0.0000000001
 40
0.0
 40
0.0
 40
0.0
 40
0.0
 40
0.2014053825
 40
0.384177965
 40
0.5456910315
 40
0.61780643
 40
0.6838671313
 40
0.7437188414
 40
0.7972733827
 40
0.8445276634
 40
0.8856016051
 40
0.9208078406
 40
0.9507602736
 40
0.9765651071
 40
1.0
 40
1.0
 40
1.0
 40
1.0
 10
5.2621326116
 20
7.0115234306
 30
0.0
 10
5.2625372203
 20
7.0118559808
 30
0.0
 10
5.2633189552
 20
7.0124784139
 30
0.0
 10
5.264462333
 20
7.0133194265
 30
0.0
 10
5.2653643279
 20
7.0139196301
 30
0.0
 10
5.2660334807
 20
7.0143193634
 30
0.0
 10
5.2664852516
 20
7.0145668013
 30
0.0
 10
5.2669043653
 20
7.0147725086
 30
0.0
 10
5.2672892221
 20
7.0149357421
 30
0.0
 10
5.2676384293
 20
7.0150559845
 30
0.0
 10
5.267950922
 20
7.0151328523
 30
0.0
 10
5.2682260623
 20
7.0151661076
 30
0.0
 10
5.2684638542
 20
7.0151549778
 30
0.0
 10
5.2686641651
 20
7.0150977183
 30
0.0
 10
5.2687728049
 20
7.0150248398
 30
0.0
 10
5.2688166941
 20
7.0149825617
 30
0.0
  0
LINE
  5
35C
100
AcDbEntity
  8
0
100
AcDbLine
 62
7
  6
CONTINUOUS
 10
5.2621326116
 20
7.0115234306
 11
5.2636752367
 21
7.0079346525
  0
SPLINE
  5
35D
100
AcDbEntity
  8
0
100
AcDbSpline
 62
7
  6
CONTINUOUS
 70
0
 71
3
 72
20
 73
16
 74
0
 42
0.0000001
 43
0.0000001
 44
0.0000000001
 40
0.0
 40
0.0
 40
0.0
 40
0.0
 40
0.1899288953
 40
0.3657469162
 40
0.524009941
 40
0.5956533113
 40
0.6619044362
 40
0.7225522692
 40
0.7774621263
 40
0.8266142532
 40
0.870133344
 40
0.9083579778
 40
0.9419397906
 40
0.9719625764
 40
1.0
 40
1.0
 40
1.0
 40
1.0
 10
5.2636752367
 20
7.0079346525
 30
0.0
 10
5.2643635251
 20
7.0078656761
 30
0.0
 10
5.2656863439
 20
7.0077036997
 30
0.0
 10
5.2675671407
 20
7.0073748192
 30
0.0
 10
5.2690058943
 20
7.0070319359
 30
0.0
 10
5.2700384334
 20
7.00671896
 30
0.0
 10
5.2707204175
 20
7.0064776959
 30
0.0
 10
5.2713322737
 20
7.00622355
 30
0.0
 10
5.2718706767
 20
7.0059578539
 30
0.0
 10
5.2723328417
 20
7.005682053
 30
0.0
 10
5.272716486
 20
7.0053973448
 30
0.0
 10
5.2730198069
 20
7.0051046627
 30
0.0
 10
5.2732410235
 20
7.0048041163
 30
0.0
 10
5.2733770912
 20
7.0044958847
 30
0.0
 10
5.2734083851
 20
7.0042834206
 30
0.0
 10
5.2734083851
 20
7.0041813062
 30
0.0
  0
SPLINE
  5
35E
100
AcDbEntity
  8
0
100
AcDbSpline
 62
7
  6
CONTINUOUS
 70
0
 71
3
 72
13
 73
9
 74
0
 42
0.0000001
 43
0.0000001
 44
0.0000000001
 40
0.0
 40
0.0
 40
0.0
 40
0.0
 40
0.2519515758
 40
0.5021935468
 40
0.626953332
 40
0.7514459893
 40
0.8757810261
 40
1.0
 40
1.0
 40
1.0
 40
1.0
 10
4.8778017834
 20
6.8383638144
 30
0.0
 10
4.8771111918
 20
6.8390292895
 30
0.0
 10
4.8758611053
 20
6.8404944062
 30
0.0
 10
4.8746945675
 20
6.8425955356
 30
0.0
 10
4.8740317077
 20
6.8443805093
 30
0.0
 10
4.8736731205
 20
6.8457592564
 30
0.0
 10
4.8734566913
 20
6.8471649975
 30
0.0
 10
4.8734083851
 20
6.848111822
 30
0.0
 10
4.8734083851
 20
6.8485846589
 30
0.0
  0
SPLINE
  5
35F
100
AcDbEntity
  8
0
100
AcDbSpline
 62
7
  6
CONTINUOUS
 70
0
 71
3
 72
13
 73
9
 74
0
 42
0.0000001
 43
0.0000001
 44
0.0000000001
 40
0.0
 40
0.0
 40
0.0
 40
0.0
 40
0.1242189739
 40
0.2485540107
 40
0.373046668
 40
0.4978064532
 40
0.7480484242
 40
1.0
 40
1.0
 40
1.0
 40
1.0
 10
4.8734083851
 20
6.8564962491
 30
0.0
 10
4.8734083851
 20
6.8560234122
 30
0.0
 10
4.8734566913
 20
6.8550765877
 30
0.0
 10
4.8736731205
 20
6.8536708466
 30
0.0
 10
4.8740317077
 20
6.8522920996
 30
0.0
 10
4.8746945675
 20
6.8505071258
 30
0.0
 10
4.8758611053
 20
6.8484059964
 30
0.0
 10
4.8771111918
 20
6.8469408797
 30
0.0
 10
4.8778017834
 20
6.8462754047
 30
0.0
  0
SPLINE
  5
360
100
AcDbEntity
  8
0
100
AcDbSpline
 62
7
  6
CONTINUOUS
 70
0
 71
3
 72
13
 73
9
 74
0
 42
0.0000001
 43
0.0000001
 44
0.0000000001
 40
0.0
 40
0.0
 40
0.0
 40
0.0
 40
0.1242189739
 40
0.2485540107
 40
0.373046668
 40
0.4978064532
 40
0.7480484242
 40
1.0
 40
1.0
 40
1.0
 40
1.0
 10
5.2734083851
 20
6.8485846589
 30
0.0
 10
5.2734083851
 20
6.848111822
 30
0.0
 10
5.2733600789
 20
6.8471649975
 30
0.0
 10
5.2731436497
 20
6.8457592564
 30
0.0
 10
5.2727850625
 20
6.8443805093
 30
0.0
 10
5.2721222027
 20
6.8425955356
 30
0.0
 10
5.2709556649
 20
6.8404944062
 30
0.0
 10
5.2697055784
 20
6.8390292895
 30
0.0
 10
5.2690149868
 20
6.8383638144
 30
0.0
  0
SPLINE
  5
361
100
AcDbEntity
  8
0
100
AcDbSpline
 62
7
  6
CONTINUOUS
 70
0
 71
3
 72
13
 73
9
 74
0
 42
0.0000001
 43
0.0000001
 44
0.0000000001
 40
0.0
 40
0.0
 40
0.0
 40
0.0
 40
0.2519515758
 40
0.5021935468
 40
0.626953332
 40
0.7514459893
 40
0.8757810261
 40
1.0
 40
1.0
 40
1.0
 40
1.0
 10
5.2690149868
 20
6.8462754047
 30
0.0
 10
5.2697055784
 20
6.8469408797
 30
0.0
 10
5.2709556649
 20
6.8484059964
 30
0.0
 10
5.2721222027
 20
6.8505071258
 30
0.0
 10
5.2727850625
 20
6.8522920996
 30
0.0
 10
5.2731436497
 20
6.8536708466
 30
0.0
 10
5.2733600789
 20
6.8550765877
 30
0.0
 10
5.2734083851
 20
6.8560234122
 30
0.0
 10
5.2734083851
 20
6.8564962491
 30
0.0
  0
SPLINE
  5
362
100
AcDbEntity
  8
0
100
AcDbSpline
 62
7
  6
CONTINUOUS
 70
0
 71
3
 72
11
 73
7
 74
0
 42
0.0000001
 43
0.0000001
 44
0.0000000001
 40
0.0
 40
0.0
 40
0.0
 40
0.0
 40
0.2479854686
 40
0.4975987994
 40
0.7484584024
 40
1.0
 40
1.0
 40
1.0
 40
1.0
 10
5.1606444958
 20
6.7339347091
 30
0.0
 10
5.159948897
 20
6.7332644089
 30
0.0
 10
5.1584164635
 20
6.732053924
 30
0.0
 10
5.1558081863
 20
6.7307128095
 30
0.0
 10
5.1529798219
 20
6.7298868222
 30
0.0
 10
5.1510177488
 20
6.7297010967
 30
0.0
 10
5.1500378941
 20
6.7297010967
 30
0.0
  0
SPLINE
  5
363
100
AcDbEntity
  8
0
100
AcDbSpline
 62
7
  6
CONTINUOUS
 70
0
 71
3
 72
31
 73
27
 74
0
 42
0.0000001
 43
0.0000001
 44
0.0000000001
 40
0.0
 40
0.0
 40
0.0
 40
0.0
 40
0.0636371886
 40
0.1272299543
 40
0.1907379087
 40
0.2541216816
 40
0.3173471003
 40
0.3803858129
 40
0.4432164209
 40
0.505825348
 40
0.5370541575
 40
0.5682263411
 40
0.5993426236
 40
0.6304042625
 40
0.6614130515
 40
0.6923713129
 40
0.7232818601
 40
0.7541479764
 40
0.7849733989
 40
0.8157622678
 40
0.8465190835
 40
0.8772486785
 40
0.9079561617
 40
0.9386468566
 40
0.9693262627
 40
1.0
 40
1.0
 40
1.0
 40
1.0
 10
5.0734083851
 20
6.6729758075
 30
0.0
 10
5.0653946313
 20
6.6729758075
 30
0.0
 10
5.0493623662
 20
6.6737343028
 30
0.0
 10
5.025550672
 20
6.6771370882
 30
0.0
 10
5.0021968483
 20
6.6827720559
 30
0.0
 10
4.9795281781
 20
6.6905854093
 30
0.0
 10
4.9577620669
 20
6.700502053
 30
0.0
 10
4.937107948
 20
6.7124273214
 30
0.0
 10
4.9177656858
 20
6.7262456732
 30
0.0
 10
4.9028781678
 20
6.739243914
 30
0.0
 10
4.8918099298
 20
6.7504456932
 30
0.0
 10
4.8839515817
 20
6.7592235319
 30
0.0
 10
4.8765498012
 20
6.7683622482
 30
0.0
 10
4.869622201
 20
6.7778400997
 30
0.0
 10
4.863185528
 20
6.7876341701
 30
0.0
 10
4.8572552548
 20
6.7977208695
 30
0.0
 10
4.8518457449
 20
6.8080759282
 30
0.0
 10
4.8469700327
 20
6.8186743885
 30
0.0
 10
4.8426398329
 20
6.8294906942
 30
0.0
 10
4.8388656386
 20
6.8404988033
 30
0.0
 10
4.8356565729
 20
6.8516721867
 30
0.0
 10
4.8330203162
 20
6.8629839064
 30
0.0
 10
4.8309632603
 20
6.8744066813
 30
0.0
 10
4.8294904149
 20
6.8859130892
 30
0.0
 10
4.8286052642
 20
6.8974749896
 30
0.0
 10
4.8284083851
 20
6.9052025622
 30
0.0
 10
4.8284083851
 20
6.9090652686
 30
0.0
  0
SPLINE
  5
364
100
AcDbEntity
  8
0
100
AcDbSpline
 62
7
  6
CONTINUOUS
 70
0
 71
3
 72
11
 73
7
 74
0
 42
0.0000001
 43
0.0000001
 44
0.0000000001
 40
0.0
 40
0.0
 40
0.0
 40
0.0
 40
0.2515415976
 40
0.5024012006
 40
0.7520145314
 40
1.0
 40
1.0
 40
1.0
 40
1.0
 10
5.1500378941
 20
6.737612687
 30
0.0
 10
5.1510177488
 20
6.737612687
 30
0.0
 10
5.1529798219
 20
6.7377984124
 30
0.0
 10
5.1558081863
 20
6.7386243998
 30
0.0
 10
5.1584164635
 20
6.7399655143
 30
0.0
 10
5.159948897
 20
6.7411759991
 30
0.0
 10
5.1606444958
 20
6.7418462994
 30
0.0
  0
SPLINE
  5
365
100
AcDbEntity
  8
0
100
AcDbSpline
 62
7
  6
CONTINUOUS
 70
0
 71
3
 72
11
 73
7
 74
0
 42
0.0000001
 43
0.0000001
 44
0.0000000001
 40
0.0
 40
0.0
 40
0.0
 40
0.0
 40
0.2515415976
 40
0.5024012006
 40
0.7520145314
 40
1.0
 40
1.0
 40
1.0
 40
1.0
 10
4.9967788761
 20
6.7297010967
 30
0.0
 10
4.9957990214
 20
6.7297010967
 30
0.0
 10
4.9938369482
 20
6.7298868222
 30
0.0
 10
4.9910085839
 20
6.7307128095
 30
0.0
 10
4.9884003067
 20
6.732053924
 30
0.0
 10
4.9868678732
 20
6.7332644089
 30
0.0
 10
4.9861722743
 20
6.7339347091
 30
0.0
  0
SPLINE
  5
366
100
AcDbEntity
  8
0
100
AcDbSpline
 62
7
  6
CONTINUOUS
 70
0
 71
3
 72
11
 73
7
 74
0
 42
0.0000001
 43
0.0000001
 44
0.0000000001
 40
0.0
 40
0.0
 40
0.0
 40
0.0
 40
0.2479854686
 40
0.4975987994
 40
0.7484584024
 40
1.0
 40
1.0
 40
1.0
 40
1.0
 10
4.9861722743
 20
6.7418462994
 30
0.0
 10
4.9868678732
 20
6.7411759991
 30
0.0
 10
4.9884003067
 20
6.7399655143
 30
0.0
 10
4.9910085839
 20
6.7386243998
 30
0.0
 10
4.9938369482
 20
6.7377984124
 30
0.0
 10
4.9957990214
 20
6.737612687
 30
0.0
 10
4.9967788761
 20
6.737612687
 30
0.0
  0
SPLINE
  5
367
100
AcDbEntity
  8
0
100
AcDbSpline
 62
7
  6
CONTINUOUS
 70
0
 71
3
 72
15
 73
11
 74
0
 42
0.0000001
 43
0.0000001
 44
0.0000000001
 40
0.0
 40
0.0
 40
0.0
 40
0.0
 40
0.1161475103
 40
0.2357877396
 40
0.358452406
 40
0.4836678108
 40
0.6109383762
 40
0.7397585867
 40
0.8696205874
 40
1.0
 40
1.0
 40
1.0
 40
1.0
 10
4.9696682606
 20
5.574768383
 30
0.0
 10
4.9736535733
 20
5.5741729556
 30
0.0
 10
4.9817578845
 20
5.5730553282
 30
0.0
 10
4.9941103633
 20
5.571610435
 30
0.0
 10
5.0068018744
 20
5.570377015
 30
0.0
 10
5.0197780839
 20
5.5693605269
 30
0.0
 10
5.0329836393
 20
5.5685651664
 30
0.0
 10
5.0463621504
 20
5.5679944637
 30
0.0
 10
5.059856254
 20
5.5676509669
 30
0.0
 10
5.0688850869
 20
5.5675740327
 30
0.0
 10
5.0734083867
 20
5.567573979
 30
0.0
  0
LINE
  5
368
100
AcDbEntity
  8
0
100
AcDbLine
 62
7
  6
CONTINUOUS
 10
5.1840996564
 20
6.287398064
 11
5.0734083851
 21
6.2873580996
  0
SPLINE
  5
369
100
AcDbEntity
  8
0
100
AcDbSpline
 62
7
  6
CONTINUOUS
 70
0
 71
3
 72
15
 73
11
 74
0
 42
0.0000001
 43
0.0000001
 44
0.0000000001
 40
0.0
 40
0.0
 40
0.0
 40
0.0
 40
0.1467561872
 40
0.2863088096
 40
0.4188875884
 40
0.5449663424
 40
0.6652128376
 40
0.7804707682
 40
0.8917198928
 40
1.0
 40
1.0
 40
1.0
 40
1.0
 10
5.1840996564
 20
6.287398064
 30
0.0
 10
5.182202804
 20
6.2895923697
 30
0.0
 10
5.178397142
 20
6.2937843798
 30
0.0
 10
5.1724871388
 20
6.2995891981
 30
0.0
 10
5.166520563
 20
6.304731257
 30
0.0
 10
5.1605004937
 20
6.3091978251
 30
0.0
 10
5.1544306193
 20
6.3129855502
 30
0.0
 10
5.1483154375
 20
6.3160999877
 30
0.0
 10
5.1421605644
 20
6.3185537437
 30
0.0
 10
5.1379888964
 20
6.3197743488
 30
0.0
 10
5.1359083851
 20
6.3202757278
 30
0.0
  0
SPLINE
  5
36A
100
AcDbEntity
  8
0
100
AcDbSpline
 62
7
  6
CONTINUOUS
 70
0
 71
3
 72
14
 73
10
 74
0
 42
0.0000001
 43
0.0000001
 44
0.0000000001
 40
0.0
 40
0.0
 40
0.0
 40
0.0
 40
0.2499486997
 40
0.3749393888
 40
0.4999317441
 40
0.6249314314
 40
0.7499411936
 40
0.874961789
 40
1.0
 40
1.0
 40
1.0
 40
1.0
 10
5.3019539507
 20
6.2871656143
 30
0.0
 10
5.2951939334
 20
6.2907369453
 30
0.0
 10
5.2848736124
 20
6.2957660723
 30
0.0
 10
5.2707855649
 20
6.3017195762
 30
0.0
 10
5.2600588211
 20
6.3057894068
 30
0.0
 10
5.2491827969
 20
6.3094432756
 30
0.0
 10
5.2381691807
 20
6.3126627636
 30
0.0
 10
5.2270328483
 20
6.3154325591
 30
0.0
 10
5.2195376774
 20
6.3169708027
 30
0.0
 10
5.2157758541
 20
6.3176612248
 30
0.0
  0
LINE
  5
36B
100
AcDbEntity
  8
0
100
AcDbLine
 62
7
  6
CONTINUOUS
 10
5.3019539507
 20
6.2871656143
 11
5.1907628001
 21
6.2872609293
  0
SPLINE
  5
36C
100
AcDbEntity
  8
0
100
AcDbSpline
 62
7
  6
CONTINUOUS
 70
0
 71
3
 72
15
 73
11
 74
0
 42
0.0000001
 43
0.0000001
 44
0.0000000001
 40
0.0
 40
0.0
 40
0.0
 40
0.0
 40
0.1456346991
 40
0.2853952316
 40
0.4191249977
 40
0.5467943243
 40
0.6684745616
 40
0.7843560058
 40
0.8947432029
 40
1.0
 40
1.0
 40
1.0
 40
1.0
 10
5.1904546456
 20
6.2875494688
 30
0.0
 10
5.1882167863
 20
6.2897316792
 30
0.0
 10
5.1837261349
 20
6.2939022275
 30
0.0
 10
5.1768078452
 20
6.2996590522
 30
0.0
 10
5.1698701369
 20
6.3047673382
 30
0.0
 10
5.1629451215
 20
6.3092107404
 30
0.0
 10
5.1560659332
 20
6.3129826643
 30
0.0
 10
5.1492657002
 20
6.3160865528
 30
0.0
 10
5.1425769468
 20
6.31853402
 30
0.0
 10
5.1381098119
 20
6.3197685646
 30
0.0
 10
5.1359083851
 20
6.3202757278
 30
0.0
  0
SPLINE
  5
36D
100
AcDbEntity
  8
0
100
AcDbSpline
 62
7
  6
CONTINUOUS
 70
0
 71
3
 72
32
 73
28
 74
0
 42
0.0000001
 43
0.0000001
 44
0.0000000001
 40
0.0
 40
0.0
 40
0.0
 40
0.0
 40
0.0148970244
 40
0.0300102227
 40
0.0455405256
 40
0.061673282
 40
0.0785728856
 40
0.0963791004
 40
0.1152068493
 40
0.1351498239
 40
0.1562825899
 40
0.1786640535
 40
0.2023388501
 40
0.2273401966
 40
0.2536915264
 40
0.2814075981
 40
0.3104965093
 40
0.3409590698
 40
0.3727913021
 40
0.4059832801
 40
0.4763817024
 40
0.5520013095
 40
0.6326351629
 40
0.7180404194
 40
0.8079418778
 40
0.9020359628
 40
1.0
 40
1.0
 40
1.0
 40
1.0
 10
4.8659278739
 20
5.6212738477
 30
0.0
 10
4.8659279368
 20
5.6206959459
 30
0.0
 10
4.8660013515
 20
5.619530497
 30
0.0
 10
4.866329661
 20
5.6177904279
 30
0.0
 10
4.8668753379
 20
5.6160555965
 30
0.0
 10
4.8676367852
 20
5.6143286077
 30
0.0
 10
4.8686123592
 20
5.6126110988
 30
0.0
 10
4.8698003737
 20
5.6109045758
 30
0.0
 10
4.8711990147
 20
5.6092103114
 30
0.0
 10
4.8728066383
 20
5.6075297382
 30
0.0
 10
4.8746214371
 20
5.6058641842
 30
0.0
 10
4.8766416405
 20
5.6042151735
 30
0.0
 10
4.8788652407
 20
5.6025841652
 30
0.0
 10
4.8812901121
 20
5.6009727306
 30
0.0
 10
4.8839139296
 20
5.5993824668
 30
0.0
 10
4.886734144
 20
5.5978149223
 30
0.0
 10
4.8897480305
 20
5.5962717727
 30
0.0
 10
4.8929525631
 20
5.5947545181
 30
0.0
 10
4.8963445332
 20
5.5932647903
 30
0.0
 10
4.9012083902
 20
5.5912780878
 30
0.0
 10
4.9077385085
 20
5.5888853535
 30
0.0
 10
4.9161131545
 20
5.5862003331
 30
0.0
 10
4.9251386941
 20
5.5836590381
 30
0.0
 10
4.9347777551
 20
5.5812721087
 30
0.0
 10
4.9449909333
 20
5.5790496859
 30
0.0
 10
4.9557365564
 20
5.5770010685
 30
0.0
 10
4.963087169
 20
5.5757802832
 30
0.0
 10
4.9668426826
 20
5.5751983731
 30
0.0
  0
SPLINE
  5
36E
100
AcDbEntity
  8
0
100
AcDbSpline
 62
7
  6
CONTINUOUS
 70
0
 71
3
 72
33
 73
29
 74
0
 42
0.0000001
 43
0.0000001
 44
0.0000000001
 40
0.0
 40
0.0
 40
0.0
 40
0.0
 40
0.0979331008
 40
0.1920607391
 40
0.2820350411
 40
0.3675448709
 40
0.4483027903
 40
0.5240540998
 40
0.559984557
 40
0.5945854689
 40
0.627837081
 40
0.6597240458
 40
0.6902347566
 40
0.7193638269
 40
0.7471107878
 40
0.7734823481
 40
0.7984923368
 40
0.8221630137
 40
0.8445268055
 40
0.8656273271
 40
0.8855224859
 40
0.9042862516
 40
0.9220127406
 40
0.9388178916
 40
0.9548423988
 40
0.9702524082
 40
0.9852365327
 40
1.0
 40
1.0
 40
1.0
 40
1.0
 10
4.9696679988
 20
5.6677793517
 30
0.0
 10
4.9658183157
 20
5.667204059
 30
0.0
 10
4.9582804524
 20
5.665993877
 30
0.0
 10
4.9472566447
 20
5.6639547804
 30
0.0
 10
4.9367719596
 20
5.6617342635
 30
0.0
 10
4.9268707119
 20
5.6593422855
 30
0.0
 10
4.9175946869
 20
5.6567892719
 30
0.0
 10
4.9102950254
 20
5.6544981899
 30
0.0
 10
4.9048042622
 20
5.6525850419
 30
0.0
 10
4.900939536
 20
5.6511421069
 30
0.0
 10
4.8972594372
 20
5.6496672595
 30
0.0
 10
4.8937679267
 20
5.6481621096
 30
0.0
 10
4.8904687676
 20
5.64662816
 30
0.0
 10
4.8873653927
 20
5.6450671432
 30
0.0
 10
4.8844610176
 20
5.6434806359
 30
0.0
 10
4.8817585576
 20
5.6418703554
 30
0.0
 10
4.8792606931
 20
5.6402379654
 30
0.0
 10
4.8769698985
 20
5.6385850999
 30
0.0
 10
4.8748883992
 20
5.6369134414
 30
0.0
 10
4.8730183321
 20
5.6352245088
 30
0.0
 10
4.8713616086
 20
5.6335198859
 30
0.0
 10
4.8699201768
 20
5.6318009241
 30
0.0
 10
4.868695715
 20
5.6300691343
 30
0.0
 10
4.8676899729
 20
5.6283259016
 30
0.0
 10
4.8669047622
 20
5.6265727431
 30
0.0
 10
4.8663419987
 20
5.6248113022
 30
0.0
 10
4.8660035116
 20
5.6230443
 30
0.0
 10
4.8659278921
 20
5.6218606338
 30
0.0
 10
4.8659278739
 20
5.6212738477
 30
0.0
  0
SPLINE
  5
36F
100
AcDbEntity
  8
0
100
AcDbSpline
 62
7
  6
CONTINUOUS
 70
0
 71
3
 72
15
 73
11
 74
0
 42
0.0000001
 43
0.0000001
 44
0.0000000001
 40
0.0
 40
0.0
 40
0.0
 40
0.0
 40
0.1303794197
 40
0.2602412349
 40
0.3890617107
 40
0.5163323822
 40
0.6415480786
 40
0.7642128786
 40
0.8838522028
 40
1.0
 40
1.0
 40
1.0
 40
1.0
 10
5.0734083835
 20
5.6749737947
 30
0.0
 10
5.0688850721
 20
5.6749737527
 30
0.0
 10
5.0598562223
 20
5.67489681
 30
0.0
 10
5.0463620846
 20
5.6745532251
 30
0.0
 10
5.0329835309
 20
5.673982589
 30
0.0
 10
5.0197779182
 20
5.6731872392
 30
0.0
 10
5.0068016574
 20
5.6721707582
 30
0.0
 10
4.9941101251
 20
5.6709373905
 30
0.0
 10
4.9817576466
 20
5.6694923682
 30
0.0
 10
4.9736533361
 20
5.6683747506
 30
0.0
 10
4.9696679988
 20
5.6677793517
 30
0.0
  0
SPLINE
  5
370
100
AcDbEntity
  8
0
100
AcDbSpline
 62
7
  6
CONTINUOUS
 70
0
 71
3
 72
15
 73
11
 74
0
 42
0.0000001
 43
0.0000001
 44
0.0000000001
 40
0.0
 40
0.0
 40
0.0
 40
0.0
 40
0.1161475103
 40
0.2357877396
 40
0.358452406
 40
0.4836678108
 40
0.6109383762
 40
0.7397585867
 40
0.8696205874
 40
1.0
 40
1.0
 40
1.0
 40
1.0
 10
5.1771485096
 20
5.6677793908
 30
0.0
 10
5.1731631969
 20
5.6683748182
 30
0.0
 10
5.1650588857
 20
5.6694924455
 30
0.0
 10
5.1527064068
 20
5.6709373387
 30
0.0
 10
5.1400148958
 20
5.6721707588
 30
0.0
 10
5.1270386862
 20
5.6731872469
 30
0.0
 10
5.1138331309
 20
5.6739826074
 30
0.0
 10
5.1004546197
 20
5.67455331
 30
0.0
 10
5.0869605162
 20
5.6748968069
 30
0.0
 10
5.0779316833
 20
5.674973741
 30
0.0
 10
5.0734083835
 20
5.6749737947
 30
0.0
  0
SPLINE
  5
371
100
AcDbEntity
  8
0
100
AcDbSpline
 62
7
  6
CONTINUOUS
 70
0
 71
3
 72
39
 73
35
 74
0
 42
0.0000001
 43
0.0000001
 44
0.0000000001
 40
0.0
 40
0.0
 40
0.0
 40
0.0
 40
0.0318234963
 40
0.0636248396
 40
0.0953837783
 40
0.1270806081
 40
0.1586982519
 40
0.1902225299
 40
0.2216427375
 40
0.2529520878
 40
0.2841480013
 40
0.3152322581
 40
0.3462109664
 40
0.3770943758
 40
0.4078965091
 40
0.4386346315
 40
0.4693285866
 40
0.5
 40
0.5306714134
 40
0.5613653685
 40
0.5921034909
 40
0.6229056242
 40
0.6537890336
 40
0.6847677419
 40
0.7158519987
 40
0.7470479122
 40
0.7783572625
 40
0.8097774701
 40
0.8413017481
 40
0.8729193919
 40
0.9046162217
 40
0.9363751604
 40
0.9681765037
 40
1.0
 40
1.0
 40
1.0
 40
1.0
 10
5.0734083851
 20
6.7007921831
 30
0.0
 10
5.0658852837
 20
6.7007921831
 30
0.0
 10
5.0508345998
 20
6.7015042389
 30
0.0
 10
5.0284807764
 20
6.7046986821
 30
0.0
 10
5.0065567725
 20
6.7099886536
 30
0.0
 10
4.9852759877
 20
6.717323623
 30
0.0
 10
4.9648424481
 20
6.72663317
 30
0.0
 10
4.9454530263
 20
6.7378281444
 30
0.0
 10
4.9272943743
 20
6.7508011245
 30
0.0
 10
4.9105414652
 20
6.7654275753
 30
0.0
 10
4.89535594
 20
6.7815670961
 30
0.0
 10
4.8818843136
 20
6.7990644861
 30
0.0
 10
4.8702567771
 20
6.8177514653
 30
0.0
 10
4.8605858221
 20
6.837448144
 30
0.0
 10
4.852964969
 20
6.8579647083
 30
0.0
 10
4.8474681377
 20
6.8791033854
 30
0.0
 10
4.8441485733
 20
6.9006602264
 30
0.0
 10
4.8430384269
 20
6.9224271874
 30
0.0
 10
4.8441485733
 20
6.9441941484
 30
0.0
 10
4.8474681377
 20
6.9657509893
 30
0.0
 10
4.852964969
 20
6.9868896664
 30
0.0
 10
4.8605858221
 20
7.0074062308
 30
0.0
 10
4.8702567771
 20
7.0271029095
 30
0.0
 10
4.8818843136
 20
7.0457898887
 30
0.0
 10
4.89535594
 20
7.0632872786
 30
0.0
 10
4.9105414652
 20
7.0794267995
 30
0.0
 10
4.9272943743
 20
7.0940532503
 30
0.0
 10
4.9454530263
 20
7.1070262303
 30
0.0
 10
4.9648424481
 20
7.1182212048
 30
0.0
 10
4.9852759877
 20
7.1275307518
 30
0.0
 10
5.0065567725
 20
7.1348657211
 30
0.0
 10
5.0284807764
 20
7.1401556927
 30
0.0
 10
5.0508345998
 20
7.1433501359
 30
0.0
 10
5.0658852837
 20
7.1440621916
 30
0.0
 10
5.0734083851
 20
7.1440621916
 30
0.0
  0
SPLINE
  5
372
100
AcDbEntity
  8
0
100
AcDbSpline
 62
7
  6
CONTINUOUS
 70
0
 71
3
 72
39
 73
35
 74
0
 42
0.0000001
 43
0.0000001
 44
0.0000000001
 40
0.0
 40
0.0
 40
0.0
 40
0.0
 40
0.0318234963
 40
0.0636248396
 40
0.0953837783
 40
0.1270806081
 40
0.1586982519
 40
0.1902225299
 40
0.2216427375
 40
0.2529520878
 40
0.2841480013
 40
0.3152322581
 40
0.3462109664
 40
0.3770943758
 40
0.4078965091
 40
0.4386346315
 40
0.4693285866
 40
0.5
 40
0.5306714134
 40
0.5613653685
 40
0.5921034909
 40
0.6229056242
 40
0.6537890336
 40
0.6847677419
 40
0.7158519987
 40
0.7470479122
 40
0.7783572625
 40
0.8097774701
 40
0.8413017481
 40
0.8729193919
 40
0.9046162217
 40
0.9363751604
 40
0.9681765037
 40
1.0
 40
1.0
 40
1.0
 40
1.0
 10
5.0734083851
 20
7.1440621916
 30
0.0
 10
5.0809314865
 20
7.1440621916
 30
0.0
 10
5.0959821704
 20
7.1433501359
 30
0.0
 10
5.1183359938
 20
7.1401556927
 30
0.0
 10
5.1402599977
 20
7.1348657211
 30
0.0
 10
5.1615407825
 20
7.1275307518
 30
0.0
 10
5.1819743221
 20
7.1182212048
 30
0.0
 10
5.2013637439
 20
7.1070262303
 30
0.0
 10
5.2195223959
 20
7.0940532503
 30
0.0
 10
5.2362753049
 20
7.0794267995
 30
0.0
 10
5.2514608302
 20
7.0632872786
 30
0.0
 10
5.2649324565
 20
7.0457898887
 30
0.0
 10
5.2765599931
 20
7.0271029095
 30
0.0
 10
5.2862309481
 20
7.0074062308
 30
0.0
 10
5.2938518012
 20
6.9868896664
 30
0.0
 10
5.2993486324
 20
6.9657509893
 30
0.0
 10
5.3026681969
 20
6.9441941484
 30
0.0
 10
5.3037783433
 20
6.9224271874
 30
0.0
 10
5.3026681969
 20
6.9006602264
 30
0.0
 10
5.2993486324
 20
6.8791033854
 30
0.0
 10
5.2938518012
 20
6.8579647083
 30
0.0
 10
5.2862309481
 20
6.837448144
 30
0.0
 10
5.2765599931
 20
6.8177514653
 30
0.0
 10
5.2649324565
 20
6.7990644861
 30
0.0
 10
5.2514608302
 20
6.7815670961
 30
0.0
 10
5.2362753049
 20
6.7654275753
 30
0.0
 10
5.2195223959
 20
6.7508011245
 30
0.0
 10
5.2013637439
 20
6.7378281444
 30
0.0
 10
5.1819743221
 20
6.72663317
 30
0.0
 10
5.1615407825
 20
6.717323623
 30
0.0
 10
5.1402599977
 20
6.7099886536
 30
0.0
 10
5.1183359938
 20
6.7046986821
 30
0.0
 10
5.0959821704
 20
6.7015042389
 30
0.0
 10
5.0809314865
 20
6.7007921831
 30
0.0
 10
5.0734083851
 20
6.7007921831
 30
0.0
  0
SPLINE
  5
373
100
AcDbEntity
  8
0
100
AcDbSpline
 62
7
  6
CONTINUOUS
 70
0
 71
3
 72
30
 73
26
 74
0
 42
0.0000001
 43
0.0000001
 44
0.0000000001
 40
0.0
 40
0.0
 40
0.0
 40
0.0
 40
0.0636085054
 40
0.1271747209
 40
0.1906603565
 40
0.2540276767
 40
0.3172438186
 40
0.3802811629
 40
0.4431184039
 40
0.505741386
 40
0.5681436673
 40
0.5992712565
 40
0.6303449462
 40
0.6613662019
 40
0.6923369662
 40
0.7232596553
 40
0.7541371479
 40
0.7849727397
 40
0.8157701232
 40
0.8465333654
 40
0.8772668515
 40
0.9079752491
 40
0.9386634779
 40
0.9693366455
 40
1.0
 40
1.0
 40
1.0
 40
1.0
 10
5.0734083851
 20
6.6823291507
 30
0.0
 10
5.0655964588
 20
6.6823291507
 30
0.0
 10
5.0499682103
 20
6.6830498824
 30
0.0
 10
5.0267451188
 20
6.6862837752
 30
0.0
 10
5.0039462936
 20
6.6916407313
 30
0.0
 10
4.981782608
 20
6.6990721694
 30
0.0
 10
4.9604559887
 20
6.7085102927
 30
0.0
 10
4.9401617086
 20
6.7198690523
 30
0.0
 10
4.9210852117
 20
6.7330452609
 30
0.0
 10
4.9034020129
 20
6.7479175552
 30
0.0
 10
4.889946819
 20
6.7616276959
 30
0.0
 10
4.8800406062
 20
6.7732979329
 30
0.0
 10
4.8730582914
 20
6.7823771147
 30
0.0
 10
4.8665347512
 20
6.7917676082
 30
0.0
 10
4.8604847485
 20
6.801448196
 30
0.0
 10
4.8549221745
 20
6.811396629
 30
0.0
 10
4.8498597269
 20
6.8215901367
 30
0.0
 10
4.8453090866
 20
6.8320054136
 30
0.0
 10
4.8412806443
 20
6.8426185932
 30
0.0
 10
4.8377835974
 20
6.8534053615
 30
0.0
 10
4.8348260398
 20
6.8643410497
 30
0.0
 10
4.8324147172
 20
6.8754005733
 30
0.0
 10
4.8305551102
 20
6.8865586964
 30
0.0
 10
4.8292515815
 20
6.8977895112
 30
0.0
 10
4.8287551524
 20
6.9053097023
 30
0.0
 10
4.828600457
 20
6.9090723701
 30
0.0
  0
SPLINE
  5
374
100
AcDbEntity
  8
0
100
AcDbSpline
 62
7
  6
CONTINUOUS
 70
0
 71
3
 72
35
 73
31
 74
0
 42
0.0000001
 43
0.0000001
 44
0.0000000001
 40
0.0
 40
0.0
 40
0.0
 40
0.0
 40
0.0979170948
 40
0.1919939393
 40
0.2819323616
 40
0.3674409766
 40
0.4482382184
 40
0.4867874043
 40
0.5240600406
 40
0.560025959
 40
0.5946568245
 40
0.6279265342
 40
0.6598117179
 40
0.6902961903
 40
0.7193826366
 40
0.7470811445
 40
0.7734061052
 40
0.7983771984
 40
0.8220206251
 40
0.8443706448
 40
0.8654714774
 40
0.8853796228
 40
0.9041666143
 40
0.9219221432
 40
0.930449263
 40
0.9387622339
 40
0.9548126271
 40
0.9702400396
 40
0.9852323276
 40
1.0
 40
1.0
 40
1.0
 40
1.0
 10
4.9282833851
 20
5.7925834551
 30
0.0
 10
4.9228996339
 20
5.7917789655
 30
0.0
 10
4.9123602758
 20
5.790084587
 30
0.0
 10
4.8969479399
 20
5.7872267375
 30
0.0
 10
4.8822888225
 20
5.7841159796
 30
0.0
 10
4.8684404687
 20
5.7807675677
 30
0.0
 10
4.8574574739
 20
5.7777465811
 30
0.0
 10
4.8491269846
 20
5.7752124925
 30
0.0
 10
4.8432162957
 20
5.7732914019
 30
0.0
 10
4.8375516644
 20
5.7713218869
 30
0.0
 10
4.8321402413
 20
5.7693058081
 30
0.0
 10
4.8269891774
 20
5.7672450551
 30
0.0
 10
4.8221053963
 20
5.7651414375
 30
0.0
 10
4.8174949325
 20
5.7629962354
 30
0.0
 10
4.8131616519
 20
5.7608124393
 30
0.0
 10
4.8091083372
 20
5.7585926698
 30
0.0
 10
4.8053375713
 20
5.7563394208
 30
0.0
 10
4.8018519198
 20
5.7540551579
 30
0.0
 10
4.7986539384
 20
5.7517423034
 30
0.0
 10
4.7957461755
 20
5.7494032139
 30
0.0
 10
4.7931312053
 20
5.7470401841
 30
0.0
 10
4.7908116048
 20
5.7446553422
 30
0.0
 10
4.7887901941
 20
5.7422509229
 30
0.0
 10
4.7873372992
 20
5.7402053679
 30
0.0
 10
4.7863346697
 20
5.7385633108
 30
0.0
 10
4.7854578524
 20
5.7369581117
 30
0.0
 10
4.7845446378
 20
5.7349384224
 30
0.0
 10
4.7837476359
 20
5.7324748863
 30
0.0
 10
4.7832663363
 20
5.7300030429
 30
0.0
 10
4.783158385
 20
5.7283466906
 30
0.0
 10
4.7831583851
 20
5.7275257081
 30
0.0
  0
SPLINE
  5
375
100
AcDbEntity
  8
0
100
AcDbSpline
 62
7
  6
CONTINUOUS
 70
0
 71
3
 72
15
 73
11
 74
0
 42
0.0000001
 43
0.0000001
 44
0.0000000001
 40
0.0
 40
0.0
 40
0.0
 40
0.0
 40
0.1303805337
 40
0.2602427399
 40
0.3890621199
 40
0.5163322328
 40
0.6415483145
 40
0.7642160705
 40
0.8838577356
 40
1.0
 40
1.0
 40
1.0
 40
1.0
 10
5.0734083834
 20
5.6936361402
 30
0.0
 10
5.068467773
 20
5.6936360987
 30
0.0
 10
5.0586059928
 20
5.6935530251
 30
0.0
 10
5.0438670005
 20
5.6931801445
 30
0.0
 10
5.0292542894
 20
5.6925588445
 30
0.0
 10
5.0148305077
 20
5.6916908825
 30
0.0
 10
5.000657183
 20
5.6905799009
 30
0.0
 10
4.9867948817
 20
5.6892307603
 30
0.0
 10
4.9733032237
 20
5.6876500672
 30
0.0
 10
4.964451598
 20
5.6864283395
 30
0.0
 10
4.9600988341
 20
5.6857780693
 30
0.0
  0
SPLINE
  5
376
100
AcDbEntity
  8
0
100
AcDbSpline
 62
7
  6
CONTINUOUS
 70
0
 71
3
 72
15
 73
11
 74
0
 42
0.0000001
 43
0.0000001
 44
0.0000000001
 40
0.0
 40
0.0
 40
0.0
 40
0.0
 40
0.1161422522
 40
0.2357839569
 40
0.3584516961
 40
0.4836677758
 40
0.6109378858
 40
0.7397572481
 40
0.8696194694
 40
1.0
 40
1.0
 40
1.0
 40
1.0
 10
5.1867176318
 20
5.6857781147
 30
0.0
 10
5.1823648847
 20
5.6864284147
 30
0.0
 10
5.1735132819
 20
5.6876501498
 30
0.0
 10
5.1600216447
 20
5.6892307088
 30
0.0
 10
5.1461593854
 20
5.6905798974
 30
0.0
 10
5.1319860991
 20
5.6916908795
 30
0.0
 10
5.117562358
 20
5.69255885
 30
0.0
 10
5.1029496898
 20
5.6931802424
 30
0.0
 10
5.0882107344
 20
5.6935530461
 30
0.0
 10
5.0783489804
 20
5.6936360908
 30
0.0
 10
5.0734083834
 20
5.6936361402
 30
0.0
  0
ENDSEC
  0
SECTION
  2
OBJECTS
  0
DICTIONARY
  5
C
100
AcDbDictionary
280
0
281
1
  3
ACAD_GROUP
350
D
  3
ACAD_MLINESTYLE
350
17
  3
ACAD_LAYOUT
350
1A
  3
ACAD_PLOTSETTINGS
350
19
  3
ACAD_PLOTSTYLENAME
350
E
  0
DICTIONARY
  5
D
102
{ACAD_REACTORS
330
C
102
}
100
AcDbDictionary
280
0
281
1
  0
ACDBDICTIONARYWDFLT
  5
E
102
{ACAD_REACTORS
330
C
102
}
100
AcDbDictionary
281
1
  3
Normal
350
F
100
AcDbDictionaryWithDefault
340
F
  0
DICTIONARY
  5
17
102
{ACAD_REACTORS
330
C
102
}
100
AcDbDictionary
280
0
281
1
  3
Standard
350
18
  0
DICTIONARY
  5
19
102
{ACAD_REACTORS
330
C
102
}
100
AcDbDictionary
281
1
  0
DICTIONARY
  5
1A
102
{ACAD_REACTORS
330
C
102
}
100
AcDbDictionary
281
1
  3
Model
350
377
  3
Layout1
350
378
  0
ACDBPLACEHOLDER
  5
F
102
{ACAD_REACTORS
330
E
102
}
  0
MLINESTYLE
  5
18
102
{ACAD_REACTORS
330
17
102
}
100
AcDbMlineStyle
  2
STANDARD
 70
0
  3

 62
256
 51
90.0
 52
90.0
 71
2
 49
0.5
 62
256
  6
BYLAYER
 49
-0.5
 62
256
  6
BYLAYER
  0
LAYOUT
  5
377
102
{ACAD_REACTORS
330
1A
102
}
100
AcDbPlotSettings
  1

  2
none_device
  4
ANSI_A_(11.00_x_8.50_Inches)
  6

 40
0.0
 41
0.0
 42
0.0
 43
0.0
 44
279.4
 45
215.9
 46
0.0
 47
0.0
 48
0.0
 49
0.0
140
0.0
141
0.0
142
1.0
143
1.0
 70
1024
 72
0
 73
0
 74
0
  7

 75
0
147
1.0
148
0.0
149
0.0
100
AcDbLayout
  1
Model
 70
0
 71
0
 10
0.0
 20
0.0
 11
11.0
 21
8.5
 12
0.0
 22
0.0
 32
0.0
 14
0.0
 24
0.0
 34
0.0
 15
0.0
 25
0.0
 35
0.0
146
0.0
 13
0.0
 23
0.0
 33
0.0
 16
1.0
 26
0.0
 36
0.0
 17
0.0
 27
1.0
 37
0.0
 76
0
330
202
345
0
346
0
  0
LAYOUT
  5
378
102
{ACAD_REACTORS
330
1A
102
}
100
AcDbPlotSettings
  1

  2
none_device
  4
ANSI_A_(11.00_x_8.50_Inches)
  6

 40
0.0
 41
0.0
 42
0.0
 43
0.0
 44
279.4
 45
215.9
 46
0.0
 47
0.0
 48
0.0
 49
0.0
140
0.0
141
0.0
142
1.0
143
1.0
 70
0
 72
0
 73
0
 74
0
  7

 75
0
147
1.0
148
0.0
149
0.0
100
AcDbLayout
  1
Layout1
 70
0
 71
1
 10
0.0
 20
0.0
 11
11.0
 21
8.5
 12
0.0
 22
0.0
 32
0.0
 14
0.0
 24
0.0
 34
0.0
 15
0.0
 25
0.0
 35
0.0
146
0.0
 13
0.0
 23
0.0
 33
0.0
 16
1.0
 26
0.0
 36
0.0
 17
0.0
 27
1.0
 37
0.0
 76
0
330
203
345
0
346
0
  0
ENDSEC
  0
EOF
