999
DXF file: 1233-1_top.dxf
999
Pro/ENGINEER 2018400 by Parametric Technology Corporation
  0
SECTION
  2
HEADER
  9
$ACADVER
  1
AC1027
  9
$DWGCODEPAGE
  3
ANSI_1252
  9
$EXTMAX
 10
11.0
 20
8.5
 30
0.0
  9
$EXTMIN
 10
0.0
 20
0.0
 30
0.0
  9
$LIMMIN
 10
0.0
 20
0.0
  9
$LIMMAX
 10
11.0
 20
8.5
  9
$VIEWCTR
 10
5.5
 20
4.25
  9
$VIEWSIZE
 40
8.5
  9
$CLAYER
  8
0
  9
$LTSCALE
 40
0.605
  9
$CELTYPE
  6
BYLAYER
  9
$DIMSCALE
 40
1.0
  9
$DIMASZ
 40
0.1
  9
$DIMEXO
 40
0.0625
  9
$DIMDLI
 40
0.418
  9
$DIMEXE
 40
0.125
  9
$DIMCEN
 40
0.099
  9
$DIMLFAC
 40
1.0
  9
$DIMBLK
  1
_FILLED
  9
$DIMALT
 70
1
  9
$DIMALTD
 70
1
  9
$DIMALTTD
 70
2
  9
$DIMALTF
 40
25.4
  9
$DIMTXT
 40
0.08
  9
$DIMTOL
 70
1
  9
$DIMLIM
 70
0
  9
$DIMTFAC
 40
1.0
  9
$DIMTP
 40
0.01
  9
$DIMTM
 40
0.01
  9
$DIMGAP
 40
0.09
  9
$DIMDSEP
 70
46
  9
$AUNITS
 70
0
  9
$PDMODE
 70
3
  9
$PDSIZE
 40
0.3125
  9
$HANDSEED
  5
381
  9
$TILEMODE
 70
1
  9
$MEASUREMENT
 70
0
  9
$INSUNITS
 70
1
  0
ENDSEC
  0
SECTION
  2
CLASSES
  0
CLASS
  1
ACDBDICTIONARYWDFLT
  2
AcDbDictionaryWithDefault
  3
AutoCAD 2000
 90
0
 91
1
280
0
281
0
  0
CLASS
  1
ACDBPLACEHOLDER
  2
AcDbPlaceHolder
  3
AutoCAD 2000
 90
0
 91
1
280
0
281
0
  0
CLASS
  1
LAYOUT
  2
AcDbLayout
  3
AutoCAD 2000
 90
0
 91
0
280
0
281
0
  0
ENDSEC
  0
SECTION
  2
TABLES
  0
TABLE
  2
VPORT
  5
8
100
AcDbSymbolTable
 70
2
  0
VPORT
  5
1F4
100
AcDbSymbolTableRecord
100
AcDbViewportTableRecord
  2
*ACTIVE
 70
0
 10
0.0
 20
0.0
 11
1.0
 21
1.0
 12
5.5
 22
4.25
 13
0.0
 23
0.0
 14
1.0
 24
1.0
 15
0.0
 25
0.0
 16
0.0
 26
0.0
 36
1.0
 17
0.0
 27
0.0
 37
0.0
 40
8.5
 41
1.2941176471
 42
50.0
 43
0.0
 44
0.0
 50
0.0
 51
0.0
 71
0
 72
100
 73
1
 74
1
 75
0
 76
0
 77
0
 78
0
  0
ENDTAB
  0
TABLE
  2
LTYPE
  5
5
100
AcDbSymbolTable
 70
6
  0
LTYPE
  5
14
100
AcDbSymbolTableRecord
100
AcDbLinetypeTableRecord
  2
BYBLOCK
 70
0
  3

 72
65
 73
0
 40
0.0
  0
LTYPE
  5
15
100
AcDbSymbolTableRecord
100
AcDbLinetypeTableRecord
  2
BYLAYER
 70
0
  3

 72
65
 73
0
 40
0.0
  0
LTYPE
  5
16
100
AcDbSymbolTableRecord
100
AcDbLinetypeTableRecord
  2
CONTINUOUS
 70
64
  3
Solid line
 72
65
 73
0
 40
0.0
  0
LTYPE
  5
1F5
100
AcDbSymbolTableRecord
100
AcDbLinetypeTableRecord
  2
CENTER
 70
64
  3
____ _ ____ _ ____ _ ____ _ ____ _ ____ _ ____
 72
65
 73
4
 40
0.6
 49
0.375
 74
0
 49
-0.075
 74
0
 49
0.075
 74
0
 49
-0.075
 74
0
  0
LTYPE
  5
1F6
100
AcDbSymbolTableRecord
100
AcDbLinetypeTableRecord
  2
HIDDEN
 70
64
  3
- - - - - - - - - - - - - - - - - - - -
 72
65
 73
2
 40
0.2
 49
0.1
 74
0
 49
-0.1
 74
0
  0
LTYPE
  5
1F7
100
AcDbSymbolTableRecord
100
AcDbLinetypeTableRecord
  2
PHANTOM
 70
64
  3
_____ _ _ _____ _ _ _____ _ _ _____
 72
65
 73
6
 40
0.8
 49
0.45
 74
0
 49
-0.05
 74
0
 49
0.1
 74
0
 49
-0.05
 74
0
 49
0.1
 74
0
 49
-0.05
 74
0
  0
LTYPE
  5
1F8
100
AcDbSymbolTableRecord
100
AcDbLinetypeTableRecord
  2
DOT
 70
64
  3
. . . . . . . . . . . . . . . . . . . .
 72
65
 73
2
 40
0.2
 49
0.1
 74
0
 49
-0.1
 74
0
  0
LTYPE
  5
1F9
100
AcDbSymbolTableRecord
100
AcDbLinetypeTableRecord
  2
DASHED
 70
64
  3
- - - - - - - - - - - - - - - - - - - -
 72
65
 73
2
 40
0.2
 49
0.1
 74
0
 49
-0.1
 74
0
  0
ENDTAB
  0
TABLE
  2
LAYER
  5
2
100
AcDbSymbolTable
 70
36
  0
LAYER
  5
10
100
AcDbSymbolTableRecord
100
AcDbLayerTableRecord
  2
0
 70
0
 62
7
  6
CONTINUOUS
370
-3
390
F
  0
LAYER
  5
1FA
100
AcDbSymbolTableRecord
100
AcDbLayerTableRecord
  2
DEFAULT_1
 70
0
 62
7
  6
CENTER
370
-3
390
F
  0
LAYER
  5
1FB
100
AcDbSymbolTableRecord
100
AcDbLayerTableRecord
  2
DEFAULT_2
 70
0
 62
8
  6
HIDDEN
370
-3
390
F
  0
LAYER
  5
1FC
100
AcDbSymbolTableRecord
100
AcDbLayerTableRecord
  2
DEFAULT_3
 70
0
 62
7
  6
PHANTOM
370
-3
390
F
  0
LAYER
  5
1FD
100
AcDbSymbolTableRecord
100
AcDbLayerTableRecord
  2
DEFAULT_COORDINATE_SYSTEM
 70
0
 62
7
  6
CONTINUOUS
370
-3
390
F
  0
LAYER
  5
1FE
100
AcDbSymbolTableRecord
100
AcDbLayerTableRecord
  2
DEFAULT_DATUM_AXES
 70
0
 62
7
  6
CONTINUOUS
370
-3
390
F
  0
LAYER
  5
1FF
100
AcDbSymbolTableRecord
100
AcDbLayerTableRecord
  2
DEFAULT_DATUM_PLANES
 70
0
 62
7
  6
CONTINUOUS
370
-3
390
F
  0
ENDTAB
  0
TABLE
  2
STYLE
  5
3
100
AcDbSymbolTable
 70
1
  0
STYLE
  5
11
100
AcDbSymbolTableRecord
100
AcDbTextStyleTableRecord
  2
STANDARD
 70
0
 40
0.0
 41
0.8
 50
0.0
 71
0
 42
0.2
  3
txt
  4

  0
STYLE
  5
200
100
AcDbSymbolTableRecord
100
AcDbTextStyleTableRecord
  2
TEXTSTYLE_1
 70
0
 40
0.0
 41
0.8
 50
0.0
 71
0
 42
0.2
  3
gdt
  4

  0
ENDTAB
  0
TABLE
  2
VIEW
  5
6
100
AcDbSymbolTable
 70
0
  0
ENDTAB
  0
TABLE
  2
UCS
  5
7
100
AcDbSymbolTable
 70
0
  0
ENDTAB
  0
TABLE
  2
APPID
  5
9
100
AcDbSymbolTable
 70
1
  0
APPID
  5
201
100
AcDbSymbolTableRecord
100
AcDbRegAppTableRecord
  2
ACAD
 70
0
  0
ENDTAB
  0
TABLE
  2
BLOCK_RECORD
  5
1
100
AcDbSymbolTable
 70
0
  0
BLOCK_RECORD
  5
202
100
AcDbSymbolTableRecord
100
AcDbBlockTableRecord
  2
*Model_Space
  0
BLOCK_RECORD
  5
203
100
AcDbSymbolTableRecord
100
AcDbBlockTableRecord
  2
*Paper_Space
  0
BLOCK_RECORD
  5
204
100
AcDbSymbolTableRecord
100
AcDbBlockTableRecord
  2
_FILLED
  0
ENDTAB
  0
TABLE
  2
DIMSTYLE
  5
A
100
AcDbSymbolTable
 70
1
100
AcDbDimStyleTable
 71
0
  0
DIMSTYLE
105
205
100
AcDbSymbolTableRecord
100
AcDbDimStyleTableRecord
  2
STANDARD
 70
0
  3

  4

 40
1.0
 41
0.1
 42
0.0625
 43
0.38
 44
0.125
 45
0.0
 46
0.0
 47
0.01
 48
0.01
140
0.08
141
0.09
142
0.0
143
25.4
144
1.0
145
0.0
146
1.0
147
0.09
 71
1.0
 72
0.0
 73
1
 74
1
 75
0
 76
0
 77
0
 78
4
 79
1
170
1
171
1
172
0
173
0
174
0
175
0
176
0
177
0
178
0
270
2
179
2
271
2
272
2
273
2
274
2
275
0
280
0
281
0
282
0
283
1
284
4
285
0
286
0
287
3
288
0
340
11
278
46
341
204
342
204
343
204
344
204
  0
ENDTAB
  0
ENDSEC
  0
SECTION
  2
BLOCKS
  0
BLOCK
  5
20
100
AcDbEntity
  8
0
100
AcDbBlockBegin
  2
*Model_Space
 70
0
 10
0.0
 20
0.0
 30
0.0
  3
*Model_Space
  1

  0
ENDBLK
  5
21
100
AcDbEntity
  8
0
100
AcDbBlockEnd
  0
BLOCK
  5
1C
100
AcDbEntity
  8
0
100
AcDbBlockBegin
  2
*Paper_Space
 70
0
 10
0.0
 20
0.0
 30
0.0
  3
*Paper_Space
  1

  0
ENDBLK
  5
1D
100
AcDbEntity
  8
0
100
AcDbBlockEnd
  0
BLOCK
  5
206
100
AcDbEntity
  8
0
100
AcDbBlockBegin
  2
_FILLED
 70
64
 10
0.0
 20
0.0
  3
_FILLED
  1

  0
SOLID
  5
207
100
AcDbEntity
  8
0
  6
BYBLOCK
 62
0
100
AcDbTrace
 10
0.0
 20
0.0
 11
-1.0
 21
0.2
 12
-1.0
 22
-0.2
 13
-1.0
 23
-0.2
  0
ENDBLK
  5
208
100
AcDbEntity
  8
0
  6
BYBLOCK
 62
0
100
AcDbBlockEnd
  0
ENDSEC
  0
SECTION
  2
ENTITIES
  0
MTEXT
  5
209
100
AcDbEntity
  8
0
100
AcDbMText
 62
2
  6
CONTINUOUS
  7
STANDARD
 71
3
 72
1
 10
5.4884704969
 20
2.0393381822
 30
0.0
 11
1.0
 21
0.0
 31
0.0
 73
2
 44
0.9
  1
SCALE  .500
 40
0.08
 41
0.704
  0
LINE
  5
20A
100
AcDbEntity
  8
0
100
AcDbLine
 62
7
  6
CONTINUOUS
 10
0.0
 20
0.0
 11
0.0
 21
8.5
  0
LINE
  5
20B
100
AcDbEntity
  8
0
100
AcDbLine
 62
7
  6
CONTINUOUS
 10
0.0
 20
0.0
 11
11.0
 21
0.0
  0
LINE
  5
20C
100
AcDbEntity
  8
0
100
AcDbLine
 62
7
  6
CONTINUOUS
 10
0.0
 20
8.5
 11
11.0
 21
8.5
  0
LINE
  5
20D
100
AcDbEntity
  8
0
100
AcDbLine
 62
7
  6
CONTINUOUS
 10
11.0
 20
0.0
 11
11.0
 21
8.5
  0
LINE
  5
20E
100
AcDbEntity
  8
0
100
AcDbLine
 62
7
  6
CONTINUOUS
 10
4.8460189816
 20
6.1383938054
 11
4.6186295781
 21
5.7445438054
  0
LINE
  5
20F
100
AcDbEntity
  8
0
100
AcDbLine
 62
7
  6
CONTINUOUS
 10
5.3570117489
 20
6.2357592408
 11
5.3007966465
 21
6.1383918272
  0
LWPOLYLINE
  5
210
100
AcDbEntity
  8
0
100
AcDbPolyline
 62
7
  6
CONTINUOUS
 90
3
 70
0
 10
5.2039011564
 20
5.9849625779
 10
5.2019400171
 20
5.9816281998
 10
5.200083123
 20
5.9784707448
  0
LINE
  5
211
100
AcDbEntity
  8
0
100
AcDbLine
 62
7
  6
CONTINUOUS
 10
5.2263469076
 20
6.0231313838
 11
5.1871459953
 21
5.9564596901
  0
LINE
  5
212
100
AcDbEntity
  8
0
100
AcDbLine
 62
7
  6
CONTINUOUS
 10
4.9158778675
 20
5.313317233
 11
4.9258416828
 21
5.3210315852
  0
LINE
  5
213
100
AcDbEntity
  8
0
100
AcDbLine
 62
7
  6
CONTINUOUS
 10
5.2388553736
 20
6.0174371332
 11
5.2000641025
 21
5.9490013561
  0
LINE
  5
214
100
AcDbEntity
  8
0
100
AcDbLine
 62
7
  6
CONTINUOUS
 10
5.2186636534
 20
5.9818085944
 11
5.2166201768
 21
5.9782031312
  0
LINE
  5
215
100
AcDbEntity
  8
0
100
AcDbLine
 62
7
  6
CONTINUOUS
 10
5.0081571082
 20
5.3379777875
 11
5.0122842556
 21
5.344132358
  0
LINE
  5
216
100
AcDbEntity
  8
0
100
AcDbLine
 62
7
  6
CONTINUOUS
 10
5.1537621206
 20
4.0258746629
 11
5.2622810592
 21
4.0548733435
  0
LINE
  5
217
100
AcDbEntity
  8
0
100
AcDbLine
 62
7
  6
CONTINUOUS
 10
5.3184083851
 20
4.1384881424
 11
5.3209083851
 21
4.1391562383
  0
LINE
  5
218
100
AcDbEntity
  8
0
100
AcDbLine
 62
7
  6
CONTINUOUS
 10
5.1537621206
 20
4.0258746629
 11
5.1539105682
 21
4.0259125894
  0
LINE
  5
219
100
AcDbEntity
  8
0
100
AcDbLine
 62
7
  6
CONTINUOUS
 10
5.2621326116
 20
4.054835417
 11
5.2622807058
 21
4.054873249
  0
LINE
  5
21A
100
AcDbEntity
  8
0
100
AcDbLine
 62
7
  6
CONTINUOUS
 10
5.0771326116
 20
4.0084618998
 11
5.2621326116
 21
4.054835417
  0
LINE
  5
21B
100
AcDbEntity
  8
0
100
AcDbLine
 62
7
  6
CONTINUOUS
 10
5.0786752367
 20
4.0094571561
 11
5.2636752367
 21
4.0558306732
  0
LINE
  5
21C
100
AcDbEntity
  8
0
100
AcDbLine
 62
7
  6
CONTINUOUS
 10
5.1537621206
 20
4.0258746629
 11
5.1533627808
 21
4.0257771856
  0
LINE
  5
21D
100
AcDbEntity
  8
0
100
AcDbLine
 62
7
  6
CONTINUOUS
 10
5.0771326116
 20
4.0084618998
 11
5.0767321509
 21
4.0083641677
  0
LINE
  5
21E
100
AcDbEntity
  8
0
100
AcDbLine
 62
7
  6
CONTINUOUS
 10
5.0767321509
 20
4.0083641677
 11
5.1537621206
 21
4.0258746629
  0
LINE
  5
21F
100
AcDbEntity
  8
0
100
AcDbLine
 62
7
  6
CONTINUOUS
 10
5.1500378941
 20
4.1271556232
 11
4.9967788761
 21
4.1271556232
  0
LINE
  5
220
100
AcDbEntity
  8
0
100
AcDbLine
 62
7
  6
CONTINUOUS
 10
5.1500378941
 20
4.1432908236
 11
4.9967788761
 21
4.1432908236
  0
LINE
  5
221
100
AcDbEntity
  8
0
100
AcDbLine
 62
7
  6
CONTINUOUS
 10
5.0700846193
 20
4.0083641677
 11
4.9930546496
 21
4.0258746629
  0
LINE
  5
222
100
AcDbEntity
  8
0
100
AcDbLine
 62
7
  6
CONTINUOUS
 10
5.0700846193
 20
4.0083641677
 11
5.0696841586
 21
4.0084618998
  0
LINE
  5
223
100
AcDbEntity
  8
0
100
AcDbLine
 62
7
  6
CONTINUOUS
 10
4.9929068824
 20
4.0259124076
 11
4.9934551103
 21
4.0257769308
  0
LINE
  5
224
100
AcDbEntity
  8
0
100
AcDbLine
 62
7
  6
CONTINUOUS
 10
5.0696841586
 20
4.0084618998
 11
4.8846841586
 21
4.054835417
  0
LINE
  5
225
100
AcDbEntity
  8
0
100
AcDbLine
 62
7
  6
CONTINUOUS
 10
5.0681415335
 20
4.0094571561
 11
4.8831415335
 21
4.0558306732
  0
LINE
  5
226
100
AcDbEntity
  8
0
100
AcDbLine
 62
7
  6
CONTINUOUS
 10
4.9930546496
 20
4.0258746629
 11
4.9929068824
 21
4.0259124076
  0
LINE
  5
227
100
AcDbEntity
  8
0
100
AcDbLine
 62
7
  6
CONTINUOUS
 10
4.8846841586
 20
4.054835417
 11
4.8845362223
 21
4.0548732068
  0
LINE
  5
228
100
AcDbEntity
  8
0
100
AcDbLine
 62
7
  6
CONTINUOUS
 10
4.884535711
 20
4.0548733435
 11
4.9930546496
 21
4.0258746629
  0
LINE
  5
229
100
AcDbEntity
  8
0
100
AcDbLine
 62
7
  6
CONTINUOUS
 10
4.8259083851
 20
4.1391562383
 11
4.8284083851
 21
4.1384881424
  0
LINE
  5
22A
100
AcDbEntity
  8
0
100
AcDbLine
 62
7
  6
CONTINUOUS
 10
5.0681415335
 20
4.0094571561
 11
4.8831415335
 21
4.0967873643
  0
LINE
  5
22B
100
AcDbEntity
  8
0
100
AcDbLine
 62
7
  6
CONTINUOUS
 10
5.0696841586
 20
4.0104524123
 11
4.8846841586
 21
4.0977826206
  0
LINE
  5
22C
100
AcDbEntity
  8
0
100
AcDbLine
 62
7
  6
CONTINUOUS
 10
4.8259083851
 20
4.1939496494
 11
4.8167583168
 21
4.2007777693
  0
LINE
  5
22D
100
AcDbEntity
  8
0
100
AcDbLine
 62
7
  6
CONTINUOUS
 10
4.826776442
 20
4.2072411682
 11
4.8176113352
 21
4.2141058215
  0
LINE
  5
22E
100
AcDbEntity
  8
0
100
AcDbLine
 62
7
  6
CONTINUOUS
 10
4.8259083851
 20
4.1391562383
 11
4.8167583168
 21
4.1515309902
  0
LWPOLYLINE
  5
22F
100
AcDbEntity
  8
0
100
AcDbPolyline
 62
7
  6
CONTINUOUS
 90
10
 70
0
 10
4.7601025536
 20
4.9569281197
 10
4.7619953004
 20
4.925187221
 10
4.7638216948
 20
4.8928279335
 10
4.7655201988
 20
4.8608873121
 10
4.7670931391
 20
4.8293623046
 10
4.7685425801
 20
4.7982557711
 10
4.7698704038
 20
4.7675768332
 10
4.7710788555
 20
4.7373297039
 10
4.7721705391
 20
4.7075132183
 10
4.7729682855
 20
4.6837634553
  0
LINE
  5
230
100
AcDbEntity
  8
0
100
AcDbLine
 62
7
  6
CONTINUOUS
 10
4.7600872076
 20
4.9572140651
 11
4.7601025536
 21
4.9569281197
  0
LINE
  5
231
100
AcDbEntity
  8
0
100
AcDbLine
 62
7
  6
CONTINUOUS
 10
4.7524865572
 20
5.2279179156
 11
4.7530480503
 21
5.2108926459
  0
LINE
  5
232
100
AcDbEntity
  8
0
100
AcDbLine
 62
7
  6
CONTINUOUS
 10
4.7530480503
 20
5.2108926459
 11
4.7535522423
 21
5.1934321452
  0
LWPOLYLINE
  5
233
100
AcDbEntity
  8
0
100
AcDbPolyline
 62
7
  6
CONTINUOUS
 90
9
 70
0
 10
4.756804782
 20
5.0408663621
 10
4.7570770905
 20
5.0306657491
 10
4.7573787834
 20
5.0203395581
 10
4.7577144118
 20
5.0099197274
 10
4.7580893817
 20
4.9994274203
 10
4.7585135245
 20
4.9887947623
 10
4.7589958897
 20
4.9780267233
 10
4.7595436824
 20
4.9671969963
 10
4.7601309109
 20
4.9569298399
  0
LINE
  5
234
100
AcDbEntity
  8
0
100
AcDbLine
 62
7
  6
CONTINUOUS
 10
4.7535522423
 20
5.1934321452
 11
4.7540053847
 21
5.1755973996
  0
LINE
  5
235
100
AcDbEntity
  8
0
100
AcDbLine
 62
7
  6
CONTINUOUS
 10
4.7563252714
 20
5.0610720172
 11
4.756804782
 21
5.0408663621
  0
LINE
  5
236
100
AcDbEntity
  8
0
100
AcDbLine
 62
7
  6
CONTINUOUS
 10
4.7540053847
 20
5.1755973996
 11
4.7544173847
 21
5.1573839759
  0
LINE
  5
237
100
AcDbEntity
  8
0
100
AcDbLine
 62
7
  6
CONTINUOUS
 10
4.7544173847
 20
5.1573839759
 11
4.7547993629
 21
5.1388064883
  0
LINE
  5
238
100
AcDbEntity
  8
0
100
AcDbLine
 62
7
  6
CONTINUOUS
 10
4.7557154268
 20
5.090803054
 11
4.7563252714
 21
5.0610720172
  0
LINE
  5
239
100
AcDbEntity
  8
0
100
AcDbLine
 62
7
  6
CONTINUOUS
 10
4.7547993629
 20
5.1388064883
 11
4.7557154268
 21
5.090803054
  0
LINE
  5
23A
100
AcDbEntity
  8
0
100
AcDbLine
 62
7
  6
CONTINUOUS
 10
4.8167583168
 20
4.2007777693
 11
4.8167583168
 21
4.1515309902
  0
LINE
  5
23B
100
AcDbEntity
  8
0
100
AcDbLine
 62
7
  6
CONTINUOUS
 10
4.8259083851
 20
4.1939496494
 11
4.8259083851
 21
4.1391562383
  0
LINE
  5
23C
100
AcDbEntity
  8
0
100
AcDbLine
 62
7
  6
CONTINUOUS
 10
4.8284083851
 20
4.132825878
 11
4.8284083851
 21
4.1665529439
  0
LINE
  5
23D
100
AcDbEntity
  8
0
100
AcDbLine
 62
7
  6
CONTINUOUS
 10
4.8176113352
 20
4.2141058215
 11
4.8167583168
 21
4.2007777693
  0
LINE
  5
23E
100
AcDbEntity
  8
0
100
AcDbLine
 62
7
  6
CONTINUOUS
 10
5.2775691936
 20
5.4033963013
 11
5.4709311861
 21
5.7383090912
  0
LINE
  5
23F
100
AcDbEntity
  8
0
100
AcDbLine
 62
7
  6
CONTINUOUS
 10
4.9930546496
 20
4.1267433746
 11
4.8846841586
 21
4.0977826206
  0
LINE
  5
240
100
AcDbEntity
  8
0
100
AcDbLine
 62
7
  6
CONTINUOUS
 10
4.9861722743
 20
4.142116739
 11
4.8778017834
 21
4.113155985
  0
LINE
  5
241
100
AcDbEntity
  8
0
100
AcDbLine
 62
7
  6
CONTINUOUS
 10
4.9861722743
 20
4.1706450118
 11
4.8778017834
 21
4.1416842578
  0
LINE
  5
242
100
AcDbEntity
  8
0
100
AcDbLine
 62
7
  6
CONTINUOUS
 10
4.9708905284
 20
4.2326944419
 11
4.8259083851
 21
4.1939496494
  0
LINE
  5
243
100
AcDbEntity
  8
0
100
AcDbLine
 62
7
  6
CONTINUOUS
 10
5.1500378941
 20
4.1718190964
 11
4.9967788761
 21
4.1718190964
  0
LINE
  5
244
100
AcDbEntity
  8
0
100
AcDbLine
 62
7
  6
CONTINUOUS
 10
5.1759262418
 20
4.2326944419
 11
4.9708905284
 21
4.2326944419
  0
LINE
  5
245
100
AcDbEntity
  8
0
100
AcDbLine
 62
7
  6
CONTINUOUS
 10
5.1655485557
 20
4.2447411272
 11
4.9812682145
 21
4.2447411272
  0
LINE
  5
246
100
AcDbEntity
  8
0
100
AcDbLine
 62
7
  6
CONTINUOUS
 10
5.2621326116
 20
4.0977826206
 11
5.1537621206
 21
4.1267433746
  0
LINE
  5
247
100
AcDbEntity
  8
0
100
AcDbLine
 62
7
  6
CONTINUOUS
 10
5.2690149868
 20
4.113155985
 11
5.1606444958
 21
4.142116739
  0
LINE
  5
248
100
AcDbEntity
  8
0
100
AcDbLine
 62
7
  6
CONTINUOUS
 10
5.2690149868
 20
4.1416842578
 11
5.1606444958
 21
4.1706450118
  0
LINE
  5
249
100
AcDbEntity
  8
0
100
AcDbLine
 62
7
  6
CONTINUOUS
 10
5.3209083851
 20
4.1939496494
 11
5.1759262418
 21
4.2326944419
  0
LINE
  5
24A
100
AcDbEntity
  8
0
100
AcDbLine
 62
7
  6
CONTINUOUS
 10
4.9708905284
 20
4.2326944419
 11
4.9570823209
 21
4.2420638997
  0
LINE
  5
24B
100
AcDbEntity
  8
0
100
AcDbLine
 62
7
  6
CONTINUOUS
 10
4.9812682145
 20
4.2447411272
 11
4.9674537778
 21
4.2541494725
  0
LINE
  5
24C
100
AcDbEntity
  8
0
100
AcDbLine
 62
7
  6
CONTINUOUS
 10
5.0696841586
 20
4.0104524123
 11
4.9930546496
 21
4.1267433746
  0
LINE
  5
24D
100
AcDbEntity
  8
0
100
AcDbLine
 62
7
  6
CONTINUOUS
 10
5.0734083851
 20
4.0108646609
 11
4.9967788761
 21
4.1271556232
  0
LINE
  5
24E
100
AcDbEntity
  8
0
100
AcDbLine
 62
7
  6
CONTINUOUS
 10
4.8892177618
 20
5.0405576247
 11
4.8893945081
 21
5.0170157217
  0
LINE
  5
24F
100
AcDbEntity
  8
0
100
AcDbLine
 62
7
  6
CONTINUOUS
 10
4.8734083851
 20
4.0693648029
 11
4.8734083851
 21
4.1388497668
  0
LINE
  5
250
100
AcDbEntity
  8
0
100
AcDbLine
 62
7
  6
CONTINUOUS
 10
4.8778017834
 20
4.113155985
 11
4.8778017834
 21
4.1416842578
  0
LINE
  5
251
100
AcDbEntity
  8
0
100
AcDbLine
 62
7
  6
CONTINUOUS
 10
4.8831415335
 20
4.0967873643
 11
4.8831415335
 21
4.0558306732
  0
LINE
  5
252
100
AcDbEntity
  8
0
100
AcDbLine
 62
7
  6
CONTINUOUS
 10
4.9271583851
 20
5.3213834586
 11
4.9271583851
 21
5.3690673572
  0
LINE
  5
253
100
AcDbEntity
  8
0
100
AcDbLine
 62
7
  6
CONTINUOUS
 10
4.8259083851
 20
4.1939496494
 11
4.826776442
 21
4.2072411682
  0
LINE
  5
254
100
AcDbEntity
  8
0
100
AcDbLine
 62
7
  6
CONTINUOUS
 10
4.9158778675
 20
5.313317233
 11
4.8176113352
 21
4.2141058215
  0
LINE
  5
255
100
AcDbEntity
  8
0
100
AcDbLine
 62
7
  6
CONTINUOUS
 10
5.3007977886
 20
5.3506938054
 11
5.300772039
 21
5.350647291
  0
LINE
  5
256
100
AcDbEntity
  8
0
100
AcDbLine
 62
7
  6
CONTINUOUS
 10
5.3007977886
 20
5.3506938054
 11
5.5281871921
 21
5.7445438054
  0
LINE
  5
257
100
AcDbEntity
  8
0
100
AcDbLine
 62
7
  6
CONTINUOUS
 10
4.9570823209
 20
4.2420638997
 11
4.826776442
 21
4.2072411682
  0
LINE
  5
258
100
AcDbEntity
  8
0
100
AcDbLine
 62
7
  6
CONTINUOUS
 10
5.3200403282
 20
4.2072411682
 11
5.1897344493
 21
4.2420638997
  0
LWPOLYLINE
  5
259
100
AcDbEntity
  8
0
100
AcDbPolyline
 62
7
  6
CONTINUOUS
 90
24
 70
0
 10
4.7418975218
 20
5.3836692886
 10
4.7423486094
 20
5.3796286884
 10
4.7429472499
 20
5.3740886941
 10
4.7435356404
 20
5.3684305325
 10
4.7441126647
 20
5.3626583654
 10
4.744677953
 20
5.3567695484
 10
4.7452317444
 20
5.3507546779
 10
4.7457733166
 20
5.3446143171
 10
4.7463019312
 20
5.3383499055
 10
4.7468176565
 20
5.3319535258
 10
4.7473197766
 20
5.3254268121
 10
4.7478077146
 20
5.3187705569
 10
4.7482816271
 20
5.3119757696
 10
4.7487409163
 20
5.3050441407
 10
4.7491850983
 20
5.2979769493
 10
4.7496143892
 20
5.2907648484
 10
4.7500284019
 20
5.2834086248
 10
4.7504267302
 20
5.2759111564
 10
4.7508095108
 20
5.2682665426
 10
4.7511767089
 20
5.2604729883
 10
4.7515280141
 20
5.2525368054
 10
4.7518632729
 20
5.244464524
 10
4.7521827254
 20
5.2362565942
 10
4.7524865572
 20
5.2279179156
  0
LINE
  5
25A
100
AcDbEntity
  8
0
100
AcDbLine
 62
7
  6
CONTINUOUS
 10
4.9861722743
 20
4.142116739
 11
4.9861722743
 21
4.1706450118
  0
LINE
  5
25B
100
AcDbEntity
  8
0
100
AcDbLine
 62
7
  6
CONTINUOUS
 10
4.9967788761
 20
4.1271556232
 11
4.9967788761
 21
4.1718190964
  0
LINE
  5
25C
100
AcDbEntity
  8
0
100
AcDbLine
 62
7
  6
CONTINUOUS
 10
5.0128296516
 20
5.344132358
 11
5.0128296516
 21
5.3919620073
  0
LINE
  5
25D
100
AcDbEntity
  8
0
100
AcDbLine
 62
7
  6
CONTINUOUS
 10
5.0734083851
 20
5.9466262681
 11
5.0734083851
 21
5.956267942
  0
LINE
  5
25E
100
AcDbEntity
  8
0
100
AcDbLine
 62
7
  6
CONTINUOUS
 10
5.0081571082
 20
5.3379777875
 11
4.9674537778
 21
4.2541494725
  0
LINE
  5
25F
100
AcDbEntity
  8
0
100
AcDbLine
 62
7
  6
CONTINUOUS
 10
5.1759262418
 20
4.2326944419
 11
5.1655485557
 21
4.2447411272
  0
LINE
  5
260
100
AcDbEntity
  8
0
100
AcDbLine
 62
7
  6
CONTINUOUS
 10
5.1897344493
 20
4.2420638997
 11
5.1793629924
 21
4.2541494725
  0
LINE
  5
261
100
AcDbEntity
  8
0
100
AcDbLine
 62
7
  6
CONTINUOUS
 10
4.7018793727
 20
5.6003509314
 11
4.7026281037
 21
5.5977307277
  0
LINE
  5
262
100
AcDbEntity
  8
0
100
AcDbLine
 62
7
  6
CONTINUOUS
 10
4.7026281037
 20
5.5977307277
 11
4.704071003
 21
5.5925613747
  0
LINE
  5
263
100
AcDbEntity
  8
0
100
AcDbLine
 62
7
  6
CONTINUOUS
 10
4.704071003
 20
5.5925613747
 11
4.7055574157
 21
5.5870697184
  0
LWPOLYLINE
  5
264
100
AcDbEntity
  8
0
100
AcDbPolyline
 62
7
  6
CONTINUOUS
 90
3
 70
0
 10
4.7055574157
 20
5.5870697184
 10
4.7070899471
 20
5.5812247641
 10
4.7075723515
 20
5.579345363
  0
LINE
  5
265
100
AcDbEntity
  8
0
100
AcDbLine
 62
7
  6
CONTINUOUS
 10
5.138659662
 20
5.3379777875
 11
5.1793629924
 21
4.2541494725
  0
LINE
  5
266
100
AcDbEntity
  8
0
100
AcDbLine
 62
7
  6
CONTINUOUS
 10
5.1339871186
 20
5.344132358
 11
5.1339871186
 21
5.3919620073
  0
LINE
  5
267
100
AcDbEntity
  8
0
100
AcDbLine
 62
7
  6
CONTINUOUS
 10
5.1500378941
 20
4.1271556232
 11
5.1500378941
 21
4.1718190964
  0
LINE
  5
268
100
AcDbEntity
  8
0
100
AcDbLine
 62
7
  6
CONTINUOUS
 10
5.1606444958
 20
4.142116739
 11
5.1606444958
 21
4.1706450118
  0
LINE
  5
269
100
AcDbEntity
  8
0
100
AcDbLine
 62
7
  6
CONTINUOUS
 10
5.4392445563
 20
5.5793459019
 11
5.4404737849
 21
5.5840972428
  0
LINE
  5
26A
100
AcDbEntity
  8
0
100
AcDbLine
 62
7
  6
CONTINUOUS
 10
5.4404737849
 20
5.5840972428
 11
5.4419683995
 21
5.5897107411
  0
LINE
  5
26B
100
AcDbEntity
  8
0
100
AcDbLine
 62
7
  6
CONTINUOUS
 10
5.4419683995
 20
5.5897107411
 11
5.4434252977
 21
5.5950153921
  0
LWPOLYLINE
  5
26C
100
AcDbEntity
  8
0
100
AcDbPolyline
 62
7
  6
CONTINUOUS
 90
3
 70
0
 10
5.4434252977
 20
5.5950153921
 10
5.4448432503
 20
5.6000246457
 10
5.4449379835
 20
5.6003519464
  0
LINE
  5
26D
100
AcDbEntity
  8
0
100
AcDbLine
 62
7
  6
CONTINUOUS
 10
4.9570823209
 20
4.2420638997
 11
4.9674537778
 21
4.2541494725
  0
LINE
  5
26E
100
AcDbEntity
  8
0
100
AcDbLine
 62
7
  6
CONTINUOUS
 10
4.9708905284
 20
4.2326944419
 11
4.9812682145
 21
4.2447411272
  0
LWPOLYLINE
  5
26F
100
AcDbEntity
  8
0
100
AcDbPolyline
 62
7
  6
CONTINUOUS
 90
39
 70
0
 10
5.1469886859
 20
5.5204770942
 10
5.1469376413
 20
5.5210203482
 10
5.1468308205
 20
5.5223968372
 10
5.1467563192
 20
5.5237663856
 10
5.1467134122
 20
5.5251275577
 10
5.1467013162
 20
5.5264792614
 10
5.1467192261
 20
5.5278207749
 10
5.1467663181
 20
5.5291510035
 10
5.1468417332
 20
5.5304688755
 10
5.146944619
 20
5.5317738144
 10
5.1470740861
 20
5.5330648929
 10
5.1472292153
 20
5.5343411898
 10
5.1474091219
 20
5.5356022242
 10
5.1476128678
 20
5.5368471972
 10
5.147839493
 20
5.5380753405
 10
5.148088096
 20
5.5392862837
 10
5.1483577064
 20
5.5404793506
 10
5.148647337
 20
5.5416538958
 10
5.1489560779
 20
5.5428096382
 10
5.149282952
 20
5.5439460588
 10
5.1496269404
 20
5.5450625639
 10
5.1499870742
 20
5.5461587842
 10
5.1503623771
 20
5.5472343553
 10
5.1507517831
 20
5.548288706
 10
5.1511541586
 20
5.5493211695
 10
5.1515685545
 20
5.5503316113
 10
5.1519938007
 20
5.551319388
 10
5.1524283352
 20
5.5522830944
 10
5.1528710874
 20
5.5532225605
 10
5.1533208534
 20
5.5541373594
 10
5.1537757195
 20
5.5550257558
 10
5.1542346045
 20
5.5558877956
 10
5.1546961611
 20
5.5567230342
 10
5.1551578927
 20
5.5575291078
 10
5.1556186491
 20
5.5583061932
 10
5.1560769977
 20
5.559053983
 10
5.15652983
 20
5.5597695937
 10
5.1569754645
 20
5.560452631
 10
5.1570763731
 20
5.5606028285
  0
LINE
  5
270
100
AcDbEntity
  8
0
100
AcDbLine
 62
7
  6
CONTINUOUS
 10
5.2309389027
 20
5.313317233
 11
5.329205435
 21
4.2141058215
  0
LINE
  5
271
100
AcDbEntity
  8
0
100
AcDbLine
 62
7
  6
CONTINUOUS
 10
5.3209083851
 20
4.1939496494
 11
5.3200403282
 21
4.2072411682
  0
LINE
  5
272
100
AcDbEntity
  8
0
100
AcDbLine
 62
7
  6
CONTINUOUS
 10
5.329205435
 20
4.2141058215
 11
5.3300584533
 21
4.2007777693
  0
LINE
  5
273
100
AcDbEntity
  8
0
100
AcDbLine
 62
7
  6
CONTINUOUS
 10
5.2196583851
 20
5.3213834586
 11
5.2196583851
 21
5.3690673572
  0
LINE
  5
274
100
AcDbEntity
  8
0
100
AcDbLine
 62
7
  6
CONTINUOUS
 10
5.2636752367
 20
4.0558306732
 11
5.2636752367
 21
4.0967873643
  0
LINE
  5
275
100
AcDbEntity
  8
0
100
AcDbLine
 62
7
  6
CONTINUOUS
 10
5.2690149868
 20
4.113155985
 11
5.2690149868
 21
4.1416842578
  0
LINE
  5
276
100
AcDbEntity
  8
0
100
AcDbLine
 62
7
  6
CONTINUOUS
 10
5.2734083851
 20
4.0693648029
 11
5.2734083851
 21
4.1388497668
  0
LINE
  5
277
100
AcDbEntity
  8
0
100
AcDbLine
 62
7
  6
CONTINUOUS
 10
5.3184083851
 20
4.132825878
 11
5.3184083851
 21
4.1665529439
  0
LINE
  5
278
100
AcDbEntity
  8
0
100
AcDbLine
 62
7
  6
CONTINUOUS
 10
5.3209083851
 20
4.1391562383
 11
5.3209083851
 21
4.1939496494
  0
LINE
  5
279
100
AcDbEntity
  8
0
100
AcDbLine
 62
7
  6
CONTINUOUS
 10
5.3300584533
 20
4.1515309902
 11
5.3300584533
 21
4.2007777693
  0
LINE
  5
27A
100
AcDbEntity
  8
0
100
AcDbLine
 62
7
  6
CONTINUOUS
 10
5.2575988195
 20
5.0405327845
 11
5.2574269823
 21
5.0170210407
  0
LINE
  5
27B
100
AcDbEntity
  8
0
100
AcDbLine
 62
7
  6
CONTINUOUS
 10
5.4038695201
 20
5.3740886923
 11
5.4049192484
 21
5.3836692886
  0
LINE
  5
27C
100
AcDbEntity
  8
0
100
AcDbLine
 62
7
  6
CONTINUOUS
 10
4.6186295781
 20
5.7445438054
 11
4.8460189816
 21
5.3506938054
  0
LINE
  5
27D
100
AcDbEntity
  8
0
100
AcDbLine
 62
7
  6
CONTINUOUS
 10
4.6758855829
 20
5.7383090941
 11
4.8692475924
 21
5.4033962824
  0
LINE
  5
27E
100
AcDbEntity
  8
0
100
AcDbLine
 62
7
  6
CONTINUOUS
 10
4.8460189816
 20
5.3506938054
 11
4.8460447329
 21
5.3506472914
  0
LINE
  5
27F
100
AcDbEntity
  8
0
100
AcDbLine
 62
7
  6
CONTINUOUS
 10
5.3907056659
 20
5.0710420923
 11
5.3920174073
 21
5.1388064866
  0
LINE
  5
280
100
AcDbEntity
  8
0
100
AcDbLine
 62
7
  6
CONTINUOUS
 10
5.3920174073
 20
5.1388064866
 11
5.3923993854
 21
5.1573839743
  0
LINE
  5
281
100
AcDbEntity
  8
0
100
AcDbLine
 62
7
  6
CONTINUOUS
 10
5.3923993854
 20
5.1573839743
 11
5.3928113855
 21
5.1755973979
  0
LINE
  5
282
100
AcDbEntity
  8
0
100
AcDbLine
 62
7
  6
CONTINUOUS
 10
5.3928113855
 20
5.1755973979
 11
5.3932645278
 21
5.1934321434
  0
LINE
  5
283
100
AcDbEntity
  8
0
100
AcDbLine
 62
7
  6
CONTINUOUS
 10
5.3932645278
 20
5.1934321434
 11
5.3937687198
 21
5.2108926441
  0
LWPOLYLINE
  5
284
100
AcDbEntity
  8
0
100
AcDbPolyline
 62
7
  6
CONTINUOUS
 90
9
 70
0
 10
5.3738484847
 20
4.6837634553
 10
5.3746462311
 20
4.7075132178
 10
5.3757379147
 20
4.7373297035
 10
5.3769463664
 20
4.7675768328
 10
5.37827419
 20
4.7982557708
 10
5.3797236311
 20
4.8293623043
 10
5.3812965714
 20
4.8608873119
 10
5.3829950754
 20
4.8928279334
 10
5.3848214698
 20
4.9251872209
  0
LWPOLYLINE
  5
285
100
AcDbEntity
  8
0
100
AcDbPolyline
 62
7
  6
CONTINUOUS
 90
23
 70
0
 10
5.3937687198
 20
5.2108926441
 10
5.3943302129
 20
5.2279179138
 10
5.3946340447
 20
5.2362565924
 10
5.3949534972
 20
5.2444645222
 10
5.395288756
 20
5.2525368036
 10
5.3956400612
 20
5.2604729865
 10
5.3960072593
 20
5.2682665408
 10
5.3963900399
 20
5.2759111545
 10
5.3967883681
 20
5.283408623
 10
5.3972023809
 20
5.2907648465
 10
5.3976316718
 20
5.2979769475
 10
5.3980758538
 20
5.3050441388
 10
5.3985351429
 20
5.3119757677
 10
5.3990090554
 20
5.3187705551
 10
5.3994969935
 20
5.3254268102
 10
5.3999991136
 20
5.3319535239
 10
5.4005148388
 20
5.3383499037
 10
5.4010434534
 20
5.3446143152
 10
5.4015850256
 20
5.3507546761
 10
5.402138817
 20
5.3567695466
 10
5.4027041053
 20
5.3626583636
 10
5.4032811296
 20
5.3684305307
 10
5.4038695201
 20
5.3740886923
  0
LINE
  5
286
100
AcDbEntity
  8
0
100
AcDbLine
 62
7
  6
CONTINUOUS
 10
5.3867295632
 20
4.9572140774
 11
5.3867142166
 21
4.9569281197
  0
LWPOLYLINE
  5
287
100
AcDbEntity
  8
0
100
AcDbPolyline
 62
7
  6
CONTINUOUS
 90
11
 70
0
 10
5.3866858737
 20
4.9569300769
 10
5.3872730877
 20
4.9671969952
 10
5.3878208804
 20
4.9780267221
 10
5.3883032456
 20
4.988794761
 10
5.3887273885
 20
4.999427419
 10
5.3891023584
 20
5.0099197261
 10
5.3894379868
 20
5.0203395567
 10
5.3897396796
 20
5.0306657477
 10
5.3900119882
 20
5.0408663607
 10
5.3902612986
 20
5.0510040567
 10
5.3907056659
 20
5.0710420923
  0
LINE
  5
288
100
AcDbEntity
  8
0
100
AcDbLine
 62
7
  6
CONTINUOUS
 10
5.3867142166
 20
4.9569281197
 11
5.3848214698
 21
4.9251872209
  0
LINE
  5
289
100
AcDbEntity
  8
0
100
AcDbLine
 62
7
  6
CONTINUOUS
 10
5.0734083851
 20
4.0108646609
 11
5.1500378941
 21
4.1271556232
  0
LINE
  5
28A
100
AcDbEntity
  8
0
100
AcDbLine
 62
7
  6
CONTINUOUS
 10
5.0771326116
 20
4.0104524123
 11
5.1537621206
 21
4.1267433746
  0
LINE
  5
28B
100
AcDbEntity
  8
0
100
AcDbLine
 62
7
  6
CONTINUOUS
 10
5.3200403282
 20
4.2072411682
 11
5.329205435
 21
4.2141058215
  0
LINE
  5
28C
100
AcDbEntity
  8
0
100
AcDbLine
 62
7
  6
CONTINUOUS
 10
5.1655485557
 20
4.2447411272
 11
5.1793629924
 21
4.2541494725
  0
LINE
  5
28D
100
AcDbEntity
  8
0
100
AcDbLine
 62
7
  6
CONTINUOUS
 10
5.1759262418
 20
4.2326944419
 11
5.1897344493
 21
4.2420638997
  0
LINE
  5
28E
100
AcDbEntity
  8
0
100
AcDbLine
 62
7
  6
CONTINUOUS
 10
5.3209083851
 20
4.1391562383
 11
5.3300584533
 21
4.1515309902
  0
LINE
  5
28F
100
AcDbEntity
  8
0
100
AcDbLine
 62
7
  6
CONTINUOUS
 10
5.3209083851
 20
4.1939496494
 11
5.3300584533
 21
4.2007777693
  0
LINE
  5
290
100
AcDbEntity
  8
0
100
AcDbLine
 62
7
  6
CONTINUOUS
 10
5.0771326116
 20
4.0104524123
 11
5.2621326116
 21
4.0977826206
  0
LINE
  5
291
100
AcDbEntity
  8
0
100
AcDbLine
 62
7
  6
CONTINUOUS
 10
5.0786752367
 20
4.0094571561
 11
5.2636752367
 21
4.0967873643
  0
LINE
  5
292
100
AcDbEntity
  8
0
100
AcDbLine
 62
7
  6
CONTINUOUS
 10
5.138659662
 20
5.3379777875
 11
5.1345325145
 21
5.344132358
  0
LWPOLYLINE
  5
293
100
AcDbEntity
  8
0
100
AcDbPolyline
 62
7
  6
CONTINUOUS
 90
37
 70
0
 10
4.9902323283
 20
5.5603734372
 10
4.990532894
 20
5.5599157059
 10
4.9909887473
 20
5.5591993695
 10
4.9914489537
 20
5.5584521596
 10
4.9919120833
 20
5.5576741732
 10
4.9923768042
 20
5.5568653386
 10
4.9928402191
 20
5.5560284436
 10
4.9933008475
 20
5.5551639985
 10
4.9937575788
 20
5.5542718503
 10
4.9942082793
 20
5.5533539331
 10
4.9946516791
 20
5.5524106376
 10
4.9950866221
 20
5.5514421491
 10
4.9955113261
 20
5.5504501637
 10
4.9959245367
 20
5.5494353756
 10
4.9963252729
 20
5.5483978698
 10
4.9967122871
 20
5.5473384603
 10
4.997084453
 20
5.5462577508
 10
4.9974407589
 20
5.5451560802
 10
4.9977801745
 20
5.5440338779
 10
4.998101634
 20
5.5428917526
 10
4.9984041214
 20
5.5417302179
 10
4.9986866842
 20
5.5405495805
 10
4.9989482942
 20
5.5393504931
 10
4.999187941
 20
5.5381336374
 10
4.9994046852
 20
5.536899404
 10
4.9995975269
 20
5.5356485754
 10
4.9997654901
 20
5.5343819548
 10
4.9999076566
 20
5.5331000272
 10
5.0000230683
 20
5.5318037258
 10
5.0001107977
 20
5.5304939921
 10
5.0001699591
 20
5.5291714103
 10
5.0001996549
 20
5.5278370691
 10
5.0001990245
 20
5.526492082
 10
5.0001672294
 20
5.525137183
 10
5.0001034501
 20
5.5237734837
 10
5.0000069246
 20
5.5224024484
 10
4.9999603901
 20
5.5218675983
  0
LINE
  5
294
100
AcDbEntity
  8
0
100
AcDbLine
 62
7
  6
CONTINUOUS
 10
4.8915006455
 20
5.0406658204
 11
4.8892177818
 21
5.0405557991
  0
LINE
  5
295
100
AcDbEntity
  8
0
100
AcDbLine
 62
7
  6
CONTINUOUS
 10
5.2575990071
 20
5.0405576247
 11
5.2553133876
 21
5.0406637534
  0
LINE
  5
296
100
AcDbEntity
  8
0
100
AcDbLine
 62
7
  6
CONTINUOUS
 10
4.9204698626
 20
6.0231313838
 11
4.9596707749
 21
5.9564596901
  0
LINE
  5
297
100
AcDbEntity
  8
0
100
AcDbLine
 62
7
  6
CONTINUOUS
 10
4.7898050213
 20
6.2357592408
 11
4.8460201166
 21
6.1383918395
  0
LWPOLYLINE
  5
298
100
AcDbEntity
  8
0
100
AcDbPolyline
 62
7
  6
CONTINUOUS
 90
3
 70
0
 10
4.9301955683
 20
5.9782051345
 10
4.9321353117
 20
5.9747819198
 10
4.933971733
 20
5.9715414247
  0
LINE
  5
299
100
AcDbEntity
  8
0
100
AcDbLine
 62
7
  6
CONTINUOUS
 10
4.9079613966
 20
6.0174371332
 11
4.9467526697
 21
5.9490013502
  0
LINE
  5
29A
100
AcDbEntity
  8
0
100
AcDbLine
 62
7
  6
CONTINUOUS
 10
5.2309389027
 20
5.313317233
 11
5.2209750874
 21
5.3210315852
  0
LINE
  5
29B
100
AcDbEntity
  8
0
100
AcDbLine
 62
7
  6
CONTINUOUS
 10
4.9158778675
 20
5.313317233
 11
5.0081571082
 21
5.3379777875
  0
LINE
  5
29C
100
AcDbEntity
  8
0
100
AcDbLine
 62
7
  6
CONTINUOUS
 10
4.9258416828
 20
5.3210315852
 11
5.0122842556
 21
5.344132358
  0
LINE
  5
29D
100
AcDbEntity
  8
0
100
AcDbLine
 62
7
  6
CONTINUOUS
 10
4.9271583851
 20
5.3690673572
 11
5.0128296516
 21
5.3919620073
  0
LINE
  5
29E
100
AcDbEntity
  8
0
100
AcDbLine
 62
7
  6
CONTINUOUS
 10
5.0081571082
 20
5.3379777875
 11
5.138659662
 21
5.3379777875
  0
LINE
  5
29F
100
AcDbEntity
  8
0
100
AcDbLine
 62
7
  6
CONTINUOUS
 10
5.0122842556
 20
5.344132358
 11
5.1345325145
 21
5.344132358
  0
LINE
  5
2A0
100
AcDbEntity
  8
0
100
AcDbLine
 62
7
  6
CONTINUOUS
 10
4.8460189816
 20
5.3506938054
 11
4.9271583851
 21
5.3506938054
  0
LINE
  5
2A1
100
AcDbEntity
  8
0
100
AcDbLine
 62
7
  6
CONTINUOUS
 10
5.2196583851
 20
5.3506938054
 11
5.3007977886
 21
5.3506938054
  0
LINE
  5
2A2
100
AcDbEntity
  8
0
100
AcDbLine
 62
7
  6
CONTINUOUS
 10
5.0128296516
 20
5.3919620073
 11
5.1339871186
 21
5.3919620073
  0
LINE
  5
2A3
100
AcDbEntity
  8
0
100
AcDbLine
 62
7
  6
CONTINUOUS
 10
4.880046361
 20
5.3971616107
 11
4.940391071
 21
5.3971616101
  0
LINE
  5
2A4
100
AcDbEntity
  8
0
100
AcDbLine
 62
7
  6
CONTINUOUS
 10
5.2064276582
 20
5.3971616074
 11
5.2667703858
 21
5.3971616068
  0
LINE
  5
2A5
100
AcDbEntity
  8
0
100
AcDbLine
 62
7
  6
CONTINUOUS
 10
5.138659662
 20
5.3379777875
 11
5.2309389027
 21
5.313317233
  0
LINE
  5
2A6
100
AcDbEntity
  8
0
100
AcDbLine
 62
7
  6
CONTINUOUS
 10
5.1345325145
 20
5.344132358
 11
5.2209750874
 21
5.3210315852
  0
LINE
  5
2A7
100
AcDbEntity
  8
0
100
AcDbLine
 62
7
  6
CONTINUOUS
 10
5.1339871186
 20
5.3919620073
 11
5.2196583851
 21
5.3690673572
  0
LINE
  5
2A8
100
AcDbEntity
  8
0
100
AcDbLine
 62
7
  6
CONTINUOUS
 10
5.1119866677
 20
5.5461778867
 11
5.111985304
 21
5.5461776215
  0
LINE
  5
2A9
100
AcDbEntity
  8
0
100
AcDbLine
 62
7
  6
CONTINUOUS
 10
5.0360112221
 20
5.545951827
 11
5.0360098869
 21
5.5459520784
  0
LINE
  5
2AA
100
AcDbEntity
  8
0
100
AcDbLine
 62
7
  6
CONTINUOUS
 10
5.5281871921
 20
5.7445438054
 11
5.3007977886
 21
6.1383938054
  0
LINE
  5
2AB
100
AcDbEntity
  8
0
100
AcDbLine
 62
7
  6
CONTINUOUS
 10
4.5062016574
 20
5.7445438054
 11
4.6186295781
 21
5.7445437661
  0
LINE
  5
2AC
100
AcDbEntity
  8
0
100
AcDbLine
 62
7
  6
CONTINUOUS
 10
5.6406151128
 20
5.7445438054
 11
5.5281790115
 21
5.7445438054
  0
LINE
  5
2AD
100
AcDbEntity
  8
0
100
AcDbLine
 62
7
  6
CONTINUOUS
 10
5.2263469076
 20
6.0231313837
 11
4.9204698626
 21
6.0231313837
  0
LINE
  5
2AE
100
AcDbEntity
  8
0
100
AcDbLine
 62
7
  6
CONTINUOUS
 10
5.3007977886
 20
6.1383938054
 11
4.8460189816
 21
6.1383938054
  0
ARC
  5
2AF
100
AcDbEntity
  8
0
100
AcDbCircle
 62
7
  6
CONTINUOUS
 10
-37.9508609952
 20
-19.1048585473
 40
49.4730083324
100
AcDbArc
 50
29.8776344116
 51
30.1411026799
  0
ARC
  5
2B0
100
AcDbEntity
  8
0
100
AcDbCircle
 62
7
  6
CONTINUOUS
 10
-34.9992992589
 20
3.401971589
 40
39.7929167123
100
AcDbArc
 50
1.8459047193
 51
2.2611573336
  0
ARC
  5
2B1
100
AcDbEntity
  8
0
100
AcDbCircle
 62
7
  6
CONTINUOUS
 10
-34.987319908
 20
3.4023761192
 40
39.7809305472
100
AcDbArc
 50
0.1823799387
 51
1.8458781505
  0
ARC
  5
2B2
100
AcDbEntity
  8
0
100
AcDbCircle
 62
7
  6
CONTINUOUS
 10
0.5106825806
 20
9.5767680016
 40
5.6572870896
100
AcDbArc
 50
317.4454958147
 51
321.0119264865
  0
ARC
  5
2B3
100
AcDbEntity
  8
0
100
AcDbCircle
 62
7
  6
CONTINUOUS
 10
5.0097467197
 20
11.1551461716
 40
5.613709862
100
AcDbArc
 50
271.4220224831
 51
271.7798023794
  0
ARC
  5
2B4
100
AcDbEntity
  8
0
100
AcDbCircle
 62
7
  6
CONTINUOUS
 10
3.8260708905
 20
5.3104243409
 40
1.301759836
100
AcDbArc
 50
27.9893794512
 51
29.1719006173
  0
ARC
  5
2B5
100
AcDbEntity
  8
0
100
AcDbCircle
 62
7
  6
CONTINUOUS
 10
3.8260720028
 20
6.1786625726
 40
1.3017585247
100
AcDbArc
 50
330.8281018625
 51
332.0106243682
  0
ARC
  5
2B6
100
AcDbEntity
  8
0
100
AcDbCircle
 62
7
  6
CONTINUOUS
 10
4.1584753916
 20
5.3836651235
 40
0.9732707072
100
AcDbArc
 50
33.3653392478
 51
34.9352831351
  0
ARC
  5
2B7
100
AcDbEntity
  8
0
100
AcDbCircle
 62
7
  6
CONTINUOUS
 10
4.1584836166
 20
6.1054168144
 40
0.9732607158
100
AcDbArc
 50
325.064713377
 51
326.6346736583
  0
ARC
  5
2B8
100
AcDbEntity
  8
0
100
AcDbCircle
 62
7
  6
CONTINUOUS
 10
4.8769774492
 20
5.7445437981
 40
0.0323131477
100
AcDbArc
 50
173.6482262085
 51
186.3517392611
  0
ARC
  5
2B9
100
AcDbEntity
  8
0
100
AcDbCircle
 62
7
  6
CONTINUOUS
 10
4.9417811482
 20
5.939827546
 40
0.0215518638
100
AcDbArc
 50
13.7307432555
 51
16.5757039544
  0
ARC
  5
2BA
100
AcDbEntity
  8
0
100
AcDbCircle
 62
7
  6
CONTINUOUS
 10
4.9418803049
 20
5.549230471
 40
0.0214485324
100
AcDbArc
 50
343.4244975203
 51
346.2831554674
  0
ARC
  5
2BB
100
AcDbEntity
  8
0
100
AcDbCircle
 62
7
  6
CONTINUOUS
 10
4.8461007267
 20
5.7445438023
 40
0.0150977299
100
AcDbArc
 50
150.3968319495
 51
209.6031474945
  0
ARC
  5
2BC
100
AcDbEntity
  8
0
100
AcDbCircle
 62
7
  6
CONTINUOUS
 10
4.9597747088
 20
5.9413633119
 40
0.0150969318
100
AcDbArc
 50
90.3944576675
 51
149.6062186367
  0
ARC
  5
2BD
100
AcDbEntity
  8
0
100
AcDbCircle
 62
7
  6
CONTINUOUS
 10
4.9597749068
 20
5.5477239492
 40
0.0150965921
100
AcDbArc
 50
210.392264871
 51
269.6047819762
  0
ARC
  5
2BE
100
AcDbEntity
  8
0
100
AcDbCircle
 62
7
  6
CONTINUOUS
 10
4.8884083851
 20
4.0693648029
 40
0.015
100
AcDbArc
 50
180.0000005631
 51
255.0400269858
  0
ARC
  5
2BF
100
AcDbEntity
  8
0
100
AcDbCircle
 62
7
  6
CONTINUOUS
 10
4.9518107506
 20
5.9378359176
 40
0.005548507
100
AcDbArc
 50
34.8863929574
 51
40.115278628
  0
ARC
  5
2C0
100
AcDbEntity
  8
0
100
AcDbCircle
 62
7
  6
CONTINUOUS
 10
-37.9441676526
 20
30.59008613
 40
49.4652817169
100
AcDbArc
 50
329.8588708615
 51
330.1223803141
  0
ARC
  5
2C1
100
AcDbEntity
  8
0
100
AcDbCircle
 62
7
  6
CONTINUOUS
 10
5.0662649368
 20
52.1600199522
 40
46.2037525624
100
AcDbArc
 50
270.0088583593
 51
270.1498679235
  0
ARC
  5
2C2
100
AcDbEntity
  8
0
100
AcDbCircle
 62
7
  6
CONTINUOUS
 10
9.6361352919
 20
9.5767689316
 40
5.6572885316
100
AcDbArc
 50
218.9880738057
 51
222.5545036875
  0
ARC
  5
2C3
100
AcDbEntity
  8
0
100
AcDbCircle
 62
7
  6
CONTINUOUS
 10
5.1366639091
 20
11.1411730029
 40
5.5997308299
100
AcDbArc
 50
268.2199106636
 51
268.5813278943
  0
ARC
  5
2C4
100
AcDbEntity
  8
0
100
AcDbCircle
 62
7
  6
CONTINUOUS
 10
5.0734083851
 20
-0.247956917
 40
3.833964167
100
AcDbArc
 50
87.3464418078
 51
92.6535581922
  0
ARC
  5
2C5
100
AcDbEntity
  8
0
100
AcDbCircle
 62
7
  6
CONTINUOUS
 10
6.3207465657
 20
6.1786635797
 40
1.3017605871
100
AcDbArc
 50
207.9893773225
 51
209.1718977584
  0
ARC
  5
2C6
100
AcDbEntity
  8
0
100
AcDbCircle
 62
7
  6
CONTINUOUS
 10
6.3207449368
 20
5.3104249617
 40
1.3017587102
100
AcDbArc
 50
150.8281025174
 51
152.0106248946
  0
ARC
  5
2C7
100
AcDbEntity
  8
0
100
AcDbCircle
 62
7
  6
CONTINUOUS
 10
5.9883414729
 20
6.1054224951
 40
0.9732707901
100
AcDbArc
 50
213.3653365763
 51
214.9352802434
  0
ARC
  5
2C8
100
AcDbEntity
  8
0
100
AcDbCircle
 62
7
  6
CONTINUOUS
 10
5.9883331266
 20
5.3836707987
 40
0.9732606921
100
AcDbArc
 50
145.0647125489
 51
146.634672899
  0
ARC
  5
2C9
100
AcDbEntity
  8
0
100
AcDbCircle
 62
7
  6
CONTINUOUS
 10
5.0734083851
 20
5.7445438054
 40
0.575
100
AcDbArc
 50
304.1307434005
 51
235.8692565998
  0
ARC
  5
2CA
100
AcDbEntity
  8
0
100
AcDbCircle
 62
7
  6
CONTINUOUS
 10
5.0734083851
 20
5.7445438054
 40
0.5691
100
AcDbArc
 50
304.5795207848
 51
235.4204792155
  0
ARC
  5
2CB
100
AcDbEntity
  8
0
100
AcDbCircle
 62
7
  6
CONTINUOUS
 10
5.073405967
 20
4.9214587967
 40
0.5050742142
100
AcDbArc
 50
89.9997256859
 51
90.3753798354
  0
ARC
  5
2CC
100
AcDbEntity
  8
0
100
AcDbCircle
 62
7
  6
CONTINUOUS
 10
5.0775553725
 20
5.8160395522
 40
0.3188288032
100
AcDbArc
 50
268.889367448
 51
269.2555584455
  0
ARC
  5
2CD
100
AcDbEntity
  8
0
100
AcDbCircle
 62
7
  6
CONTINUOUS
 10
5.0734083851
 20
5.7445438054
 40
0.2975
100
AcDbArc
 50
69.4703377671
 51
110.5296622329
  0
ARC
  5
2CE
100
AcDbEntity
  8
0
100
AcDbCircle
 62
7
  6
CONTINUOUS
 10
5.0731305492
 20
5.8083038483
 40
0.2653376494
100
AcDbArc
 50
269.5448259443
 51
270.059994575
  0
ARC
  5
2CF
100
AcDbEntity
  8
0
100
AcDbCircle
 62
7
  6
CONTINUOUS
 10
5.0734083851
 20
5.7445438054
 40
0.2020824627
100
AcDbArc
 50
281.0052471041
 51
259.3352212466
  0
CIRCLE
  5
2D0
100
AcDbEntity
  8
0
100
AcDbCircle
 62
7
  6
CONTINUOUS
 10
5.0734083851
 20
5.7445438054
 40
0.187450737
  0
ARC
  5
2D1
100
AcDbEntity
  8
0
100
AcDbCircle
 62
7
  6
CONTINUOUS
 10
5.269839343
 20
5.7445437999
 40
0.0323131201
100
AcDbArc
 50
353.6482488266
 51
6.351772093
  0
ARC
  5
2D2
100
AcDbEntity
  8
0
100
AcDbCircle
 62
7
  6
CONTINUOUS
 10
5.2050326927
 20
5.549259262
 40
0.0215488293
100
AcDbArc
 50
193.7305177376
 51
196.5758916864
  0
ARC
  5
2D3
100
AcDbEntity
  8
0
100
AcDbCircle
 62
7
  6
CONTINUOUS
 10
5.2049356264
 20
5.9398573751
 40
0.0214476624
100
AcDbArc
 50
163.4244659762
 51
166.2832329439
  0
ARC
  5
2D4
100
AcDbEntity
  8
0
100
AcDbCircle
 62
7
  6
CONTINUOUS
 10
5.3007159277
 20
5.7445438012
 40
0.0150977351
100
AcDbArc
 50
330.3970759696
 51
29.6029523131
  0
ARC
  5
2D5
100
AcDbEntity
  8
0
100
AcDbCircle
 62
7
  6
CONTINUOUS
 10
5.1870420606
 20
5.5477242979
 40
0.0150969306
100
AcDbArc
 50
270.394460649
 51
329.6062236839
  0
ARC
  5
2D6
100
AcDbEntity
  8
0
100
AcDbCircle
 62
7
  6
CONTINUOUS
 10
5.1870418657
 20
5.9413636574
 40
0.0150965964
100
AcDbArc
 50
30.3922829506
 51
89.6047907835
  0
ARC
  5
2D7
100
AcDbEntity
  8
0
100
AcDbCircle
 62
7
  6
CONTINUOUS
 10
5.0734083851
 20
4.0229912857
 40
0.015
100
AcDbArc
 50
257.1992599906
 51
282.8004876079
  0
ARC
  5
2D8
100
AcDbEntity
  8
0
100
AcDbCircle
 62
7
  6
CONTINUOUS
 10
5.1500378941
 20
4.0404040488
 40
0.015
100
AcDbArc
 50
282.8064991543
 51
284.962696201
  0
ARC
  5
2D9
100
AcDbEntity
  8
0
100
AcDbCircle
 62
7
  6
CONTINUOUS
 10
5.2584083851
 20
4.0693648029
 40
0.015
100
AcDbArc
 50
284.9605973244
 51
359.9999999992
  0
ARC
  5
2DA
100
AcDbEntity
  8
0
100
AcDbCircle
 62
7
  6
CONTINUOUS
 10
5.2594872768
 20
4.069365075
 40
0.0139211083
100
AcDbArc
 50
357.302396961
 51
359.99887983
  0
ARC
  5
2DB
100
AcDbEntity
  8
0
100
AcDbCircle
 62
7
  6
CONTINUOUS
 10
5.1950056
 20
5.5512513622
 40
0.0055479746
100
AcDbArc
 50
214.8860523424
 51
220.1154636394
  0
ARC
  5
2DC
100
AcDbEntity
  8
0
100
AcDbCircle
 62
7
  6
CONTINUOUS
 10
5.2613596647
 20
4.0575895653
 40
0.0028605559
100
AcDbArc
 50
285.6766824477
 51
288.7397974344
  0
ARC
  5
2DD
100
AcDbEntity
  8
0
100
AcDbCircle
 62
7
  6
CONTINUOUS
 10
48.0891761305
 20
-19.0999389815
 40
49.4631859193
100
AcDbArc
 50
149.8588804836
 51
150.1224011108
  0
ARC
  5
2DE
100
AcDbEntity
  8
0
100
AcDbCircle
 62
7
  6
CONTINUOUS
 10
45.1440958778
 20
3.4020440239
 40
39.7908952761
100
AcDbArc
 50
177.7388321184
 51
178.1541058283
  0
ARC
  5
2DF
100
AcDbEntity
  8
0
100
AcDbCircle
 62
7
  6
CONTINUOUS
 10
45.1341366834
 20
3.402376119
 40
39.7809305525
100
AcDbArc
 50
178.1541218493
 51
179.8176200608
  0
ARC
  5
2E0
100
AcDbEntity
  8
0
100
AcDbCircle
 62
7
  6
CONTINUOUS
 10
48.0904030547
 20
30.5897492899
 40
49.4646098169
100
AcDbArc
 50
209.8776168281
 51
210.1411298633
  0
ARC
  5
2E1
100
AcDbEntity
  8
0
100
AcDbCircle
 62
7
  6
CONTINUOUS
 10
5.0805523173
 20
52.1603655267
 40
46.2040981369
100
AcDbArc
 50
269.8501325972
 51
269.9911411069
  0
SPLINE
  5
2E2
100
AcDbEntity
  8
0
100
AcDbSpline
 62
7
  6
CONTINUOUS
 70
0
 71
3
 72
15
 73
11
 74
0
 42
0.0000001
 43
0.0000001
 44
0.0000000001
 40
0.0
 40
0.0
 40
0.0
 40
0.0
 40
0.1244352679
 40
0.2490963499
 40
0.3739638171
 40
0.4990023959
 40
0.6241680039
 40
0.7494147121
 40
0.8747016659
 40
1.0
 40
1.0
 40
1.0
 40
1.0
 10
5.2185333851
 20
2.7368449397
 30
0.0
 10
5.2130454375
 20
2.7337844345
 30
0.0
 10
5.2018545292
 20
2.7280178885
 30
0.0
 10
5.1845334962
 20
2.7204642863
 30
0.0
 10
5.1667380043
 20
2.7140169043
 30
0.0
 10
5.1485476665
 20
2.7086961208
 30
0.0
 10
5.1300409482
 20
2.7045217704
 30
0.0
 10
5.1112962484
 20
2.7015139953
 30
0.0
 10
5.0923931886
 20
2.699693017
 30
0.0
 10
5.0797356179
 20
2.6992838242
 30
0.0
 10
5.0734083851
 20
2.6992838242
 30
0.0
  0
SPLINE
  5
2E3
100
AcDbEntity
  8
0
100
AcDbSpline
 62
7
  6
CONTINUOUS
 70
0
 71
3
 72
15
 73
11
 74
0
 42
0.0000001
 43
0.0000001
 44
0.0000000001
 40
0.0
 40
0.0
 40
0.0
 40
0.0
 40
0.1252983341
 40
0.2505852879
 40
0.3758319961
 40
0.5009976041
 40
0.6260361829
 40
0.7509036501
 40
0.8755647321
 40
1.0
 40
1.0
 40
1.0
 40
1.0
 10
5.0734083851
 20
2.6992838243
 30
0.0
 10
5.0670811523
 20
2.6992838243
 30
0.0
 10
5.0544235816
 20
2.699693017
 30
0.0
 10
5.0355205218
 20
2.7015139954
 30
0.0
 10
5.016775822
 20
2.7045217705
 30
0.0
 10
4.9982691037
 20
2.7086961209
 30
0.0
 10
4.9800787659
 20
2.7140169044
 30
0.0
 10
4.962283274
 20
2.7204642863
 30
0.0
 10
4.9449622409
 20
2.7280178886
 30
0.0
 10
4.9337713327
 20
2.7337844346
 30
0.0
 10
4.9282833851
 20
2.7368449398
 30
0.0
  0
SPLINE
  5
2E4
100
AcDbEntity
  8
0
100
AcDbSpline
 62
7
  6
CONTINUOUS
 70
0
 71
3
 72
23
 73
19
 74
0
 42
0.0000001
 43
0.0000001
 44
0.0000000001
 40
0.0
 40
0.0
 40
0.0
 40
0.0
 40
0.0618611671
 40
0.1237441302
 40
0.1856708767
 40
0.24765537
 40
0.3097070207
 40
0.3718341523
 40
0.4340474495
 40
0.4963633816
 40
0.5588060959
 40
0.621395235
 40
0.684138124
 40
0.7470333024
 40
0.8100741144
 40
0.8732522528
 40
0.9365612612
 40
1.0
 40
1.0
 40
1.0
 40
1.0
 10
5.3636583851
 20
2.9796438001
 30
0.0
 10
5.3636583852
 20
2.9735284336
 30
0.0
 10
5.3632340711
 20
2.9612914591
 30
0.0
 10
5.3613461891
 20
2.943020632
 30
0.0
 10
5.3582286318
 20
2.9249060158
 30
0.0
 10
5.3539029702
 20
2.9070245849
 30
0.0
 10
5.3483906416
 20
2.8894518555
 30
0.0
 10
5.3417129411
 20
2.8722637627
 30
0.0
 10
5.3338910744
 20
2.8555362358
 30
0.0
 10
5.3249460772
 20
2.839345284
 30
0.0
 10
5.3149003927
 20
2.8237691231
 30
0.0
 10
5.3038126887
 20
2.8088647419
 30
0.0
 10
5.2917405276
 20
2.7946875227
 30
0.0
 10
5.2787414187
 20
2.7812930738
 30
0.0
 10
5.2648728148
 20
2.7687370896
 30
0.0
 10
5.2501917678
 20
2.7570752003
 30
0.0
 10
5.2347564342
 20
2.7463637996
 30
0.0
 10
5.2240105633
 20
2.7398994393
 30
0.0
 10
5.2185333851
 20
2.7368449401
 30
0.0
  0
SPLINE
  5
2E5
100
AcDbEntity
  8
0
100
AcDbSpline
 62
7
  6
CONTINUOUS
 70
0
 71
3
 72
37
 73
33
 74
0
 42
0.0000001
 43
0.0000001
 44
0.0000000001
 40
0.0
 40
0.0
 40
0.0
 40
0.0
 40
0.0114104471
 40
0.0253330359
 40
0.0413420018
 40
0.0591688348
 40
0.0786520363
 40
0.0996994215
 40
0.1222659216
 40
0.1463512144
 40
0.1589814905
 40
0.1720238436
 40
0.1854998744
 40
0.1994222689
 40
0.2286117385
 40
0.2595668962
 40
0.2921817835
 40
0.3262712396
 40
0.3615480807
 40
0.3977189976
 40
0.4345487601
 40
0.4718576978
 40
0.5473997243
 40
0.6235740938
 40
0.6998723192
 40
0.7379485271
 40
0.77592334
 40
0.8514262399
 40
0.8888795385
 40
0.9261023523
 40
0.9631138685
 40
1.0
 40
1.0
 40
1.0
 40
1.0
 10
5.3636583851
 20
2.9796438054
 30
0.0
 10
5.3636583851
 20
2.9817338457
 30
0.0
 10
5.3636527519
 20
2.9863740756
 30
0.0
 10
5.3636192518
 20
2.9939465905
 30
0.0
 10
5.3635482318
 20
3.0026941805
 30
0.0
 10
5.3634298606
 20
3.0124598794
 30
0.0
 10
5.3632544521
 20
3.0231477464
 30
0.0
 10
5.3630100512
 20
3.0347026413
 30
0.0
 10
5.3626823162
 20
3.0470987631
 30
0.0
 10
5.3623329335
 20
3.0579518461
 30
0.0
 10
5.3620005489
 20
3.067059901
 30
0.0
 10
5.3617220255
 20
3.0742253161
 30
0.0
 10
5.3614226664
 20
3.0816267634
 30
0.0
 10
5.3609933827
 20
3.0919830197
 30
0.0
 10
5.3604194231
 20
3.1055376565
 30
0.0
 10
5.3597103691
 20
3.1225135256
 30
0.0
 10
5.3589988322
 20
3.1403875852
 30
0.0
 10
5.358318749
 20
3.1590550343
 30
0.0
 10
5.3576829617
 20
3.178375759
 30
0.0
 10
5.3570927563
 20
3.1982000897
 30
0.0
 10
5.3565482943
 20
3.2183980802
 30
0.0
 10
5.3558786568
 20
3.2458067942
 30
0.0
 10
5.3551542287
 20
3.2804229234
 30
0.0
 10
5.3544557862
 20
3.3221824
 30
0.0
 10
5.3540084847
 20
3.3570822643
 30
0.0
 10
5.3537322635
 20
3.3849865725
 30
0.0
 10
5.3535106802
 20
3.4127456823
 30
0.0
 10
5.3533719357
 20
3.4403913075
 30
0.0
 10
5.3533184856
 20
3.4678994104
 30
0.0
 10
5.3533183796
 20
3.4883571346
 30
0.0
 10
5.353351864
 20
3.5087109379
 30
0.0
 10
5.3533888761
 20
3.5222466471
 30
0.0
 10
5.3534083851
 20
3.529003015
 30
0.0
  0
SPLINE
  5
2E6
100
AcDbEntity
  8
0
100
AcDbSpline
 62
7
  6
CONTINUOUS
 70
0
 71
3
 72
23
 73
19
 74
0
 42
0.0000001
 43
0.0000001
 44
0.0000000001
 40
0.0
 40
0.0
 40
0.0
 40
0.0
 40
0.0634387388
 40
0.1267477472
 40
0.1899258856
 40
0.2529666976
 40
0.315861876
 40
0.378604765
 40
0.4411939041
 40
0.5036366184
 40
0.5659525505
 40
0.6281658477
 40
0.6902929793
 40
0.75234463
 40
0.8143291233
 40
0.8762558698
 40
0.9381388329
 40
1.0
 40
1.0
 40
1.0
 40
1.0
 10
4.9282833851
 20
2.7368449401
 30
0.0
 10
4.9228062068
 20
2.7398994393
 30
0.0
 10
4.912060336
 20
2.7463637996
 30
0.0
 10
4.8966250024
 20
2.7570752003
 30
0.0
 10
4.8819439553
 20
2.7687370896
 30
0.0
 10
4.8680753515
 20
2.7812930738
 30
0.0
 10
4.8550762425
 20
2.7946875227
 30
0.0
 10
4.8430040815
 20
2.8088647419
 30
0.0
 10
4.8319163775
 20
2.8237691231
 30
0.0
 10
4.8218706929
 20
2.839345284
 30
0.0
 10
4.8129256958
 20
2.8555362358
 30
0.0
 10
4.8051038291
 20
2.8722637627
 30
0.0
 10
4.7984261285
 20
2.8894518555
 30
0.0
 10
4.7929138
 20
2.9070245849
 30
0.0
 10
4.7885881384
 20
2.9249060158
 30
0.0
 10
4.7854705811
 20
2.9430206321
 30
0.0
 10
4.7835826991
 20
2.9612914591
 30
0.0
 10
4.783158385
 20
2.9735284336
 30
0.0
 10
4.7831583851
 20
2.9796438001
 30
0.0
  0
SPLINE
  5
2E7
100
AcDbEntity
  8
0
100
AcDbSpline
 62
7
  6
CONTINUOUS
 70
0
 71
3
 72
34
 73
30
 74
0
 42
0.0000001
 43
0.0000001
 44
0.0000000001
 40
0.0
 40
0.0
 40
0.0
 40
0.0
 40
0.0053426696
 40
0.0113195897
 40
0.0250134197
 40
0.0407729941
 40
0.0583456783
 40
0.0775732242
 40
0.0983810445
 40
0.1207649451
 40
0.1447734926
 40
0.1704739331
 40
0.197946172
 40
0.2272388445
 40
0.2583333376
 40
0.29110478
 40
0.3253434006
 40
0.3607458624
 40
0.3970027375
 40
0.471247932
 40
0.5468997606
 40
0.6232368637
 40
0.6614981844
 40
0.6997441035
 40
0.7379110071
 40
0.7759381282
 40
0.8513903299
 40
0.925981823
 40
1.0
 40
1.0
 40
1.0
 40
1.0
 10
4.7831583851
 20
2.9796438054
 30
0.0
 10
4.7831583851
 20
2.9806224072
 30
0.0
 10
4.7831642161
 20
2.9826957863
 30
0.0
 10
4.7831969269
 20
2.9872773176
 30
0.0
 10
4.7832804168
 20
2.9937665081
 30
0.0
 10
4.7834419502
 20
3.0023786708
 30
0.0
 10
4.78367434
 20
3.0120031411
 30
0.0
 10
4.7839793133
 20
3.0225506706
 30
0.0
 10
4.7843539128
 20
3.0339777151
 30
0.0
 10
4.7847915113
 20
3.0462788285
 30
0.0
 10
4.7852843749
 20
3.0594746834
 30
0.0
 10
4.7858259269
 20
3.073601376
 30
0.0
 10
4.7864039739
 20
3.0886952586
 30
0.0
 10
4.7870037309
 20
3.1047770447
 30
0.0
 10
4.7876087526
 20
3.1218299282
 30
0.0
 10
4.7882057565
 20
3.1397895612
 30
0.0
 10
4.7887841658
 20
3.1585392736
 30
0.0
 10
4.7893391645
 20
3.1779283775
 30
0.0
 10
4.7900536199
 20
3.2046437611
 30
0.0
 10
4.7908764443
 20
3.2387311892
 30
0.0
 10
4.7917414487
 20
3.2801608975
 30
0.0
 10
4.7923511456
 20
3.3150032532
 30
0.0
 10
4.7927592361
 20
3.3429963649
 30
0.0
 10
4.793019891
 20
3.3639993083
 30
0.0
 10
4.7932265903
 20
3.3849599578
 30
0.0
 10
4.7934258231
 20
3.4127358867
 30
0.0
 10
4.7935431411
 20
3.4471842191
 30
0.0
 10
4.7935271526
 20
3.4882250584
 30
0.0
 10
4.7934515521
 20
3.5154453821
 30
0.0
 10
4.7934083851
 20
3.529003015
 30
0.0
  0
SPLINE
  5
2E8
100
AcDbEntity
  8
0
100
AcDbSpline
 62
7
  6
CONTINUOUS
 70
0
 71
3
 72
22
 73
18
 74
0
 42
0.0000001
 43
0.0000001
 44
0.0000000001
 40
0.0
 40
0.0
 40
0.0
 40
0.0
 40
0.0754013427
 40
0.1481361454
 40
0.2182967016
 40
0.286003096
 40
0.3514173838
 40
0.4147453436
 40
0.5361284887
 40
0.5948793541
 40
0.6528030773
 40
0.7102900521
 40
0.7676747358
 40
0.8252576568
 40
0.8832306528
 40
0.9414247986
 40
1.0
 40
1.0
 40
1.0
 40
1.0
 10
4.8733943942
 20
4.0860658486
 30
0.0
 10
4.8718028894
 20
4.0867360009
 30
0.0
 10
4.868694443
 20
4.0880966748
 30
0.0
 10
4.8641786384
 20
4.0902438756
 30
0.0
 10
4.8598958835
 20
4.0924646326
 30
0.0
 10
4.8558462898
 20
4.0947637296
 30
0.0
 10
4.8520299642
 20
4.0971497673
 30
0.0
 10
4.8473205032
 20
4.100412922
 30
0.0
 10
4.8429869999
 20
4.1039467225
 30
0.0
 10
4.8391280231
 20
4.1078038646
 30
0.0
 10
4.8365260753
 20
4.1108327031
 30
0.0
 10
4.8342066709
 20
4.1140456021
 30
0.0
 10
4.8322051781
 20
4.1174580122
 30
0.0
 10
4.830564773
 20
4.1210717456
 30
0.0
 10
4.8293423119
 20
4.1248683413
 30
0.0
 10
4.8285794334
 20
4.1288068524
 30
0.0
 10
4.8284083851
 20
4.1314843866
 30
0.0
 10
4.8284083851
 20
4.132825878
 30
0.0
  0
SPLINE
  5
2E9
100
AcDbEntity
  8
0
100
AcDbSpline
 62
7
  6
CONTINUOUS
 70
0
 71
3
 72
22
 73
18
 74
0
 42
0.0000001
 43
0.0000001
 44
0.0000000001
 40
0.0
 40
0.0
 40
0.0
 40
0.0
 40
0.0585760861
 40
0.1167689435
 40
0.1747427927
 40
0.2323260012
 40
0.289710945
 40
0.3471977385
 40
0.4051222139
 40
0.4638727894
 40
0.5852562045
 40
0.6485839716
 40
0.7139982687
 40
0.78170425
 40
0.8518646461
 40
0.9245990228
 40
1.0
 40
1.0
 40
1.0
 40
1.0
 10
5.3184083851
 20
4.132825878
 30
0.0
 10
5.3184083851
 20
4.1314843865
 30
0.0
 10
5.318237362
 20
4.1288068991
 30
0.0
 10
5.3174744528
 20
4.1248684459
 30
0.0
 10
5.3162520611
 20
4.1210718965
 30
0.0
 10
5.3146116833
 20
4.1174581797
 30
0.0
 10
5.3126102346
 20
4.1140458033
 30
0.0
 10
5.3102908662
 20
4.1108329288
 30
0.0
 10
5.3076889765
 20
4.1078041117
 30
0.0
 10
5.3038300885
 20
4.1039469745
 30
0.0
 10
5.2994966854
 20
4.1004131859
 30
0.0
 10
5.2947872725
 20
4.0971501117
 30
0.0
 10
5.290971059
 20
4.0947640492
 30
0.0
 10
5.2869215333
 20
4.0924649995
 30
0.0
 10
5.2826388854
 20
4.0902442451
 30
0.0
 10
5.2781231784
 20
4.0880970645
 30
0.0
 10
5.2750148026
 20
4.0867364026
 30
0.0
 10
5.273423334
 20
4.086066253
 30
0.0
  0
SPLINE
  5
2EA
100
AcDbEntity
  8
0
100
AcDbSpline
 62
7
  6
CONTINUOUS
 70
0
 71
3
 72
20
 73
16
 74
0
 42
0.0000001
 43
0.0000001
 44
0.0000000001
 40
0.0
 40
0.0
 40
0.0
 40
0.0
 40
0.13129827
 40
0.2619939987
 40
0.3917219897
 40
0.4560967547
 40
0.5200356063
 40
0.583450479
 40
0.6462398319
 40
0.7082720692
 40
0.7693903932
 40
0.8293866233
 40
0.8880184202
 40
0.9450428494
 40
1.0
 40
1.0
 40
1.0
 40
1.0
 10
5.1469886657
 20
5.5204773426
 30
0.0
 10
5.1475722141
 20
5.5145594419
 30
0.0
 10
5.1492557052
 20
5.5027951828
 30
0.0
 10
5.1533045589
 20
5.4855002435
 30
0.0
 10
5.1579081561
 20
5.4715066685
 30
0.0
 10
5.1622871969
 20
5.4606678746
 30
0.0
 10
5.1658920051
 20
5.4527646987
 30
0.0
 10
5.1698082855
 20
5.4450918872
 30
0.0
 10
5.1740160999
 20
5.4376741103
 30
0.0
 10
5.1784903223
 20
5.4305364277
 30
0.0
 10
5.1832028484
 20
5.4237069811
 30
0.0
 10
5.1881173009
 20
5.4172135994
 30
0.0
 10
5.1931935906
 20
5.4110848511
 30
0.0
 10
5.1983802479
 20
5.4053538324
 30
0.0
 10
5.2019449561
 20
5.401743503
 30
0.0
 10
5.2037326392
 20
5.4000115756
 30
0.0
  0
SPLINE
  5
2EB
100
AcDbEntity
  8
0
100
AcDbSpline
 62
7
  6
CONTINUOUS
 70
0
 71
3
 72
19
 73
15
 74
0
 42
0.0000001
 43
0.0000001
 44
0.0000000001
 40
0.0
 40
0.0
 40
0.0
 40
0.0
 40
0.1119352899
 40
0.1705844169
 40
0.2305928507
 40
0.3537264891
 40
0.4799216469
 40
0.5438695618
 40
0.608249722
 40
0.7379795459
 40
0.803243251
 40
0.8686961734
 40
0.9342950631
 40
1.0
 40
1.0
 40
1.0
 40
1.0
 10
4.943084131
 20
5.4000115756
 30
0.0
 10
4.9467625545
 20
5.4035752734
 30
0.0
 10
4.9521247783
 20
5.4092649479
 30
0.0
 10
4.9588478712
 20
5.4173993336
 30
0.0
 10
4.9655133854
 20
5.426233311
 30
0.0
 10
4.9732728939
 20
5.438094077
 30
0.0
 10
4.9800360485
 20
5.4507548733
 30
0.0
 10
4.9848316299
 20
5.4613710872
 30
0.0
 10
4.9892112088
 20
5.4723395728
 30
0.0
 10
4.9928722648
 20
5.4836480169
 30
0.0
 10
4.9957827647
 20
5.4952068368
 30
0.0
 10
4.9975881795
 20
5.50400919
 30
0.0
 10
4.9990047039
 20
5.512902437
 30
0.0
 10
4.9996858699
 20
5.5188738572
 30
0.0
 10
4.9999603683
 20
5.5218676264
 30
0.0
  0
SPLINE
  5
2EC
100
AcDbEntity
  8
0
100
AcDbSpline
 62
7
  6
CONTINUOUS
 70
0
 71
3
 72
18
 73
14
 74
0
 42
0.0000001
 43
0.0000001
 44
0.0000000001
 40
0.0
 40
0.0
 40
0.0
 40
0.0
 40
0.1311534767
 40
0.2621909103
 40
0.392016519
 40
0.5196632512
 40
0.6444079825
 40
0.7056273873
 40
0.7660212115
 40
0.8255431322
 40
0.8841865908
 40
0.9422266601
 40
1.0
 40
1.0
 40
1.0
 40
1.0
 10
5.215151077
 20
5.3702730992
 30
0.0
 10
5.2153214082
 20
5.3717068855
 30
0.0
 10
5.2154735413
 20
5.3745992845
 30
0.0
 10
5.2151280453
 20
5.3789131564
 30
0.0
 10
5.2142316636
 20
5.3831076392
 30
0.0
 10
5.2128371669
 20
5.3870887592
 30
0.0
 10
5.2113114798
 20
5.3901951732
 30
0.0
 10
5.2099150881
 20
5.3925214607
 30
0.0
 10
5.2087988258
 20
5.3941750131
 30
0.0
 10
5.2076179695
 20
5.3957475262
 30
0.0
 10
5.2063799491
 20
5.3972418824
 30
0.0
 10
5.2050875329
 20
5.3986634019
 30
0.0
 10
5.2041894451
 20
5.3995690169
 30
0.0
 10
5.2037326392
 20
5.4000115756
 30
0.0
  0
SPLINE
  5
2ED
100
AcDbEntity
  8
0
100
AcDbSpline
 62
7
  6
CONTINUOUS
 70
0
 71
3
 72
18
 73
14
 74
0
 42
0.0000001
 43
0.0000001
 44
0.0000000001
 40
0.0
 40
0.0
 40
0.0
 40
0.0
 40
0.0577644386
 40
0.1157999246
 40
0.1744500348
 40
0.2339803499
 40
0.2943756034
 40
0.3555923378
 40
0.4803339044
 40
0.6079805171
 40
0.7378055151
 40
0.868844263
 40
1.0
 40
1.0
 40
1.0
 40
1.0
 10
4.943084131
 20
5.4000115756
 30
0.0
 10
4.9426273921
 20
5.3995690819
 30
0.0
 10
4.9417294085
 20
5.3986635588
 30
0.0
 10
4.9404370575
 20
5.397242063
 30
0.0
 10
4.9391989327
 20
5.3957476265
 30
0.0
 10
4.9380178921
 20
5.3941750066
 30
0.0
 10
4.9369015665
 20
5.3925213819
 30
0.0
 10
4.9355052615
 20
5.3901950748
 30
0.0
 10
4.9339796228
 20
5.3870886876
 30
0.0
 10
4.9325850733
 20
5.3831075982
 30
0.0
 10
4.9316886948
 20
5.3789130731
 30
0.0
 10
4.9313431921
 20
5.3745991398
 30
0.0
 10
4.9314953139
 20
5.3717066755
 30
0.0
 10
4.9316656822
 20
5.3702728578
 30
0.0
  0
SPLINE
  5
2EE
100
AcDbEntity
  8
0
100
AcDbSpline
 62
7
  6
CONTINUOUS
 70
0
 71
3
 72
14
 73
10
 74
0
 42
0.0000001
 43
0.0000001
 44
0.0000000001
 40
0.0
 40
0.0
 40
0.0
 40
0.0
 40
0.1221239109
 40
0.2454664459
 40
0.3698411029
 40
0.4950509075
 40
0.6208897539
 40
0.7471435564
 40
1.0
 40
1.0
 40
1.0
 40
1.0
 10
4.7075723515
 20
5.579345363
 30
0.0
 10
4.7095748899
 20
5.5715036843
 30
0.0
 10
4.7134159672
 20
5.5556945708
 30
0.0
 10
4.7186917009
 20
5.53175752
 30
0.0
 10
4.7235334748
 20
5.5075204515
 30
0.0
 10
4.7279616481
 20
5.4830365508
 30
0.0
 10
4.7319966792
 20
5.4583587015
 30
0.0
 10
4.73688171
 20
5.4252524638
 30
0.0
 10
4.7400130569
 20
5.4003201688
 30
0.0
 10
4.7418975218
 20
5.3836692886
 30
0.0
  0
SPLINE
  5
2EF
100
AcDbEntity
  8
0
100
AcDbSpline
 62
7
  6
CONTINUOUS
 70
0
 71
3
 72
14
 73
10
 74
0
 42
0.0000001
 43
0.0000001
 44
0.0000000001
 40
0.0
 40
0.0
 40
0.0
 40
0.0
 40
0.252856464
 40
0.3791102745
 40
0.5049491259
 40
0.6301589312
 40
0.7545335835
 40
0.8778761074
 40
1.0
 40
1.0
 40
1.0
 40
1.0
 10
5.4049192484
 20
5.3836692886
 30
0.0
 10
5.4068037187
 20
5.4003202167
 30
0.0
 10
5.4099350755
 20
5.4252525832
 30
0.0
 10
5.4148201238
 20
5.4583589152
 30
0.0
 10
5.4188551703
 20
5.4830368339
 30
0.0
 10
5.4232833616
 20
5.507520802
 30
0.0
 10
5.4281251561
 20
5.531757936
 30
0.0
 10
5.4334009133
 20
5.5556950496
 30
0.0
 10
5.4372420084
 20
5.5715042035
 30
0.0
 10
5.4392445563
 20
5.5793459019
 30
0.0
  0
SPLINE
  5
2F0
100
AcDbEntity
  8
0
100
AcDbSpline
 62
7
  6
CONTINUOUS
 70
0
 71
3
 72
10
 73
6
 74
0
 42
0.0000001
 43
0.0000001
 44
0.0000000001
 40
0.0
 40
0.0
 40
0.0
 40
0.0
 40
0.2531204183
 40
0.5043244766
 40
1.0
 40
1.0
 40
1.0
 40
1.0
 10
5.468782314
 20
5.7507941946
 30
0.0
 10
5.4692040796
 20
5.7503348951
 30
0.0
 10
5.4700073482
 20
5.7493842036
 30
0.0
 10
5.471421472
 20
5.7473653555
 30
0.0
 10
5.4722487052
 20
5.7456983048
 30
0.0
 10
5.4726465193
 20
5.7445438054
 30
0.0
  0
SPLINE
  5
2F1
100
AcDbEntity
  8
0
100
AcDbSpline
 62
7
  6
CONTINUOUS
 70
0
 71
3
 72
13
 73
9
 74
0
 42
0.0000001
 43
0.0000001
 44
0.0000000001
 40
0.0
 40
0.0
 40
0.0
 40
0.0
 40
0.2546491392
 40
0.5071467465
 40
0.632196799
 40
0.7560835424
 40
0.8787052539
 40
1.0
 40
1.0
 40
1.0
 40
1.0
 10
5.2263469076
 20
6.0231313837
 30
0.0
 10
5.2275509042
 20
6.0231313827
 30
0.0
 10
5.2299558522
 20
6.0228812469
 30
0.0
 10
5.2328208988
 20
6.0219477042
 30
0.0
 10
5.2349278884
 20
6.02085159
 30
0.0
 10
5.2363887572
 20
6.0198686773
 30
0.0
 10
5.2377123398
 20
6.0187349084
 30
0.0
 10
5.2384945101
 20
6.0178828376
 30
0.0
 10
5.2388553817
 20
6.0174371233
 30
0.0
  0
SPLINE
  5
2F2
100
AcDbEntity
  8
0
100
AcDbSpline
 62
7
  6
CONTINUOUS
 70
0
 71
3
 72
13
 73
9
 74
0
 42
0.0000001
 43
0.0000001
 44
0.0000000001
 40
0.0
 40
0.0
 40
0.0
 40
0.0
 40
0.1212947492
 40
0.2439164633
 40
0.3678032033
 40
0.4928532577
 40
0.7453508833
 40
1.0
 40
1.0
 40
1.0
 40
1.0
 10
4.9079613881
 20
6.0174371229
 30
0.0
 10
4.9083222596
 20
6.0178828375
 30
0.0
 10
4.9091044299
 20
6.0187349088
 30
0.0
 10
4.910428012
 20
6.0198686788
 30
0.0
 10
4.9118888806
 20
6.020851593
 30
0.0
 10
4.9139958699
 20
6.0219477086
 30
0.0
 10
4.9168609152
 20
6.0228812622
 30
0.0
 10
4.9192658657
 20
6.0231313816
 30
0.0
 10
4.9204698626
 20
6.0231313837
 30
0.0
  0
SPLINE
  5
2F3
100
AcDbEntity
  8
0
100
AcDbSpline
 62
7
  6
CONTINUOUS
 70
0
 71
3
 72
10
 73
6
 74
0
 42
0.0000001
 43
0.0000001
 44
0.0000000001
 40
0.0
 40
0.0
 40
0.0
 40
0.0
 40
0.495675879
 40
0.7468801739
 40
1.0
 40
1.0
 40
1.0
 40
1.0
 10
4.674170211
 20
5.7445438054
 30
0.0
 10
4.6745680479
 20
5.7456983011
 30
0.0
 10
4.6753953464
 20
5.7473653247
 30
0.0
 10
4.6768094608
 20
5.749384181
 30
0.0
 10
4.6776126901
 20
5.7503349106
 30
0.0
 10
4.678034463
 20
5.7507942036
 30
0.0
  0
SPLINE
  5
2F4
100
AcDbEntity
  8
0
100
AcDbSpline
 62
7
  6
CONTINUOUS
 70
0
 71
3
 72
11
 73
7
 74
0
 42
0.0000001
 43
0.0000001
 44
0.0000000001
 40
0.0
 40
0.0
 40
0.0
 40
0.0
 40
0.2500119782
 40
0.5000209768
 40
0.750013535
 40
1.0
 40
1.0
 40
1.0
 40
1.0
 10
4.6758855829
 20
5.7383090941
 30
0.0
 10
4.6756132004
 20
5.7387808689
 30
0.0
 10
4.6751238923
 20
5.7397578872
 30
0.0
 10
4.6745804292
 20
5.7413038327
 30
0.0
 10
4.6742456212
 20
5.7429082135
 30
0.0
 10
4.6741702117
 20
5.7439991008
 30
0.0
 10
4.674170211
 20
5.7445438054
 30
0.0
  0
SPLINE
  5
2F5
100
AcDbEntity
  8
0
100
AcDbSpline
 62
7
  6
CONTINUOUS
 70
0
 71
3
 72
15
 73
11
 74
0
 42
0.0000001
 43
0.0000001
 44
0.0000000001
 40
0.0
 40
0.0
 40
0.0
 40
0.0
 40
0.1250008198
 40
0.2500129341
 40
0.3750049913
 40
0.4999998397
 40
0.6249946664
 40
0.7499867392
 40
0.8749990975
 40
1.0
 40
1.0
 40
1.0
 40
1.0
 10
4.880046361
 20
5.3971616107
 30
0.0
 10
4.879501632
 20
5.3971616132
 30
0.0
 10
4.8784108573
 20
5.3972265043
 30
0.0
 10
4.8768003885
 20
5.3975287553
 30
0.0
 10
4.8752433569
 20
5.3980411774
 30
0.0
 10
4.8737705275
 20
5.3987608868
 30
0.0
 10
4.8724108262
 20
5.3996765399
 30
0.0
 10
4.8711885398
 20
5.4007687594
 30
0.0
 10
4.8701215474
 20
5.4020123418
 30
0.0
 10
4.8695199592
 20
5.4029245342
 30
0.0
 10
4.8692475924
 20
5.4033962824
 30
0.0
  0
SPLINE
  5
2F6
100
AcDbEntity
  8
0
100
AcDbSpline
 62
7
  6
CONTINUOUS
 70
0
 71
3
 72
15
 73
11
 74
0
 42
0.0000001
 43
0.0000001
 44
0.0000000001
 40
0.0
 40
0.0
 40
0.0
 40
0.0
 40
0.1250008588
 40
0.2500128759
 40
0.3750050189
 40
0.499999841
 40
0.6249946369
 40
0.7499868019
 40
0.874999056
 40
1.0
 40
1.0
 40
1.0
 40
1.0
 10
5.2775691936
 20
5.4033963013
 30
0.0
 10
5.2772968267
 20
5.4029245482
 30
0.0
 10
5.2766952885
 20
5.4020123148
 30
0.0
 10
5.2756282909
 20
5.4007687159
 30
0.0
 10
5.2744059928
 20
5.3996764927
 30
0.0
 10
5.2730462849
 20
5.3987608242
 30
0.0
 10
5.2715734391
 20
5.3980411163
 30
0.0
 10
5.2700163961
 20
5.3975286861
 30
0.0
 10
5.2684059076
 20
5.3972264375
 30
0.0
 10
5.2673151198
 20
5.3971616069
 30
0.0
 10
5.2667703858
 20
5.3971616068
 30
0.0
  0
SPLINE
  5
2F7
100
AcDbEntity
  8
0
100
AcDbSpline
 62
7
  6
CONTINUOUS
 70
0
 71
3
 72
11
 73
7
 74
0
 42
0.0000001
 43
0.0000001
 44
0.0000000001
 40
0.0
 40
0.0
 40
0.0
 40
0.0
 40
0.2499864647
 40
0.4999790129
 40
0.7499880198
 40
1.0
 40
1.0
 40
1.0
 40
1.0
 10
5.4726465193
 20
5.7445438054
 30
0.0
 10
5.4726465193
 20
5.7439991015
 30
0.0
 10
5.4725711134
 20
5.7429082157
 30
0.0
 10
5.472236315
 20
5.7413038356
 30
0.0
 10
5.4716928675
 20
5.7397578867
 30
0.0
 10
5.4712035634
 20
5.7387808682
 30
0.0
 10
5.4709311861
 20
5.7383090912
 30
0.0
  0
LINE
  5
2F8
100
AcDbEntity
  8
0
100
AcDbLine
 62
7
  6
CONTINUOUS
 10
4.8460467549
 20
5.3506476086
 11
4.8462517233
 21
5.3501301746
  0
SPLINE
  5
2F9
100
AcDbEntity
  8
0
100
AcDbSpline
 62
7
  6
CONTINUOUS
 70
0
 71
3
 72
61
 73
57
 74
0
 42
0.0000001
 43
0.0000001
 44
0.0000000001
 40
0.0
 40
0.0
 40
0.0
 40
0.0
 40
0.0011334343
 40
0.0022854314
 40
0.0034603215
 40
0.0046598725
 40
0.0071369382
 40
0.0097218539
 40
0.0124138204
 40
0.0152089193
 40
0.0210891403
 40
0.027316979
 40
0.0338434984
 40
0.0406248701
 40
0.0476230823
 40
0.0548033015
 40
0.0621330996
 40
0.0695835586
 40
0.077129904
 40
0.0924333925
 40
0.1079172021
 40
0.1235022314
 40
0.1391516304
 40
0.1548400784
 40
0.1705437345
 40
0.186247991
 40
0.2019546586
 40
0.2333932604
 40
0.2491321397
 40
0.2648860167
 40
0.296437536
 40
0.328046783
 40
0.3597126594
 40
0.3914344009
 40
0.4232120874
 40
0.486933891
 40
0.5508661859
 40
0.5829031489
 40
0.6149813371
 40
0.6470953508
 40
0.6792383128
 40
0.7114041796
 40
0.7435857286
 40
0.7596806494
 40
0.7757774956
 40
0.7918751162
 40
0.8079721986
 40
0.824067402
 40
0.8401591867
 40
0.8562450115
 40
0.872321892
 40
0.888386715
 40
0.9044358096
 40
0.9364627498
 40
0.9683471443
 40
1.0
 40
1.0
 40
1.0
 40
1.0
 10
4.8462517233
 20
5.3501301746
 30
0.0
 10
4.8462835828
 20
5.3500161715
 30
0.0
 10
4.8463367523
 20
5.3497831942
 30
0.0
 10
4.8463966299
 20
5.3494267168
 30
0.0
 10
4.8464437292
 20
5.3490613879
 30
0.0
 10
4.8464959984
 20
5.3485573899
 30
0.0
 10
4.8465475654
 20
5.3479054362
 30
0.0
 10
4.846602909
 20
5.3470975506
 30
0.0
 10
4.8466602245
 20
5.346256493
 30
0.0
 10
4.8467469602
 20
5.3450725094
 30
0.0
 10
4.8468807219
 20
5.3435217371
 30
0.0
 10
4.8470891671
 20
5.341586665
 30
0.0
 10
4.8473497567
 20
5.3395630058
 30
0.0
 10
4.8476618101
 20
5.3374652768
 30
0.0
 10
4.8480234276
 20
5.3353062856
 30
0.0
 10
4.8484312742
 20
5.3330972996
 30
0.0
 10
4.8488805587
 20
5.3308482055
 30
0.0
 10
4.8493658252
 20
5.3285675126
 30
0.0
 10
4.8500563502
 20
5.3254792887
 30
0.0
 10
4.8509803007
 20
5.3215838213
 30
0.0
 10
4.8521406477
 20
5.316881944
 30
0.0
 10
4.8533207432
 20
5.3121477506
 30
0.0
 10
4.8545066733
 20
5.3073929877
 30
0.0
 10
4.8556846847
 20
5.3026234833
 30
0.0
 10
4.8568370425
 20
5.2978417873
 30
0.0
 10
4.8579502563
 20
5.2930488639
 30
0.0
 10
4.8593893941
 20
5.2866447916
 30
0.0
 10
4.8607700247
 20
5.2802240443
 30
0.0
 10
4.8621087898
 20
5.2737895452
 30
0.0
 10
4.8634238358
 20
5.2673381107
 30
0.0
 10
4.8650220356
 20
5.2592529564
 30
0.0
 10
4.8668734596
 20
5.2495241848
 30
0.0
 10
4.8686643961
 20
5.2397660299
 30
0.0
 10
4.8703996083
 20
5.2299799571
 30
0.0
 10
4.872648333
 20
5.2168851302
 30
0.0
 10
4.8753471718
 20
5.2004546854
 30
0.0
 10
4.8779120821
 20
5.1839754088
 30
0.0
 10
4.8798756706
 20
5.1707475641
 30
0.0
 10
4.8812973594
 20
5.1607988047
 30
0.0
 10
4.8826577046
 20
5.1508302654
 30
0.0
 10
4.8839335964
 20
5.1408412642
 30
0.0
 10
4.8851035831
 20
5.1308321398
 30
0.0
 10
4.8859698236
 20
5.1224755345
 30
0.0
 10
4.8865851265
 20
5.1157808051
 30
0.0
 10
4.8870047906
 20
5.1107550943
 30
0.0
 10
4.8873830354
 20
5.1057258747
 30
0.0
 10
4.8877201254
 20
5.1006939012
 30
0.0
 10
4.8880163917
 20
5.0956599703
 30
0.0
 10
4.8882720461
 20
5.0906249933
 30
0.0
 10
4.8884887871
 20
5.0855901116
 30
0.0
 10
4.8886684397
 20
5.0805565925
 30
0.0
 10
4.8888128138
 20
5.0755257783
 30
0.0
 10
4.8889604601
 20
5.0688287611
 30
0.0
 10
4.8890759541
 20
5.0604787067
 30
0.0
 10
4.8891524731
 20
5.0504986661
 30
0.0
 10
4.8891927895
 20
5.0438632222
 30
0.0
 10
4.8892177618
 20
5.0405576247
 30
0.0
  0
LINE
  5
2FA
100
AcDbEntity
  8
0
100
AcDbLine
 62
7
  6
CONTINUOUS
 10
5.3007700151
 20
5.3506476085
 11
5.3005649353
 21
5.3501297731
  0
SPLINE
  5
2FB
100
AcDbEntity
  8
0
100
AcDbSpline
 62
7
  6
CONTINUOUS
 70
0
 71
3
 72
61
 73
57
 74
0
 42
0.0000001
 43
0.0000001
 44
0.0000000001
 40
0.0
 40
0.0
 40
0.0
 40
0.0
 40
0.0011334487
 40
0.0022854684
 40
0.0034603851
 40
0.0046599649
 40
0.0071370924
 40
0.0097220731
 40
0.0124141005
 40
0.0152092546
 40
0.0210895688
 40
0.0273174856
 40
0.0338440761
 40
0.040625513
 40
0.0476237812
 40
0.0548040429
 40
0.0621338705
 40
0.0695843487
 40
0.077130706
 40
0.092434207
 40
0.1079180049
 40
0.1235030306
 40
0.1391524153
 40
0.1548408447
 40
0.1705444966
 40
0.1862487412
 40
0.2019553988
 40
0.2333939916
 40
0.2491328614
 40
0.2648867266
 40
0.2964382201
 40
0.3280474372
 40
0.3597132841
 40
0.3914349972
 40
0.4232126571
 40
0.4869344066
 40
0.5508666426
 40
0.5829035703
 40
0.6149817327
 40
0.647095731
 40
0.6792386748
 40
0.711404517
 40
0.7435860338
 40
0.7596809302
 40
0.7757777474
 40
0.7918753388
 40
0.8079723939
 40
0.8240675737
 40
0.8401593348
 40
0.8562451352
 40
0.8723219991
 40
0.888386823
 40
0.9044359304
 40
0.9364628673
 40
0.9683471976
 40
1.0
 40
1.0
 40
1.0
 40
1.0
 10
5.3005649353
 20
5.3501297731
 30
0.0
 10
5.3005330886
 20
5.3500157651
 30
0.0
 10
5.3004799383
 20
5.3497827801
 30
0.0
 10
5.3004200795
 20
5.3494262934
 30
0.0
 10
5.3003729925
 20
5.3490609553
 30
0.0
 10
5.3003207342
 20
5.3485569446
 30
0.0
 10
5.3002691731
 20
5.347904975
 30
0.0
 10
5.3002138293
 20
5.3470970709
 30
0.0
 10
5.3001565109
 20
5.3462559957
 30
0.0
 10
5.3000697694
 20
5.3450719922
 30
0.0
 10
5.2999359995
 20
5.343521199
 30
0.0
 10
5.299727543
 20
5.3415861053
 30
0.0
 10
5.2994669399
 20
5.339562428
 30
0.0
 10
5.2991548714
 20
5.3374646839
 30
0.0
 10
5.2987932388
 20
5.3353056809
 30
0.0
 10
5.2983853799
 20
5.3330966867
 30
0.0
 10
5.2979360871
 20
5.3308475877
 30
0.0
 10
5.2974508135
 20
5.3285668931
 30
0.0
 10
5.2967602849
 20
5.3254786697
 30
0.0
 10
5.2958363254
 20
5.3215832087
 30
0.0
 10
5.2946759936
 20
5.3168813347
 30
0.0
 10
5.2934958946
 20
5.3121471522
 30
0.0
 10
5.2923099732
 20
5.3073923979
 30
0.0
 10
5.2911319785
 20
5.3026229002
 30
0.0
 10
5.289979613
 20
5.2978412167
 30
0.0
 10
5.2888664075
 20
5.2930483009
 30
0.0
 10
5.2874272739
 20
5.2866442402
 30
0.0
 10
5.2860466341
 20
5.2802235069
 30
0.0
 10
5.2847078716
 20
5.2737890197
 30
0.0
 10
5.2833928294
 20
5.2673375985
 30
0.0
 10
5.2817946354
 20
5.2592524616
 30
0.0
 10
5.2799432239
 20
5.2495237103
 30
0.0
 10
5.2781522974
 20
5.2397655767
 30
0.0
 10
5.2764170943
 20
5.2299795248
 30
0.0
 10
5.2741683751
 20
5.2168847268
 30
0.0
 10
5.2714695437
 20
5.2004543185
 30
0.0
 10
5.2689046399
 20
5.1839750793
 30
0.0
 10
5.2669410705
 20
5.1707472628
 30
0.0
 10
5.2655193733
 20
5.1607985265
 30
0.0
 10
5.2641590158
 20
5.1508300088
 30
0.0
 10
5.2628831298
 20
5.1408410267
 30
0.0
 10
5.2617131708
 20
5.1308319207
 30
0.0
 10
5.2608469553
 20
5.1224753327
 30
0.0
 10
5.2602316612
 20
5.1157806206
 30
0.0
 10
5.2598120097
 20
5.1107549243
 30
0.0
 10
5.2594337882
 20
5.1057257187
 30
0.0
 10
5.259096724
 20
5.1006937587
 30
0.0
 10
5.2588004832
 20
5.095659841
 30
0.0
 10
5.258544841
 20
5.0906248778
 30
0.0
 10
5.258328097
 20
5.0855900098
 30
0.0
 10
5.2581484379
 20
5.0805565019
 30
0.0
 10
5.2580040701
 20
5.0755256947
 30
0.0
 10
5.2578564303
 20
5.0688286854
 30
0.0
 10
5.2577408919
 20
5.0604786487
 30
0.0
 10
5.2576643168
 20
5.0504986346
 30
0.0
 10
5.2576239806
 20
5.0438632122
 30
0.0
 10
5.2575990083
 20
5.0405576247
 30
0.0
  0
LINE
  5
2FC
100
AcDbEntity
  8
0
100
AcDbLine
 62
7
  6
CONTINUOUS
 10
5.1152947688
 20
5.546869995
 11
5.1130648568
 21
5.5456988655
  0
SPLINE
  5
2FD
100
AcDbEntity
  8
0
100
AcDbSpline
 62
7
  6
CONTINUOUS
 70
0
 71
3
 72
23
 73
19
 74
0
 42
0.0000001
 43
0.0000001
 44
0.0000000001
 40
0.0
 40
0.0
 40
0.0
 40
0.0
 40
0.0424129828
 40
0.0876887792
 40
0.136313556
 40
0.1885380792
 40
0.2444119198
 40
0.3038191661
 40
0.3665104706
 40
0.4321299583
 40
0.5002376704
 40
0.5703286027
 40
0.6418495233
 40
0.714213765
 40
0.786816546
 40
0.8590454374
 40
0.9303018781
 40
1.0
 40
1.0
 40
1.0
 40
1.0
 10
5.1130648568
 20
5.5456988655
 30
0.0
 10
5.1125255602
 20
5.5453219325
 30
0.0
 10
5.1114817066
 20
5.5444372653
 30
0.0
 10
5.1101036009
 20
5.5428236422
 30
0.0
 10
5.1088814343
 20
5.5409067638
 30
0.0
 10
5.1078280662
 20
5.5387099203
 30
0.0
 10
5.1069540442
 20
5.5362583417
 30
0.0
 10
5.1062687874
 20
5.5335802352
 30
0.0
 10
5.1057798399
 20
5.5307064663
 30
0.0
 10
5.1054927286
 20
5.5276703443
 30
0.0
 10
5.1054107424
 20
5.5245072144
 30
0.0
 10
5.1055348291
 20
5.5212540239
 30
0.0
 10
5.1058635481
 20
5.5179488644
 30
0.0
 10
5.1063930471
 20
5.5146304754
 30
0.0
 10
5.1071171341
 20
5.5113378311
 30
0.0
 10
5.1080273004
 20
5.5081094733
 30
0.0
 10
5.1091128293
 20
5.5049835169
 30
0.0
 10
5.1099565711
 20
5.5029643002
 30
0.0
 10
5.1104060771
 20
5.5019809164
 30
0.0
  0
SPLINE
  5
2FE
100
AcDbEntity
  8
0
100
AcDbSpline
 62
7
  6
CONTINUOUS
 70
0
 71
3
 72
21
 73
17
 74
0
 42
0.0000001
 43
0.0000001
 44
0.0000000001
 40
0.0
 40
0.0
 40
0.0
 40
0.0
 40
0.0725901728
 40
0.1448024119
 40
0.2872911107
 40
0.4258373282
 40
0.493110735
 40
0.5587682286
 40
0.6225959846
 40
0.6843788785
 40
0.7439007686
 40
0.8009447895
 40
0.8552936795
 40
0.9067301693
 40
0.9550374791
 40
1.0
 40
1.0
 40
1.0
 40
1.0
 10
4.7418975218
 20
5.3836692886
 30
0.0
 10
4.7430195841
 20
5.3737548964
 30
0.0
 10
4.7451134123
 20
5.3539611201
 30
0.0
 10
4.7487460837
 20
5.314638861
 30
0.0
 10
4.7523475912
 20
5.2662137117
 30
0.0
 10
4.7549787829
 20
5.2184080341
 30
0.0
 10
4.7566086119
 20
5.1811282791
 30
0.0
 10
4.7576176236
 20
5.1541020138
 30
0.0
 10
4.7584598615
 20
5.1278251729
 30
0.0
 10
4.7591699256
 20
5.1023881381
 30
0.0
 10
4.7597823764
 20
5.0778813198
 30
0.0
 10
4.7603317344
 20
5.0543951123
 30
0.0
 10
4.7608524646
 20
5.0320198997
 30
0.0
 10
4.7613789324
 20
5.0108460263
 30
0.0
 10
4.7619454258
 20
4.9909638261
 30
0.0
 10
4.762388979
 20
4.9781511908
 30
0.0
 10
4.7626327966
 20
4.971975801
 30
0.0
  0
LINE
  5
2FF
100
AcDbEntity
  8
0
100
AcDbLine
 62
7
  6
CONTINUOUS
 10
5.3019539507
 20
5.7409689516
 11
5.2754663779
 21
5.7420936692
  0
SPLINE
  5
300
100
AcDbEntity
  8
0
100
AcDbSpline
 62
7
  6
CONTINUOUS
 70
0
 71
3
 72
12
 73
8
 74
0
 42
0.0000001
 43
0.0000001
 44
0.0000000001
 40
0.0
 40
0.0
 40
0.0
 40
0.0
 40
0.2499986078
 40
0.4999987701
 40
0.7499983256
 40
0.874998757
 40
1.0
 40
1.0
 40
1.0
 40
1.0
 10
5.3019539507
 20
5.7409689516
 30
0.0
 10
5.2981574911
 20
5.7339609742
 30
0.0
 10
5.2905479634
 20
5.719953941
 30
0.0
 10
5.2790552653
 20
5.6989861395
 30
0.0
 10
5.2693890891
 20
5.681561873
 30
0.0
 10
5.2615883962
 20
5.6676603074
 30
0.0
 10
5.2576637867
 20
5.6607231488
 30
0.0
 10
5.2556954057
 20
5.6572580107
 30
0.0
  0
SPLINE
  5
301
100
AcDbEntity
  8
0
100
AcDbSpline
 62
7
  6
CONTINUOUS
 70
0
 71
3
 72
11
 73
7
 74
0
 42
0.0000001
 43
0.0000001
 44
0.0000000001
 40
0.0
 40
0.0
 40
0.0
 40
0.0
 40
0.2500011483
 40
0.5000003077
 40
0.7500005726
 40
1.0
 40
1.0
 40
1.0
 40
1.0
 10
5.2407893199
 20
5.6312879434
 30
0.0
 10
5.2367154884
 20
5.6242640765
 30
0.0
 10
5.2285157659
 20
5.6102465179
 30
0.0
 10
5.2160534553
 20
5.5893163179
 30
0.0
 10
5.2034608105
 20
5.5684644371
 30
0.0
 10
5.19500226
 20
5.5546017261
 30
0.0
 10
5.1907628001
 20
5.5476766355
 30
0.0
  0
LINE
  5
302
100
AcDbEntity
  8
0
100
AcDbLine
 62
7
  6
CONTINUOUS
 10
5.3019539805
 20
5.7481186613
 11
5.2754663767
 21
5.7469939419
  0
LINE
  5
303
100
AcDbEntity
  8
0
100
AcDbLine
 62
7
  6
CONTINUOUS
 10
5.1907786743
 20
5.9414306773
 11
5.1904546479
 21
5.9410093923
  0
SPLINE
  5
304
100
AcDbEntity
  8
0
100
AcDbSpline
 62
7
  6
CONTINUOUS
 70
0
 71
3
 72
11
 73
7
 74
0
 42
0.0000001
 43
0.0000001
 44
0.0000000001
 40
0.0
 40
0.0
 40
0.0
 40
0.0
 40
0.2499993411
 40
0.5000000888
 40
0.7499995762
 40
1.0
 40
1.0
 40
1.0
 40
1.0
 10
5.1907786743
 20
5.9414306773
 30
0.0
 10
5.1950207843
 20
5.9345013593
 30
0.0
 10
5.2034807623
 20
5.9206277967
 30
0.0
 10
5.2160705476
 20
5.8997566691
 30
0.0
 10
5.2285331698
 20
5.8788092436
 30
0.0
 10
5.2367372423
 20
5.8647826881
 30
0.0
 10
5.2408132251
 20
5.8577543255
 30
0.0
  0
SPLINE
  5
305
100
AcDbEntity
  8
0
100
AcDbSpline
 62
7
  6
CONTINUOUS
 70
0
 71
3
 72
11
 73
7
 74
0
 42
0.0000001
 43
0.0000001
 44
0.0000000001
 40
0.0
 40
0.0
 40
0.0
 40
0.0
 40
0.2500012581
 40
0.5000008605
 40
0.7500011354
 40
1.0
 40
1.0
 40
1.0
 40
1.0
 10
5.2556624372
 20
5.8318844028
 30
0.0
 10
5.2596023315
 20
5.8249498255
 30
0.0
 10
5.2674330948
 20
5.8110528155
 30
0.0
 10
5.2790406524
 20
5.7901299316
 30
0.0
 10
5.2905406838
 20
5.7691479054
 30
0.0
 10
5.2981549802
 20
5.755131329
 30
0.0
 10
5.3019539805
 20
5.7481186613
 30
0.0
  0
SPLINE
  5
306
100
AcDbEntity
  8
0
100
AcDbSpline
 62
7
  6
CONTINUOUS
 70
0
 71
3
 72
13
 73
9
 74
0
 42
0.0000001
 43
0.0000001
 44
0.0000000001
 40
0.0
 40
0.0
 40
0.0
 40
0.0
 40
0.2499998019
 40
0.3750002122
 40
0.5000003017
 40
0.6250004432
 40
0.7500004685
 40
1.0
 40
1.0
 40
1.0
 40
1.0
 10
5.0734083851
 20
5.9469190373
 30
0.0
 10
5.082634489
 20
5.9469190463
 30
0.0
 10
5.096473784
 20
5.946845606
 30
0.0
 10
5.1149245918
 20
5.9466130499
 30
0.0
 10
5.1287618011
 20
5.9463760894
 30
0.0
 10
5.1425979207
 20
5.9460837314
 30
0.0
 10
5.1610445497
 20
5.9456286435
 30
0.0
 10
5.1748779245
 20
5.9452265443
 30
0.0
 10
5.1840996633
 20
5.9449430953
 30
0.0
  0
SPLINE
  5
307
100
AcDbEntity
  8
0
100
AcDbSpline
 62
7
  6
CONTINUOUS
 70
0
 71
3
 72
13
 73
9
 74
0
 42
0.0000001
 43
0.0000001
 44
0.0000000001
 40
0.0
 40
0.0
 40
0.0
 40
0.0
 40
0.2499995315
 40
0.3749995568
 40
0.4999996984
 40
0.6249997879
 40
0.7500001982
 40
1.0
 40
1.0
 40
1.0
 40
1.0
 10
4.9627171123
 20
5.9449430854
 30
0.0
 10
4.9719388506
 20
5.9452265344
 30
0.0
 10
4.9857722247
 20
5.9456286389
 30
0.0
 10
5.0042188526
 20
5.9460837327
 30
0.0
 10
5.0180549716
 20
5.9463760922
 30
0.0
 10
5.0318921803
 20
5.9466130523
 30
0.0
 10
5.0503429873
 20
5.9468456066
 30
0.0
 10
5.0641822816
 20
5.9469190456
 30
0.0
 10
5.0734083851
 20
5.9469190373
 30
0.0
  0
LINE
  5
308
100
AcDbEntity
  8
0
100
AcDbLine
 62
7
  6
CONTINUOUS
 10
4.8713503939
 20
5.7469939421
 11
4.8448627947
 21
5.74811866
  0
SPLINE
  5
309
100
AcDbEntity
  8
0
100
AcDbSpline
 62
7
  6
CONTINUOUS
 70
0
 71
3
 72
12
 73
8
 74
0
 42
0.0000001
 43
0.0000001
 44
0.0000000001
 40
0.0
 40
0.0
 40
0.0
 40
0.0
 40
0.2499986067
 40
0.4999987666
 40
0.7499983221
 40
0.8749987555
 40
1.0
 40
1.0
 40
1.0
 40
1.0
 10
4.8448627947
 20
5.74811866
 30
0.0
 10
4.848659268
 20
5.7551266626
 30
0.0
 10
4.8562688252
 20
5.769133745
 30
0.0
 10
4.8677615721
 20
5.7901016179
 30
0.0
 10
4.8774277911
 20
5.8075259427
 30
0.0
 10
4.8852285199
 20
5.8214275542
 30
0.0
 10
4.8891531445
 20
5.8283647374
 30
0.0
 10
4.8911215326
 20
5.831829888
 30
0.0
  0
SPLINE
  5
30A
100
AcDbEntity
  8
0
100
AcDbSpline
 62
7
  6
CONTINUOUS
 70
0
 71
3
 72
11
 73
7
 74
0
 42
0.0000001
 43
0.0000001
 44
0.0000000001
 40
0.0
 40
0.0
 40
0.0
 40
0.0
 40
0.2500011419
 40
0.5000003003
 40
0.75000057
 40
1.0
 40
1.0
 40
1.0
 40
1.0
 10
4.906026648
 20
5.8577982874
 30
0.0
 10
4.9101005417
 20
5.8648222715
 30
0.0
 10
4.9183003966
 20
5.8788400603
 30
0.0
 10
4.930762917
 20
5.8997705992
 30
0.0
 10
4.9433557559
 20
5.9206228284
 30
0.0
 10
4.95181444
 20
5.9344857695
 30
0.0
 10
4.9560539691
 20
5.9414109737
 30
0.0
  0
LINE
  5
30B
100
AcDbEntity
  8
0
100
AcDbLine
 62
7
  6
CONTINUOUS
 10
4.8713503927
 20
5.7420936689
 11
4.8448628245
 21
5.7409689536
  0
LINE
  5
30C
100
AcDbEntity
  8
0
100
AcDbLine
 62
7
  6
CONTINUOUS
 10
4.9560380961
 20
5.5476569331
 11
4.9563621229
 21
5.5480782188
  0
SPLINE
  5
30D
100
AcDbEntity
  8
0
100
AcDbSpline
 62
7
  6
CONTINUOUS
 70
0
 71
3
 72
11
 73
7
 74
0
 42
0.0000001
 43
0.0000001
 44
0.0000000001
 40
0.0
 40
0.0
 40
0.0
 40
0.0
 40
0.2499993387
 40
0.5000000818
 40
0.7499995686
 40
1.0
 40
1.0
 40
1.0
 40
1.0
 10
4.9560380961
 20
5.5476569331
 30
0.0
 10
4.9517960006
 20
5.5545862272
 30
0.0
 10
4.9433360479
 20
5.5684597398
 30
0.0
 10
4.930746299
 20
5.5893307916
 30
0.0
 10
4.9182837258
 20
5.6102781494
 30
0.0
 10
4.9100796947
 20
5.624304665
 30
0.0
 10
4.9060037287
 20
5.6313330054
 30
0.0
  0
SPLINE
  5
30E
100
AcDbEntity
  8
0
100
AcDbSpline
 62
7
  6
CONTINUOUS
 70
0
 71
3
 72
11
 73
7
 74
0
 42
0.0000001
 43
0.0000001
 44
0.0000000001
 40
0.0
 40
0.0
 40
0.0
 40
0.0
 40
0.2500012714
 40
0.5000008734
 40
0.75000114
 40
1.0
 40
1.0
 40
1.0
 40
1.0
 10
4.8911544848
 20
5.6572029862
 30
0.0
 10
4.8872145773
 20
5.6641375809
 30
0.0
 10
4.8793837761
 20
5.6780346188
 30
0.0
 10
4.8677761895
 20
5.6989575596
 30
0.0
 10
4.8562761458
 20
5.7199396511
 30
0.0
 10
4.8486618362
 20
5.7339562681
 30
0.0
 10
4.8448628245
 20
5.7409689536
 30
0.0
  0
SPLINE
  5
30F
100
AcDbEntity
  8
0
100
AcDbSpline
 62
7
  6
CONTINUOUS
 70
0
 71
3
 72
30
 73
26
 74
0
 42
0.0000001
 43
0.0000001
 44
0.0000000001
 40
0.0
 40
0.0
 40
0.0
 40
0.0
 40
0.0031422691
 40
0.0066830093
 40
0.0106514471
 40
0.015060448
 40
0.0251985358
 40
0.0370721652
 40
0.050648996
 40
0.0658848595
 40
0.0827331448
 40
0.1011751916
 40
0.1427690708
 40
0.165913462
 40
0.1906213177
 40
0.2447246879
 40
0.3051085938
 40
0.3717692345
 40
0.4446524439
 40
0.5236322986
 40
0.6085075274
 40
0.6989851741
 40
0.7946991696
 40
0.8952153646
 40
1.0
 40
1.0
 40
1.0
 40
1.0
 10
5.1469886945
 20
5.5204770016
 30
0.0
 10
5.146992981
 20
5.5204334497
 30
0.0
 10
5.1469932107
 20
5.5203398887
 30
0.0
 10
5.1469728064
 20
5.5201926252
 30
0.0
 10
5.1469320505
 20
5.5200314317
 30
0.0
 10
5.1468467509
 20
5.5197878059
 30
0.0
 10
5.146686166
 20
5.5194554901
 30
0.0
 10
5.1464243219
 20
5.5190339276
 30
0.0
 10
5.1460855492
 20
5.51857899
 30
0.0
 10
5.1456705921
 20
5.5180965334
 30
0.0
 10
5.1451796242
 20
5.5175918856
 30
0.0
 10
5.1443925733
 20
5.5168652736
 30
0.0
 10
5.1434840383
 20
5.5161436678
 30
0.0
 10
5.1424662762
 20
5.5154251383
 30
0.0
 10
5.1412776145
 20
5.5146478593
 30
0.0
 10
5.1396029111
 20
5.5136689485
 30
0.0
 10
5.1373603363
 20
5.5125113604
 30
0.0
 10
5.1348334261
 20
5.5113403244
 30
0.0
 10
5.1320309099
 20
5.5101526775
 30
0.0
 10
5.1289644474
 20
5.5089407212
 30
0.0
 10
5.1256491921
 20
5.5076932879
 30
0.0
 10
5.1221045583
 20
5.5063943098
 30
0.0
 10
5.1183539288
 20
5.5050243968
 30
0.0
 10
5.1144257974
 20
5.5035598062
 30
0.0
 10
5.1117607323
 20
5.5025236554
 30
0.0
 10
5.1104060771
 20
5.5019809164
 30
0.0
  0
SPLINE
  5
310
100
AcDbEntity
  8
0
100
AcDbSpline
 62
7
  6
CONTINUOUS
 70
0
 71
3
 72
11
 73
7
 74
0
 42
0.0000001
 43
0.0000001
 44
0.0000000001
 40
0.0
 40
0.0
 40
0.0
 40
0.0
 40
0.257676166
 40
0.5084360399
 40
0.7549504573
 40
1.0
 40
1.0
 40
1.0
 40
1.0
 10
4.7626327981
 20
4.9719757645
 30
0.0
 10
4.7621557974
 20
4.9707712479
 30
0.0
 10
4.7613293074
 20
4.9683468065
 30
0.0
 10
4.7604857345
 20
4.9646387869
 30
0.0
 10
4.7600582978
 20
4.9609237722
 30
0.0
 10
4.7600504625
 20
4.9584463247
 30
0.0
 10
4.7601147367
 20
4.9572159588
 30
0.0
  0
SPLINE
  5
311
100
AcDbEntity
  8
0
100
AcDbSpline
 62
7
  6
CONTINUOUS
 70
0
 71
3
 72
12
 73
8
 74
0
 42
0.0000001
 43
0.0000001
 44
0.0000000001
 40
0.0
 40
0.0
 40
0.0
 40
0.0
 40
0.1227449369
 40
0.2464431013
 40
0.4960317288
 40
0.7475672236
 40
1.0
 40
1.0
 40
1.0
 40
1.0
 10
5.1119843339
 20
5.5461774209
 30
0.0
 10
5.1104275246
 20
5.5458747048
 30
0.0
 10
5.1072901472
 20
5.5453257228
 30
0.0
 10
5.1009436191
 20
5.5444262261
 30
0.0
 10
5.0929061485
 20
5.5436282752
 30
0.0
 10
5.0831822649
 20
5.5430892358
 30
0.0
 10
5.0766700258
 20
5.5429697102
 30
0.0
 10
5.073408385
 20
5.5429663548
 30
0.0
  0
SPLINE
  5
312
100
AcDbEntity
  8
0
100
AcDbSpline
 62
7
  6
CONTINUOUS
 70
0
 71
3
 72
23
 73
19
 74
0
 42
0.0000001
 43
0.0000001
 44
0.0000000001
 40
0.0
 40
0.0
 40
0.0
 40
0.0
 40
0.0434935703
 40
0.089301306
 40
0.1375200592
 40
0.188227309
 40
0.2414844671
 40
0.2973389808
 40
0.3558192581
 40
0.4169387633
 40
0.4807025834
 40
0.5471089528
 40
0.6161503439
 40
0.6878098051
 40
0.7620588755
 40
0.8388647114
 40
0.9181913084
 40
1.0
 40
1.0
 40
1.0
 40
1.0
 10
5.3534083849
 20
3.5290029544
 30
0.0
 10
5.3522636724
 20
3.5302444351
 30
0.0
 10
5.3498298139
 20
3.5327173645
 30
0.0
 10
5.3458714187
 20
3.5363042466
 30
0.0
 10
5.3415167397
 20
3.5398595956
 30
0.0
 10
5.3367693046
 20
3.5433804944
 30
0.0
 10
5.3316324004
 20
3.5468642568
 30
0.0
 10
5.3261096115
 20
3.5503077609
 30
0.0
 10
5.3202055004
 20
3.5537084259
 30
0.0
 10
5.3139252305
 20
3.5570637112
 30
0.0
 10
5.3072740847
 20
3.5603708502
 30
0.0
 10
5.3002573927
 20
3.5636271018
 30
0.0
 10
5.2928806297
 20
3.5668295529
 30
0.0
 10
5.2851498839
 20
3.5699754655
 30
0.0
 10
5.2770719697
 20
3.5730625847
 30
0.0
 10
5.2686539139
 20
3.5760884036
 30
0.0
 10
5.2599028305
 20
3.579050429
 30
0.0
 10
5.2539422054
 20
3.5809519742
 30
0.0
 10
5.2509083843
 20
3.5818926261
 30
0.0
  0
LINE
  5
313
100
AcDbEntity
  8
0
100
AcDbLine
 62
7
  6
CONTINUOUS
 10
5.0328337992
 20
5.5465883394
 11
5.0350060413
 21
5.5454587569
  0
SPLINE
  5
314
100
AcDbEntity
  8
0
100
AcDbSpline
 62
7
  6
CONTINUOUS
 70
0
 71
3
 72
23
 73
19
 74
0
 42
0.0000001
 43
0.0000001
 44
0.0000000001
 40
0.0
 40
0.0
 40
0.0
 40
0.0
 40
0.0425497966
 40
0.0878826182
 40
0.1365032891
 40
0.1886810057
 40
0.2444816958
 40
0.303803161
 40
0.3664071899
 40
0.4319467701
 40
0.4999888786
 40
0.5700338426
 40
0.6415324336
 40
0.7139008933
 40
0.7865364611
 40
0.8588279967
 40
0.9301777049
 40
1.0
 40
1.0
 40
1.0
 40
1.0
 10
5.0350060413
 20
5.5454587569
 30
0.0
 10
5.0355411475
 20
5.5450897748
 30
0.0
 10
5.0365766375
 20
5.5442228978
 30
0.0
 10
5.0379429778
 20
5.5426379048
 30
0.0
 10
5.039152079
 20
5.5407536453
 30
0.0
 10
5.0401911667
 20
5.5385932336
 30
0.0
 10
5.0410498286
 20
5.5361816596
 30
0.0
 10
5.0417188097
 20
5.5335468245
 30
0.0
 10
5.0421907425
 20
5.5307192458
 30
0.0
 10
5.0424602891
 20
5.5277318533
 30
0.0
 10
5.0425243608
 20
5.5246195903
 30
0.0
 10
5.0423822222
 20
5.5214189842
 30
0.0
 10
5.0420355371
 20
5.5181676923
 30
0.0
 10
5.0414883902
 20
5.5149040086
 30
0.0
 10
5.040747213
 20
5.511666454
 30
0.0
 10
5.0398207566
 20
5.5084931122
 30
0.0
 10
5.0387199843
 20
5.5054216377
 30
0.0
 10
5.0378670122
 20
5.5034390563
 30
0.0
 10
5.0374131727
 20
5.5024738243
 30
0.0
  0
SPLINE
  5
315
100
AcDbEntity
  8
0
100
AcDbSpline
 62
7
  6
CONTINUOUS
 70
0
 71
3
 72
45
 73
41
 74
0
 42
0.0000001
 43
0.0000001
 44
0.0000000001
 40
0.0
 40
0.0
 40
0.0
 40
0.0
 40
0.0334454743
 40
0.0683928323
 40
0.1055197886
 40
0.1449060315
 40
0.186390679
 40
0.2294482608
 40
0.2734741906
 40
0.3179117391
 40
0.3622614991
 40
0.4062041665
 40
0.4494652159
 40
0.4917699332
 40
0.5328485472
 40
0.5724515204
 40
0.6103342567
 40
0.6462520277
 40
0.6799529381
 40
0.7111567915
 40
0.7396897031
 40
0.7658313588
 40
0.7899825223
 40
0.8125751192
 40
0.8340505545
 40
0.8548573737
 40
0.8754308331
 40
0.8961458546
 40
0.9171572252
 40
0.9377989152
 40
0.9477104072
 40
0.95721188
 40
0.9662035512
 40
0.9745856791
 40
0.9822581562
 40
0.9891192584
 40
0.9922136814
 40
0.9950670555
 40
0.9976667028
 40
1.0
 40
1.0
 40
1.0
 40
1.0
 10
5.2509083851
 20
3.5818926869
 30
0.0
 10
5.2508933244
 20
3.5724621565
 30
0.0
 10
5.25086388
 20
3.5531776112
 30
0.0
 10
5.2507886602
 20
3.5234245268
 30
0.0
 10
5.2506492103
 20
3.4919965379
 30
0.0
 10
5.2504223481
 20
3.4587256961
 30
0.0
 10
5.2500864547
 20
3.4237834378
 30
0.0
 10
5.2496269222
 20
3.3875342234
 30
0.0
 10
5.2490287994
 20
3.350454275
 30
0.0
 10
5.2482681612
 20
3.3130128205
 30
0.0
 10
5.2473188016
 20
3.2755991452
 30
0.0
 10
5.2462037479
 20
3.238521956
 30
0.0
 10
5.244945344
 20
3.2020263418
 30
0.0
 10
5.2435655345
 20
3.1663432881
 30
0.0
 10
5.2420858966
 20
3.131696618
 30
0.0
 10
5.240532168
 20
3.0983013596
 30
0.0
 10
5.2389299292
 20
3.0663653438
 30
0.0
 10
5.2373048103
 20
3.036096954
 30
0.0
 10
5.2356830675
 20
3.0077144978
 30
0.0
 10
5.2340880529
 20
2.9814163611
 30
0.0
 10
5.2325317848
 20
2.9572514289
 30
0.0
 10
5.2310244254
 20
2.9350762519
 30
0.0
 10
5.2295670687
 20
2.914576633
 30
0.0
 10
5.2281585391
 20
2.8953926548
 30
0.0
 10
5.2267970858
 20
2.8771507787
 30
0.0
 10
5.2254814219
 20
2.8594763985
 30
0.0
 10
5.2242116092
 20
2.8420136225
 30
0.0
 10
5.2229918168
 20
2.8244894376
 30
0.0
 10
5.2218442357
 20
2.8069410868
 30
0.0
 10
5.2209577694
 20
2.7924285396
 30
0.0
 10
5.2203131206
 20
2.7811528218
 30
0.0
 10
5.2198795535
 20
2.7731553629
 30
0.0
 10
5.2194953671
 20
2.7655871329
 30
0.0
 10
5.2191665567
 20
2.7585325252
 30
0.0
 10
5.2188991249
 20
2.7520765419
 30
0.0
 10
5.2187265591
 20
2.7471089503
 30
0.0
 10
5.2186271676
 20
2.7434986078
 30
0.0
 10
5.2185745333
 20
2.7410890629
 30
0.0
 10
5.2185418723
 20
2.7388937968
 30
0.0
 10
5.2185333851
 20
2.7375028626
 30
0.0
 10
5.2185333851
 20
2.7368449483
 30
0.0
  0
SPLINE
  5
316
100
AcDbEntity
  8
0
100
AcDbSpline
 62
7
  6
CONTINUOUS
 70
0
 71
3
 72
9
 73
5
 74
0
 42
0.0000001
 43
0.0000001
 44
0.0000000001
 40
0.0
 40
0.0
 40
0.0
 40
0.0
 40
0.2502176773
 40
1.0
 40
1.0
 40
1.0
 40
1.0
 10
4.8947018929
 20
4.0521534157
 30
0.0
 10
4.8948404227
 20
4.0129310121
 30
0.0
 10
4.8953562467
 20
3.8561777526
 30
0.0
 10
4.8957206855
 20
3.6994239946
 30
0.0
 10
4.8959083847
 20
3.5818926869
 30
0.0
  0
SPLINE
  5
317
100
AcDbEntity
  8
0
100
AcDbSpline
 62
7
  6
CONTINUOUS
 70
0
 71
3
 72
15
 73
11
 74
0
 42
0.0000001
 43
0.0000001
 44
0.0000000001
 40
0.0
 40
0.0
 40
0.0
 40
0.0
 40
0.1258069785
 40
0.2515699312
 40
0.3772367522
 40
0.5027346642
 40
0.6279585944
 40
0.752751683
 40
0.876880184
 40
1.0
 40
1.0
 40
1.0
 40
1.0
 10
5.5662634424
 20
5.4599938054
 30
0.0
 10
5.5609928236
 20
5.4508648259
 30
0.0
 10
5.5499350732
 20
5.4329037248
 30
0.0
 10
5.5318607496
 20
5.4069534745
 30
0.0
 10
5.5123636032
 20
5.3820860724
 30
0.0
 10
5.4915198362
 20
5.3583964717
 30
0.0
 10
5.4694175635
 20
5.335979155
 30
0.0
 10
5.4461620819
 20
5.3149307636
 30
0.0
 10
5.4218843703
 20
5.2953514786
 30
0.0
 10
5.4050325803
 20
5.2832788089
 30
0.0
 10
5.3964776414
 20
5.2775138641
 30
0.0
  0
SPLINE
  5
318
100
AcDbEntity
  8
0
100
AcDbSpline
 62
7
  6
CONTINUOUS
 70
0
 71
3
 72
23
 73
19
 74
0
 42
0.0000001
 43
0.0000001
 44
0.0000000001
 40
0.0
 40
0.0
 40
0.0
 40
0.0
 40
0.0818086916
 40
0.1611352886
 40
0.2379411245
 40
0.3121901949
 40
0.3838496561
 40
0.4528910472
 40
0.5192974166
 40
0.5830612367
 40
0.6441807419
 40
0.7026610192
 40
0.7585155329
 40
0.811772691
 40
0.8624799408
 40
0.910698694
 40
0.9565064297
 40
1.0
 40
1.0
 40
1.0
 40
1.0
 10
4.8959083858
 20
3.5818926261
 30
0.0
 10
4.8928745648
 20
3.5809519742
 30
0.0
 10
4.8869139397
 20
3.579050429
 30
0.0
 10
4.8781628563
 20
3.5760884036
 30
0.0
 10
4.8697448005
 20
3.5730625847
 30
0.0
 10
4.8616668863
 20
3.5699754655
 30
0.0
 10
4.8539361405
 20
3.5668295529
 30
0.0
 10
4.8465593775
 20
3.5636271018
 30
0.0
 10
4.8395426855
 20
3.5603708502
 30
0.0
 10
4.8328915397
 20
3.5570637112
 30
0.0
 10
4.8266112698
 20
3.5537084259
 30
0.0
 10
4.8207071587
 20
3.5503077609
 30
0.0
 10
4.8151843698
 20
3.5468642568
 30
0.0
 10
4.8100474656
 20
3.5433804944
 30
0.0
 10
4.8053000305
 20
3.5398595956
 30
0.0
 10
4.8009453515
 20
3.5363042466
 30
0.0
 10
4.7969869563
 20
3.5327173645
 30
0.0
 10
4.7945530978
 20
3.5302444351
 30
0.0
 10
4.7934083853
 20
3.5290029544
 30
0.0
  0
LINE
  5
319
100
AcDbEntity
  8
0
100
AcDbLine
 62
7
  6
CONTINUOUS
 10
5.0786752367
 20
4.0094571561
 11
5.0778585974
 21
4.0087772407
  0
LINE
  5
31A
100
AcDbEntity
  8
0
100
AcDbLine
 62
7
  6
CONTINUOUS
 10
5.0778585974
 20
4.0087772407
 11
5.0771326116
 21
4.0084618998
  0
SPLINE
  5
31B
100
AcDbEntity
  8
0
100
AcDbSpline
 62
7
  6
CONTINUOUS
 70
0
 71
3
 72
28
 73
24
 74
0
 42
0.0000001
 43
0.0000001
 44
0.0000000001
 40
0.0
 40
0.0
 40
0.0
 40
0.0
 40
0.0817745979
 40
0.162918273
 40
0.2429507891
 40
0.3214038964
 40
0.3978199085
 40
0.4717584665
 40
0.54279948
 40
0.6105479287
 40
0.6746385457
 40
0.7347414263
 40
0.7905687871
 40
0.8168051278
 40
0.8418885111
 40
0.8657996359
 40
0.8885236883
 40
0.910052072
 40
0.9303825933
 40
0.9495212349
 40
0.9674833989
 40
0.9842959702
 40
1.0
 40
1.0
 40
1.0
 40
1.0
 10
5.0700969393
 20
5.4265221711
 30
0.0
 10
5.0665078305
 20
5.4264986935
 30
0.0
 10
5.0593575629
 20
5.4263757825
 30
0.0
 10
5.048701339
 20
5.4259634361
 30
0.0
 10
5.0382021692
 20
5.4253260289
 30
0.0
 10
5.0279269186
 20
5.4244677094
 30
0.0
 10
5.0179408309
 20
5.4233940018
 30
0.0
 10
5.0083073598
 20
5.4221118535
 30
0.0
 10
4.9990876264
 20
5.4206295534
 30
0.0
 10
4.9903400799
 20
5.4189566969
 30
0.0
 10
4.9821199735
 20
5.4171041338
 30
0.0
 10
4.9744793154
 20
5.4150838305
 30
0.0
 10
4.9685170286
 20
5.4132351119
 30
0.0
 10
4.9640807155
 20
5.4116730283
 30
0.0
 10
4.9609966738
 20
5.4104920584
 30
0.0
 10
4.9580913025
 20
5.409279315
 30
0.0
 10
4.9553691633
 20
5.4080366291
 30
0.0
 10
4.9528344926
 20
5.4067660048
 30
0.0
 10
4.9504912238
 20
5.4054693788
 30
0.0
 10
4.9483429703
 20
5.4041487596
 30
0.0
 10
4.9463929644
 20
5.4028060763
 30
0.0
 10
4.9446443181
 20
5.4014433696
 30
0.0
 10
4.9435791771
 20
5.4004911852
 30
0.0
 10
4.9430841359
 20
5.4000115753
 30
0.0
  0
LINE
  5
31C
100
AcDbEntity
  8
0
100
AcDbLine
 62
7
  6
CONTINUOUS
 10
5.0696841586
 20
4.0084618998
 11
5.0689581706
 21
4.0087772421
  0
LINE
  5
31D
100
AcDbEntity
  8
0
100
AcDbLine
 62
7
  6
CONTINUOUS
 10
5.0689581706
 20
4.0087772421
 11
5.0681415335
 21
4.0094571561
  0
SPLINE
  5
31E
100
AcDbEntity
  8
0
100
AcDbSpline
 62
7
  6
CONTINUOUS
 70
0
 71
3
 72
11
 73
7
 74
0
 42
0.0000001
 43
0.0000001
 44
0.0000000001
 40
0.0
 40
0.0
 40
0.0
 40
0.0
 40
0.2525479494
 40
0.5040567056
 40
0.7535932914
 40
1.0
 40
1.0
 40
1.0
 40
1.0
 10
5.0710226533
 20
5.5429745718
 30
0.0
 10
5.06806134
 20
5.5429981527
 30
0.0
 10
5.0621511711
 20
5.5431406037
 30
0.0
 10
5.0533277893
 20
5.5436624088
 30
0.0
 10
5.044604315
 20
5.5445382962
 30
0.0
 10
5.0388513247
 20
5.5454170638
 30
0.0
 10
5.0360118255
 20
5.545951707
 30
0.0
  0
SPLINE
  5
31F
100
AcDbEntity
  8
0
100
AcDbSpline
 62
7
  6
CONTINUOUS
 70
0
 71
3
 72
17
 73
13
 74
0
 42
0.0000001
 43
0.0000001
 44
0.0000000001
 40
0.0
 40
0.0
 40
0.0
 40
0.0
 40
0.1264341994
 40
0.1896402292
 40
0.2528215402
 40
0.3790460422
 40
0.5050009185
 40
0.6304896853
 40
0.7551954669
 40
0.8171167229
 40
0.8786342527
 40
1.0
 40
1.0
 40
1.0
 40
1.0
 10
5.5662634424
 20
5.4599938054
 30
0.0
 10
5.5725357627
 20
5.4708577829
 30
0.0
 10
5.5813994069
 20
5.4874763309
 30
0.0
 10
5.5920742541
 20
5.5101799867
 30
0.0
 10
5.6019713705
 20
5.5332116145
 30
0.0
 10
5.6128669346
 20
5.5625703592
 30
0.0
 10
5.6235140355
 20
5.5985269362
 30
0.0
 10
5.6316745239
 20
5.634973651
 30
0.0
 10
5.6363828978
 20
5.6656074014
 30
0.0
 10
5.6388773162
 20
5.6901056161
 30
0.0
 10
5.640516557
 20
5.7143427326
 30
0.0
 10
5.6408232351
 20
5.7325038488
 30
0.0
 10
5.6406151128
 20
5.7445438054
 30
0.0
  0
SPLINE
  5
320
100
AcDbEntity
  8
0
100
AcDbSpline
 62
7
  6
CONTINUOUS
 70
0
 71
3
 72
17
 73
13
 74
0
 42
0.0000001
 43
0.0000001
 44
0.0000000001
 40
0.0
 40
0.0
 40
0.0
 40
0.0
 40
0.126434178
 40
0.1896401973
 40
0.2528215048
 40
0.379046002
 40
0.5050008943
 40
0.6304896789
 40
0.7551954707
 40
0.8171167309
 40
0.8786342599
 40
1.0
 40
1.0
 40
1.0
 40
1.0
 10
5.5662634424
 20
6.0290938054
 30
0.0
 10
5.5725357617
 20
6.0182298298
 30
0.0
 10
5.5813994045
 20
6.0016112846
 30
0.0
 10
5.5920742504
 20
5.9789076322
 30
0.0
 10
5.6019713665
 20
5.9558760063
 30
0.0
 10
5.6128669317
 20
5.9265172611
 30
0.0
 10
5.6235140338
 20
5.8905606815
 30
0.0
 10
5.6316745234
 20
5.8541139625
 30
0.0
 10
5.636382898
 20
5.823480209
 30
0.0
 10
5.6388773162
 20
5.7989819929
 30
0.0
 10
5.6405165572
 20
5.7747448767
 30
0.0
 10
5.6408232351
 20
5.7565837613
 30
0.0
 10
5.6406151128
 20
5.7445438054
 30
0.0
  0
SPLINE
  5
321
100
AcDbEntity
  8
0
100
AcDbSpline
 62
7
  6
CONTINUOUS
 70
0
 71
3
 72
30
 73
26
 74
0
 42
0.0000001
 43
0.0000001
 44
0.0000000001
 40
0.0
 40
0.0
 40
0.0
 40
0.0
 40
0.104192529
 40
0.2042753419
 40
0.2997030966
 40
0.3900280579
 40
0.4748681831
 40
0.5539135239
 40
0.6269438464
 40
0.693812704
 40
0.7544444822
 40
0.8088125284
 40
0.8336515901
 40
0.8569225796
 40
0.89874396
 40
0.9172803715
 40
0.9342059367
 40
0.949498466
 40
0.9631080141
 40
0.9749873488
 40
0.9850995263
 40
0.9894821944
 40
0.9934150876
 40
0.9969111212
 40
1.0
 40
1.0
 40
1.0
 40
1.0
 10
5.0374131727
 20
5.5024738243
 30
0.0
 10
5.0360409658
 20
5.5030567615
 30
0.0
 10
5.0333377454
 20
5.5041693122
 30
0.0
 10
5.02934648
 20
5.5057382083
 30
0.0
 10
5.0255272199
 20
5.5072016693
 30
0.0
 10
5.0219106546
 20
5.5085845038
 30
0.0
 10
5.0185220652
 20
5.5099071502
 30
0.0
 10
5.015382508
 20
5.5111865432
 30
0.0
 10
5.0125085612
 20
5.5124346209
 30
0.0
 10
5.0099131988
 20
5.5136598569
 30
0.0
 10
5.0076062509
 20
5.5148659248
 30
0.0
 10
5.0058809314
 20
5.5158817544
 30
0.0
 10
5.0046545579
 20
5.516686175
 30
0.0
 10
5.0036033916
 20
5.5174286712
 30
0.0
 10
5.0026638229
 20
5.5181725368
 30
0.0
 10
5.001848253
 20
5.5189199556
 30
0.0
 10
5.0013388971
 20
5.5194381792
 30
0.0
 10
5.0009077249
 20
5.5199328145
 30
0.0
 10
5.0005550208
 20
5.5203984232
 30
0.0
 10
5.0002816806
 20
5.5208290231
 30
0.0
 10
5.0001131272
 20
5.5211679408
 30
0.0
 10
5.0000229128
 20
5.5214159936
 30
0.0
 10
4.999979432
 20
5.5215796164
 30
0.0
 10
4.9999570215
 20
5.5217287785
 30
0.0
 10
4.9999563559
 20
5.5218235136
 30
0.0
 10
4.9999603822
 20
5.5218675288
 30
0.0
  0
SPLINE
  5
322
100
AcDbEntity
  8
0
100
AcDbSpline
 62
7
  6
CONTINUOUS
 70
0
 71
3
 72
15
 73
11
 74
0
 42
0.0000001
 43
0.0000001
 44
0.0000000001
 40
0.0
 40
0.0
 40
0.0
 40
0.0
 40
0.1350570275
 40
0.2688641375
 40
0.4005619937
 40
0.5293153653
 40
0.6542851606
 40
0.7747138929
 40
0.8900338504
 40
1.0
 40
1.0
 40
1.0
 40
1.0
 10
5.0713755199
 20
5.4972706467
 30
0.0
 10
5.0698206548
 20
5.4973002999
 30
0.0
 10
5.0667258522
 20
5.4973937843
 30
0.0
 10
5.0621196587
 20
5.497640983
 30
0.0
 10
5.0575939126
 20
5.4980059249
 30
0.0
 10
5.0531832434
 20
5.4985066262
 30
0.0
 10
5.0489244309
 20
5.4991672263
 30
0.0
 10
5.0448560434
 20
5.5000160378
 30
0.0
 10
5.0410173955
 20
5.5010824262
 30
0.0
 10
5.0385785237
 20
5.5019785445
 30
0.0
 10
5.0374131727
 20
5.5024738243
 30
0.0
  0
SPLINE
  5
323
100
AcDbEntity
  8
0
100
AcDbSpline
 62
7
  6
CONTINUOUS
 70
0
 71
3
 72
15
 73
11
 74
0
 42
0.0000001
 43
0.0000001
 44
0.0000000001
 40
0.0
 40
0.0
 40
0.0
 40
0.0
 40
0.1091811758
 40
0.2241846089
 40
0.3446665766
 40
0.4699240622
 40
0.599064873
 40
0.7311185489
 40
0.8650976909
 40
1.0
 40
1.0
 40
1.0
 40
1.0
 10
5.1104060771
 20
5.5019809164
 30
0.0
 10
5.1091391921
 20
5.5014731467
 30
0.0
 10
5.1064830421
 20
5.5005645648
 30
0.0
 10
5.1023020708
 20
5.4995093028
 30
0.0
 10
5.0978644635
 20
5.4986924248
 30
0.0
 10
5.0932165965
 20
5.4980812322
 30
0.0
 10
5.0884042186
 20
5.4976459214
 30
0.0
 10
5.0834715266
 20
5.4973636945
 30
0.0
 10
5.0784609559
 20
5.497220701
 30
0.0
 10
5.0750992102
 20
5.4972159873
 30
0.0
 10
5.0734129604
 20
5.4972377081
 30
0.0
  0
LINE
  5
324
100
AcDbEntity
  8
0
100
AcDbLine
 62
7
  6
CONTINUOUS
 10
4.8800463854
 20
5.3971616107
 11
4.9596707749
 21
5.5326279207
  0
SPLINE
  5
325
100
AcDbEntity
  8
0
100
AcDbSpline
 62
7
  6
CONTINUOUS
 70
0
 71
3
 72
9
 73
5
 74
0
 42
0.0000001
 43
0.0000001
 44
0.0000000001
 40
0.0
 40
0.0
 40
0.0
 40
0.0
 40
0.2353300446
 40
1.0
 40
1.0
 40
1.0
 40
1.0
 10
4.9596707749
 20
5.5326279207
 30
0.0
 10
4.9596724932
 20
5.5326308585
 30
0.0
 10
4.9596804507
 20
5.532642947
 30
0.0
 10
4.9596896669
 20
5.5326541956
 30
0.0
 10
4.9596973373
 20
5.532662162
 30
0.0
  0
LINE
  5
326
100
AcDbEntity
  8
0
100
AcDbLine
 62
7
  6
CONTINUOUS
 10
4.9999389491
 20
5.532748452
 11
4.9596973373
 21
5.532662162
  0
LINE
  5
327
100
AcDbEntity
  8
0
100
AcDbLine
 62
7
  6
CONTINUOUS
 10
5.1871194329
 20
5.5326621621
 11
5.1470423301
 21
5.5327481525
  0
SPLINE
  5
328
100
AcDbEntity
  8
0
100
AcDbSpline
 62
7
  6
CONTINUOUS
 70
0
 71
3
 72
9
 73
5
 74
0
 42
0.0000001
 43
0.0000001
 44
0.0000000001
 40
0.0
 40
0.0
 40
0.0
 40
0.0
 40
0.2343974918
 40
1.0
 40
1.0
 40
1.0
 40
1.0
 10
5.1871459953
 20
5.5326279207
 30
0.0
 10
5.1871442819
 20
5.5326308464
 30
0.0
 10
5.1871364687
 20
5.5326430306
 30
0.0
 10
5.1871271224
 20
5.5326541929
 30
0.0
 10
5.1871194329
 20
5.5326621621
 30
0.0
  0
LINE
  5
329
100
AcDbEntity
  8
0
100
AcDbLine
 62
7
  6
CONTINUOUS
 10
5.2667703869
 20
5.3971616068
 11
5.1871459953
 21
5.5326279207
  0
LINE
  5
32A
100
AcDbEntity
  8
0
100
AcDbLine
 62
7
  6
CONTINUOUS
 10
5.4709311979
 20
5.7383091117
 11
5.3138427125
 21
5.737085814
  0
LINE
  5
32B
100
AcDbEntity
  8
0
100
AcDbLine
 62
7
  6
CONTINUOUS
 10
5.277569193
 20
5.4033963004
 11
5.2000641172
 21
5.5400862085
  0
LINE
  5
32C
100
AcDbEntity
  8
0
100
AcDbLine
 62
7
  6
CONTINUOUS
 10
5.4687823216
 20
5.750794193
 11
5.3138427522
 21
5.7520017883
  0
SPLINE
  5
32D
100
AcDbEntity
  8
0
100
AcDbSpline
 62
7
  6
CONTINUOUS
 70
0
 71
3
 72
9
 73
5
 74
0
 42
0.0000001
 43
0.0000001
 44
0.0000000001
 40
0.0
 40
0.0
 40
0.0
 40
0.0
 40
0.2353183448
 40
1.0
 40
1.0
 40
1.0
 40
1.0
 10
5.1871459953
 20
5.9564596901
 30
0.0
 10
5.187144277
 20
5.9564567525
 30
0.0
 10
5.1871363212
 20
5.9564446628
 30
0.0
 10
5.1871271034
 20
5.9564334152
 30
0.0
 10
5.1871194328
 20
5.9564254488
 30
0.0
  0
SPLINE
  5
32E
100
AcDbEntity
  8
0
100
AcDbSpline
 62
7
  6
CONTINUOUS
 70
0
 71
3
 72
9
 73
5
 74
0
 42
0.0000001
 43
0.0000001
 44
0.0000000001
 40
0.0
 40
0.0
 40
0.0
 40
0.0
 40
0.2343940302
 40
1.0
 40
1.0
 40
1.0
 40
1.0
 10
4.9596707749
 20
5.9564596901
 30
0.0
 10
4.9596724883
 20
5.9564567645
 30
0.0
 10
4.9596803009
 20
5.9564445799
 30
0.0
 10
4.9596896477
 20
5.9564334179
 30
0.0
 10
4.9596973373
 20
5.9564254488
 30
0.0
  0
LINE
  5
32F
100
AcDbEntity
  8
0
100
AcDbLine
 62
7
  6
CONTINUOUS
 10
4.8329740555
 20
5.7370858166
 11
4.6758855728
 21
5.7383091117
  0
LINE
  5
330
100
AcDbEntity
  8
0
100
AcDbLine
 62
7
  6
CONTINUOUS
 10
4.8692475796
 20
5.4033963045
 11
4.946752672
 21
5.5400862624
  0
LINE
  5
331
100
AcDbEntity
  8
0
100
AcDbLine
 62
7
  6
CONTINUOUS
 10
4.832974017
 20
5.7520017873
 11
4.6780344547
 21
5.7507941928
  0
SPLINE
  5
332
100
AcDbEntity
  8
0
100
AcDbSpline
 62
7
  6
CONTINUOUS
 70
0
 71
3
 72
17
 73
13
 74
0
 42
0.0000001
 43
0.0000001
 44
0.0000000001
 40
0.0
 40
0.0
 40
0.0
 40
0.0
 40
0.1213657466
 40
0.1828832767
 40
0.2448045339
 40
0.3695103203
 40
0.4949990952
 40
0.6209539793
 40
0.7471784775
 40
0.810359786
 40
0.8735658101
 40
1.0
 40
1.0
 40
1.0
 40
1.0
 10
5.3570117489
 20
6.2357592408
 30
0.0
 10
5.3675427183
 20
6.2299195017
 30
0.0
 10
5.3831173672
 20
6.2205733526
 30
0.0
 10
5.4032877055
 20
6.2070351701
 30
0.0
 10
5.4232565731
 20
6.1926258328
 30
0.0
 10
5.4474319933
 20
6.1732313852
 30
0.0
 10
5.4749155314
 20
6.147940836
 30
0.0
 10
5.5007312907
 20
6.1207418866
 30
0.0
 10
5.5207089271
 20
6.0966266785
 30
0.0
 10
5.5357063428
 20
6.0765397113
 30
0.0
 10
5.5500308608
 20
6.0559431959
 30
0.0
 10
5.5599911225
 20
6.0399577821
 30
0.0
 10
5.5662634424
 20
6.0290938054
 30
0.0
  0
SPLINE
  5
333
100
AcDbEntity
  8
0
100
AcDbSpline
 62
7
  6
CONTINUOUS
 70
0
 71
3
 72
17
 73
13
 74
0
 42
0.0000001
 43
0.0000001
 44
0.0000000001
 40
0.0
 40
0.0
 40
0.0
 40
0.0
 40
0.1264341798
 40
0.1896401994
 40
0.2528215068
 40
0.3790460031
 40
0.5050008934
 40
0.6304896759
 40
0.7551954667
 40
0.8171167254
 40
0.8786342553
 40
1.0
 40
1.0
 40
1.0
 40
1.0
 10
5.0734083851
 20
6.3136438054
 30
0.0
 10
5.0859530238
 20
6.3136438054
 30
0.0
 10
5.1047769277
 20
6.3130106727
 30
0.0
 10
5.1297762907
 20
6.3109035342
 30
0.0
 10
5.1546708217
 20
6.3079588752
 30
0.0
 10
5.1855440231
 20
6.3027153388
 30
0.0
 10
5.2220068851
 20
6.2939577101
 30
0.0
 10
5.257650914
 20
6.2828015421
 30
0.0
 10
5.2865347096
 20
6.2715622375
 30
0.0
 10
5.3089979961
 20
6.2614733592
 30
0.0
 10
5.3308075752
 20
6.2507744252
 30
0.0
 10
5.346688902
 20
6.2419594582
 30
0.0
 10
5.3570117489
 20
6.2357592408
 30
0.0
  0
LINE
  5
334
100
AcDbEntity
  8
0
100
AcDbLine
 62
7
  6
CONTINUOUS
 10
4.9596973373
 20
5.9564254488
 11
4.9624374522
 21
5.9459759212
  0
LINE
  5
335
100
AcDbEntity
  8
0
100
AcDbLine
 62
7
  6
CONTINUOUS
 10
5.1871194328
 20
5.9564254488
 11
5.1843793171
 21
5.9459759204
  0
LINE
  5
336
100
AcDbEntity
  8
0
100
AcDbLine
 62
7
  6
CONTINUOUS
 10
5.3138427583
 20
5.752001778
 11
5.3019539764
 21
5.7481186708
  0
LINE
  5
337
100
AcDbEntity
  8
0
100
AcDbLine
 62
7
  6
CONTINUOUS
 10
5.1999803404
 20
5.948944563
 11
5.1907786749
 21
5.9414306776
  0
LINE
  5
338
100
AcDbEntity
  8
0
100
AcDbLine
 62
7
  6
CONTINUOUS
 10
5.2000640866
 20
5.9490013837
 11
5.1999803404
 21
5.948944563
  0
LINE
  5
339
100
AcDbEntity
  8
0
100
AcDbLine
 62
7
  6
CONTINUOUS
 10
5.3138427288
 20
5.7370858419
 11
5.3019539513
 21
5.7409689518
  0
LINE
  5
33A
100
AcDbEntity
  8
0
100
AcDbLine
 62
7
  6
CONTINUOUS
 10
5.2000641159
 20
5.5400862061
 11
5.1999803404
 21
5.5401430479
  0
LINE
  5
33B
100
AcDbEntity
  8
0
100
AcDbLine
 62
7
  6
CONTINUOUS
 10
5.1999803404
 20
5.5401430479
 11
5.1907599991
 21
5.5476719991
  0
LINE
  5
33C
100
AcDbEntity
  8
0
100
AcDbLine
 62
7
  6
CONTINUOUS
 10
5.1871194329
 20
5.5326621621
 11
5.1843793171
 21
5.5431116847
  0
LINE
  5
33D
100
AcDbEntity
  8
0
100
AcDbLine
 62
7
  6
CONTINUOUS
 10
4.9596973373
 20
5.532662162
 11
4.9624374514
 21
5.5431116889
  0
LINE
  5
33E
100
AcDbEntity
  8
0
100
AcDbLine
 62
7
  6
CONTINUOUS
 10
4.8448628244
 20
5.740968954
 11
4.8329740409
 21
5.7370858417
  0
LINE
  5
33F
100
AcDbEntity
  8
0
100
AcDbLine
 62
7
  6
CONTINUOUS
 10
4.9468364296
 20
5.5401430477
 11
4.9560380955
 21
5.5476569328
  0
LINE
  5
340
100
AcDbEntity
  8
0
100
AcDbLine
 62
7
  6
CONTINUOUS
 10
4.9467526897
 20
5.5400862315
 11
4.9468364296
 21
5.5401430477
  0
LINE
  5
341
100
AcDbEntity
  8
0
100
AcDbLine
 62
7
  6
CONTINUOUS
 10
4.8448627997
 20
5.7481186701
 11
4.8329740116
 21
5.7520017781
  0
LINE
  5
342
100
AcDbEntity
  8
0
100
AcDbLine
 62
7
  6
CONTINUOUS
 10
4.9467526873
 20
5.9490013809
 11
4.9468364297
 21
5.9489445631
  0
LINE
  5
343
100
AcDbEntity
  8
0
100
AcDbLine
 62
7
  6
CONTINUOUS
 10
4.9468364297
 20
5.9489445631
 11
4.9560567703
 21
5.9414156103
  0
SPLINE
  5
344
100
AcDbEntity
  8
0
100
AcDbSpline
 62
7
  6
CONTINUOUS
 70
0
 71
3
 72
17
 73
13
 74
0
 42
0.0000001
 43
0.0000001
 44
0.0000000001
 40
0.0
 40
0.0
 40
0.0
 40
0.0
 40
0.1213658069
 40
0.1828833597
 40
0.2448046193
 40
0.3695103606
 40
0.4949990356
 40
0.6209537857
 40
0.7471782381
 40
0.8103595457
 40
0.873565627
 40
1.0
 40
1.0
 40
1.0
 40
1.0
 10
4.7898050213
 20
6.2357592408
 30
0.0
 10
4.8001278735
 20
6.2419594613
 30
0.0
 10
4.8160092083
 20
6.2507744313
 30
0.0
 10
4.8378187948
 20
6.2614733695
 30
0.0
 10
4.8602820796
 20
6.2715622454
 30
0.0
 10
4.8891658611
 20
6.2828015435
 30
0.0
 10
4.9248098617
 20
6.293957703
 30
0.0
 10
4.961272695
 20
6.302715327
 30
0.0
 10
4.9921458776
 20
6.3079588645
 30
0.0
 10
5.0170404101
 20
6.3109035272
 30
0.0
 10
5.042039798
 20
6.3130106714
 30
0.0
 10
5.0608637272
 20
6.3136438054
 30
0.0
 10
5.0734083851
 20
6.3136438054
 30
0.0
  0
SPLINE
  5
345
100
AcDbEntity
  8
0
100
AcDbSpline
 62
7
  6
CONTINUOUS
 70
0
 71
3
 72
17
 73
13
 74
0
 42
0.0000001
 43
0.0000001
 44
0.0000000001
 40
0.0
 40
0.0
 40
0.0
 40
0.0
 40
0.1264341867
 40
0.1896402097
 40
0.2528215182
 40
0.3790460164
 40
0.5050009018
 40
0.6304896784
 40
0.7551954659
 40
0.8171167235
 40
0.8786342536
 40
1.0
 40
1.0
 40
1.0
 40
1.0
 10
4.5805533278
 20
6.0290938054
 30
0.0
 10
4.5868256475
 20
6.0399577818
 30
0.0
 10
4.596785909
 20
6.0559431953
 30
0.0
 10
4.6111104267
 20
6.0765397103
 30
0.0
 10
4.6261078423
 20
6.0966266775
 30
0.0
 10
4.6460854787
 20
6.1207418857
 30
0.0
 10
4.6719012382
 20
6.1479408354
 30
0.0
 10
4.6993847766
 20
6.1732313849
 30
0.0
 10
4.7235601969
 20
6.1926258327
 30
0.0
 10
4.7435290647
 20
6.2070351701
 30
0.0
 10
4.763699403
 20
6.2205733526
 30
0.0
 10
4.7792740519
 20
6.2299195017
 30
0.0
 10
4.7898050213
 20
6.2357592408
 30
0.0
  0
SPLINE
  5
346
100
AcDbEntity
  8
0
100
AcDbSpline
 62
7
  6
CONTINUOUS
 70
0
 71
3
 72
17
 73
13
 74
0
 42
0.0000001
 43
0.0000001
 44
0.0000000001
 40
0.0
 40
0.0
 40
0.0
 40
0.0
 40
0.1213657442
 40
0.1828832741
 40
0.2448045331
 40
0.369510325
 40
0.4949991096
 40
0.6209540016
 40
0.7471784971
 40
0.8103598039
 40
0.8735658223
 40
1.0
 40
1.0
 40
1.0
 40
1.0
 10
4.5062016574
 20
5.7445438054
 30
0.0
 10
4.5059935351
 20
5.7565837617
 30
0.0
 10
4.5063002131
 20
5.7747448776
 30
0.0
 10
4.5079394541
 20
5.7989819941
 30
0.0
 10
4.5104338724
 20
5.8234802102
 30
0.0
 10
4.515142247
 20
5.8541139636
 30
0.0
 10
4.5233027367
 20
5.8905606826
 30
0.0
 10
4.5339498388
 20
5.926517262
 30
0.0
 10
4.5448454039
 20
5.9558760069
 30
0.0
 10
4.5547425199
 20
5.9789076325
 30
0.0
 10
4.5654173658
 20
6.0016112847
 30
0.0
 10
4.5742810085
 20
6.0182298298
 30
0.0
 10
4.5805533278
 20
6.0290938054
 30
0.0
  0
SPLINE
  5
347
100
AcDbEntity
  8
0
100
AcDbSpline
 62
7
  6
CONTINUOUS
 70
0
 71
3
 72
17
 73
13
 74
0
 42
0.0000001
 43
0.0000001
 44
0.0000000001
 40
0.0
 40
0.0
 40
0.0
 40
0.0
 40
0.1264341903
 40
0.1896402151
 40
0.2528215241
 40
0.3790460228
 40
0.5050009063
 40
0.6304896807
 40
0.7551954667
 40
0.8171167238
 40
0.8786342537
 40
1.0
 40
1.0
 40
1.0
 40
1.0
 10
4.5805533278
 20
5.4599938054
 30
0.0
 10
4.5742810079
 20
5.4708577821
 30
0.0
 10
4.5654173643
 20
5.4874763288
 30
0.0
 10
4.5547425177
 20
5.5101799831
 30
0.0
 10
4.5448454015
 20
5.5332116099
 30
0.0
 10
4.533949837
 20
5.5625703546
 30
0.0
 10
4.5233027355
 20
5.5985269327
 30
0.0
 10
4.5151422466
 20
5.6349736493
 30
0.0
 10
4.5104338724
 20
5.665607401
 30
0.0
 10
4.507939454
 20
5.6901056163
 30
0.0
 10
4.5063002132
 20
5.7143427328
 30
0.0
 10
4.5059935351
 20
5.7325038489
 30
0.0
 10
4.5062016574
 20
5.7445438054
 30
0.0
  0
SPLINE
  5
348
100
AcDbEntity
  8
0
100
AcDbSpline
 62
7
  6
CONTINUOUS
 70
0
 71
3
 72
9
 73
5
 74
0
 42
0.0000001
 43
0.0000001
 44
0.0000000001
 40
0.0
 40
0.0
 40
0.0
 40
0.0
 40
0.5078075074
 40
1.0
 40
1.0
 40
1.0
 40
1.0
 10
5.1500378941
 20
4.1271556232
 30
0.0
 10
5.1506573064
 20
4.1270142277
 30
0.0
 10
5.1518934008
 20
4.1268022591
 30
0.0
 10
5.1531463509
 20
4.126736422
 30
0.0
 10
5.1537621206
 20
4.1267433746
 30
0.0
  0
SPLINE
  5
349
100
AcDbEntity
  8
0
100
AcDbSpline
 62
7
  6
CONTINUOUS
 70
0
 71
3
 72
15
 73
11
 74
0
 42
0.0000001
 43
0.0000001
 44
0.0000000001
 40
0.0
 40
0.0
 40
0.0
 40
0.0
 40
0.1127013174
 40
0.2312477553
 40
0.354797644
 40
0.4821637383
 40
0.6119331044
 40
0.7425557693
 40
0.8724273069
 40
1.0
 40
1.0
 40
1.0
 40
1.0
 10
5.1537621206
 20
4.1267433746
 30
0.0
 10
5.1542774116
 20
4.1271444155
 30
0.0
 10
5.1552738768
 20
4.1280476777
 30
0.0
 10
5.1566067907
 20
4.1296190525
 30
0.0
 10
5.1577901864
 20
4.1314085146
 30
0.0
 10
5.1587974095
 20
4.1333754865
 30
0.0
 10
5.1596062121
 20
4.1354757548
 30
0.0
 10
5.1601983914
 20
4.1376621024
 30
0.0
 10
5.1605606913
 20
4.1398849471
 30
0.0
 10
5.1606444958
 20
4.1413776168
 30
0.0
 10
5.1606444958
 20
4.142116739
 30
0.0
  0
SPLINE
  5
34A
100
AcDbEntity
  8
0
100
AcDbSpline
 62
7
  6
CONTINUOUS
 70
0
 71
3
 72
11
 73
7
 74
0
 42
0.0000001
 43
0.0000001
 44
0.0000000001
 40
0.0
 40
0.0
 40
0.0
 40
0.0
 40
0.2493090793
 40
0.5011185756
 40
0.752364988
 40
1.0
 40
1.0
 40
1.0
 40
1.0
 10
4.9563621241
 20
5.5480782195
 30
0.0
 10
4.9568475082
 20
5.5476883919
 30
0.0
 10
4.9578481942
 20
5.5469355206
 30
0.0
 10
4.9594160584
 20
5.5458984618
 30
0.0
 10
4.961039815
 20
5.5449596216
 30
0.0
 10
4.9621552315
 20
5.5444027283
 30
0.0
 10
4.9627171035
 20
5.5441445115
 30
0.0
  0
SPLINE
  5
34B
100
AcDbEntity
  8
0
100
AcDbSpline
 62
7
  6
CONTINUOUS
 70
0
 71
3
 72
11
 73
7
 74
0
 42
0.0000001
 43
0.0000001
 44
0.0000000001
 40
0.0
 40
0.0
 40
0.0
 40
0.0
 40
0.2513357934
 40
0.5039989107
 40
0.754646984
 40
1.0
 40
1.0
 40
1.0
 40
1.0
 10
4.956038096
 20
5.5476569329
 30
0.0
 10
4.956520484
 20
5.5472073219
 30
0.0
 10
4.9575187034
 20
5.5463383029
 30
0.0
 10
4.9590952506
 20
5.5451382225
 30
0.0
 10
4.9607342638
 20
5.5440531183
 30
0.0
 10
4.961866628
 20
5.5434092613
 30
0.0
 10
4.9624374512
 20
5.5431116823
 30
0.0
  0
SPLINE
  5
34C
100
AcDbEntity
  8
0
100
AcDbSpline
 62
7
  6
CONTINUOUS
 70
0
 71
3
 72
15
 73
11
 74
0
 42
0.0000001
 43
0.0000001
 44
0.0000000001
 40
0.0
 40
0.0
 40
0.0
 40
0.0
 40
0.1251062702
 40
0.2502636422
 40
0.3754293002
 40
0.5005598843
 40
0.6256143507
 40
0.7505566889
 40
0.875358316
 40
1.0
 40
1.0
 40
1.0
 40
1.0
 10
4.946836438
 20
5.5401430526
 30
0.0
 10
4.9471641007
 20
5.5395836712
 30
0.0
 10
4.9478924934
 20
5.5385056163
 30
0.0
 10
4.9491826812
 20
5.5370427605
 30
0.0
 10
4.9506499048
 20
5.5357568613
 30
0.0
 10
4.9522692968
 20
5.534669901
 30
0.0
 10
4.9540136657
 20
5.5338000646
 30
0.0
 10
4.9558537912
 20
5.5331620185
 30
0.0
 10
4.9577583147
 20
5.5327665129
 30
0.0
 10
4.9590514973
 20
5.5326689167
 30
0.0
 10
4.9596973373
 20
5.5326621627
 30
0.0
  0
SPLINE
  5
34D
100
AcDbEntity
  8
0
100
AcDbSpline
 62
7
  6
CONTINUOUS
 70
0
 71
3
 72
11
 73
7
 74
0
 42
0.0000001
 43
0.0000001
 44
0.0000000001
 40
0.0
 40
0.0
 40
0.0
 40
0.0
 40
0.2476350084
 40
0.4988814208
 40
0.7506909185
 40
1.0
 40
1.0
 40
1.0
 40
1.0
 10
5.1840996649
 20
5.544144512
 30
0.0
 10
5.1846615368
 20
5.5444027289
 30
0.0
 10
5.1857769533
 20
5.5449596222
 30
0.0
 10
5.1874007102
 20
5.5458984621
 30
0.0
 10
5.1889685743
 20
5.5469355211
 30
0.0
 10
5.1899692603
 20
5.5476883923
 30
0.0
 10
5.1904546446
 20
5.5480782199
 30
0.0
  0
SPLINE
  5
34E
100
AcDbEntity
  8
0
100
AcDbSpline
 62
7
  6
CONTINUOUS
 70
0
 71
3
 72
11
 73
7
 74
0
 42
0.0000001
 43
0.0000001
 44
0.0000000001
 40
0.0
 40
0.0
 40
0.0
 40
0.0
 40
0.245353326
 40
0.4960013556
 40
0.7486643519
 40
1.0
 40
1.0
 40
1.0
 40
1.0
 10
5.1843793179
 20
5.543111659
 30
0.0
 10
5.1849501431
 20
5.543409238
 30
0.0
 10
5.1860825093
 20
5.5440530978
 30
0.0
 10
5.1877215154
 20
5.5451382184
 30
0.0
 10
5.1892980655
 20
5.5463382983
 30
0.0
 10
5.1902962844
 20
5.5472073199
 30
0.0
 10
5.1907786727
 20
5.5476569315
 30
0.0
  0
SPLINE
  5
34F
100
AcDbEntity
  8
0
100
AcDbSpline
 62
7
  6
CONTINUOUS
 70
0
 71
3
 72
15
 73
11
 74
0
 42
0.0000001
 43
0.0000001
 44
0.0000000001
 40
0.0
 40
0.0
 40
0.0
 40
0.0
 40
0.1246417163
 40
0.2494433966
 40
0.3743858013
 40
0.4994403216
 40
0.6245709272
 40
0.7497365581
 40
0.8748938521
 40
1.0
 40
1.0
 40
1.0
 40
1.0
 10
5.1871194329
 20
5.5326640066
 30
0.0
 10
5.1877651533
 20
5.532670777
 30
0.0
 10
5.189058095
 20
5.5327684143
 30
0.0
 10
5.1909622374
 20
5.533164002
 30
0.0
 10
5.1928019537
 20
5.5338021384
 30
0.0
 10
5.194545882
 20
5.5346720558
 30
0.0
 10
5.1961648063
 20
5.5357590679
 30
0.0
 10
5.1976315469
 20
5.5370449701
 30
0.0
 10
5.1989212561
 20
5.5385077647
 30
0.0
 10
5.1996493486
 20
5.5395857294
 30
0.0
 10
5.1999768706
 20
5.5401450534
 30
0.0
  0
SPLINE
  5
350
100
AcDbEntity
  8
0
100
AcDbSpline
 62
7
  6
CONTINUOUS
 70
0
 71
3
 72
15
 73
11
 74
0
 42
0.0000001
 43
0.0000001
 44
0.0000000001
 40
0.0
 40
0.0
 40
0.0
 40
0.0
 40
0.1251062705
 40
0.2502636429
 40
0.3754293011
 40
0.5005598853
 40
0.6256143516
 40
0.7505566896
 40
0.8753583164
 40
1.0
 40
1.0
 40
1.0
 40
1.0
 10
5.199980332
 20
5.9489445582
 30
0.0
 10
5.1996526693
 20
5.9495039396
 30
0.0
 10
5.1989242766
 20
5.9505819944
 30
0.0
 10
5.1976340888
 20
5.9520448503
 30
0.0
 10
5.1961668652
 20
5.9533307495
 30
0.0
 10
5.1945474732
 20
5.9544177098
 30
0.0
 10
5.1928031043
 20
5.9552875462
 30
0.0
 10
5.1909629788
 20
5.9559255923
 30
0.0
 10
5.1890584553
 20
5.9563210978
 30
0.0
 10
5.1877652727
 20
5.956418694
 30
0.0
 10
5.1871194328
 20
5.9564254481
 30
0.0
  0
SPLINE
  5
351
100
AcDbEntity
  8
0
100
AcDbSpline
 62
7
  6
CONTINUOUS
 70
0
 71
3
 72
11
 73
7
 74
0
 42
0.0000001
 43
0.0000001
 44
0.0000000001
 40
0.0
 40
0.0
 40
0.0
 40
0.0
 40
0.2513357887
 40
0.503998905
 40
0.75464698
 40
1.0
 40
1.0
 40
1.0
 40
1.0
 10
5.1907786744
 20
5.9414306774
 30
0.0
 10
5.1902962863
 20
5.9418802883
 30
0.0
 10
5.1892980666
 20
5.9427493072
 30
0.0
 10
5.1877215188
 20
5.9439493873
 30
0.0
 10
5.1860825052
 20
5.9450344913
 30
0.0
 10
5.1849501406
 20
5.945678348
 30
0.0
 10
5.1843793173
 20
5.9459759269
 30
0.0
  0
SPLINE
  5
352
100
AcDbEntity
  8
0
100
AcDbSpline
 62
7
  6
CONTINUOUS
 70
0
 71
3
 72
11
 73
7
 74
0
 42
0.0000001
 43
0.0000001
 44
0.0000000001
 40
0.0
 40
0.0
 40
0.0
 40
0.0
 40
0.2493090783
 40
0.5011185746
 40
0.7523649875
 40
1.0
 40
1.0
 40
1.0
 40
1.0
 10
5.1904546467
 20
5.9410093916
 30
0.0
 10
5.1899692625
 20
5.9413992192
 30
0.0
 10
5.1889685764
 20
5.9421520905
 30
0.0
 10
5.1874007121
 20
5.9431891494
 30
0.0
 10
5.1857769552
 20
5.9441279896
 30
0.0
 10
5.1846615386
 20
5.9446848829
 30
0.0
 10
5.1840996666
 20
5.9449430997
 30
0.0
  0
LINE
  5
353
100
AcDbEntity
  8
0
100
AcDbLine
 62
7
  6
CONTINUOUS
 10
5.0681415335
 20
4.0094571561
 11
5.0696841586
 21
4.0104524123
  0
SPLINE
  5
354
100
AcDbEntity
  8
0
100
AcDbSpline
 62
7
  6
CONTINUOUS
 70
0
 71
3
 72
9
 73
5
 74
0
 42
0.0000001
 43
0.0000001
 44
0.0000000001
 40
0.0
 40
0.0
 40
0.0
 40
0.0
 40
0.4921924606
 40
1.0
 40
1.0
 40
1.0
 40
1.0
 10
5.0696841586
 20
4.0104524123
 30
0.0
 10
5.0702999283
 20
4.0104454597
 30
0.0
 10
5.0715528784
 20
4.0105112968
 30
0.0
 10
5.0727889728
 20
4.0107232655
 30
0.0
 10
5.0734083851
 20
4.0108646609
 30
0.0
  0
LINE
  5
355
100
AcDbEntity
  8
0
100
AcDbLine
 62
7
  6
CONTINUOUS
 10
5.0771326116
 20
4.0104524123
 11
5.0786752367
 21
4.0094571561
  0
SPLINE
  5
356
100
AcDbEntity
  8
0
100
AcDbSpline
 62
7
  6
CONTINUOUS
 70
0
 71
3
 72
9
 73
5
 74
0
 42
0.0000001
 43
0.0000001
 44
0.0000000001
 40
0.0
 40
0.0
 40
0.0
 40
0.0
 40
0.5078075403
 40
1.0
 40
1.0
 40
1.0
 40
1.0
 10
5.0734083851
 20
4.0108646609
 30
0.0
 10
5.0740277974
 20
4.0107232655
 30
0.0
 10
5.0752638918
 20
4.0105112968
 30
0.0
 10
5.0765168419
 20
4.0104454597
 30
0.0
 10
5.0771326116
 20
4.0104524123
 30
0.0
  0
LINE
  5
357
100
AcDbEntity
  8
0
100
AcDbLine
 62
7
  6
CONTINUOUS
 10
4.8846841586
 20
4.054835417
 11
4.8839581706
 21
4.0551507592
  0
LINE
  5
358
100
AcDbEntity
  8
0
100
AcDbLine
 62
7
  6
CONTINUOUS
 10
4.8839581706
 20
4.0551507592
 11
4.8834550122
 21
4.0555213521
  0
LINE
  5
359
100
AcDbEntity
  8
0
100
AcDbLine
 62
7
  6
CONTINUOUS
 10
4.8834550122
 20
4.0555213521
 11
4.8831415335
 21
4.0558306732
  0
SPLINE
  5
35A
100
AcDbEntity
  8
0
100
AcDbSpline
 62
7
  6
CONTINUOUS
 70
0
 71
3
 72
15
 73
11
 74
0
 42
0.0000001
 43
0.0000001
 44
0.0000000001
 40
0.0
 40
0.0
 40
0.0
 40
0.0
 40
0.1271372283
 40
0.2536761817
 40
0.3795415353
 40
0.5047037128
 40
0.6292041927
 40
0.753145689
 40
0.8766768949
 40
1.0
 40
1.0
 40
1.0
 40
1.0
 10
4.8831415335
 20
4.0558306732
 30
0.0
 10
4.882434293
 20
4.0560862426
 30
0.0
 10
4.8810584444
 20
4.0567009546
 30
0.0
 10
4.8791602103
 20
4.0579143184
 30
0.0
 10
4.877472828
 20
4.0593903221
 30
0.0
 10
4.8760357142
 20
4.0610952524
 30
0.0
 10
4.8748818189
 20
4.0629901435
 30
0.0
 10
4.8740379508
 20
4.065031805
 30
0.0
 10
4.8735235961
 20
4.067172658
 30
0.0
 10
4.8734083851
 20
4.0686353624
 30
0.0
 10
4.8734083851
 20
4.0693648028
 30
0.0
  0
LINE
  5
35B
100
AcDbEntity
  8
0
100
AcDbLine
 62
7
  6
CONTINUOUS
 10
4.8831415335
 20
4.0967873643
 11
4.8846841586
 21
4.0977826206
  0
SPLINE
  5
35C
100
AcDbEntity
  8
0
100
AcDbSpline
 62
7
  6
CONTINUOUS
 70
0
 71
3
 72
15
 73
11
 74
0
 42
0.0000001
 43
0.0000001
 44
0.0000000001
 40
0.0
 40
0.0
 40
0.0
 40
0.0
 40
0.1127013115
 40
0.2312477831
 40
0.3547976799
 40
0.4821637932
 40
0.6119332074
 40
0.7425559156
 40
0.8724274027
 40
1.0
 40
1.0
 40
1.0
 40
1.0
 10
4.8846841586
 20
4.0977826206
 30
0.0
 10
4.8841688677
 20
4.0981836615
 30
0.0
 10
4.8831724023
 20
4.0990869238
 30
0.0
 10
4.8818394883
 20
4.1006582987
 30
0.0
 10
4.8806560925
 20
4.1024477612
 30
0.0
 10
4.8796488692
 20
4.1044147335
 30
0.0
 10
4.8788400666
 20
4.1065150024
 30
0.0
 10
4.8782478874
 20
4.1087013504
 30
0.0
 10
4.8778855878
 20
4.1109241945
 30
0.0
 10
4.8778017834
 20
4.1124168633
 30
0.0
 10
4.8778017834
 20
4.113155985
 30
0.0
  0
SPLINE
  5
35D
100
AcDbEntity
  8
0
100
AcDbSpline
 62
7
  6
CONTINUOUS
 70
0
 71
3
 72
11
 73
7
 74
0
 42
0.0000001
 43
0.0000001
 44
0.0000000001
 40
0.0
 40
0.0
 40
0.0
 40
0.0
 40
0.2476350113
 40
0.4988814247
 40
0.7506909215
 40
1.0
 40
1.0
 40
1.0
 40
1.0
 10
4.9627171037
 20
5.9449430996
 30
0.0
 10
4.9621552317
 20
5.9446848827
 30
0.0
 10
4.9610398151
 20
5.9441279894
 30
0.0
 10
4.9594160582
 20
5.9431891494
 30
0.0
 10
4.9578481941
 20
5.9421520903
 30
0.0
 10
4.9568475081
 20
5.9413992191
 30
0.0
 10
4.9563621238
 20
5.9410093915
 30
0.0
  0
SPLINE
  5
35E
100
AcDbEntity
  8
0
100
AcDbSpline
 62
7
  6
CONTINUOUS
 70
0
 71
3
 72
11
 73
7
 74
0
 42
0.0000001
 43
0.0000001
 44
0.0000000001
 40
0.0
 40
0.0
 40
0.0
 40
0.0
 40
0.2453533384
 40
0.4960013711
 40
0.7486643628
 40
1.0
 40
1.0
 40
1.0
 40
1.0
 10
4.9624374514
 20
5.9459759469
 30
0.0
 10
4.9618666262
 20
5.9456783682
 30
0.0
 10
4.9607342601
 20
5.9450345089
 30
0.0
 10
4.959095254
 20
5.9439493891
 30
0.0
 10
4.9575187038
 20
5.9427493101
 30
0.0
 10
4.9565204848
 20
5.941880289
 30
0.0
 10
4.9560380965
 20
5.9414306777
 30
0.0
  0
SPLINE
  5
35F
100
AcDbEntity
  8
0
100
AcDbSpline
 62
7
  6
CONTINUOUS
 70
0
 71
3
 72
15
 73
11
 74
0
 42
0.0000001
 43
0.0000001
 44
0.0000000001
 40
0.0
 40
0.0
 40
0.0
 40
0.0
 40
0.1246417166
 40
0.249443397
 40
0.3743858018
 40
0.4994403222
 40
0.6245709277
 40
0.7497365585
 40
0.8748938523
 40
1.0
 40
1.0
 40
1.0
 40
1.0
 10
4.9596973374
 20
5.9564236043
 30
0.0
 10
4.959051617
 20
5.9564168339
 30
0.0
 10
4.9577586752
 20
5.9563191966
 30
0.0
 10
4.9558545328
 20
5.9559236089
 30
0.0
 10
4.9540148165
 20
5.9552854726
 30
0.0
 10
4.9522708881
 20
5.9544155551
 30
0.0
 10
4.9506519639
 20
5.953328543
 30
0.0
 10
4.9491852232
 20
5.9520426408
 30
0.0
 10
4.947895514
 20
5.9505798462
 30
0.0
 10
4.9471674215
 20
5.9495018816
 30
0.0
 10
4.9468398995
 20
5.9489425576
 30
0.0
  0
SPLINE
  5
360
100
AcDbEntity
  8
0
100
AcDbSpline
 62
7
  6
CONTINUOUS
 70
0
 71
3
 72
15
 73
11
 74
0
 42
0.0000001
 43
0.0000001
 44
0.0000000001
 40
0.0
 40
0.0
 40
0.0
 40
0.0
 40
0.1271372284
 40
0.2536761819
 40
0.3795415356
 40
0.5047037131
 40
0.629204193
 40
0.7531456893
 40
0.8766768951
 40
1.0
 40
1.0
 40
1.0
 40
1.0
 10
4.8831415335
 20
4.0967873643
 30
0.0
 10
4.882434293
 20
4.0970429337
 30
0.0
 10
4.8810584444
 20
4.0976576457
 30
0.0
 10
4.8791602102
 20
4.0988710095
 30
0.0
 10
4.877472828
 20
4.1003470132
 30
0.0
 10
4.8760357142
 20
4.1020519435
 30
0.0
 10
4.8748818189
 20
4.1039468346
 30
0.0
 10
4.8740379508
 20
4.1059884961
 30
0.0
 10
4.8735235961
 20
4.1081293491
 30
0.0
 10
4.8734083851
 20
4.1095920535
 30
0.0
 10
4.8734083851
 20
4.110321494
 30
0.0
  0
SPLINE
  5
361
100
AcDbEntity
  8
0
100
AcDbSpline
 62
7
  6
CONTINUOUS
 70
0
 71
3
 72
23
 73
19
 74
0
 42
0.0000001
 43
0.0000001
 44
0.0000000001
 40
0.0
 40
0.0
 40
0.0
 40
0.0
 40
0.0390278471
 40
0.0805804067
 40
0.12492456
 40
0.1722707451
 40
0.222780202
 40
0.2765631458
 40
0.3336946366
 40
0.3942245837
 40
0.4581809712
 40
0.5255671069
 40
0.5963694114
 40
0.6705564382
 40
0.7480828394
 40
0.8288830139
 40
0.9128820216
 40
1.0
 40
1.0
 40
1.0
 40
1.0
 10
4.7626327966
 20
4.971975801
 30
0.0
 10
4.7636109356
 20
4.973613933
 30
0.0
 10
4.7658165747
 20
4.9768873922
 30
0.0
 10
4.7696937826
 20
4.9816153363
 30
0.0
 10
4.7742299204
 20
4.9862992906
 30
0.0
 10
4.7794191175
 20
4.990933028
 30
0.0
 10
4.7852556481
 20
4.995510625
 30
0.0
 10
4.7917310483
 20
5.0000274377
 30
0.0
 10
4.7988366164
 20
5.0044781057
 30
0.0
 10
4.8065633519
 20
5.0088569011
 30
0.0
 10
4.8149016779
 20
5.0131577537
 30
0.0
 10
4.8238408218
 20
5.0173750811
 30
0.0
 10
4.833369085
 20
5.0215027948
 30
0.0
 10
4.8434733859
 20
5.0255358017
 30
0.0
 10
4.8541394766
 20
5.0294685255
 30
0.0
 10
4.8653517538
 20
5.033295984
 30
0.0
 10
4.87709382
 20
5.0370128264
 30
0.0
 10
4.8851205123
 20
5.0393712115
 30
0.0
 10
4.8892179507
 20
5.0405327845
 30
0.0
  0
LINE
  5
362
100
AcDbEntity
  8
0
100
AcDbLine
 62
7
  6
CONTINUOUS
 10
5.2636752367
 20
4.0558306732
 11
5.2633617579
 21
4.0555213521
  0
LINE
  5
363
100
AcDbEntity
  8
0
100
AcDbLine
 62
7
  6
CONTINUOUS
 10
5.2633617579
 20
4.0555213521
 11
5.2622786779
 21
4.0548806551
  0
SPLINE
  5
364
100
AcDbEntity
  8
0
100
AcDbSpline
 62
7
  6
CONTINUOUS
 70
0
 71
3
 72
15
 73
11
 74
0
 42
0.0000001
 43
0.0000001
 44
0.0000000001
 40
0.0
 40
0.0
 40
0.0
 40
0.0
 40
0.127076972
 40
0.2535834107
 40
0.379445059
 40
0.5046296343
 40
0.6291678352
 40
0.7531456279
 40
0.8766896937
 40
1.0
 40
1.0
 40
1.0
 40
1.0
 10
5.2636752367
 20
4.0558306732
 30
0.0
 10
5.2643561172
 20
4.0560767172
 30
0.0
 10
5.2656820233
 20
4.0566647711
 30
0.0
 10
5.2675191163
 20
4.0578175606
 30
0.0
 10
5.2691636779
 20
4.0592157704
 30
0.0
 10
5.2705801337
 20
4.0608297851
 30
0.0
 10
5.2717384127
 20
4.0626254263
 30
0.0
 10
5.2726135951
 20
4.0645647779
 30
0.0
 10
5.273187049
 20
4.066606056
 30
0.0
 10
5.2733599039
 20
4.0680081476
 30
0.0
 10
5.2733929583
 20
4.0687098828
 30
0.0
  0
SPLINE
  5
365
100
AcDbEntity
  8
0
100
AcDbSpline
 62
7
  6
CONTINUOUS
 70
0
 71
3
 72
15
 73
11
 74
0
 42
0.0000001
 43
0.0000001
 44
0.0000000001
 40
0.0
 40
0.0
 40
0.0
 40
0.0
 40
0.1127013116
 40
0.2312477833
 40
0.3547976801
 40
0.4821637935
 40
0.6119332077
 40
0.7425559159
 40
0.8724274029
 40
1.0
 40
1.0
 40
1.0
 40
1.0
 10
4.9930546496
 20
4.1267433746
 30
0.0
 10
4.9925393586
 20
4.1271444155
 30
0.0
 10
4.9915428933
 20
4.1280476778
 30
0.0
 10
4.9902099793
 20
4.1296190527
 30
0.0
 10
4.9890265835
 20
4.1314085152
 30
0.0
 10
4.9880193602
 20
4.1333754875
 30
0.0
 10
4.9872105575
 20
4.1354757565
 30
0.0
 10
4.9866183784
 20
4.1376621044
 30
0.0
 10
4.9862560788
 20
4.1398849485
 30
0.0
 10
4.9861722743
 20
4.1413776173
 30
0.0
 10
4.9861722743
 20
4.142116739
 30
0.0
  0
SPLINE
  5
366
100
AcDbEntity
  8
0
100
AcDbSpline
 62
7
  6
CONTINUOUS
 70
0
 71
3
 72
9
 73
5
 74
0
 42
0.0000001
 43
0.0000001
 44
0.0000000001
 40
0.0
 40
0.0
 40
0.0
 40
0.0
 40
0.4921924606
 40
1.0
 40
1.0
 40
1.0
 40
1.0
 10
4.9930546496
 20
4.1267433746
 30
0.0
 10
4.9936704192
 20
4.126736422
 30
0.0
 10
4.9949233694
 20
4.1268022591
 30
0.0
 10
4.9961594637
 20
4.1270142277
 30
0.0
 10
4.9967788761
 20
4.1271556232
 30
0.0
  0
SPLINE
  5
367
100
AcDbEntity
  8
0
100
AcDbSpline
 62
7
  6
CONTINUOUS
 70
0
 71
3
 72
15
 73
11
 74
0
 42
0.0000001
 43
0.0000001
 44
0.0000000001
 40
0.0
 40
0.0
 40
0.0
 40
0.0
 40
0.1127013116
 40
0.2312477833
 40
0.3547976801
 40
0.4821637935
 40
0.6119332077
 40
0.7425559159
 40
0.8724274029
 40
1.0
 40
1.0
 40
1.0
 40
1.0
 10
5.2621326116
 20
4.0977826206
 30
0.0
 10
5.2626479025
 20
4.0981836615
 30
0.0
 10
5.2636443679
 20
4.0990869238
 30
0.0
 10
5.2649772818
 20
4.1006582987
 30
0.0
 10
5.2661606777
 20
4.1024477612
 30
0.0
 10
5.267167901
 20
4.1044147335
 30
0.0
 10
5.2679767036
 20
4.1065150024
 30
0.0
 10
5.2685688828
 20
4.1087013504
 30
0.0
 10
5.2689311824
 20
4.1109241945
 30
0.0
 10
5.2690149868
 20
4.1124168633
 30
0.0
 10
5.2690149868
 20
4.113155985
 30
0.0
  0
LINE
  5
368
100
AcDbEntity
  8
0
100
AcDbLine
 62
7
  6
CONTINUOUS
 10
5.2621326116
 20
4.0977826206
 11
5.2636752367
 21
4.0967873643
  0
SPLINE
  5
369
100
AcDbEntity
  8
0
100
AcDbSpline
 62
7
  6
CONTINUOUS
 70
0
 71
3
 72
15
 73
11
 74
0
 42
0.0000001
 43
0.0000001
 44
0.0000000001
 40
0.0
 40
0.0
 40
0.0
 40
0.0
 40
0.1271372283
 40
0.2536761817
 40
0.3795415353
 40
0.5047037128
 40
0.6292041927
 40
0.753145689
 40
0.8766768949
 40
1.0
 40
1.0
 40
1.0
 40
1.0
 10
5.2636752367
 20
4.0967873643
 30
0.0
 10
5.2643824771
 20
4.0970429337
 30
0.0
 10
5.2657583258
 20
4.0976576457
 30
0.0
 10
5.2676565599
 20
4.0988710095
 30
0.0
 10
5.2693439422
 20
4.1003470132
 30
0.0
 10
5.270781056
 20
4.1020519435
 30
0.0
 10
5.2719349513
 20
4.1039468346
 30
0.0
 10
5.2727788194
 20
4.1059884961
 30
0.0
 10
5.2732931741
 20
4.1081293491
 30
0.0
 10
5.2734083851
 20
4.1095920535
 30
0.0
 10
5.2734083851
 20
4.110321494
 30
0.0
  0
SPLINE
  5
36A
100
AcDbEntity
  8
0
100
AcDbSpline
 62
7
  6
CONTINUOUS
 70
0
 71
3
 72
18
 73
14
 74
0
 42
0.0000001
 43
0.0000001
 44
0.0000000001
 40
0.0
 40
0.0
 40
0.0
 40
0.0
 40
0.0358789916
 40
0.072871524
 40
0.1537477564
 40
0.1993069591
 40
0.2489072092
 40
0.3028825429
 40
0.3614535223
 40
0.4928097802
 40
0.6433592219
 40
0.8127453273
 40
1.0
 40
1.0
 40
1.0
 40
1.0
 10
4.8734083851
 20
4.1388497668
 30
0.0
 10
4.8734083851
 20
4.1389155858
 30
0.0
 10
4.8734209148
 20
4.1390495776
 30
0.0
 10
4.873497307
 20
4.1393223961
 30
0.0
 10
4.8736505513
 20
4.1395858964
 30
0.0
 10
4.8738596842
 20
4.1398322175
 30
0.0
 10
4.8740576137
 20
4.1400218364
 30
0.0
 10
4.8742897239
 20
4.1402083119
 30
0.0
 10
4.874658514
 20
4.1404622717
 30
0.0
 10
4.8752059809
 20
4.1407658386
 30
0.0
 10
4.8759645433
 20
4.141099437
 30
0.0
 10
4.8768415998
 20
4.1414119697
 30
0.0
 10
4.877469916
 20
4.1415955701
 30
0.0
 10
4.8778017834
 20
4.1416842578
 30
0.0
  0
SPLINE
  5
36B
100
AcDbEntity
  8
0
100
AcDbSpline
 62
7
  6
CONTINUOUS
 70
0
 71
3
 72
18
 73
14
 74
0
 42
0.0000001
 43
0.0000001
 44
0.0000000001
 40
0.0
 40
0.0
 40
0.0
 40
0.0
 40
0.1872546727
 40
0.3566407781
 40
0.5071902197
 40
0.6385464776
 40
0.6971174571
 40
0.7510927908
 40
0.8006930409
 40
0.8462522435
 40
0.927128476
 40
0.9641210084
 40
1.0
 40
1.0
 40
1.0
 40
1.0
 10
4.8778017834
 20
4.113155985
 30
0.0
 10
4.877469916
 20
4.1130672973
 30
0.0
 10
4.8768415998
 20
4.1128836969
 30
0.0
 10
4.8759645433
 20
4.1125711642
 30
0.0
 10
4.8752059809
 20
4.1122375658
 30
0.0
 10
4.874658514
 20
4.1119339989
 30
0.0
 10
4.8742897239
 20
4.1116800391
 30
0.0
 10
4.8740576137
 20
4.1114935636
 30
0.0
 10
4.8738596842
 20
4.1113039447
 30
0.0
 10
4.8736505513
 20
4.1110576236
 30
0.0
 10
4.873497307
 20
4.1107941233
 30
0.0
 10
4.8734209148
 20
4.1105213048
 30
0.0
 10
4.8734083851
 20
4.110387313
 30
0.0
 10
4.8734083851
 20
4.110321494
 30
0.0
  0
SPLINE
  5
36C
100
AcDbEntity
  8
0
100
AcDbSpline
 62
7
  6
CONTINUOUS
 70
0
 71
3
 72
13
 73
9
 74
0
 42
0.0000001
 43
0.0000001
 44
0.0000000001
 40
0.0
 40
0.0
 40
0.0
 40
0.0
 40
0.1048935026
 40
0.2175753299
 40
0.3370956031
 40
0.4624732196
 40
0.726359242
 40
1.0
 40
1.0
 40
1.0
 40
1.0
 10
4.9861722743
 20
4.1706450118
 30
0.0
 10
4.9865336454
 20
4.170741584
 30
0.0
 10
4.9872883481
 20
4.1709229736
 30
0.0
 10
4.9884680601
 20
4.1711552602
 30
0.0
 10
4.9897275942
 20
4.1713558238
 30
0.0
 10
4.9915280328
 20
4.1715821107
 30
0.0
 10
4.9938858887
 20
4.17176949
 30
0.0
 10
4.9958030673
 20
4.1718190964
 30
0.0
 10
4.9967788761
 20
4.1718190964
 30
0.0
  0
SPLINE
  5
36D
100
AcDbEntity
  8
0
100
AcDbSpline
 62
7
  6
CONTINUOUS
 70
0
 71
3
 72
13
 73
9
 74
0
 42
0.0000001
 43
0.0000001
 44
0.0000000001
 40
0.0
 40
0.0
 40
0.0
 40
0.0
 40
0.273640758
 40
0.5375267804
 40
0.662904397
 40
0.7824246701
 40
0.8951064975
 40
1.0
 40
1.0
 40
1.0
 40
1.0
 10
4.9967788761
 20
4.1432908236
 30
0.0
 10
4.9958030673
 20
4.1432908236
 30
0.0
 10
4.9938858887
 20
4.1432412172
 30
0.0
 10
4.9915280328
 20
4.1430538379
 30
0.0
 10
4.9897275942
 20
4.142827551
 30
0.0
 10
4.9884680601
 20
4.1426269874
 30
0.0
 10
4.9872883481
 20
4.1423947008
 30
0.0
 10
4.9865336454
 20
4.1422133112
 30
0.0
 10
4.9861722743
 20
4.142116739
 30
0.0
  0
SPLINE
  5
36E
100
AcDbEntity
  8
0
100
AcDbSpline
 62
7
  6
CONTINUOUS
 70
0
 71
3
 72
13
 73
9
 74
0
 42
0.0000001
 43
0.0000001
 44
0.0000000001
 40
0.0
 40
0.0
 40
0.0
 40
0.0
 40
0.273640758
 40
0.5375267804
 40
0.6629043969
 40
0.7824246701
 40
0.8951064974
 40
1.0
 40
1.0
 40
1.0
 40
1.0
 10
5.1500378941
 20
4.1718190964
 30
0.0
 10
5.1510137029
 20
4.1718190964
 30
0.0
 10
5.1529308815
 20
4.17176949
 30
0.0
 10
5.1552887374
 20
4.1715821107
 30
0.0
 10
5.157089176
 20
4.1713558238
 30
0.0
 10
5.1583487101
 20
4.1711552602
 30
0.0
 10
5.1595284221
 20
4.1709229736
 30
0.0
 10
5.1602831248
 20
4.170741584
 30
0.0
 10
5.1606444958
 20
4.1706450118
 30
0.0
  0
SPLINE
  5
36F
100
AcDbEntity
  8
0
100
AcDbSpline
 62
7
  6
CONTINUOUS
 70
0
 71
3
 72
13
 73
9
 74
0
 42
0.0000001
 43
0.0000001
 44
0.0000000001
 40
0.0
 40
0.0
 40
0.0
 40
0.0
 40
0.1048935026
 40
0.2175753299
 40
0.3370956031
 40
0.4624732196
 40
0.726359242
 40
1.0
 40
1.0
 40
1.0
 40
1.0
 10
5.1606444958
 20
4.142116739
 30
0.0
 10
5.1602831248
 20
4.1422133112
 30
0.0
 10
5.1595284221
 20
4.1423947008
 30
0.0
 10
5.1583487101
 20
4.1426269874
 30
0.0
 10
5.157089176
 20
4.142827551
 30
0.0
 10
5.1552887374
 20
4.1430538379
 30
0.0
 10
5.1529308815
 20
4.1432412172
 30
0.0
 10
5.1510137029
 20
4.1432908236
 30
0.0
 10
5.1500378941
 20
4.1432908236
 30
0.0
  0
SPLINE
  5
370
100
AcDbEntity
  8
0
100
AcDbSpline
 62
7
  6
CONTINUOUS
 70
0
 71
3
 72
18
 73
14
 74
0
 42
0.0000001
 43
0.0000001
 44
0.0000000001
 40
0.0
 40
0.0
 40
0.0
 40
0.0
 40
0.1872546727
 40
0.3566407781
 40
0.5071902198
 40
0.6385464777
 40
0.6971174571
 40
0.7510927908
 40
0.8006930409
 40
0.8462522436
 40
0.927128476
 40
0.9641210084
 40
1.0
 40
1.0
 40
1.0
 40
1.0
 10
5.2690149868
 20
4.1416842578
 30
0.0
 10
5.2693468542
 20
4.1415955701
 30
0.0
 10
5.2699751704
 20
4.1414119697
 30
0.0
 10
5.2708522269
 20
4.141099437
 30
0.0
 10
5.2716107893
 20
4.1407658386
 30
0.0
 10
5.2721582562
 20
4.1404622717
 30
0.0
 10
5.2725270463
 20
4.1402083119
 30
0.0
 10
5.2727591565
 20
4.1400218364
 30
0.0
 10
5.272957086
 20
4.1398322175
 30
0.0
 10
5.2731662189
 20
4.1395858964
 30
0.0
 10
5.2733194632
 20
4.1393223961
 30
0.0
 10
5.2733958554
 20
4.1390495776
 30
0.0
 10
5.2734083851
 20
4.1389155858
 30
0.0
 10
5.2734083851
 20
4.1388497668
 30
0.0
  0
SPLINE
  5
371
100
AcDbEntity
  8
0
100
AcDbSpline
 62
7
  6
CONTINUOUS
 70
0
 71
3
 72
18
 73
14
 74
0
 42
0.0000001
 43
0.0000001
 44
0.0000000001
 40
0.0
 40
0.0
 40
0.0
 40
0.0
 40
0.0358789916
 40
0.072871524
 40
0.1537477564
 40
0.1993069591
 40
0.2489072092
 40
0.3028825429
 40
0.3614535223
 40
0.4928097802
 40
0.643359222
 40
0.8127453273
 40
1.0
 40
1.0
 40
1.0
 40
1.0
 10
5.2734083851
 20
4.110321494
 30
0.0
 10
5.2734083851
 20
4.110387313
 30
0.0
 10
5.2733958554
 20
4.1105213048
 30
0.0
 10
5.2733194632
 20
4.1107941233
 30
0.0
 10
5.2731662189
 20
4.1110576236
 30
0.0
 10
5.272957086
 20
4.1113039447
 30
0.0
 10
5.2727591565
 20
4.1114935636
 30
0.0
 10
5.2725270463
 20
4.1116800391
 30
0.0
 10
5.2721582562
 20
4.1119339989
 30
0.0
 10
5.2716107893
 20
4.1122375658
 30
0.0
 10
5.2708522269
 20
4.1125711642
 30
0.0
 10
5.2699751704
 20
4.1128836969
 30
0.0
 10
5.2693468542
 20
4.1130672973
 30
0.0
 10
5.2690149868
 20
4.113155985
 30
0.0
  0
SPLINE
  5
372
100
AcDbEntity
  8
0
100
AcDbSpline
 62
7
  6
CONTINUOUS
 70
0
 71
3
 72
15
 73
11
 74
0
 42
0.0000001
 43
0.0000001
 44
0.0000000001
 40
0.0
 40
0.0
 40
0.0
 40
0.0
 40
0.1231198039
 40
0.2472482773
 40
0.3720413191
 40
0.4972651956
 40
0.6227631018
 40
0.7484299435
 40
0.8741929594
 40
1.0
 40
1.0
 40
1.0
 40
1.0
 10
4.7503392043
 20
5.2775138131
 30
0.0
 10
4.7417842619
 20
5.2832787574
 30
0.0
 10
4.7249324671
 20
5.2953514278
 30
0.0
 10
4.700654749
 20
5.3149307111
 30
0.0
 10
4.6773992642
 20
5.3359791
 30
0.0
 10
4.6552969861
 20
5.3583964148
 30
0.0
 10
4.6344532108
 20
5.3820860193
 30
0.0
 10
4.6149560502
 20
5.4069534331
 30
0.0
 10
4.5968817116
 20
5.4329037019
 30
0.0
 10
4.5858239511
 20
5.4508648181
 30
0.0
 10
4.5805533278
 20
5.4599938054
 30
0.0
  0
SPLINE
  5
373
100
AcDbEntity
  8
0
100
AcDbSpline
 62
7
  6
CONTINUOUS
 70
0
 71
3
 72
37
 73
33
 74
0
 42
0.0000001
 43
0.0000001
 44
0.0000000001
 40
0.0
 40
0.0
 40
0.0
 40
0.0
 40
0.09074012
 40
0.1806678437
 40
0.2689838248
 40
0.3549048241
 40
0.3967316609
 40
0.4376801467
 40
0.477662293
 40
0.5165933256
 40
0.5543918744
 40
0.5909804185
 40
0.6262858838
 40
0.6602399032
 40
0.6927793611
 40
0.7238472769
 40
0.753393344
 40
0.7813747942
 40
0.807757857
 40
0.8325191074
 40
0.8556473029
 40
0.8771462986
 40
0.8970385611
 40
0.9153697738
 40
0.9322154765
 40
0.9476893862
 40
0.9619529258
 40
0.9752248802
 40
0.9815801519
 40
0.9877981329
 40
0.9939227153
 40
1.0
 40
1.0
 40
1.0
 40
1.0
 10
5.0734083851
 20
4.232026346
 30
0.0
 10
5.0814138639
 20
4.232026346
 30
0.0
 10
5.0973539445
 20
4.2318180124
 30
0.0
 10
5.1210690911
 20
4.2308821796
 30
0.0
 10
5.1443261599
 20
4.2293326546
 30
0.0
 10
5.1633055345
 20
4.227526994
 30
0.0
 10
5.1780860909
 20
4.2257785038
 30
0.0
 10
5.1888203429
 20
4.2243365413
 30
0.0
 10
5.1992767446
 20
4.2227558392
 30
0.0
 10
5.2094301721
 20
4.2210402214
 30
0.0
 10
5.2192562058
 20
4.2191938465
 30
0.0
 10
5.2287312318
 20
4.2172211748
 30
0.0
 10
5.237832503
 20
4.2151270136
 30
0.0
 10
5.2465381841
 20
4.2129164407
 30
0.0
 10
5.2548274092
 20
4.2105947929
 30
0.0
 10
5.2626803595
 20
4.2081677172
 30
0.0
 10
5.2700783026
 20
4.2056410922
 30
0.0
 10
5.2770036385
 20
4.2030209865
 30
0.0
 10
5.2834399888
 20
4.200313706
 30
0.0
 10
5.2893722412
 20
4.1975257103
 30
0.0
 10
5.2947865775
 20
4.1946635123
 30
0.0
 10
5.2996705602
 20
4.191733662
 30
0.0
 10
5.3040131589
 20
4.1887426204
 30
0.0
 10
5.3078046639
 20
4.1856964635
 30
0.0
 10
5.3110365203
 20
4.1826008382
 30
0.0
 10
5.3137009973
 20
4.1794603413
 30
0.0
 10
5.3157900445
 20
4.1762799643
 30
0.0
 10
5.3170619899
 20
4.1735594219
 30
0.0
 10
5.3177642995
 20
4.1713875788
 30
0.0
 10
5.3181357
 20
4.1697780737
 30
0.0
 10
5.3183587157
 20
4.1681662565
 30
0.0
 10
5.3184083851
 20
4.1670891077
 30
0.0
 10
5.3184083851
 20
4.1665529439
 30
0.0
  0
SPLINE
  5
374
100
AcDbEntity
  8
0
100
AcDbSpline
 62
7
  6
CONTINUOUS
 70
0
 71
3
 72
45
 73
41
 74
0
 42
0.0000001
 43
0.0000001
 44
0.0000000001
 40
0.0
 40
0.0
 40
0.0
 40
0.0
 40
0.0743375356
 40
0.1116717972
 40
0.149174142
 40
0.1868637765
 40
0.224734126
 40
0.2627636486
 40
0.3009137685
 40
0.3200151858
 40
0.3391233543
 40
0.3773280704
 40
0.415464636
 40
0.4534680991
 40
0.4912663791
 40
0.5287753344
 40
0.5658909731
 40
0.6024776881
 40
0.6383589246
 40
0.6559680218
 40
0.6733155592
 40
0.7070954372
 40
0.7234733747
 40
0.7394816765
 40
0.7703210163
 40
0.7995028884
 40
0.8269740955
 40
0.8527553258
 40
0.8769276137
 40
0.8995705624
 40
0.9207199165
 40
0.9403400036
 40
0.9495454034
 40
0.9583228173
 40
0.9666471322
 40
0.9744877189
 40
0.9818029422
 40
0.9885416344
 40
0.9946364037
 40
1.0
 40
1.0
 40
1.0
 40
1.0
 10
4.8959083851
 20
3.5818926869
 30
0.0
 10
4.8959410499
 20
3.5609316079
 30
0.0
 10
4.8959875543
 20
3.5294433042
 30
0.0
 10
4.8961351462
 20
3.4873806099
 30
0.0
 10
4.8963104869
 20
3.4556518149
 30
0.0
 10
4.8965714036
 20
3.4237724263
 30
0.0
 10
4.8969327591
 20
3.391745343
 30
0.0
 10
4.8974146739
 20
3.3595899604
 30
0.0
 10
4.8979349665
 20
3.3327283104
 30
0.0
 10
4.8984224681
 20
3.3112025161
 30
0.0
 10
4.898956607
 20
3.289662429
 30
0.0
 10
4.8997047161
 20
3.2627586826
 30
0.0
 10
4.9007197882
 20
3.23053258
 30
0.0
 10
4.9018458709
 20
3.198424839
 30
0.0
 10
4.9030796494
 20
3.1664981535
 30
0.0
 10
4.9044212998
 20
3.1348263792
 30
0.0
 10
4.9058681944
 20
3.1035012197
 30
0.0
 10
4.9074191626
 20
3.0726405747
 30
0.0
 10
4.9088049764
 20
3.047279107
 30
0.0
 10
4.9099648404
 20
3.0273384965
 30
0.0
 10
4.9111373672
 20
3.0079922074
 30
0.0
 10
4.9123574366
 20
2.988996645
 30
0.0
 10
4.913617142
 20
2.9703822172
 30
0.0
 10
4.914857038
 20
2.9525975309
 30
0.0
 10
4.9164018218
 20
2.9312150355
 30
0.0
 10
4.918227498
 20
2.9066122646
 30
0.0
 10
4.9199555471
 20
2.8834324215
 30
0.0
 10
4.9215486028
 20
2.8616589968
 30
0.0
 10
4.9229825839
 20
2.8412390821
 30
0.0
 10
4.924265547
 20
2.8221179228
 30
0.0
 10
4.9253892846
 20
2.8042726897
 30
0.0
 10
4.92620035
 20
2.7902044491
 30
0.0
 10
4.9267573572
 20
2.7796161046
 30
0.0
 10
4.9271202711
 20
2.7722070962
 30
0.0
 10
4.9274377516
 20
2.7651812131
 30
0.0
 10
4.9277094497
 20
2.7585660307
 30
0.0
 10
4.9279335565
 20
2.7523964372
 30
0.0
 10
4.9281077758
 20
2.7467177028
 30
0.0
 10
4.9282283571
 20
2.7415880148
 30
0.0
 10
4.9282735898
 20
2.7383573006
 30
0.0
 10
4.9282833851
 20
2.7368449483
 30
0.0
  0
SPLINE
  5
375
100
AcDbEntity
  8
0
100
AcDbSpline
 62
7
  6
CONTINUOUS
 70
0
 71
3
 72
9
 73
5
 74
0
 42
0.0000001
 43
0.0000001
 44
0.0000000001
 40
0.0
 40
0.0
 40
0.0
 40
0.0
 40
0.2502193122
 40
1.0
 40
1.0
 40
1.0
 40
1.0
 10
5.2521148735
 20
4.0521534135
 30
0.0
 10
5.2519763432
 20
4.0129307537
 30
0.0
 10
5.2514605232
 20
3.8561774951
 30
0.0
 10
5.2510960836
 20
3.6994237378
 30
0.0
 10
5.2509083849
 20
3.5818926869
 30
0.0
  0
SPLINE
  5
376
100
AcDbEntity
  8
0
100
AcDbSpline
 62
7
  6
CONTINUOUS
 70
0
 71
3
 72
11
 73
7
 74
0
 42
0.0000001
 43
0.0000001
 44
0.0000000001
 40
0.0
 40
0.0
 40
0.0
 40
0.0
 40
0.2576761651
 40
0.5084360419
 40
0.7549504612
 40
1.0
 40
1.0
 40
1.0
 40
1.0
 10
5.3841839721
 20
4.9719757645
 30
0.0
 10
5.3846609723
 20
4.9707712488
 30
0.0
 10
5.3854874618
 20
4.9683468095
 30
0.0
 10
5.3863310345
 20
4.964638793
 30
0.0
 10
5.3867584717
 20
4.9609237815
 30
0.0
 10
5.3867663079
 20
4.958446336
 30
0.0
 10
5.3867020341
 20
4.9572159711
 30
0.0
  0
SPLINE
  5
377
100
AcDbEntity
  8
0
100
AcDbSpline
 62
7
  6
CONTINUOUS
 70
0
 71
3
 72
29
 73
25
 74
0
 42
0.0000001
 43
0.0000001
 44
0.0000000001
 40
0.0
 40
0.0
 40
0.0
 40
0.0
 40
0.0156228245
 40
0.0323698475
 40
0.050282935
 40
0.0693892369
 40
0.0897040243
 40
0.111232554
 40
0.1339720149
 40
0.1579124269
 40
0.1830380838
 40
0.2093278384
 40
0.2367562953
 40
0.2652937104
 40
0.3255567781
 40
0.3898177301
 40
0.4577302554
 40
0.5289117945
 40
0.6029493637
 40
0.6794045916
 40
0.7578184504
 40
0.837715321
 40
0.9186079102
 40
1.0
 40
1.0
 40
1.0
 40
1.0
 10
5.20373263
 20
5.4000115749
 30
0.0
 10
5.2032277537
 20
5.4005006963
 30
0.0
 10
5.2021399634
 20
5.4014716241
 30
0.0
 10
5.2003516197
 20
5.4028598173
 30
0.0
 10
5.1983542866
 20
5.4042271389
 30
0.0
 10
5.196151251
 20
5.4055714149
 30
0.0
 10
5.1937459529
 20
5.4068905965
 30
0.0
 10
5.1911422516
 20
5.4081825954
 30
0.0
 10
5.1883443282
 20
5.4094453087
 30
0.0
 10
5.1853567219
 20
5.4106767
 30
0.0
 10
5.1821842903
 20
5.4118747193
 30
0.0
 10
5.1788322238
 20
5.4130374135
 30
0.0
 10
5.1753060063
 20
5.4141628507
 30
0.0
 10
5.1702882685
 20
5.4156381255
 30
0.0
 10
5.1636195103
 20
5.4173662941
 30
0.0
 10
5.155161711
 20
5.4192283482
 30
0.0
 10
5.1461645642
 20
5.4209019507
 30
0.0
 10
5.1366873381
 20
5.4223758759
 30
0.0
 10
5.1267923796
 20
5.4236401946
 30
0.0
 10
5.1165449297
 20
5.4246864142
 30
0.0
 10
5.1060126059
 20
5.4255075081
 30
0.0
 10
5.0952649107
 20
5.4260979628
 30
0.0
 10
5.0843729003
 20
5.426453857
 30
0.0
 10
5.0770706314
 20
5.4265329552
 30
0.0
 10
5.0734083851
 20
5.4265330108
 30
0.0
  0
SPLINE
  5
378
100
AcDbEntity
  8
0
100
AcDbSpline
 62
7
  6
CONTINUOUS
 70
0
 71
3
 72
23
 73
19
 74
0
 42
0.0000001
 43
0.0000001
 44
0.0000000001
 40
0.0
 40
0.0
 40
0.0
 40
0.0
 40
0.0871179783
 40
0.171116986
 40
0.2519171604
 40
0.3294435615
 40
0.403630588
 40
0.4744328923
 40
0.541819028
 40
0.6057754156
 40
0.6663053628
 40
0.7234368537
 40
0.7772197976
 40
0.8277292547
 40
0.8750754399
 40
0.9194195933
 40
0.9609721529
 40
1.0
 40
1.0
 40
1.0
 40
1.0
 10
5.2575988195
 20
5.0405327845
 30
0.0
 10
5.2616962579
 20
5.0393712115
 30
0.0
 10
5.2697229501
 20
5.0370128264
 30
0.0
 10
5.2814650164
 20
5.033295984
 30
0.0
 10
5.2926772936
 20
5.0294685255
 30
0.0
 10
5.3033433843
 20
5.0255358017
 30
0.0
 10
5.3134476852
 20
5.0215027949
 30
0.0
 10
5.3229759483
 20
5.0173750812
 30
0.0
 10
5.3319150921
 20
5.0131577538
 30
0.0
 10
5.3402534182
 20
5.0088569012
 30
0.0
 10
5.3479801537
 20
5.0044781057
 30
0.0
 10
5.3550857218
 20
5.0000274378
 30
0.0
 10
5.3615611221
 20
4.995510625
 30
0.0
 10
5.3673976527
 20
4.9909330281
 30
0.0
 10
5.3725868498
 20
4.9862992907
 30
0.0
 10
5.3771229876
 20
4.9816153363
 30
0.0
 10
5.3810001955
 20
4.9768873922
 30
0.0
 10
5.3832058346
 20
4.973613933
 30
0.0
 10
5.3841839736
 20
4.971975801
 30
0.0
  0
SPLINE
  5
379
100
AcDbEntity
  8
0
100
AcDbSpline
 62
7
  6
CONTINUOUS
 70
0
 71
3
 72
21
 73
17
 74
0
 42
0.0000001
 43
0.0000001
 44
0.0000000001
 40
0.0
 40
0.0
 40
0.0
 40
0.0
 40
0.0449625209
 40
0.0932698307
 40
0.1447063205
 40
0.1990552105
 40
0.2560992314
 40
0.3156211215
 40
0.3774040154
 40
0.4412317714
 40
0.506889265
 40
0.5741626718
 40
0.7127088893
 40
0.8551975881
 40
0.9274098272
 40
1.0
 40
1.0
 40
1.0
 40
1.0
 10
5.3841839736
 20
4.971975801
 30
0.0
 10
5.3844277912
 20
4.9781511908
 30
0.0
 10
5.3848713444
 20
4.9909638261
 30
0.0
 10
5.3854378378
 20
5.0108460263
 30
0.0
 10
5.3859643056
 20
5.0320198997
 30
0.0
 10
5.3864850358
 20
5.0543951123
 30
0.0
 10
5.3870343938
 20
5.0778813198
 30
0.0
 10
5.3876468446
 20
5.1023881381
 30
0.0
 10
5.3883569086
 20
5.1278251729
 30
0.0
 10
5.3891991466
 20
5.1541020138
 30
0.0
 10
5.3902081583
 20
5.1811282791
 30
0.0
 10
5.3918379873
 20
5.2184080341
 30
0.0
 10
5.394469179
 20
5.2662137117
 30
0.0
 10
5.3980706865
 20
5.314638861
 30
0.0
 10
5.4017033578
 20
5.3539611201
 30
0.0
 10
5.4037971861
 20
5.3737548964
 30
0.0
 10
5.4049192484
 20
5.3836692886
 30
0.0
  0
SPLINE
  5
37A
100
AcDbEntity
  8
0
100
AcDbSpline
 62
7
  6
CONTINUOUS
 70
0
 71
3
 72
37
 73
33
 74
0
 42
0.0000001
 43
0.0000001
 44
0.0000000001
 40
0.0
 40
0.0
 40
0.0
 40
0.0
 40
0.0060772847
 40
0.0122018671
 40
0.0184198481
 40
0.0247751198
 40
0.0380470742
 40
0.0523106138
 40
0.0677845235
 40
0.0846302262
 40
0.1029614389
 40
0.1228537014
 40
0.1443526971
 40
0.1674808926
 40
0.192242143
 40
0.2186252058
 40
0.246606656
 40
0.2761527231
 40
0.3072206389
 40
0.3397600968
 40
0.3737141162
 40
0.4090195815
 40
0.4456081256
 40
0.4834066744
 40
0.522337707
 40
0.5623198533
 40
0.6032683391
 40
0.6450951759
 40
0.7310161752
 40
0.8193321563
 40
0.90925988
 40
1.0
 40
1.0
 40
1.0
 40
1.0
 10
4.8284083851
 20
4.1665529439
 30
0.0
 10
4.8284083851
 20
4.1670891077
 30
0.0
 10
4.8284580545
 20
4.1681662565
 30
0.0
 10
4.8286810702
 20
4.1697780737
 30
0.0
 10
4.8290524707
 20
4.1713875788
 30
0.0
 10
4.8297547803
 20
4.1735594219
 30
0.0
 10
4.8310267257
 20
4.1762799643
 30
0.0
 10
4.8331157729
 20
4.1794603413
 30
0.0
 10
4.8357802499
 20
4.1826008382
 30
0.0
 10
4.8390121063
 20
4.1856964635
 30
0.0
 10
4.8428036113
 20
4.1887426204
 30
0.0
 10
4.84714621
 20
4.191733662
 30
0.0
 10
4.8520301927
 20
4.1946635123
 30
0.0
 10
4.857444529
 20
4.1975257103
 30
0.0
 10
4.8633767814
 20
4.200313706
 30
0.0
 10
4.8698131317
 20
4.2030209865
 30
0.0
 10
4.8767384675
 20
4.2056410922
 30
0.0
 10
4.8841364107
 20
4.2081677172
 30
0.0
 10
4.891989361
 20
4.2105947929
 30
0.0
 10
4.900278586
 20
4.2129164407
 30
0.0
 10
4.9089842672
 20
4.2151270136
 30
0.0
 10
4.9180855384
 20
4.2172211748
 30
0.0
 10
4.9275605644
 20
4.2191938465
 30
0.0
 10
4.9373865981
 20
4.2210402214
 30
0.0
 10
4.9475400256
 20
4.2227558392
 30
0.0
 10
4.9579964273
 20
4.2243365413
 30
0.0
 10
4.9687306793
 20
4.2257785038
 30
0.0
 10
4.9835112357
 20
4.227526994
 30
0.0
 10
5.0024906103
 20
4.2293326546
 30
0.0
 10
5.0257476791
 20
4.2308821796
 30
0.0
 10
5.0494628257
 20
4.2318180124
 30
0.0
 10
5.0654029063
 20
4.232026346
 30
0.0
 10
5.0734083851
 20
4.232026346
 30
0.0
  0
SPLINE
  5
37B
100
AcDbEntity
  8
0
100
AcDbSpline
 62
7
  6
CONTINUOUS
 70
0
 71
3
 72
37
 73
33
 74
0
 42
0.0000001
 43
0.0000001
 44
0.0000000001
 40
0.0
 40
0.0
 40
0.0
 40
0.0
 40
0.0060772847
 40
0.0122018671
 40
0.0184198481
 40
0.0247751198
 40
0.0380470742
 40
0.0523106138
 40
0.0677845235
 40
0.0846302262
 40
0.1029614389
 40
0.1228537014
 40
0.1443526971
 40
0.1674808926
 40
0.192242143
 40
0.2186252058
 40
0.246606656
 40
0.2761527231
 40
0.3072206389
 40
0.3397600968
 40
0.3737141162
 40
0.4090195815
 40
0.4456081256
 40
0.4834066744
 40
0.522337707
 40
0.5623198533
 40
0.6032683391
 40
0.6450951759
 40
0.7310161752
 40
0.8193321563
 40
0.90925988
 40
1.0
 40
1.0
 40
1.0
 40
1.0
 10
4.8284083851
 20
4.132825878
 30
0.0
 10
4.8284083851
 20
4.1333620419
 30
0.0
 10
4.8284580545
 20
4.1344391907
 30
0.0
 10
4.8286810702
 20
4.1360510079
 30
0.0
 10
4.8290524707
 20
4.1376605129
 30
0.0
 10
4.8297547803
 20
4.139832356
 30
0.0
 10
4.8310267257
 20
4.1425528985
 30
0.0
 10
4.8331157729
 20
4.1457332755
 30
0.0
 10
4.8357802499
 20
4.1488737723
 30
0.0
 10
4.8390121063
 20
4.1519693977
 30
0.0
 10
4.8428036113
 20
4.1550155546
 30
0.0
 10
4.84714621
 20
4.1580065961
 30
0.0
 10
4.8520301927
 20
4.1609364465
 30
0.0
 10
4.857444529
 20
4.1637986444
 30
0.0
 10
4.8633767814
 20
4.1665866401
 30
0.0
 10
4.8698131317
 20
4.1692939206
 30
0.0
 10
4.8767384675
 20
4.1719140263
 30
0.0
 10
4.8841364107
 20
4.1744406513
 30
0.0
 10
4.891989361
 20
4.1768677271
 30
0.0
 10
4.900278586
 20
4.1791893749
 30
0.0
 10
4.9089842672
 20
4.1813999477
 30
0.0
 10
4.9180855384
 20
4.1834941089
 30
0.0
 10
4.9275605644
 20
4.1854667806
 30
0.0
 10
4.9373865981
 20
4.1873131556
 30
0.0
 10
4.9475400256
 20
4.1890287733
 30
0.0
 10
4.9579964273
 20
4.1906094755
 30
0.0
 10
4.9687306793
 20
4.1920514379
 30
0.0
 10
4.9835112357
 20
4.1937999282
 30
0.0
 10
5.0024906103
 20
4.1956055888
 30
0.0
 10
5.0257476791
 20
4.1971551137
 30
0.0
 10
5.0494628257
 20
4.1980909465
 30
0.0
 10
5.0654029063
 20
4.1982992801
 30
0.0
 10
5.0734083851
 20
4.1982992801
 30
0.0
  0
SPLINE
  5
37C
100
AcDbEntity
  8
0
100
AcDbSpline
 62
7
  6
CONTINUOUS
 70
0
 71
3
 72
57
 73
53
 74
0
 42
0.0000001
 43
0.0000001
 44
0.0000000001
 40
0.0
 40
0.0
 40
0.0
 40
0.0
 40
0.0136523679
 40
0.0266936599
 40
0.0391247308
 40
0.0509492488
 40
0.0621744529
 40
0.0728113189
 40
0.0828757545
 40
0.0923888873
 40
0.1013785759
 40
0.1098800001
 40
0.1179371879
 40
0.1256037377
 40
0.1329436583
 40
0.1400312722
 40
0.1469501376
 40
0.1537907652
 40
0.1606470814
 40
0.1676122989
 40
0.1747749867
 40
0.182215779
 40
0.1900056857
 40
0.1982051542
 40
0.2068645574
 40
0.2160248162
 40
0.225718573
 40
0.2359713333
 40
0.2468023598
 40
0.25822589
 40
0.2702515054
 40
0.2828853006
 40
0.2961298473
 40
0.3099852215
 40
0.3244488148
 40
0.3395160981
 40
0.3551805135
 40
0.3714338886
 40
0.405665723
 40
0.4421201148
 40
0.4806851333
 40
0.5212331478
 40
0.5636229966
 40
0.6077017727
 40
0.6533063512
 40
0.7002647391
 40
0.7483973683
 40
0.7975181704
 40
0.8474359962
 40
0.8979547988
 40
0.9488768895
 40
1.0
 40
1.0
 40
1.0
 40
1.0
 10
4.8733961949
 20
4.0880247178
 30
0.0
 10
4.8721887906
 20
4.088593037
 30
0.0
 10
4.8698437083
 20
4.0897380456
 30
0.0
 10
4.8664618639
 20
4.0915251273
 30
0.0
 10
4.863299536
 20
4.0933407248
 30
0.0
 10
4.8603600644
 20
4.0951829989
 30
0.0
 10
4.8576464409
 20
4.097050017
 30
0.0
 10
4.855161508
 20
4.0989400072
 30
0.0
 10
4.8529077631
 20
4.1008510455
 30
0.0
 10
4.8508876124
 20
4.1027814415
 30
0.0
 10
4.8491031287
 20
4.1047293685
 30
0.0
 10
4.8475563788
 20
4.106693221
 30
0.0
 10
4.8462492089
 20
4.1086712853
 30
0.0
 10
4.8451835275
 20
4.1106619004
 30
0.0
 10
4.8443611865
 20
4.1126631961
 30
0.0
 10
4.843783957
 20
4.1146729929
 30
0.0
 10
4.8434534651
 20
4.1166886745
 30
0.0
 10
4.8433706525
 20
4.1187071435
 30
0.0
 10
4.8435359411
 20
4.1207250456
 30
0.0
 10
4.8439486151
 20
4.1227391
 30
0.0
 10
4.8446075879
 20
4.1247463258
 30
0.0
 10
4.845511041
 20
4.1267443049
 30
0.0
 10
4.8466572716
 20
4.1287309269
 30
0.0
 10
4.8480443159
 20
4.1307044611
 30
0.0
 10
4.849670363
 20
4.1326631914
 30
0.0
 10
4.8515334498
 20
4.1346054825
 30
0.0
 10
4.8536315431
 20
4.1365296343
 30
0.0
 10
4.8559624509
 20
4.1384338692
 30
0.0
 10
4.8585237371
 20
4.1403164319
 30
0.0
 10
4.861312804
 20
4.142175415
 30
0.0
 10
4.8643267386
 20
4.144009039
 30
0.0
 10
4.8675624634
 20
4.1458153446
 30
0.0
 10
4.8710165817
 20
4.1475925548
 30
0.0
 10
4.8746855195
 20
4.1493387327
 30
0.0
 10
4.8785654137
 20
4.1510521154
 30
0.0
 10
4.882652204
 20
4.152730835
 30
0.0
 10
4.8869415847
 20
4.1543731749
 30
0.0
 10
4.8930305905
 20
4.1565497716
 30
0.0
 10
4.9011214796
 20
4.1591564803
 30
0.0
 10
4.9113997523
 20
4.1620613779
 30
0.0
 10
4.9223653029
 20
4.1647823039
 30
0.0
 10
4.9339717359
 20
4.167307577
 30
0.0
 10
4.9461700601
 20
4.1696263237
 30
0.0
 10
4.9589086226
 20
4.1717285699
 30
0.0
 10
4.9721334375
 20
4.173605274
 30
0.0
 10
4.9857884079
 20
4.1752483711
 30
0.0
 10
4.9998155762
 20
4.1766507997
 30
0.0
 10
5.0141554002
 20
4.1778065453
 30
0.0
 10
5.0287469388
 20
4.1787106328
 30
0.0
 10
5.0435282904
 20
4.1793592076
 30
0.0
 10
5.0584365045
 20
4.179749454
 30
0.0
 10
5.0684112819
 20
4.1798362477
 30
0.0
 10
5.0734083851
 20
4.1798362477
 30
0.0
  0
SPLINE
  5
37D
100
AcDbEntity
  8
0
100
AcDbSpline
 62
7
  6
CONTINUOUS
 70
0
 71
3
 72
57
 73
53
 74
0
 42
0.0000001
 43
0.0000001
 44
0.0000000001
 40
0.0
 40
0.0
 40
0.0
 40
0.0
 40
0.0511231105
 40
0.1020452012
 40
0.1525640038
 40
0.2024818296
 40
0.2516026317
 40
0.2997352609
 40
0.3466936488
 40
0.3922982273
 40
0.4363770034
 40
0.4787668522
 40
0.5193148667
 40
0.5578798852
 40
0.594334277
 40
0.6285661114
 40
0.6448194865
 40
0.6604839019
 40
0.6755511852
 40
0.6900147785
 40
0.7038701527
 40
0.7171146994
 40
0.7297484946
 40
0.74177411
 40
0.7531976402
 40
0.7640286667
 40
0.774281427
 40
0.7839751838
 40
0.7931354426
 40
0.8017948458
 40
0.8099943143
 40
0.817784221
 40
0.8252250133
 40
0.8323877011
 40
0.8393529186
 40
0.8462092348
 40
0.8530498624
 40
0.8599687278
 40
0.8670563417
 40
0.8743962623
 40
0.8820628121
 40
0.8901199999
 40
0.8986214241
 40
0.9076111127
 40
0.9171242455
 40
0.9271886811
 40
0.9378255471
 40
0.9490507512
 40
0.9608752692
 40
0.9733063401
 40
0.9863476321
 40
1.0
 40
1.0
 40
1.0
 40
1.0
 10
5.0734083851
 20
4.1798362477
 30
0.0
 10
5.0784054883
 20
4.1798362477
 30
0.0
 10
5.0883802657
 20
4.179749454
 30
0.0
 10
5.1032884798
 20
4.1793592076
 30
0.0
 10
5.1180698314
 20
4.1787106328
 30
0.0
 10
5.13266137
 20
4.1778065453
 30
0.0
 10
5.147001194
 20
4.1766507997
 30
0.0
 10
5.1610283623
 20
4.1752483711
 30
0.0
 10
5.1746833327
 20
4.173605274
 30
0.0
 10
5.1879081476
 20
4.1717285699
 30
0.0
 10
5.2006467101
 20
4.1696263237
 30
0.0
 10
5.2128450343
 20
4.167307577
 30
0.0
 10
5.2244514673
 20
4.1647823039
 30
0.0
 10
5.2354170179
 20
4.1620613779
 30
0.0
 10
5.2456952905
 20
4.1591564803
 30
0.0
 10
5.2537861797
 20
4.1565497716
 30
0.0
 10
5.2598751855
 20
4.1543731749
 30
0.0
 10
5.2641645662
 20
4.152730835
 30
0.0
 10
5.2682513565
 20
4.1510521154
 30
0.0
 10
5.2721312507
 20
4.1493387326
 30
0.0
 10
5.2758001885
 20
4.1475925548
 30
0.0
 10
5.2792543068
 20
4.1458153446
 30
0.0
 10
5.2824900316
 20
4.144009039
 30
0.0
 10
5.2855039662
 20
4.142175415
 30
0.0
 10
5.2882930331
 20
4.1403164319
 30
0.0
 10
5.2908543193
 20
4.1384338692
 30
0.0
 10
5.2931852271
 20
4.1365296343
 30
0.0
 10
5.2952833204
 20
4.1346054825
 30
0.0
 10
5.2971464072
 20
4.1326631914
 30
0.0
 10
5.2987724543
 20
4.1307044611
 30
0.0
 10
5.3001594986
 20
4.1287309269
 30
0.0
 10
5.3013057292
 20
4.1267443049
 30
0.0
 10
5.3022091823
 20
4.1247463258
 30
0.0
 10
5.3028681551
 20
4.1227391
 30
0.0
 10
5.3032808291
 20
4.1207250456
 30
0.0
 10
5.3034461177
 20
4.1187071435
 30
0.0
 10
5.3033633051
 20
4.1166886745
 30
0.0
 10
5.3030328131
 20
4.1146729929
 30
0.0
 10
5.3024555837
 20
4.1126631961
 30
0.0
 10
5.3016332427
 20
4.1106619004
 30
0.0
 10
5.3005675613
 20
4.1086712853
 30
0.0
 10
5.2992603914
 20
4.106693221
 30
0.0
 10
5.2977136415
 20
4.1047293685
 30
0.0
 10
5.2959291578
 20
4.1027814415
 30
0.0
 10
5.293909007
 20
4.1008510455
 30
0.0
 10
5.2916552622
 20
4.0989400072
 30
0.0
 10
5.2891703293
 20
4.097050017
 30
0.0
 10
5.2864567058
 20
4.0951829989
 30
0.0
 10
5.2835172341
 20
4.0933407248
 30
0.0
 10
5.2803549063
 20
4.0915251273
 30
0.0
 10
5.2769730619
 20
4.0897380456
 30
0.0
 10
5.2746279796
 20
4.088593037
 30
0.0
 10
5.2734205753
 20
4.0880247178
 30
0.0
  0
SPLINE
  5
37E
100
AcDbEntity
  8
0
100
AcDbSpline
 62
7
  6
CONTINUOUS
 70
0
 71
3
 72
37
 73
33
 74
0
 42
0.0000001
 43
0.0000001
 44
0.0000000001
 40
0.0
 40
0.0
 40
0.0
 40
0.0
 40
0.09074012
 40
0.1806678437
 40
0.2689838248
 40
0.3549048241
 40
0.3967316609
 40
0.4376801467
 40
0.477662293
 40
0.5165933256
 40
0.5543918744
 40
0.5909804185
 40
0.6262858838
 40
0.6602399032
 40
0.6927793611
 40
0.7238472769
 40
0.753393344
 40
0.7813747942
 40
0.807757857
 40
0.8325191074
 40
0.8556473029
 40
0.8771462986
 40
0.8970385611
 40
0.9153697738
 40
0.9322154765
 40
0.9476893862
 40
0.9619529258
 40
0.9752248802
 40
0.9815801519
 40
0.9877981329
 40
0.9939227153
 40
1.0
 40
1.0
 40
1.0
 40
1.0
 10
5.0734083851
 20
4.1982992801
 30
0.0
 10
5.0814138639
 20
4.1982992801
 30
0.0
 10
5.0973539445
 20
4.1980909465
 30
0.0
 10
5.1210690911
 20
4.1971551137
 30
0.0
 10
5.1443261599
 20
4.1956055888
 30
0.0
 10
5.1633055345
 20
4.1937999282
 30
0.0
 10
5.1780860909
 20
4.1920514379
 30
0.0
 10
5.1888203429
 20
4.1906094755
 30
0.0
 10
5.1992767446
 20
4.1890287733
 30
0.0
 10
5.2094301721
 20
4.1873131556
 30
0.0
 10
5.2192562058
 20
4.1854667806
 30
0.0
 10
5.2287312318
 20
4.1834941089
 30
0.0
 10
5.237832503
 20
4.1813999477
 30
0.0
 10
5.2465381841
 20
4.1791893749
 30
0.0
 10
5.2548274092
 20
4.1768677271
 30
0.0
 10
5.2626803595
 20
4.1744406513
 30
0.0
 10
5.2700783026
 20
4.1719140263
 30
0.0
 10
5.2770036385
 20
4.1692939206
 30
0.0
 10
5.2834399888
 20
4.1665866401
 30
0.0
 10
5.2893722412
 20
4.1637986444
 30
0.0
 10
5.2947865775
 20
4.1609364465
 30
0.0
 10
5.2996705602
 20
4.1580065961
 30
0.0
 10
5.3040131589
 20
4.1550155546
 30
0.0
 10
5.3078046639
 20
4.1519693977
 30
0.0
 10
5.3110365203
 20
4.1488737723
 30
0.0
 10
5.3137009973
 20
4.1457332755
 30
0.0
 10
5.3157900445
 20
4.1425528985
 30
0.0
 10
5.3170619899
 20
4.139832356
 30
0.0
 10
5.3177642995
 20
4.1376605129
 30
0.0
 10
5.3181357
 20
4.1360510079
 30
0.0
 10
5.3183587157
 20
4.1344391907
 30
0.0
 10
5.3184083851
 20
4.1333620419
 30
0.0
 10
5.3184083851
 20
4.132825878
 30
0.0
  0
ENDSEC
  0
SECTION
  2
OBJECTS
  0
DICTIONARY
  5
C
100
AcDbDictionary
280
0
281
1
  3
ACAD_GROUP
350
D
  3
ACAD_MLINESTYLE
350
17
  3
ACAD_LAYOUT
350
1A
  3
ACAD_PLOTSETTINGS
350
19
  3
ACAD_PLOTSTYLENAME
350
E
  0
DICTIONARY
  5
D
102
{ACAD_REACTORS
330
C
102
}
100
AcDbDictionary
280
0
281
1
  0
ACDBDICTIONARYWDFLT
  5
E
102
{ACAD_REACTORS
330
C
102
}
100
AcDbDictionary
281
1
  3
Normal
350
F
100
AcDbDictionaryWithDefault
340
F
  0
DICTIONARY
  5
17
102
{ACAD_REACTORS
330
C
102
}
100
AcDbDictionary
280
0
281
1
  3
Standard
350
18
  0
DICTIONARY
  5
19
102
{ACAD_REACTORS
330
C
102
}
100
AcDbDictionary
281
1
  0
DICTIONARY
  5
1A
102
{ACAD_REACTORS
330
C
102
}
100
AcDbDictionary
281
1
  3
Model
350
37F
  3
Layout1
350
380
  0
ACDBPLACEHOLDER
  5
F
102
{ACAD_REACTORS
330
E
102
}
  0
MLINESTYLE
  5
18
102
{ACAD_REACTORS
330
17
102
}
100
AcDbMlineStyle
  2
STANDARD
 70
0
  3

 62
256
 51
90.0
 52
90.0
 71
2
 49
0.5
 62
256
  6
BYLAYER
 49
-0.5
 62
256
  6
BYLAYER
  0
LAYOUT
  5
37F
102
{ACAD_REACTORS
330
1A
102
}
100
AcDbPlotSettings
  1

  2
none_device
  4
ANSI_A_(11.00_x_8.50_Inches)
  6

 40
0.0
 41
0.0
 42
0.0
 43
0.0
 44
279.4
 45
215.9
 46
0.0
 47
0.0
 48
0.0
 49
0.0
140
0.0
141
0.0
142
1.0
143
1.0
 70
1024
 72
0
 73
0
 74
0
  7

 75
0
147
1.0
148
0.0
149
0.0
100
AcDbLayout
  1
Model
 70
0
 71
0
 10
0.0
 20
0.0
 11
11.0
 21
8.5
 12
0.0
 22
0.0
 32
0.0
 14
0.0
 24
0.0
 34
0.0
 15
0.0
 25
0.0
 35
0.0
146
0.0
 13
0.0
 23
0.0
 33
0.0
 16
1.0
 26
0.0
 36
0.0
 17
0.0
 27
1.0
 37
0.0
 76
0
330
202
345
0
346
0
  0
LAYOUT
  5
380
102
{ACAD_REACTORS
330
1A
102
}
100
AcDbPlotSettings
  1

  2
none_device
  4
ANSI_A_(11.00_x_8.50_Inches)
  6

 40
0.0
 41
0.0
 42
0.0
 43
0.0
 44
279.4
 45
215.9
 46
0.0
 47
0.0
 48
0.0
 49
0.0
140
0.0
141
0.0
142
1.0
143
1.0
 70
0
 72
0
 73
0
 74
0
  7

 75
0
147
1.0
148
0.0
149
0.0
100
AcDbLayout
  1
Layout1
 70
0
 71
1
 10
0.0
 20
0.0
 11
11.0
 21
8.5
 12
0.0
 22
0.0
 32
0.0
 14
0.0
 24
0.0
 34
0.0
 15
0.0
 25
0.0
 35
0.0
146
0.0
 13
0.0
 23
0.0
 33
0.0
 16
1.0
 26
0.0
 36
0.0
 17
0.0
 27
1.0
 37
0.0
 76
0
330
203
345
0
346
0
  0
ENDSEC
  0
EOF
