999
DXF file: E:\BT Custom\CADOUTPUT\_TOP.dxf
999
Pro/ENGINEER 2018400 by Parametric Technology Corporation
  0
SECTION
  2
HEADER
  9
$ACADVER
  1
AC1018
  9
$DWGCODEPAGE
  3
ANSI_1252
  9
$EXTMAX
 10
22.0
 20
17.0
 30
0.0
  9
$EXTMIN
 10
0.0
 20
0.0
 30
0.0
  9
$LIMMIN
 10
0.0
 20
0.0
  9
$LIMMAX
 10
22.0
 20
17.0
  9
$VIEWCTR
 10
11.0
 20
8.5
  9
$VIEWSIZE
 40
17.0
  9
$CLAYER
  8
0
  9
$LTSCALE
 40
1.21
  9
$CELTYPE
  6
BYLAYER
  9
$DIMSCALE
 40
1.0
  9
$DIMASZ
 40
0.1
  9
$DIMEXO
 40
0.0625
  9
$DIMDLI
 40
0.836
  9
$DIMEXE
 40
0.125
  9
$DIMCEN
 40
0.198
  9
$DIMLFAC
 40
1.0
  9
$DIMBLK
  1
_FILLED
  9
$DIMALT
 70
1
  9
$DIMALTD
 70
2
  9
$DIMALTTD
 70
2
  9
$DIMALTF
 40
25.4
  9
$DIMTXT
 40
0.08
  9
$DIMTOL
 70
1
  9
$DIMLIM
 70
0
  9
$DIMTFAC
 40
1.0
  9
$DIMTP
 40
0.001
  9
$DIMTM
 40
0.001
  9
$DIMGAP
 40
0.09
  9
$DIMDSEP
 70
46
  9
$AUNITS
 70
0
  9
$PDMODE
 70
3
  9
$PDSIZE
 40
0.06
  9
$HANDSEED
  5
34A
  9
$TILEMODE
 70
1
  9
$MEASUREMENT
 70
0
  9
$INSUNITS
 70
1
  0
ENDSEC
  0
SECTION
  2
CLASSES
  0
CLASS
  1
ACDBDICTIONARYWDFLT
  2
AcDbDictionaryWithDefault
  3
AutoCAD 2000
 90
0
 91
1
280
0
281
0
  0
CLASS
  1
ACDBPLACEHOLDER
  2
AcDbPlaceHolder
  3
AutoCAD 2000
 90
0
 91
1
280
0
281
0
  0
CLASS
  1
LAYOUT
  2
AcDbLayout
  3
AutoCAD 2000
 90
0
 91
0
280
0
281
0
  0
ENDSEC
  0
SECTION
  2
TABLES
  0
TABLE
  2
VPORT
  5
8
100
AcDbSymbolTable
 70
2
  0
VPORT
  5
1F4
100
AcDbSymbolTableRecord
100
AcDbViewportTableRecord
  2
*ACTIVE
 70
0
 10
0.0
 20
0.0
 11
1.0
 21
1.0
 12
11.0
 22
8.5
 13
0.0
 23
0.0
 14
1.0
 24
1.0
 15
0.0
 25
0.0
 16
0.0
 26
0.0
 36
1.0
 17
0.0
 27
0.0
 37
0.0
 40
17.0
 41
1.2941176471
 42
50.0
 43
0.0
 44
0.0
 50
0.0
 51
0.0
 71
0
 72
100
 73
1
 74
1
 75
0
 76
0
 77
0
 78
0
  0
ENDTAB
  0
TABLE
  2
LTYPE
  5
5
100
AcDbSymbolTable
 70
6
  0
LTYPE
  5
14
100
AcDbSymbolTableRecord
100
AcDbLinetypeTableRecord
  2
BYBLOCK
 70
0
  3

 72
65
 73
0
 40
0.0
  0
LTYPE
  5
15
100
AcDbSymbolTableRecord
100
AcDbLinetypeTableRecord
  2
BYLAYER
 70
0
  3

 72
65
 73
0
 40
0.0
  0
LTYPE
  5
16
100
AcDbSymbolTableRecord
100
AcDbLinetypeTableRecord
  2
CONTINUOUS
 70
64
  3
Solid line
 72
65
 73
0
 40
0.0
  0
LTYPE
  5
1F5
100
AcDbSymbolTableRecord
100
AcDbLinetypeTableRecord
  2
CENTER
 70
64
  3
____ _ ____ _ ____ _ ____ _ ____ _ ____ _ ____
 72
65
 73
4
 40
0.6
 49
0.375
 74
0
 49
-0.075
 74
0
 49
0.075
 74
0
 49
-0.075
 74
0
  0
LTYPE
  5
1F6
100
AcDbSymbolTableRecord
100
AcDbLinetypeTableRecord
  2
HIDDEN
 70
64
  3
- - - - - - - - - - - - - - - - - - - -
 72
65
 73
2
 40
0.2
 49
0.1
 74
0
 49
-0.1
 74
0
  0
LTYPE
  5
1F7
100
AcDbSymbolTableRecord
100
AcDbLinetypeTableRecord
  2
PHANTOM
 70
64
  3
_____ _ _ _____ _ _ _____ _ _ _____
 72
65
 73
6
 40
0.8
 49
0.45
 74
0
 49
-0.05
 74
0
 49
0.1
 74
0
 49
-0.05
 74
0
 49
0.1
 74
0
 49
-0.05
 74
0
  0
LTYPE
  5
1F8
100
AcDbSymbolTableRecord
100
AcDbLinetypeTableRecord
  2
DOT
 70
64
  3
. . . . . . . . . . . . . . . . . . . .
 72
65
 73
2
 40
0.2
 49
0.1
 74
0
 49
-0.1
 74
0
  0
LTYPE
  5
1F9
100
AcDbSymbolTableRecord
100
AcDbLinetypeTableRecord
  2
DASHED
 70
64
  3
- - - - - - - - - - - - - - - - - - - -
 72
65
 73
2
 40
0.2
 49
0.1
 74
0
 49
-0.1
 74
0
  0
ENDTAB
  0
TABLE
  2
LAYER
  5
2
100
AcDbSymbolTable
 70
36
  0
LAYER
  5
10
100
AcDbSymbolTableRecord
100
AcDbLayerTableRecord
  2
0
 70
0
 62
7
  6
CONTINUOUS
370
-3
390
F
  0
LAYER
  5
1FA
100
AcDbSymbolTableRecord
100
AcDbLayerTableRecord
  2
DEFAULT_1
 70
0
 62
7
  6
CENTER
370
-3
390
F
  0
LAYER
  5
1FB
100
AcDbSymbolTableRecord
100
AcDbLayerTableRecord
  2
DEFAULT_2
 70
0
 62
8
  6
HIDDEN
370
-3
390
F
  0
LAYER
  5
1FC
100
AcDbSymbolTableRecord
100
AcDbLayerTableRecord
  2
DEFAULT_3
 70
0
 62
7
  6
PHANTOM
370
-3
390
F
  0
LAYER
  5
1FD
100
AcDbSymbolTableRecord
100
AcDbLayerTableRecord
  2
ALL_FEATURES
 70
0
 62
7
  6
CONTINUOUS
370
-3
390
F
  0
LAYER
  5
1FE
100
AcDbSymbolTableRecord
100
AcDbLayerTableRecord
  2
AXES_FEATURES
 70
0
 62
7
  6
CONTINUOUS
370
-3
390
F
  0
LAYER
  5
1FF
100
AcDbSymbolTableRecord
100
AcDbLayerTableRecord
  2
DIMENSIONS
 70
0
 62
7
  6
CONTINUOUS
370
-3
390
F
  0
ENDTAB
  0
TABLE
  2
STYLE
  5
3
100
AcDbSymbolTable
 70
1
  0
STYLE
  5
11
100
AcDbSymbolTableRecord
100
AcDbTextStyleTableRecord
  2
STANDARD
 70
0
 40
0.0
 41
0.8
 50
0.0
 71
0
 42
0.2
  3
txt
  4

  0
STYLE
  5
200
100
AcDbSymbolTableRecord
100
AcDbTextStyleTableRecord
  2
TEXTSTYLE_1
 70
0
 40
0.0
 41
0.8
 50
0.0
 71
0
 42
0.2
  3
gdt
  4

  0
ENDTAB
  0
TABLE
  2
VIEW
  5
6
100
AcDbSymbolTable
 70
0
  0
ENDTAB
  0
TABLE
  2
UCS
  5
7
100
AcDbSymbolTable
 70
0
  0
ENDTAB
  0
TABLE
  2
APPID
  5
9
100
AcDbSymbolTable
 70
1
  0
APPID
  5
201
100
AcDbSymbolTableRecord
100
AcDbRegAppTableRecord
  2
ACAD
 70
0
  0
ENDTAB
  0
TABLE
  2
BLOCK_RECORD
  5
1
100
AcDbSymbolTable
 70
0
  0
BLOCK_RECORD
  5
202
100
AcDbSymbolTableRecord
100
AcDbBlockTableRecord
  2
*Model_Space
  0
BLOCK_RECORD
  5
203
100
AcDbSymbolTableRecord
100
AcDbBlockTableRecord
  2
*Paper_Space
  0
BLOCK_RECORD
  5
204
100
AcDbSymbolTableRecord
100
AcDbBlockTableRecord
  2
_FILLED
  0
ENDTAB
  0
TABLE
  2
DIMSTYLE
  5
A
100
AcDbSymbolTable
 70
1
100
AcDbDimStyleTable
 71
0
  0
DIMSTYLE
105
205
100
AcDbSymbolTableRecord
100
AcDbDimStyleTableRecord
  2
STANDARD
 70
0
  3

  4

 40
1.0
 41
0.1
 42
0.0625
 43
0.38
 44
0.125
 45
0.0
 46
0.0
 47
0.001
 48
0.001
140
0.08
141
0.09
142
0.0
143
25.4
144
1.0
145
0.0
146
1.0
147
0.09
 71
1.0
 72
0.0
 73
1
 74
1
 75
0
 76
0
 77
0
 78
4
 79
1
170
1
171
2
172
0
173
0
174
0
175
0
176
0
177
0
178
0
270
2
179
3
271
3
272
3
273
2
274
2
275
0
280
0
281
0
282
0
283
1
284
4
285
0
286
0
287
3
288
0
340
11
278
46
341
204
342
204
343
204
344
204
  0
ENDTAB
  0
ENDSEC
  0
SECTION
  2
BLOCKS
  0
BLOCK
  5
20
100
AcDbEntity
  8
0
100
AcDbBlockBegin
  2
*Model_Space
 70
0
 10
0.0
 20
0.0
 30
0.0
  3
*Model_Space
  1

  0
ENDBLK
  5
21
100
AcDbEntity
  8
0
100
AcDbBlockEnd
  0
BLOCK
  5
1C
100
AcDbEntity
  8
0
100
AcDbBlockBegin
  2
*Paper_Space
 70
0
 10
0.0
 20
0.0
 30
0.0
  3
*Paper_Space
  1

  0
ENDBLK
  5
1D
100
AcDbEntity
  8
0
100
AcDbBlockEnd
  0
BLOCK
  5
206
100
AcDbEntity
  8
0
100
AcDbBlockBegin
  2
_FILLED
 70
64
 10
0.0
 20
0.0
  3
_FILLED
  1

  0
SOLID
  5
207
100
AcDbEntity
  8
0
  6
BYBLOCK
 62
0
100
AcDbTrace
 10
0.0
 20
0.0
 11
-1.0
 21
0.2
 12
-1.0
 22
-0.2
 13
-1.0
 23
-0.2
  0
ENDBLK
  5
208
100
AcDbEntity
  8
0
  6
BYBLOCK
 62
0
100
AcDbBlockEnd
  0
ENDSEC
  0
SECTION
  2
ENTITIES
  0
LINE
  5
209
100
AcDbEntity
  8
0
100
AcDbLine
 62
7
  6
CONTINUOUS
 10
10.6767502453
 20
-3.0430276866
 11
10.705439388
 21
-3.0517988377
  0
LINE
  5
20A
100
AcDbEntity
  8
0
100
AcDbLine
 62
7
  6
CONTINUOUS
 10
11.3891972885
 20
-3.2608446066
 11
11.4178864312
 21
-3.2696157577
  0
LINE
  5
20B
100
AcDbEntity
  8
0
100
AcDbLine
 62
7
  6
CONTINUOUS
 10
10.7051761461
 20
-2.9744014916
 11
10.7316645738
 21
-2.9884856385
  0
LINE
  5
20C
100
AcDbEntity
  8
0
100
AcDbLine
 62
7
  6
CONTINUOUS
 10
11.3629721027
 20
-3.3241578058
 11
11.3894605305
 21
-3.3382419527
  0
LINE
  5
20D
100
AcDbEntity
  8
0
100
AcDbLine
 62
9
  6
CONTINUOUS
 10
3.829818477
 20
8.4662298249
 11
3.829818477
 21
8.6829708068
  0
LINE
  5
20E
100
AcDbEntity
  8
0
100
AcDbLine
 62
9
  6
CONTINUOUS
 10
3.829818477
 20
8.6904192598
 11
3.829818477
 21
8.9969372959
  0
LINE
  5
20F
100
AcDbEntity
  8
0
100
AcDbLine
 62
9
  6
CONTINUOUS
 10
3.829818477
 20
9.0043857489
 11
3.829818477
 21
9.2211267309
  0
LINE
  5
210
100
AcDbEntity
  8
0
100
AcDbLine
 62
9
  6
CONTINUOUS
 10
3.8579083523
 20
9.2436782779
 11
3.8579083523
 21
8.4436782779
  0
LINE
  5
211
100
AcDbEntity
  8
0
100
AcDbLine
 62
7
  6
CONTINUOUS
 10
3.9171183383
 20
9.3036782779
 11
3.9171183383
 21
8.3836833563
  0
LINE
  5
212
100
AcDbEntity
  8
0
100
AcDbLine
 62
7
  6
CONTINUOUS
 10
3.829818477
 20
9.2242119811
 11
3.691068477
 21
8.8542119811
  0
LINE
  5
213
100
AcDbEntity
  8
0
100
AcDbLine
 62
9
  6
CONTINUOUS
 10
3.691068477
 20
8.8511267309
 11
3.829818477
 21
9.2211267309
  0
LINE
  5
214
100
AcDbEntity
  8
0
100
AcDbLine
 62
9
  6
CONTINUOUS
 10
3.9471183383
 20
9.3336782779
 11
3.9471183383
 21
8.3536782779
  0
LINE
  5
215
100
AcDbEntity
  8
0
100
AcDbLine
 62
7
  6
CONTINUOUS
 10
4.0171183383
 20
9.3386782779
 11
4.0171183383
 21
8.3486782779
  0
LINE
  5
216
100
AcDbEntity
  8
0
100
AcDbLine
 62
7
  6
CONTINUOUS
 10
4.037045969
 20
9.3369421641
 11
4.037045969
 21
9.0763304062
  0
LINE
  5
217
100
AcDbEntity
  8
0
100
AcDbLine
 62
7
  6
CONTINUOUS
 10
4.037045969
 20
9.0279586191
 11
4.037045969
 21
8.6593979366
  0
LINE
  5
218
100
AcDbEntity
  8
0
100
AcDbLine
 62
7
  6
CONTINUOUS
 10
4.037045969
 20
8.6110261495
 11
4.037045969
 21
8.3504143916
  0
LINE
  5
219
100
AcDbEntity
  8
0
100
AcDbLine
 62
7
  6
CONTINUOUS
 10
4.037045969
 20
9.0763304062
 11
4.0171183383
 21
9.0487139912
  0
LINE
  5
21A
100
AcDbEntity
  8
0
100
AcDbLine
 62
7
  6
CONTINUOUS
 10
4.037045969
 20
9.0279586191
 11
4.057045969
 21
9.0555874924
  0
LINE
  5
21B
100
AcDbEntity
  8
0
100
AcDbLine
 62
9
  6
CONTINUOUS
 10
3.829818477
 20
9.0043857489
 11
3.691068477
 21
8.8511267309
  0
LINE
  5
21C
100
AcDbEntity
  8
0
100
AcDbLine
 62
9
  6
CONTINUOUS
 10
3.691068477
 20
8.8436782779
 11
3.829818477
 21
8.9969372959
  0
LINE
  5
21D
100
AcDbEntity
  8
0
100
AcDbLine
 62
7
  6
CONTINUOUS
 10
3.691068477
 20
8.8331445746
 11
3.829818477
 21
8.4631445746
  0
LINE
  5
21E
100
AcDbEntity
  8
0
100
AcDbLine
 62
9
  6
CONTINUOUS
 10
3.829818477
 20
8.4662298249
 11
3.691068477
 21
8.8362298249
  0
LINE
  5
21F
100
AcDbEntity
  8
0
100
AcDbLine
 62
7
  6
CONTINUOUS
 10
4.037045969
 20
8.6593979366
 11
4.0171183383
 21
8.6386425645
  0
LINE
  5
220
100
AcDbEntity
  8
0
100
AcDbLine
 62
7
  6
CONTINUOUS
 10
4.057045969
 20
8.6317690633
 11
4.037045969
 21
8.6110261495
  0
LINE
  5
221
100
AcDbEntity
  8
0
100
AcDbLine
 62
7
  6
CONTINUOUS
 10
4.037045969
 20
9.3569784143
 11
4.0171183383
 21
9.3386782779
  0
LINE
  5
222
100
AcDbEntity
  8
0
100
AcDbLine
 62
7
  6
CONTINUOUS
 10
4.057045969
 20
9.3552723776
 11
4.037045969
 21
9.3369421641
  0
LINE
  5
223
100
AcDbEntity
  8
0
100
AcDbLine
 62
9
  6
CONTINUOUS
 10
6.0343183383
 20
8.2588224552
 11
6.0343183383
 21
8.500749144
  0
LINE
  5
224
100
AcDbEntity
  8
0
100
AcDbLine
 62
9
  6
CONTINUOUS
 10
6.0343183383
 20
9.1866074117
 11
6.0343183383
 21
9.4285341005
  0
LINE
  5
225
100
AcDbEntity
  8
0
100
AcDbLine
 62
7
  6
CONTINUOUS
 10
6.3610182018
 20
8.5286172426
 11
6.3610182018
 21
9.1587393131
  0
LINE
  5
226
100
AcDbEntity
  8
0
100
AcDbLine
 62
7
  6
CONTINUOUS
 10
6.3793183383
 20
8.5485448733
 11
6.3793183383
 21
9.1388116825
  0
LINE
  5
227
100
AcDbEntity
  8
0
100
AcDbLine
 62
9
  6
CONTINUOUS
 10
6.4718083581
 20
9.1759491199
 11
6.4718083581
 21
9.1485641801
  0
LINE
  5
228
100
AcDbEntity
  8
0
100
AcDbLine
 62
9
  6
CONTINUOUS
 10
6.4718083581
 20
8.5387923756
 11
6.4718083581
 21
8.5114074359
  0
LINE
  5
229
100
AcDbEntity
  8
0
100
AcDbLine
 62
7
  6
CONTINUOUS
 10
6.4793183383
 20
9.1236782779
 11
6.4793183383
 21
8.5636782779
  0
LINE
  5
22A
100
AcDbEntity
  8
0
100
AcDbLine
 62
9
  6
CONTINUOUS
 10
6.5293183383
 20
9.0261782779
 11
6.5293183383
 21
8.6611782779
  0
LINE
  5
22B
100
AcDbEntity
  8
0
100
AcDbLine
 62
7
  6
CONTINUOUS
 10
6.5473183383
 20
8.5550031433
 11
6.5473183383
 21
8.6611782779
  0
LINE
  5
22C
100
AcDbEntity
  8
0
100
AcDbLine
 62
7
  6
CONTINUOUS
 10
6.5473183383
 20
9.0261782779
 11
6.5473183383
 21
9.1323534125
  0
LINE
  5
22D
100
AcDbEntity
  8
0
100
AcDbLine
 62
9
  6
CONTINUOUS
 10
3.691068477
 20
8.8362298249
 11
3.829818477
 21
8.6829708068
  0
LINE
  5
22E
100
AcDbEntity
  8
0
100
AcDbLine
 62
9
  6
CONTINUOUS
 10
3.829818477
 20
8.6904192598
 11
3.691068477
 21
8.8436782779
  0
LINE
  5
22F
100
AcDbEntity
  8
0
100
AcDbLine
 62
7
  6
CONTINUOUS
 10
4.037045969
 20
8.6593979366
 11
4.057045969
 21
8.6317690633
  0
LINE
  5
230
100
AcDbEntity
  8
0
100
AcDbLine
 62
7
  6
CONTINUOUS
 10
4.037045969
 20
8.6110261495
 11
4.0171183383
 21
8.6386425645
  0
LINE
  5
231
100
AcDbEntity
  8
0
100
AcDbLine
 62
7
  6
CONTINUOUS
 10
10.8653981077
 20
-2.8141795299
 11
10.8794822546
 21
-2.8406679577
  0
LINE
  5
232
100
AcDbEntity
  8
0
100
AcDbLine
 62
7
  6
CONTINUOUS
 10
11.215154422
 20
-3.4719754866
 11
11.2292385689
 21
-3.4984639144
  0
LINE
  5
233
100
AcDbEntity
  8
0
100
AcDbLine
 62
7
  6
CONTINUOUS
 10
7.0473183383
 20
10.0311782779
 11
7.0473183383
 21
10.0133899232
  0
LINE
  5
234
100
AcDbEntity
  8
0
100
AcDbLine
 62
7
  6
CONTINUOUS
 10
7.0473183383
 20
9.5082199619
 11
7.0473183383
 21
9.421028547
  0
LINE
  5
235
100
AcDbEntity
  8
0
100
AcDbLine
 62
7
  6
CONTINUOUS
 10
7.0473183383
 20
7.6561782779
 11
7.0473183383
 21
7.6739666325
  0
LINE
  5
236
100
AcDbEntity
  8
0
100
AcDbLine
 62
7
  6
CONTINUOUS
 10
7.0473183383
 20
8.1791365939
 11
7.0473183383
 21
8.2663280087
  0
LINE
  5
237
100
AcDbEntity
  8
0
100
AcDbLine
 62
7
  6
CONTINUOUS
 10
6.3793183383
 20
8.5485448733
 11
6.3610182018
 21
8.5286172426
  0
LINE
  5
238
100
AcDbEntity
  8
0
100
AcDbLine
 62
9
  6
CONTINUOUS
 10
6.0343183383
 20
9.4285341005
 11
7.0473183383
 21
10.0133899232
  0
LINE
  5
239
100
AcDbEntity
  8
0
100
AcDbLine
 62
9
  6
CONTINUOUS
 10
7.0473183383
 20
9.5082199619
 11
6.4718083581
 21
9.1759491199
  0
LINE
  5
23A
100
AcDbEntity
  8
0
100
AcDbLine
 62
7
  6
CONTINUOUS
 10
6.5473183383
 20
9.1323534125
 11
7.0473183383
 21
9.421028547
  0
LINE
  5
23B
100
AcDbEntity
  8
0
100
AcDbLine
 62
7
  6
CONTINUOUS
 10
4.057045969
 20
8.3320841781
 11
4.037045969
 21
8.3504143916
  0
LINE
  5
23C
100
AcDbEntity
  8
0
100
AcDbLine
 62
7
  6
CONTINUOUS
 10
4.037045969
 20
8.3303781414
 11
4.0171183383
 21
8.3486782779
  0
LINE
  5
23D
100
AcDbEntity
  8
0
100
AcDbLine
 62
7
  6
CONTINUOUS
 10
4.057045969
 20
9.0555874924
 11
4.037045969
 21
9.0763304062
  0
LINE
  5
23E
100
AcDbEntity
  8
0
100
AcDbLine
 62
7
  6
CONTINUOUS
 10
4.037045969
 20
9.0279586191
 11
4.0171183383
 21
9.0487139912
  0
LINE
  5
23F
100
AcDbEntity
  8
0
100
AcDbLine
 62
7
  6
CONTINUOUS
 10
7.5473183383
 20
8.5550031433
 11
7.5473183383
 21
9.1323534125
  0
LINE
  5
240
100
AcDbEntity
  8
0
100
AcDbLine
 62
9
  6
CONTINUOUS
 10
7.6228283185
 20
8.5114074359
 11
7.6228283185
 21
9.1759491199
  0
LINE
  5
241
100
AcDbEntity
  8
0
100
AcDbLine
 62
9
  6
CONTINUOUS
 10
8.0603183383
 20
9.4285341005
 11
8.0603183383
 21
8.2588224552
  0
LINE
  5
242
100
AcDbEntity
  8
0
100
AcDbLine
 62
7
  6
CONTINUOUS
 10
8.0757235053
 20
9.4374282779
 11
8.0603183383
 21
9.4285341005
  0
LINE
  5
243
100
AcDbEntity
  8
0
100
AcDbLine
 62
7
  6
CONTINUOUS
 10
7.6228283185
 20
9.1759491199
 11
7.5473183383
 21
9.1323534125
  0
LINE
  5
244
100
AcDbEntity
  8
0
100
AcDbLine
 62
7
  6
CONTINUOUS
 10
6.0189131713
 20
8.2499282779
 11
6.0343183383
 21
8.2588224552
  0
LINE
  5
245
100
AcDbEntity
  8
0
100
AcDbLine
 62
7
  6
CONTINUOUS
 10
6.4718083581
 20
8.5114074359
 11
6.5473183383
 21
8.5550031433
  0
LINE
  5
246
100
AcDbEntity
  8
0
100
AcDbLine
 62
7
  6
CONTINUOUS
 10
7.5473183383
 20
8.5550031433
 11
7.0473183383
 21
8.2663280087
  0
LINE
  5
247
100
AcDbEntity
  8
0
100
AcDbLine
 62
9
  6
CONTINUOUS
 10
7.0473183383
 20
8.1791365939
 11
7.6228283185
 21
8.5114074359
  0
LINE
  5
248
100
AcDbEntity
  8
0
100
AcDbLine
 62
7
  6
CONTINUOUS
 10
6.3793183383
 20
8.721430019
 11
6.3610182018
 21
8.7131757241
  0
LINE
  5
249
100
AcDbEntity
  8
0
100
AcDbLine
 62
7
  6
CONTINUOUS
 10
10.9340243027
 20
-2.7857536292
 11
10.9427954538
 21
-2.8144427719
  0
LINE
  5
24A
100
AcDbEntity
  8
0
100
AcDbLine
 62
7
  6
CONTINUOUS
 10
11.1518412227
 20
-3.4982006724
 11
11.1606123739
 21
-3.5268898151
  0
LINE
  5
24B
100
AcDbEntity
  8
0
100
AcDbLine
 62
9
  6
CONTINUOUS
 10
8.0603183383
 20
8.2588224552
 11
7.0473183383
 21
7.6739666325
  0
LINE
  5
24C
100
AcDbEntity
  8
0
100
AcDbLine
 62
9
  6
CONTINUOUS
 10
7.0473183383
 20
7.6739666325
 11
6.0343183383
 21
8.2588224552
  0
LINE
  5
24D
100
AcDbEntity
  8
0
100
AcDbLine
 62
7
  6
CONTINUOUS
 10
6.3793183383
 20
9.1388116825
 11
6.3610182018
 21
9.1587393131
  0
LINE
  5
24E
100
AcDbEntity
  8
0
100
AcDbLine
 62
9
  6
CONTINUOUS
 10
6.4718083581
 20
8.5114074359
 11
7.0473183383
 21
8.1791365938
  0
LINE
  5
24F
100
AcDbEntity
  8
0
100
AcDbLine
 62
7
  6
CONTINUOUS
 10
7.0473183383
 20
8.2663280087
 11
6.5473183383
 21
8.5550031433
  0
LINE
  5
250
100
AcDbEntity
  8
0
100
AcDbLine
 62
7
  6
CONTINUOUS
 10
8.0757235053
 20
8.2499282779
 11
8.0603183383
 21
8.2588224552
  0
LINE
  5
251
100
AcDbEntity
  8
0
100
AcDbLine
 62
7
  6
CONTINUOUS
 10
7.6228283185
 20
8.5114074359
 11
7.5473183383
 21
8.5550031433
  0
LINE
  5
252
100
AcDbEntity
  8
0
100
AcDbLine
 62
7
  6
CONTINUOUS
 10
6.0189131713
 20
9.4374282779
 11
6.0343183383
 21
9.4285341005
  0
LINE
  5
253
100
AcDbEntity
  8
0
100
AcDbLine
 62
7
  6
CONTINUOUS
 10
6.4718083581
 20
9.1759491199
 11
6.5473183383
 21
9.1323534125
  0
LINE
  5
254
100
AcDbEntity
  8
0
100
AcDbLine
 62
9
  6
CONTINUOUS
 10
14.0343183383
 20
9.4285341005
 11
15.0473183383
 21
10.0133899232
  0
LINE
  5
255
100
AcDbEntity
  8
0
100
AcDbLine
 62
7
  6
CONTINUOUS
 10
6.3793183383
 20
8.9659265367
 11
6.3610182018
 21
8.9741808316
  0
LINE
  5
256
100
AcDbEntity
  8
0
100
AcDbLine
 62
7
  6
CONTINUOUS
 10
7.0473183383
 20
9.421028547
 11
7.5473183383
 21
9.1323534125
  0
LINE
  5
257
100
AcDbEntity
  8
0
100
AcDbLine
 62
9
  6
CONTINUOUS
 10
7.6228283185
 20
9.1759491199
 11
7.0473183383
 21
9.5082199619
  0
LINE
  5
258
100
AcDbEntity
  8
0
100
AcDbLine
 62
9
  6
CONTINUOUS
 10
15.0473183383
 20
9.5082199619
 11
14.4718083581
 21
9.1759491199
  0
LINE
  5
259
100
AcDbEntity
  8
0
100
AcDbLine
 62
7
  6
CONTINUOUS
 10
14.5473183383
 20
9.1323534125
 11
15.0473183383
 21
9.421028547
  0
LINE
  5
25A
100
AcDbEntity
  8
0
100
AcDbLine
 62
7
  6
CONTINUOUS
 10
16.0757235053
 20
9.4374282779
 11
16.0603183383
 21
9.4285341005
  0
LINE
  5
25B
100
AcDbEntity
  8
0
100
AcDbLine
 62
7
  6
CONTINUOUS
 10
15.6228283185
 20
9.1759491199
 11
15.5473183383
 21
9.1323534125
  0
LINE
  5
25C
100
AcDbEntity
  8
0
100
AcDbLine
 62
7
  6
CONTINUOUS
 10
14.0189131713
 20
8.2499282779
 11
14.0343183383
 21
8.2588224552
  0
LINE
  5
25D
100
AcDbEntity
  8
0
100
AcDbLine
 62
7
  6
CONTINUOUS
 10
14.4718083581
 20
8.5114074359
 11
14.5473183383
 21
8.5550031433
  0
LINE
  5
25E
100
AcDbEntity
  8
0
100
AcDbLine
 62
7
  6
CONTINUOUS
 10
15.7153183383
 20
8.9659265367
 11
15.7336184748
 21
8.9741808316
  0
LINE
  5
25F
100
AcDbEntity
  8
0
100
AcDbLine
 62
7
  6
CONTINUOUS
 10
4.0171183383
 20
8.3536782779
 11
3.9471183383
 21
8.3536782779
  0
LINE
  5
260
100
AcDbEntity
  8
0
100
AcDbLine
 62
7
  6
CONTINUOUS
 10
18.0775183383
 20
8.3536782779
 11
18.1475183383
 21
8.3536782779
  0
LINE
  5
261
100
AcDbEntity
  8
0
100
AcDbLine
 62
7
  6
CONTINUOUS
 10
18.2367283242
 20
8.4436782779
 11
18.1775183383
 21
8.4436782779
  0
LINE
  5
262
100
AcDbEntity
  8
0
100
AcDbLine
 62
7
  6
CONTINUOUS
 10
3.9171183383
 20
8.4436782779
 11
3.8579083523
 21
8.4436782779
  0
LINE
  5
263
100
AcDbEntity
  8
0
100
AcDbLine
 62
9
  6
CONTINUOUS
 10
3.8579083523
 20
8.4524650745
 11
3.9171183383
 21
8.4524650744
  0
LINE
  5
264
100
AcDbEntity
  8
0
100
AcDbLine
 62
9
  6
CONTINUOUS
 10
18.1775183383
 20
8.4524650744
 11
18.2367283242
 21
8.4524650744
  0
LINE
  5
265
100
AcDbEntity
  8
0
100
AcDbLine
 62
9
  6
CONTINUOUS
 10
7.0473183383
 20
10.0133899232
 11
8.0603183383
 21
9.4285341005
  0
LINE
  5
266
100
AcDbEntity
  8
0
100
AcDbLine
 62
7
  6
CONTINUOUS
 10
15.5473183383
 20
8.5550031433
 11
15.0473183383
 21
8.2663280087
  0
LINE
  5
267
100
AcDbEntity
  8
0
100
AcDbLine
 62
9
  6
CONTINUOUS
 10
15.0473183383
 20
8.1791365939
 11
15.6228283185
 21
8.5114074359
  0
LINE
  5
268
100
AcDbEntity
  8
0
100
AcDbLine
 62
9
  6
CONTINUOUS
 10
16.0603183383
 20
8.2588224552
 11
15.0473183383
 21
7.6739666325
  0
LINE
  5
269
100
AcDbEntity
  8
0
100
AcDbLine
 62
7
  6
CONTINUOUS
 10
18.0575907076
 20
9.3369421641
 11
18.0775183383
 21
9.3386782779
  0
LINE
  5
26A
100
AcDbEntity
  8
0
100
AcDbLine
 62
7
  6
CONTINUOUS
 10
4.037045969
 20
8.3504143916
 11
4.0171183383
 21
8.3486782779
  0
LINE
  5
26B
100
AcDbEntity
  8
0
100
AcDbLine
 62
7
  6
CONTINUOUS
 10
15.7336184748
 20
9.1587393131
 11
18.0575907076
 21
9.3569784143
  0
LINE
  5
26C
100
AcDbEntity
  8
0
100
AcDbLine
 62
7
  6
CONTINUOUS
 10
4.037045969
 20
8.3303781414
 11
6.3610182018
 21
8.5286172426
  0
LINE
  5
26D
100
AcDbEntity
  8
0
100
AcDbLine
 62
7
  6
CONTINUOUS
 10
18.0375907076
 20
9.0555874924
 11
15.7336184748
 21
8.9741808316
  0
LINE
  5
26E
100
AcDbEntity
  8
0
100
AcDbLine
 62
7
  6
CONTINUOUS
 10
4.057045969
 20
8.6317690633
 11
6.3610182018
 21
8.7131757241
  0
LINE
  5
26F
100
AcDbEntity
  8
0
100
AcDbLine
 62
7
  6
CONTINUOUS
 10
15.5653183383
 20
8.6611782779
 11
15.501540557
 21
8.6611782779
  0
LINE
  5
270
100
AcDbEntity
  8
0
100
AcDbLine
 62
7
  6
CONTINUOUS
 10
6.5293183383
 20
8.6611782779
 11
6.5930961196
 21
8.6611782779
  0
LINE
  5
271
100
AcDbEntity
  8
0
100
AcDbLine
 62
9
  6
CONTINUOUS
 10
18.2367283242
 20
8.6692060563
 11
18.1775183383
 21
8.6692060563
  0
LINE
  5
272
100
AcDbEntity
  8
0
100
AcDbLine
 62
9
  6
CONTINUOUS
 10
3.9171183383
 20
8.6692060563
 11
3.8579083523
 21
8.6692060564
  0
LINE
  5
273
100
AcDbEntity
  8
0
100
AcDbLine
 62
9
  6
CONTINUOUS
 10
3.829818477
 20
8.6904192598
 11
3.9171183383
 21
8.6904192598
  0
LINE
  5
274
100
AcDbEntity
  8
0
100
AcDbLine
 62
9
  6
CONTINUOUS
 10
18.1775183383
 20
8.6904192598
 11
18.2648181996
 21
8.6904192598
  0
LINE
  5
275
100
AcDbEntity
  8
0
100
AcDbLine
 62
9
  6
CONTINUOUS
 10
18.2648181996
 20
8.9969372959
 11
18.1775183383
 21
8.9969372959
  0
LINE
  5
276
100
AcDbEntity
  8
0
100
AcDbLine
 62
9
  6
CONTINUOUS
 10
3.9171183383
 20
8.9969372959
 11
3.829818477
 21
8.9969372959
  0
LINE
  5
277
100
AcDbEntity
  8
0
100
AcDbLine
 62
9
  6
CONTINUOUS
 10
3.8579083523
 20
9.0181504994
 11
3.9171183383
 21
9.0181504994
  0
LINE
  5
278
100
AcDbEntity
  8
0
100
AcDbLine
 62
9
  6
CONTINUOUS
 10
18.1775183383
 20
9.0181504994
 11
18.2367283242
 21
9.0181504994
  0
LINE
  5
279
100
AcDbEntity
  8
0
100
AcDbLine
 62
7
  6
CONTINUOUS
 10
15.5653183383
 20
9.0261782779
 11
15.501540557
 21
9.0261782779
  0
LINE
  5
27A
100
AcDbEntity
  8
0
100
AcDbLine
 62
7
  6
CONTINUOUS
 10
6.5293183383
 20
9.0261782779
 11
6.5930961196
 21
9.0261782779
  0
LINE
  5
27B
100
AcDbEntity
  8
0
100
AcDbLine
 62
9
  6
CONTINUOUS
 10
18.2367283242
 20
9.2348914813
 11
18.1775183383
 21
9.2348914813
  0
LINE
  5
27C
100
AcDbEntity
  8
0
100
AcDbLine
 62
9
  6
CONTINUOUS
 10
3.9171183383
 20
9.2348914813
 11
3.8579083523
 21
9.2348914813
  0
LINE
  5
27D
100
AcDbEntity
  8
0
100
AcDbLine
 62
7
  6
CONTINUOUS
 10
3.8579083523
 20
9.2436782779
 11
3.9171183383
 21
9.2436782779
  0
LINE
  5
27E
100
AcDbEntity
  8
0
100
AcDbLine
 62
7
  6
CONTINUOUS
 10
18.1775183383
 20
9.2436782779
 11
18.2367283242
 21
9.2436782779
  0
LINE
  5
27F
100
AcDbEntity
  8
0
100
AcDbLine
 62
7
  6
CONTINUOUS
 10
4.0171183383
 20
9.3336782779
 11
3.9471183383
 21
9.3336782779
  0
LINE
  5
280
100
AcDbEntity
  8
0
100
AcDbLine
 62
7
  6
CONTINUOUS
 10
18.0775183383
 20
9.3336782779
 11
18.1475183383
 21
9.3336782779
  0
LINE
  5
281
100
AcDbEntity
  8
0
100
AcDbLine
 62
7
  6
CONTINUOUS
 10
4.057045969
 20
9.0555874924
 11
6.3610182018
 21
8.9741808316
  0
LINE
  5
282
100
AcDbEntity
  8
0
100
AcDbLine
 62
7
  6
CONTINUOUS
 10
18.0375907076
 20
8.6317690633
 11
15.7336184748
 21
8.7131757241
  0
LINE
  5
283
100
AcDbEntity
  8
0
100
AcDbLine
 62
7
  6
CONTINUOUS
 10
4.037045969
 20
9.3569784143
 11
6.3610182018
 21
9.1587393131
  0
LINE
  5
284
100
AcDbEntity
  8
0
100
AcDbLine
 62
7
  6
CONTINUOUS
 10
15.7336184748
 20
8.5286172426
 11
18.0575907076
 21
8.3303781414
  0
LINE
  5
285
100
AcDbEntity
  8
0
100
AcDbLine
 62
7
  6
CONTINUOUS
 10
4.037045969
 20
9.3369421641
 11
4.0171183383
 21
9.3386782779
  0
LINE
  5
286
100
AcDbEntity
  8
0
100
AcDbLine
 62
7
  6
CONTINUOUS
 10
18.0575907076
 20
8.3504143916
 11
18.0775183383
 21
8.3486782779
  0
LINE
  5
287
100
AcDbEntity
  8
0
100
AcDbLine
 62
7
  6
CONTINUOUS
 10
15.7153183383
 20
9.1388116825
 11
15.7336184748
 21
9.1587393131
  0
LINE
  5
288
100
AcDbEntity
  8
0
100
AcDbLine
 62
9
  6
CONTINUOUS
 10
15.0473183383
 20
7.6739666325
 11
14.0343183383
 21
8.2588224552
  0
LINE
  5
289
100
AcDbEntity
  8
0
100
AcDbLine
 62
9
  6
CONTINUOUS
 10
14.4718083581
 20
8.5114074359
 11
15.0473183383
 21
8.1791365938
  0
LINE
  5
28A
100
AcDbEntity
  8
0
100
AcDbLine
 62
7
  6
CONTINUOUS
 10
15.0473183383
 20
8.2663280087
 11
14.5473183383
 21
8.5550031433
  0
LINE
  5
28B
100
AcDbEntity
  8
0
100
AcDbLine
 62
9
  6
CONTINUOUS
 10
14.0343183383
 20
8.2588224552
 11
14.0343183383
 21
9.4285341005
  0
LINE
  5
28C
100
AcDbEntity
  8
0
100
AcDbLine
 62
9
  6
CONTINUOUS
 10
14.4718083581
 20
9.1759491199
 11
14.4718083581
 21
8.5114074359
  0
LINE
  5
28D
100
AcDbEntity
  8
0
100
AcDbLine
 62
7
  6
CONTINUOUS
 10
14.5473183383
 20
8.5550031433
 11
14.5473183383
 21
9.1323534125
  0
LINE
  5
28E
100
AcDbEntity
  8
0
100
AcDbLine
 62
7
  6
CONTINUOUS
 10
10.9340243027
 20
-3.5268898151
 11
10.9427954538
 21
-3.4982006724
  0
LINE
  5
28F
100
AcDbEntity
  8
0
100
AcDbLine
 62
7
  6
CONTINUOUS
 10
11.1518412227
 20
-2.8144427719
 11
11.1606123739
 21
-2.7857536292
  0
LINE
  5
290
100
AcDbEntity
  8
0
100
AcDbLine
 62
7
  6
CONTINUOUS
 10
15.7153183383
 20
8.721430019
 11
15.7336184748
 21
8.7131757241
  0
LINE
  5
291
100
AcDbEntity
  8
0
100
AcDbLine
 62
7
  6
CONTINUOUS
 10
16.0757235053
 20
8.2499282779
 11
16.0603183383
 21
8.2588224552
  0
LINE
  5
292
100
AcDbEntity
  8
0
100
AcDbLine
 62
7
  6
CONTINUOUS
 10
15.6228283185
 20
8.5114074359
 11
15.5473183383
 21
8.5550031433
  0
LINE
  5
293
100
AcDbEntity
  8
0
100
AcDbLine
 62
7
  6
CONTINUOUS
 10
14.0189131713
 20
9.4374282779
 11
14.0343183383
 21
9.4285341005
  0
LINE
  5
294
100
AcDbEntity
  8
0
100
AcDbLine
 62
7
  6
CONTINUOUS
 10
14.4718083581
 20
9.1759491199
 11
14.5473183383
 21
9.1323534125
  0
LINE
  5
295
100
AcDbEntity
  8
0
100
AcDbLine
 62
7
  6
CONTINUOUS
 10
15.0473183383
 20
9.421028547
 11
15.5473183383
 21
9.1323534125
  0
LINE
  5
296
100
AcDbEntity
  8
0
100
AcDbLine
 62
7
  6
CONTINUOUS
 10
15.0473183383
 20
10.0311782779
 11
15.0473183383
 21
10.0133899232
  0
LINE
  5
297
100
AcDbEntity
  8
0
100
AcDbLine
 62
7
  6
CONTINUOUS
 10
15.0473183383
 20
9.5082199619
 11
15.0473183383
 21
9.421028547
  0
LINE
  5
298
100
AcDbEntity
  8
0
100
AcDbLine
 62
7
  6
CONTINUOUS
 10
15.0473183383
 20
7.6561782779
 11
15.0473183383
 21
7.6739666325
  0
LINE
  5
299
100
AcDbEntity
  8
0
100
AcDbLine
 62
7
  6
CONTINUOUS
 10
15.0473183383
 20
8.1791365939
 11
15.0473183383
 21
8.2663280087
  0
LINE
  5
29A
100
AcDbEntity
  8
0
100
AcDbLine
 62
7
  6
CONTINUOUS
 10
15.5473183383
 20
8.5550031433
 11
15.5473183383
 21
8.6611782779
  0
LINE
  5
29B
100
AcDbEntity
  8
0
100
AcDbLine
 62
7
  6
CONTINUOUS
 10
15.5473183383
 20
9.0261782779
 11
15.5473183383
 21
9.1323534125
  0
LINE
  5
29C
100
AcDbEntity
  8
0
100
AcDbLine
 62
9
  6
CONTINUOUS
 10
15.5653183383
 20
8.6611782779
 11
15.5653183383
 21
9.0261782779
  0
LINE
  5
29D
100
AcDbEntity
  8
0
100
AcDbLine
 62
7
  6
CONTINUOUS
 10
15.6153183383
 20
9.1236774259
 11
15.6153183383
 21
8.5636791299
  0
LINE
  5
29E
100
AcDbEntity
  8
0
100
AcDbLine
 62
9
  6
CONTINUOUS
 10
15.6228283185
 20
8.5114074359
 11
15.6228283185
 21
8.5387923756
  0
LINE
  5
29F
100
AcDbEntity
  8
0
100
AcDbLine
 62
9
  6
CONTINUOUS
 10
15.6228283185
 20
9.1485641801
 11
15.6228283185
 21
9.1759491199
  0
LINE
  5
2A0
100
AcDbEntity
  8
0
100
AcDbLine
 62
9
  6
CONTINUOUS
 10
18.4035681996
 20
8.8436782779
 11
18.2648181996
 21
8.6904192598
  0
LINE
  5
2A1
100
AcDbEntity
  8
0
100
AcDbLine
 62
9
  6
CONTINUOUS
 10
18.2648181996
 20
8.6829708068
 11
18.4035681996
 21
8.8362298249
  0
LINE
  5
2A2
100
AcDbEntity
  8
0
100
AcDbLine
 62
7
  6
CONTINUOUS
 10
18.0575907076
 20
9.0279586191
 11
18.0775183383
 21
9.0487139912
  0
LINE
  5
2A3
100
AcDbEntity
  8
0
100
AcDbLine
 62
7
  6
CONTINUOUS
 10
18.0375907076
 20
9.0555874924
 11
18.0575907076
 21
9.0763304062
  0
LINE
  5
2A4
100
AcDbEntity
  8
0
100
AcDbLine
 62
7
  6
CONTINUOUS
 10
18.0575907076
 20
8.3303781414
 11
18.0775183383
 21
8.3486782779
  0
LINE
  5
2A5
100
AcDbEntity
  8
0
100
AcDbLine
 62
7
  6
CONTINUOUS
 10
18.0375907076
 20
8.3320841781
 11
18.0575907076
 21
8.3504143916
  0
LINE
  5
2A6
100
AcDbEntity
  8
0
100
AcDbLine
 62
9
  6
CONTINUOUS
 10
15.6228283185
 20
9.1759491199
 11
15.0473183383
 21
9.5082199619
  0
LINE
  5
2A7
100
AcDbEntity
  8
0
100
AcDbLine
 62
9
  6
CONTINUOUS
 10
15.0473183383
 20
10.0133899232
 11
16.0603183383
 21
9.4285341005
  0
LINE
  5
2A8
100
AcDbEntity
  8
0
100
AcDbLine
 62
7
  6
CONTINUOUS
 10
15.7153183383
 20
8.5485448733
 11
15.7336184748
 21
8.5286172426
  0
LINE
  5
2A9
100
AcDbEntity
  8
0
100
AcDbLine
 62
7
  6
CONTINUOUS
 10
15.7153183383
 20
9.1388116825
 11
15.7153183383
 21
8.5485448733
  0
LINE
  5
2AA
100
AcDbEntity
  8
0
100
AcDbLine
 62
7
  6
CONTINUOUS
 10
15.7336184748
 20
9.1587393131
 11
15.7336184748
 21
8.5286172426
  0
LINE
  5
2AB
100
AcDbEntity
  8
0
100
AcDbLine
 62
9
  6
CONTINUOUS
 10
16.0603183383
 20
9.4285341005
 11
16.0603183383
 21
9.1866074117
  0
LINE
  5
2AC
100
AcDbEntity
  8
0
100
AcDbLine
 62
9
  6
CONTINUOUS
 10
16.0603183383
 20
8.500749144
 11
16.0603183383
 21
8.2588224552
  0
LINE
  5
2AD
100
AcDbEntity
  8
0
100
AcDbLine
 62
7
  6
CONTINUOUS
 10
10.8653981077
 20
-3.4984639144
 11
10.8794822546
 21
-3.4719754866
  0
LINE
  5
2AE
100
AcDbEntity
  8
0
100
AcDbLine
 62
7
  6
CONTINUOUS
 10
11.215154422
 20
-2.8406679577
 11
11.2292385689
 21
-2.8141795299
  0
LINE
  5
2AF
100
AcDbEntity
  8
0
100
AcDbLine
 62
7
  6
CONTINUOUS
 10
18.0575907076
 20
8.6110261495
 11
18.0775183383
 21
8.6386425645
  0
LINE
  5
2B0
100
AcDbEntity
  8
0
100
AcDbLine
 62
7
  6
CONTINUOUS
 10
18.0575907076
 20
8.6593979366
 11
18.0375907076
 21
8.6317690633
  0
LINE
  5
2B1
100
AcDbEntity
  8
0
100
AcDbLine
 62
9
  6
CONTINUOUS
 10
18.4035681996
 20
8.8362298249
 11
18.2648181996
 21
8.4662298249
  0
LINE
  5
2B2
100
AcDbEntity
  8
0
100
AcDbLine
 62
7
  6
CONTINUOUS
 10
18.2648181996
 20
8.4631445746
 11
18.4035681996
 21
8.8331445746
  0
LINE
  5
2B3
100
AcDbEntity
  8
0
100
AcDbLine
 62
7
  6
CONTINUOUS
 10
18.0375907076
 20
9.3552723776
 11
18.0575907076
 21
9.3369421641
  0
LINE
  5
2B4
100
AcDbEntity
  8
0
100
AcDbLine
 62
7
  6
CONTINUOUS
 10
18.0575907076
 20
9.3569784143
 11
18.0775183383
 21
9.3386782779
  0
LINE
  5
2B5
100
AcDbEntity
  8
0
100
AcDbLine
 62
7
  6
CONTINUOUS
 10
18.0375907076
 20
8.6317690633
 11
18.0575907076
 21
8.6110261495
  0
LINE
  5
2B6
100
AcDbEntity
  8
0
100
AcDbLine
 62
7
  6
CONTINUOUS
 10
18.0575907076
 20
8.6593979366
 11
18.0775183383
 21
8.6386425645
  0
LINE
  5
2B7
100
AcDbEntity
  8
0
100
AcDbLine
 62
9
  6
CONTINUOUS
 10
18.2648181996
 20
8.9969372959
 11
18.4035681996
 21
8.8436782779
  0
LINE
  5
2B8
100
AcDbEntity
  8
0
100
AcDbLine
 62
9
  6
CONTINUOUS
 10
18.4035681996
 20
8.8511267309
 11
18.2648181996
 21
9.0043857489
  0
LINE
  5
2B9
100
AcDbEntity
  8
0
100
AcDbLine
 62
7
  6
CONTINUOUS
 10
18.0575907076
 20
8.3504143916
 11
18.0575907076
 21
8.6110261495
  0
LINE
  5
2BA
100
AcDbEntity
  8
0
100
AcDbLine
 62
7
  6
CONTINUOUS
 10
18.0575907076
 20
8.6593979366
 11
18.0575907076
 21
9.0279586191
  0
LINE
  5
2BB
100
AcDbEntity
  8
0
100
AcDbLine
 62
7
  6
CONTINUOUS
 10
18.0575907076
 20
9.0763304062
 11
18.0575907076
 21
9.3369421641
  0
LINE
  5
2BC
100
AcDbEntity
  8
0
100
AcDbLine
 62
7
  6
CONTINUOUS
 10
18.0775183383
 20
8.3486782779
 11
18.0775183383
 21
9.3386782779
  0
LINE
  5
2BD
100
AcDbEntity
  8
0
100
AcDbLine
 62
9
  6
CONTINUOUS
 10
18.1475183383
 20
8.3536782779
 11
18.1475183383
 21
9.3336782779
  0
LINE
  5
2BE
100
AcDbEntity
  8
0
100
AcDbLine
 62
7
  6
CONTINUOUS
 10
18.1775183383
 20
8.3836782779
 11
18.1775183383
 21
9.3036731994
  0
LINE
  5
2BF
100
AcDbEntity
  8
0
100
AcDbLine
 62
9
  6
CONTINUOUS
 10
18.2367283242
 20
8.4436782779
 11
18.2367283242
 21
9.2436782779
  0
LINE
  5
2C0
100
AcDbEntity
  8
0
100
AcDbLine
 62
9
  6
CONTINUOUS
 10
18.2648181996
 20
9.2211267309
 11
18.2648181996
 21
9.0043857489
  0
LINE
  5
2C1
100
AcDbEntity
  8
0
100
AcDbLine
 62
9
  6
CONTINUOUS
 10
18.2648181996
 20
8.9969372959
 11
18.2648181996
 21
8.6904192598
  0
LINE
  5
2C2
100
AcDbEntity
  8
0
100
AcDbLine
 62
9
  6
CONTINUOUS
 10
18.2648181996
 20
8.6829708068
 11
18.2648181996
 21
8.4662298249
  0
LINE
  5
2C3
100
AcDbEntity
  8
0
100
AcDbLine
 62
7
  6
CONTINUOUS
 10
18.0575907076
 20
9.0279586191
 11
18.0375907076
 21
9.0555874924
  0
LINE
  5
2C4
100
AcDbEntity
  8
0
100
AcDbLine
 62
7
  6
CONTINUOUS
 10
18.0575907076
 20
9.0763304062
 11
18.0775183383
 21
9.0487139912
  0
LINE
  5
2C5
100
AcDbEntity
  8
0
100
AcDbLine
 62
9
  6
CONTINUOUS
 10
18.2648181996
 20
9.2211267309
 11
18.4035681996
 21
8.8511267309
  0
LINE
  5
2C6
100
AcDbEntity
  8
0
100
AcDbLine
 62
7
  6
CONTINUOUS
 10
18.4035681996
 20
8.8542119811
 11
18.2648181996
 21
9.2242119811
  0
LINE
  5
2C7
100
AcDbEntity
  8
0
100
AcDbLine
 62
7
  6
CONTINUOUS
 10
10.7051761461
 20
-3.3382419527
 11
10.7316645738
 21
-3.3241578058
  0
LINE
  5
2C8
100
AcDbEntity
  8
0
100
AcDbLine
 62
7
  6
CONTINUOUS
 10
11.3629721027
 20
-2.9884856384
 11
11.3894605305
 21
-2.9744014916
  0
LINE
  5
2C9
100
AcDbEntity
  8
0
100
AcDbLine
 62
7
  6
CONTINUOUS
 10
10.6767502453
 20
-3.2696157577
 11
10.705439388
 21
-3.2608446066
  0
LINE
  5
2CA
100
AcDbEntity
  8
0
100
AcDbLine
 62
7
  6
CONTINUOUS
 10
11.3891972885
 20
-3.0517988377
 11
11.4178864312
 21
-3.0430276866
  0
ARC
  5
2CB
100
AcDbEntity
  8
0
100
AcDbCircle
 62
7
  6
CONTINUOUS
 10
7.0473183383
 20
8.8436782779
 40
1.1875
100
AcDbArc
 50
197.2811000859
 51
162.7014758221
  0
CIRCLE
  5
2CC
100
AcDbEntity
  8
0
100
AcDbCircle
 62
7
  6
CONTINUOUS
 10
7.0473183383
 20
8.8436782779
 40
0.49
  0
ARC
  5
2CD
100
AcDbEntity
  8
0
100
AcDbCircle
 62
7
  6
CONTINUOUS
 10
6.5293183383
 20
9.0761782779
 40
0.05
100
AcDbArc
 50
180.0
 51
270.0
  0
ARC
  5
2CE
100
AcDbEntity
  8
0
100
AcDbCircle
 62
7
  6
CONTINUOUS
 10
6.5293183383
 20
8.6111782779
 40
0.05
100
AcDbArc
 50
90.0
 51
180.0
  0
ARC
  5
2CF
100
AcDbEntity
  8
0
100
AcDbCircle
 62
7
  6
CONTINUOUS
 10
6.4293183383
 20
9.1236782779
 40
0.05
100
AcDbArc
 50
0.0
 51
180.0
  0
ARC
  5
2D0
100
AcDbEntity
  8
0
100
AcDbCircle
 62
7
  6
CONTINUOUS
 10
6.4293183383
 20
8.5636782779
 40
0.05
100
AcDbArc
 50
180.0
 51
360.0
  0
ARC
  5
2D1
100
AcDbEntity
  8
0
100
AcDbCircle
 62
7
  6
CONTINUOUS
 10
3.9471183383
 20
9.3036782779
 40
0.03
100
AcDbArc
 50
90.0
 51
180.0
  0
ARC
  5
2D2
100
AcDbEntity
  8
0
100
AcDbCircle
 62
7
  6
CONTINUOUS
 10
3.8579083523
 20
8.4736782779
 40
0.03
100
AcDbArc
 50
200.5560452196
 51
269.9999999932
  0
ARC
  5
2D3
100
AcDbEntity
  8
0
100
AcDbCircle
 62
7
  6
CONTINUOUS
 10
3.8579083523
 20
9.2136782779
 40
0.03
100
AcDbArc
 50
90.0000000068
 51
159.4439547804
  0
ARC
  5
2D4
100
AcDbEntity
  8
0
100
AcDbCircle
 62
7
  6
CONTINUOUS
 10
3.9471183383
 20
8.3836782779
 40
0.03
100
AcDbArc
 50
180.0
 51
270.0
  0
ARC
  5
2D5
100
AcDbEntity
  8
0
100
AcDbCircle
 62
7
  6
CONTINUOUS
 10
3.7191583491
 20
8.8436782779
 40
0.0299999969
100
AcDbArc
 50
159.4500274125
 51
200.5476841264
  0
ARC
  5
2D6
100
AcDbEntity
  8
0
100
AcDbCircle
 62
9
  6
CONTINUOUS
 10
3.7188490248
 20
8.8474724577
 40
0.0280384493
100
AcDbArc
 50
182.6255926489
 51
187.7771591199
  0
ARC
  5
2D7
100
AcDbEntity
  8
0
100
AcDbCircle
 62
9
  6
CONTINUOUS
 10
3.7178241259
 20
8.8474327951
 40
0.0270128104
100
AcDbArc
 50
177.3588624665
 51
182.6411375333
  0
ARC
  5
2D8
100
AcDbEntity
  8
0
100
AcDbCircle
 62
9
  6
CONTINUOUS
 10
3.7168865148
 20
8.8474831001
 40
0.0260738781
100
AcDbArc
 50
171.9670497161
 51
177.3743461147
  0
ARC
  5
2D9
100
AcDbEntity
  8
0
100
AcDbCircle
 62
7
  6
CONTINUOUS
 10
11.0177955802
 20
17.8455581963
 40
1.0775
100
AcDbArc
 50
143.5849691174
 51
171.3797095907
  0
ARC
  5
2DA
100
AcDbEntity
  8
0
100
AcDbCircle
 62
7
  6
CONTINUOUS
 10
11.0177955802
 20
17.8455581963
 40
1.0775
100
AcDbArc
 50
98.5849691174
 51
126.3797095907
  0
ARC
  5
2DB
100
AcDbEntity
  8
0
100
AcDbCircle
 62
7
  6
CONTINUOUS
 10
11.0177955802
 20
17.8455581963
 40
1.0775
100
AcDbArc
 50
53.5849691174
 51
81.3797095907
  0
ARC
  5
2DC
100
AcDbEntity
  8
0
100
AcDbCircle
 62
7
  6
CONTINUOUS
 10
11.0177955802
 20
17.8455581963
 40
1.0775
100
AcDbArc
 50
8.5849691174
 51
36.3797095907
  0
ARC
  5
2DD
100
AcDbEntity
  8
0
100
AcDbCircle
 62
7
  6
CONTINUOUS
 10
11.0177955802
 20
17.8455581963
 40
1.0775
100
AcDbArc
 50
278.5849691174
 51
306.3797095907
  0
ARC
  5
2DE
100
AcDbEntity
  8
0
100
AcDbCircle
 62
7
  6
CONTINUOUS
 10
11.0177955802
 20
17.8455581963
 40
1.0775
100
AcDbArc
 50
233.5849691174
 51
261.3797095907
  0
ARC
  5
2DF
100
AcDbEntity
  8
0
100
AcDbCircle
 62
7
  6
CONTINUOUS
 10
11.0177955802
 20
17.8455581963
 40
1.0775
100
AcDbArc
 50
188.5849691174
 51
216.3797095907
  0
ARC
  5
2E0
100
AcDbEntity
  8
0
100
AcDbCircle
 62
7
  6
CONTINUOUS
 10
11.0177955802
 20
17.8455581963
 40
1.0775
100
AcDbArc
 50
323.5849691174
 51
351.3797095907
  0
ARC
  5
2E1
100
AcDbEntity
  8
0
100
AcDbCircle
 62
7
  6
CONTINUOUS
 10
11.0177955802
 20
17.8455581963
 40
1.0125
100
AcDbArc
 50
310.3784080781
 51
319.5957876721
  0
ARC
  5
2E2
100
AcDbEntity
  8
0
100
AcDbCircle
 62
7
  6
CONTINUOUS
 10
11.0177955802
 20
17.8455581963
 40
1.0125
100
AcDbArc
 50
265.1552577934
 51
274.8339357306
  0
ARC
  5
2E3
100
AcDbEntity
  8
0
100
AcDbCircle
 62
7
  6
CONTINUOUS
 10
11.0177955802
 20
17.8455581963
 40
1.0125
100
AcDbArc
 50
220.4071313568
 51
229.6190435064
  0
ARC
  5
2E4
100
AcDbEntity
  8
0
100
AcDbCircle
 62
7
  6
CONTINUOUS
 10
11.0177955802
 20
17.8455581963
 40
1.0125
100
AcDbArc
 50
175.4596496968
 51
184.4690814597
  0
ARC
  5
2E5
100
AcDbEntity
  8
0
100
AcDbCircle
 62
7
  6
CONTINUOUS
 10
11.0177955802
 20
17.8455581963
 40
1.0125
100
AcDbArc
 50
130.378408077
 51
139.5957876726
  0
ARC
  5
2E6
100
AcDbEntity
  8
0
100
AcDbCircle
 62
7
  6
CONTINUOUS
 10
11.0177955802
 20
17.8455581963
 40
1.0125
100
AcDbArc
 50
85.1552577954
 51
94.8339357346
  0
ARC
  5
2E7
100
AcDbEntity
  8
0
100
AcDbCircle
 62
7
  6
CONTINUOUS
 10
11.0177955802
 20
17.8455581963
 40
1.0125
100
AcDbArc
 50
40.4071313584
 51
49.6190435084
  0
ARC
  5
2E8
100
AcDbEntity
  8
0
100
AcDbCircle
 62
7
  6
CONTINUOUS
 10
11.0177955802
 20
17.8455581963
 40
1.0125
100
AcDbArc
 50
355.4596496978
 51
4.4690814601
  0
CIRCLE
  5
2E9
100
AcDbEntity
  8
0
100
AcDbCircle
 62
7
  6
CONTINUOUS
 10
11.0177955802
 20
17.8455581963
 40
0.935
  0
CIRCLE
  5
2EA
100
AcDbEntity
  8
0
100
AcDbCircle
 62
9
  6
CONTINUOUS
 10
11.0177955802
 20
17.8455581963
 40
0.909136433
  0
ARC
  5
2EB
100
AcDbEntity
  8
0
100
AcDbCircle
 62
7
  6
CONTINUOUS
 10
10.1695290304
 20
18.6943478407
 40
0.21
100
AcDbArc
 50
264.85317329
 51
5.1115054179
  0
ARC
  5
2EC
100
AcDbEntity
  8
0
100
AcDbCircle
 62
7
  6
CONTINUOUS
 10
11.0181654639
 20
19.0455581393
 40
0.21
100
AcDbArc
 50
219.8531732902
 51
320.1115054175
  0
ARC
  5
2ED
100
AcDbEntity
  8
0
100
AcDbCircle
 62
7
  6
CONTINUOUS
 10
11.0174256965
 20
16.6455582533
 40
0.21
100
AcDbArc
 50
39.85317329
 51
140.1115054181
  0
ARC
  5
2EE
100
AcDbEntity
  8
0
100
AcDbCircle
 62
7
  6
CONTINUOUS
 10
10.1690059358
 20
16.9972916464
 40
0.21
100
AcDbArc
 50
354.85317329
 51
95.1115054181
  0
ARC
  5
2EF
100
AcDbEntity
  8
0
100
AcDbCircle
 62
7
  6
CONTINUOUS
 10
9.8177956372
 20
17.84592808
 40
0.21
100
AcDbArc
 50
309.85317329
 51
50.111505418
  0
CIRCLE
  5
2F0
100
AcDbEntity
  8
0
100
AcDbCircle
 62
7
  6
CONTINUOUS
 10
11.0473183383
 20
-3.1563217221
 40
0.79
  0
CIRCLE
  5
2F1
100
AcDbEntity
  8
0
100
AcDbCircle
 62
7
  6
CONTINUOUS
 10
11.0473183383
 20
0.8436782779
 40
0.656
  0
CIRCLE
  5
2F2
100
AcDbEntity
  8
0
100
AcDbCircle
 62
7
  6
CONTINUOUS
 10
11.0473183383
 20
0.8436782779
 40
0.58
  0
CIRCLE
  5
2F3
100
AcDbEntity
  8
0
100
AcDbCircle
 62
7
  6
CONTINUOUS
 10
11.0473183383
 20
-3.1563217221
 40
0.495
  0
CIRCLE
  5
2F4
100
AcDbEntity
  8
0
100
AcDbCircle
 62
9
  6
CONTINUOUS
 10
11.0473183383
 20
-3.1563217221
 40
0.49
  0
CIRCLE
  5
2F5
100
AcDbEntity
  8
0
100
AcDbCircle
 62
7
  6
CONTINUOUS
 10
11.0473183383
 20
-3.1563217221
 40
0.47
  0
CIRCLE
  5
2F6
100
AcDbEntity
  8
0
100
AcDbCircle
 62
7
  6
CONTINUOUS
 10
11.0473183383
 20
-3.1563217221
 40
0.4625
  0
CIRCLE
  5
2F7
100
AcDbEntity
  8
0
100
AcDbCircle
 62
9
  6
CONTINUOUS
 10
11.0473183383
 20
-3.1563217221
 40
0.4272880871
  0
CIRCLE
  5
2F8
100
AcDbEntity
  8
0
100
AcDbCircle
 62
9
  6
CONTINUOUS
 10
11.0473183383
 20
-3.1563217221
 40
0.4181683849
  0
CIRCLE
  5
2F9
100
AcDbEntity
  8
0
100
AcDbCircle
 62
7
  6
CONTINUOUS
 10
11.0473183383
 20
-3.1563217221
 40
0.396
  0
CIRCLE
  5
2FA
100
AcDbEntity
  8
0
100
AcDbCircle
 62
7
  6
CONTINUOUS
 10
11.0473183383
 20
-3.1563217221
 40
0.395
  0
CIRCLE
  5
2FB
100
AcDbEntity
  8
0
100
AcDbCircle
 62
7
  6
CONTINUOUS
 10
11.0473183383
 20
-3.1563217221
 40
0.3875
  0
ARC
  5
2FC
100
AcDbEntity
  8
0
100
AcDbCircle
 62
7
  6
CONTINUOUS
 10
11.0473183383
 20
-3.1563217221
 40
0.375
100
AcDbArc
 50
196.9999999999
 51
208.0000000005
  0
ARC
  5
2FD
100
AcDbEntity
  8
0
100
AcDbCircle
 62
7
  6
CONTINUOUS
 10
11.0473183383
 20
-3.1563217221
 40
0.375
100
AcDbArc
 50
106.9999999998
 51
117.9999999998
  0
ARC
  5
2FE
100
AcDbEntity
  8
0
100
AcDbCircle
 62
7
  6
CONTINUOUS
 10
11.0473183383
 20
-3.1563217221
 40
0.375
100
AcDbArc
 50
152.0000000006
 51
162.9999999998
  0
ARC
  5
2FF
100
AcDbEntity
  8
0
100
AcDbCircle
 62
7
  6
CONTINUOUS
 10
11.0473183383
 20
-3.1563217221
 40
0.375
100
AcDbArc
 50
286.9999999998
 51
297.9999999998
  0
ARC
  5
300
100
AcDbEntity
  8
0
100
AcDbCircle
 62
7
  6
CONTINUOUS
 10
11.0473183383
 20
-3.1563217221
 40
0.375
100
AcDbArc
 50
16.9999999999
 51
28.0000000005
  0
ARC
  5
301
100
AcDbEntity
  8
0
100
AcDbCircle
 62
7
  6
CONTINUOUS
 10
11.0473183383
 20
-3.1563217221
 40
0.375
100
AcDbArc
 50
241.9999999999
 51
253.0000000001
  0
ARC
  5
302
100
AcDbEntity
  8
0
100
AcDbCircle
 62
7
  6
CONTINUOUS
 10
11.0473183383
 20
-3.1563217221
 40
0.375
100
AcDbArc
 50
332.0000000006
 51
342.9999999998
  0
ARC
  5
303
100
AcDbEntity
  8
0
100
AcDbCircle
 62
7
  6
CONTINUOUS
 10
11.0473183383
 20
-3.1563217221
 40
0.375
100
AcDbArc
 50
61.9999999999
 51
73.0000000001
  0
ARC
  5
304
100
AcDbEntity
  8
0
100
AcDbCircle
 62
7
  6
CONTINUOUS
 10
11.0473183383
 20
-3.1563217221
 40
0.3575
100
AcDbArc
 50
342.9999999998
 51
16.9999999998
  0
ARC
  5
305
100
AcDbEntity
  8
0
100
AcDbCircle
 62
7
  6
CONTINUOUS
 10
11.0473183383
 20
-3.1563217221
 40
0.3575
100
AcDbArc
 50
297.9999999998
 51
332.0000000007
  0
ARC
  5
306
100
AcDbEntity
  8
0
100
AcDbCircle
 62
7
  6
CONTINUOUS
 10
11.0473183383
 20
-3.1563217221
 40
0.3575
100
AcDbArc
 50
253.0000000001
 51
286.9999999998
  0
ARC
  5
307
100
AcDbEntity
  8
0
100
AcDbCircle
 62
7
  6
CONTINUOUS
 10
11.0473183383
 20
-3.1563217221
 40
0.3575
100
AcDbArc
 50
208.0000000006
 51
241.9999999998
  0
ARC
  5
308
100
AcDbEntity
  8
0
100
AcDbCircle
 62
7
  6
CONTINUOUS
 10
11.0473183383
 20
-3.1563217221
 40
0.3575
100
AcDbArc
 50
162.9999999998
 51
196.9999999998
  0
ARC
  5
309
100
AcDbEntity
  8
0
100
AcDbCircle
 62
7
  6
CONTINUOUS
 10
11.0473183383
 20
-3.1563217221
 40
0.3575
100
AcDbArc
 50
117.9999999998
 51
152.0000000007
  0
ARC
  5
30A
100
AcDbEntity
  8
0
100
AcDbCircle
 62
7
  6
CONTINUOUS
 10
11.0473183383
 20
-3.1563217221
 40
0.3575
100
AcDbArc
 50
73.0000000001
 51
106.9999999998
  0
ARC
  5
30B
100
AcDbEntity
  8
0
100
AcDbCircle
 62
7
  6
CONTINUOUS
 10
11.0473183383
 20
-3.1563217221
 40
0.3575
100
AcDbArc
 50
28.0000000006
 51
61.9999999998
  0
CIRCLE
  5
30C
100
AcDbEntity
  8
0
100
AcDbCircle
 62
7
  6
CONTINUOUS
 10
11.0473183383
 20
-3.1563217221
 40
0.3125
  0
ARC
  5
30D
100
AcDbEntity
  8
0
100
AcDbCircle
 62
7
  6
CONTINUOUS
 10
15.0473183383
 20
8.8436782779
 40
1.1875
100
AcDbArc
 50
17.2811000859
 51
342.7014758221
  0
CIRCLE
  5
30E
100
AcDbEntity
  8
0
100
AcDbCircle
 62
7
  6
CONTINUOUS
 10
15.0473183383
 20
8.8436782779
 40
0.49
  0
ARC
  5
30F
100
AcDbEntity
  8
0
100
AcDbCircle
 62
7
  6
CONTINUOUS
 10
11.8665852246
 20
18.6938247461
 40
0.21
100
AcDbArc
 50
174.85317329
 51
275.1115054181
  0
ARC
  5
310
100
AcDbEntity
  8
0
100
AcDbCircle
 62
7
  6
CONTINUOUS
 10
11.8660621301
 20
16.9967685519
 40
0.21
100
AcDbArc
 50
84.85317329
 51
185.1115054182
  0
ARC
  5
311
100
AcDbEntity
  8
0
100
AcDbCircle
 62
7
  6
CONTINUOUS
 10
12.2177955232
 20
17.8451883126
 40
0.21
100
AcDbArc
 50
129.8531732901
 51
230.1115054182
  0
ARC
  5
312
100
AcDbEntity
  8
0
100
AcDbCircle
 62
7
  6
CONTINUOUS
 10
15.5653183383
 20
8.6111782779
 40
0.05
100
AcDbArc
 50
0.0
 51
90.0
  0
ARC
  5
313
100
AcDbEntity
  8
0
100
AcDbCircle
 62
7
  6
CONTINUOUS
 10
15.5653183383
 20
9.0761782779
 40
0.05
100
AcDbArc
 50
270.0
 51
360.0
  0
ARC
  5
314
100
AcDbEntity
  8
0
100
AcDbCircle
 62
7
  6
CONTINUOUS
 10
15.6653183383
 20
8.5636782779
 40
0.05
100
AcDbArc
 50
180.0
 51
360.0
  0
ARC
  5
315
100
AcDbEntity
  8
0
100
AcDbCircle
 62
7
  6
CONTINUOUS
 10
15.6653183383
 20
9.1236782779
 40
0.05
100
AcDbArc
 50
0.0
 51
180.0
  0
ARC
  5
316
100
AcDbEntity
  8
0
100
AcDbCircle
 62
7
  6
CONTINUOUS
 10
18.1475183383
 20
8.3836782779
 40
0.03
100
AcDbArc
 50
270.0
 51
360.0
  0
ARC
  5
317
100
AcDbEntity
  8
0
100
AcDbCircle
 62
7
  6
CONTINUOUS
 10
18.2367283242
 20
9.2136782779
 40
0.03
100
AcDbArc
 50
20.5560452196
 51
89.9999999932
  0
ARC
  5
318
100
AcDbEntity
  8
0
100
AcDbCircle
 62
7
  6
CONTINUOUS
 10
18.2367283242
 20
8.4736782779
 40
0.03
100
AcDbArc
 50
270.0000000068
 51
339.4439547804
  0
ARC
  5
319
100
AcDbEntity
  8
0
100
AcDbCircle
 62
7
  6
CONTINUOUS
 10
18.1475183383
 20
9.3036782779
 40
0.03
100
AcDbArc
 50
0.0
 51
90.0
  0
ARC
  5
31A
100
AcDbEntity
  8
0
100
AcDbCircle
 62
7
  6
CONTINUOUS
 10
18.3754783274
 20
8.8436782778
 40
0.0299999969
100
AcDbArc
 50
339.4500274127
 51
20.5476840889
  0
ARC
  5
31B
100
AcDbEntity
  8
0
100
AcDbCircle
 62
9
  6
CONTINUOUS
 10
18.3757876517
 20
8.839884098
 40
0.0280384493
100
AcDbArc
 50
2.6255926489
 51
7.7771591199
  0
ARC
  5
31C
100
AcDbEntity
  8
0
100
AcDbCircle
 62
9
  6
CONTINUOUS
 10
18.3768125506
 20
8.8399237606
 40
0.0270128104
100
AcDbArc
 50
357.3588624665
 51
2.6411375332
  0
ARC
  5
31D
100
AcDbEntity
  8
0
100
AcDbCircle
 62
9
  6
CONTINUOUS
 10
18.3777501618
 20
8.8398734557
 40
0.0260738781
100
AcDbArc
 50
351.9670497162
 51
357.3743461147
  0
SPLINE
  5
31E
100
AcDbEntity
  8
0
100
AcDbSpline
 62
9
  6
CONTINUOUS
 70
0
 71
3
 72
9
 73
5
 74
0
 42
0.0000001
 43
0.0000001
 44
0.0000000001
 40
0.0
 40
0.0
 40
0.0
 40
0.0
 40
0.2537319518
 40
1.0
 40
1.0
 40
1.0
 40
1.0
 10
18.4035681996
 20
8.8436782779
 30
0.0
 10
18.4036533545
 20
8.8443035903
 30
0.0
 10
18.403907709
 20
8.8467782261
 30
0.0
 10
18.4038278568
 20
8.8492888591
 30
0.0
 10
18.4035681996
 20
8.8511267309
 30
0.0
  0
SPLINE
  5
31F
100
AcDbEntity
  8
0
100
AcDbSpline
 62
9
  6
CONTINUOUS
 70
0
 71
3
 72
9
 73
5
 74
0
 42
0.0000001
 43
0.0000001
 44
0.0000000001
 40
0.0
 40
0.0
 40
0.0
 40
0.0
 40
0.5259477413
 40
1.0
 40
1.0
 40
1.0
 40
1.0
 10
18.4035681996
 20
8.8511267309
 30
0.0
 10
18.4037269309
 20
8.8516516285
 30
0.0
 10
18.4039159266
 20
8.8526940028
 30
0.0
 10
18.4037417476
 20
8.8537491864
 30
0.0
 10
18.4035681996
 20
8.8542119811
 30
0.0
  0
SPLINE
  5
320
100
AcDbEntity
  8
0
100
AcDbSpline
 62
9
  6
CONTINUOUS
 70
0
 71
3
 72
9
 73
5
 74
0
 42
0.0000001
 43
0.0000001
 44
0.0000000001
 40
0.0
 40
0.0
 40
0.0
 40
0.0
 40
0.2469049487
 40
1.0
 40
1.0
 40
1.0
 40
1.0
 10
18.2648181996
 20
9.0043857489
 30
0.0
 10
18.2649041107
 20
9.0037776639
 30
0.0
 10
18.2651639557
 20
9.0013029139
 30
0.0
 10
18.2650709539
 20
8.9987933296
 30
0.0
 10
18.2648181996
 20
8.9969372959
 30
0.0
  0
SPLINE
  5
321
100
AcDbEntity
  8
0
100
AcDbSpline
 62
9
  6
CONTINUOUS
 70
0
 71
3
 72
14
 73
10
 74
0
 42
0.0000001
 43
0.0000001
 44
0.0000000001
 40
0.0
 40
0.0
 40
0.0
 40
0.0
 40
0.1384906859
 40
0.2757419733
 40
0.4098141257
 40
0.5394450913
 40
0.66371114
 40
0.7820793772
 40
1.0
 40
1.0
 40
1.0
 40
1.0
 10
18.2367283242
 20
9.0181504994
 30
0.0
 10
18.2382378941
 20
9.0181504994
 30
0.0
 10
18.2412458968
 20
9.0179883195
 30
0.0
 10
18.2456638499
 20
9.0172729826
 30
0.0
 10
18.2498819508
 20
9.01609189
 30
0.0
 10
18.2538017929
 20
9.0144787497
 30
0.0
 10
18.2573389542
 20
9.0124614094
 30
0.0
 10
18.2613209166
 20
9.0093925747
 30
0.0
 10
18.2637052889
 20
9.0064842735
 30
0.0
 10
18.2648181996
 20
9.0043857489
 30
0.0
  0
SPLINE
  5
322
100
AcDbEntity
  8
0
100
AcDbSpline
 62
9
  6
CONTINUOUS
 70
0
 71
3
 72
14
 73
10
 74
0
 42
0.0000001
 43
0.0000001
 44
0.0000000001
 40
0.0
 40
0.0
 40
0.0
 40
0.0
 40
0.1063741316
 40
0.2184676567
 40
0.3366604659
 40
0.4608827084
 40
0.7240567955
 40
0.8613838158
 40
1.0
 40
1.0
 40
1.0
 40
1.0
 10
18.2648181996
 20
8.6829708068
 30
0.0
 10
18.2642747602
 20
8.6819460878
 30
0.0
 10
18.262950138
 20
8.6799472639
 30
0.0
 10
18.2604160693
 20
8.6772702819
 30
0.0
 10
18.2573453219
 20
8.6748982404
 30
0.0
 10
18.2525441597
 20
8.6721610091
 30
0.0
 10
18.2470609823
 20
8.670310524
 30
0.0
 10
18.2412518534
 20
8.6693688652
 30
0.0
 10
18.2382397947
 20
8.6692060563
 30
0.0
 10
18.2367283242
 20
8.6692060563
 30
0.0
  0
SPLINE
  5
323
100
AcDbEntity
  8
0
100
AcDbSpline
 62
9
  6
CONTINUOUS
 70
0
 71
3
 72
9
 73
5
 74
0
 42
0.0000001
 43
0.0000001
 44
0.0000000001
 40
0.0
 40
0.0
 40
0.0
 40
0.0
 40
0.2537249589
 40
1.0
 40
1.0
 40
1.0
 40
1.0
 10
18.2648181996
 20
8.6904192598
 30
0.0
 10
18.2649033521
 20
8.6897939645
 30
0.0
 10
18.2651577195
 20
8.68731933
 30
0.0
 10
18.2650778593
 20
8.6848086958
 30
0.0
 10
18.2648181996
 20
8.6829708068
 30
0.0
  0
SPLINE
  5
324
100
AcDbEntity
  8
0
100
AcDbSpline
 62
9
  6
CONTINUOUS
 70
0
 71
3
 72
9
 73
5
 74
0
 42
0.0000001
 43
0.0000001
 44
0.0000000001
 40
0.0
 40
0.0
 40
0.0
 40
0.0
 40
0.4740522946
 40
1.0
 40
1.0
 40
1.0
 40
1.0
 10
18.4035681996
 20
8.8331445746
 30
0.0
 10
18.4037417515
 20
8.8336073679
 30
0.0
 10
18.4039159238
 20
8.8346625537
 30
0.0
 10
18.4037269308
 20
8.8357049273
 30
0.0
 10
18.4035681996
 20
8.8362298249
 30
0.0
  0
SPLINE
  5
325
100
AcDbEntity
  8
0
100
AcDbSpline
 62
9
  6
CONTINUOUS
 70
0
 71
3
 72
9
 73
5
 74
0
 42
0.0000001
 43
0.0000001
 44
0.0000000001
 40
0.0
 40
0.0
 40
0.0
 40
0.0
 40
0.5259477386
 40
1.0
 40
1.0
 40
1.0
 40
1.0
 10
18.2648181996
 20
8.4662298249
 30
0.0
 10
18.2649769309
 20
8.4657049272
 30
0.0
 10
18.2651659266
 20
8.4646625529
 30
0.0
 10
18.2649917476
 20
8.4636073693
 30
0.0
 10
18.2648181996
 20
8.4631445746
 30
0.0
  0
SPLINE
  5
326
100
AcDbEntity
  8
0
100
AcDbSpline
 62
9
  6
CONTINUOUS
 70
0
 71
3
 72
9
 73
5
 74
0
 42
0.0000001
 43
0.0000001
 44
0.0000000001
 40
0.0
 40
0.0
 40
0.0
 40
0.0
 40
0.2575776285
 40
1.0
 40
1.0
 40
1.0
 40
1.0
 10
18.2367283242
 20
8.4524650744
 30
0.0
 10
18.2382378941
 20
8.4524650744
 30
0.0
 10
18.2440901246
 20
8.4527783429
 30
0.0
 10
18.2499089892
 20
8.4543279853
 30
0.0
 10
18.2538161694
 20
8.4562426025
 30
0.0
  0
SPLINE
  5
327
100
AcDbEntity
  8
0
100
AcDbSpline
 62
9
  6
CONTINUOUS
 70
0
 71
3
 72
9
 73
5
 74
0
 42
0.0000001
 43
0.0000001
 44
0.0000000001
 40
0.0
 40
0.0
 40
0.0
 40
0.0
 40
0.5213391543
 40
1.0
 40
1.0
 40
1.0
 40
1.0
 10
18.2538161694
 20
8.4562426025
 30
0.0
 10
18.2558022007
 20
8.4572158082
 30
0.0
 10
18.2594394683
 20
8.4594742532
 30
0.0
 10
18.2624230771
 20
8.4625756506
 30
0.0
 10
18.2635915875
 20
8.4642363605
 30
0.0
  0
LINE
  5
328
100
AcDbEntity
  8
0
100
AcDbLine
 62
9
  6
CONTINUOUS
 10
18.2635915875
 20
8.4642363605
 11
18.2648181996
 21
8.4662298249
  0
SPLINE
  5
329
100
AcDbEntity
  8
0
100
AcDbSpline
 62
9
  6
CONTINUOUS
 70
0
 71
3
 72
9
 73
5
 74
0
 42
0.0000001
 43
0.0000001
 44
0.0000000001
 40
0.0
 40
0.0
 40
0.0
 40
0.0
 40
0.2439009686
 40
1.0
 40
1.0
 40
1.0
 40
1.0
 10
18.2648181996
 20
9.2211267309
 30
0.0
 10
18.2646416883
 20
9.2214595637
 30
0.0
 10
18.2638746737
 20
9.2228010018
 30
0.0
 10
18.262941919
 20
9.2240457644
 30
0.0
 10
18.2621685572
 20
9.224920932
 30
0.0
  0
SPLINE
  5
32A
100
AcDbEntity
  8
0
100
AcDbSpline
 62
9
  6
CONTINUOUS
 70
0
 71
3
 72
9
 73
5
 74
0
 42
0.0000001
 43
0.0000001
 44
0.0000000001
 40
0.0
 40
0.0
 40
0.0
 40
0.0
 40
0.4812316486
 40
1.0
 40
1.0
 40
1.0
 40
1.0
 10
18.2621685572
 20
9.224920932
 30
0.0
 10
18.2609284587
 20
9.2263242781
 30
0.0
 10
18.257968902
 20
9.2289124568
 30
0.0
 10
18.2545435598
 20
9.2308151992
 30
0.0
 10
18.2526989799
 20
9.2316357019
 30
0.0
  0
SPLINE
  5
32B
100
AcDbEntity
  8
0
100
AcDbSpline
 62
9
  6
CONTINUOUS
 70
0
 71
3
 72
10
 73
6
 74
0
 42
0.0000001
 43
0.0000001
 44
0.0000000001
 40
0.0
 40
0.0
 40
0.0
 40
0.0
 40
0.2415830658
 40
0.6167616843
 40
1.0
 40
1.0
 40
1.0
 40
1.0
 10
18.2526989799
 20
9.2316357019
 30
0.0
 10
18.2514921466
 20
9.2321725233
 30
0.0
 10
18.2483287687
 20
9.2333630356
 30
0.0
 10
18.242976608
 20
9.2345831576
 30
0.0
 10
18.2388236587
 20
9.2348914813
 30
0.0
 10
18.2367283242
 20
9.2348914813
 30
0.0
  0
SPLINE
  5
32C
100
AcDbEntity
  8
0
100
AcDbSpline
 62
9
  6
CONTINUOUS
 70
0
 71
3
 72
9
 73
5
 74
0
 42
0.0000001
 43
0.0000001
 44
0.0000000001
 40
0.0
 40
0.0
 40
0.0
 40
0.0
 40
0.4740522587
 40
1.0
 40
1.0
 40
1.0
 40
1.0
 10
18.2648181996
 20
9.2242119811
 30
0.0
 10
18.2649917476
 20
9.2237491864
 30
0.0
 10
18.2651659266
 20
9.2226940028
 30
0.0
 10
18.2649769309
 20
9.2216516285
 30
0.0
 10
18.2648181996
 20
9.2211267309
 30
0.0
  0
LINE
  5
32D
100
AcDbEntity
  8
0
100
AcDbLine
 62
7
  6
CONTINUOUS
 10
15.0473183383
 20
7.6739666325
 11
15.0473183383
 21
8.1791365938
  0
LINE
  5
32E
100
AcDbEntity
  8
0
100
AcDbLine
 62
7
  6
CONTINUOUS
 10
14.0343183383
 20
8.2588224552
 11
14.4718083581
 21
8.5114074359
  0
LINE
  5
32F
100
AcDbEntity
  8
0
100
AcDbLine
 62
7
  6
CONTINUOUS
 10
14.0343183383
 20
9.4285341005
 11
14.4718083581
 21
9.1759491199
  0
LINE
  5
330
100
AcDbEntity
  8
0
100
AcDbLine
 62
7
  6
CONTINUOUS
 10
15.0473183383
 20
10.0133899232
 11
15.0473183383
 21
9.5082199619
  0
LINE
  5
331
100
AcDbEntity
  8
0
100
AcDbLine
 62
7
  6
CONTINUOUS
 10
16.0603183383
 20
9.4285341005
 11
15.6228283185
 21
9.1759491199
  0
LINE
  5
332
100
AcDbEntity
  8
0
100
AcDbLine
 62
7
  6
CONTINUOUS
 10
16.0603183383
 20
8.2588224552
 11
15.6228283185
 21
8.5114074359
  0
SPLINE
  5
333
100
AcDbEntity
  8
0
100
AcDbSpline
 62
9
  6
CONTINUOUS
 70
0
 71
3
 72
9
 73
5
 74
0
 42
0.0000001
 43
0.0000001
 44
0.0000000001
 40
0.0
 40
0.0
 40
0.0
 40
0.0
 40
0.2537319518
 40
1.0
 40
1.0
 40
1.0
 40
1.0
 10
3.691068477
 20
8.8436782779
 30
0.0
 10
3.6909833221
 20
8.8430529654
 30
0.0
 10
3.6907289676
 20
8.8405783296
 30
0.0
 10
3.6908088197
 20
8.8380676966
 30
0.0
 10
3.691068477
 20
8.8362298249
 30
0.0
  0
SPLINE
  5
334
100
AcDbEntity
  8
0
100
AcDbSpline
 62
9
  6
CONTINUOUS
 70
0
 71
3
 72
9
 73
5
 74
0
 42
0.0000001
 43
0.0000001
 44
0.0000000001
 40
0.0
 40
0.0
 40
0.0
 40
0.0
 40
0.5259477413
 40
1.0
 40
1.0
 40
1.0
 40
1.0
 10
3.691068477
 20
8.8362298249
 30
0.0
 10
3.6909097457
 20
8.8357049272
 30
0.0
 10
3.6907207499
 20
8.8346625529
 30
0.0
 10
3.690894929
 20
8.8336073693
 30
0.0
 10
3.691068477
 20
8.8331445746
 30
0.0
  0
SPLINE
  5
335
100
AcDbEntity
  8
0
100
AcDbSpline
 62
9
  6
CONTINUOUS
 70
0
 71
3
 72
9
 73
5
 74
0
 42
0.0000001
 43
0.0000001
 44
0.0000000001
 40
0.0
 40
0.0
 40
0.0
 40
0.0
 40
0.2469049487
 40
1.0
 40
1.0
 40
1.0
 40
1.0
 10
3.829818477
 20
8.6829708068
 30
0.0
 10
3.8297325658
 20
8.6835788918
 30
0.0
 10
3.8294727209
 20
8.6860536418
 30
0.0
 10
3.8295657227
 20
8.6885632261
 30
0.0
 10
3.829818477
 20
8.6904192598
 30
0.0
  0
SPLINE
  5
336
100
AcDbEntity
  8
0
100
AcDbSpline
 62
9
  6
CONTINUOUS
 70
0
 71
3
 72
14
 73
10
 74
0
 42
0.0000001
 43
0.0000001
 44
0.0000000001
 40
0.0
 40
0.0
 40
0.0
 40
0.0
 40
0.1384906859
 40
0.2757419733
 40
0.4098141257
 40
0.5394450913
 40
0.66371114
 40
0.7820793772
 40
1.0
 40
1.0
 40
1.0
 40
1.0
 10
3.8579083523
 20
8.6692060563
 30
0.0
 10
3.8563987824
 20
8.6692060563
 30
0.0
 10
3.8533907797
 20
8.6693682362
 30
0.0
 10
3.8489728267
 20
8.6700835731
 30
0.0
 10
3.8447547258
 20
8.6712646657
 30
0.0
 10
3.8408348837
 20
8.672877806
 30
0.0
 10
3.8372977223
 20
8.6748951463
 30
0.0
 10
3.83331576
 20
8.677963981
 30
0.0
 10
3.8309313877
 20
8.6808722822
 30
0.0
 10
3.829818477
 20
8.6829708068
 30
0.0
  0
SPLINE
  5
337
100
AcDbEntity
  8
0
100
AcDbSpline
 62
9
  6
CONTINUOUS
 70
0
 71
3
 72
14
 73
10
 74
0
 42
0.0000001
 43
0.0000001
 44
0.0000000001
 40
0.0
 40
0.0
 40
0.0
 40
0.0
 40
0.1063741316
 40
0.2184676567
 40
0.3366604659
 40
0.4608827084
 40
0.7240567955
 40
0.8613838158
 40
1.0
 40
1.0
 40
1.0
 40
1.0
 10
3.829818477
 20
9.0043857489
 30
0.0
 10
3.8303619163
 20
9.005410468
 30
0.0
 10
3.8316865386
 20
9.0074092918
 30
0.0
 10
3.8342206073
 20
9.0100862739
 30
0.0
 10
3.8372913547
 20
9.0124583153
 30
0.0
 10
3.8420925169
 20
9.0151955466
 30
0.0
 10
3.8475756943
 20
9.0170460318
 30
0.0
 10
3.8533848232
 20
9.0179876905
 30
0.0
 10
3.8563968819
 20
9.0181504994
 30
0.0
 10
3.8579083523
 20
9.0181504994
 30
0.0
  0
SPLINE
  5
338
100
AcDbEntity
  8
0
100
AcDbSpline
 62
9
  6
CONTINUOUS
 70
0
 71
3
 72
9
 73
5
 74
0
 42
0.0000001
 43
0.0000001
 44
0.0000000001
 40
0.0
 40
0.0
 40
0.0
 40
0.0
 40
0.2537249589
 40
1.0
 40
1.0
 40
1.0
 40
1.0
 10
3.829818477
 20
8.9969372959
 30
0.0
 10
3.8297333244
 20
8.9975625912
 30
0.0
 10
3.8294789571
 20
9.0000372257
 30
0.0
 10
3.8295588173
 20
9.0025478599
 30
0.0
 10
3.829818477
 20
9.0043857489
 30
0.0
  0
SPLINE
  5
339
100
AcDbEntity
  8
0
100
AcDbSpline
 62
9
  6
CONTINUOUS
 70
0
 71
3
 72
9
 73
5
 74
0
 42
0.0000001
 43
0.0000001
 44
0.0000000001
 40
0.0
 40
0.0
 40
0.0
 40
0.0
 40
0.4740522946
 40
1.0
 40
1.0
 40
1.0
 40
1.0
 10
3.691068477
 20
8.8542119811
 30
0.0
 10
3.6908949251
 20
8.8537491878
 30
0.0
 10
3.6907207527
 20
8.852694002
 30
0.0
 10
3.6909097457
 20
8.8516516285
 30
0.0
 10
3.691068477
 20
8.8511267309
 30
0.0
  0
SPLINE
  5
33A
100
AcDbEntity
  8
0
100
AcDbSpline
 62
9
  6
CONTINUOUS
 70
0
 71
3
 72
9
 73
5
 74
0
 42
0.0000001
 43
0.0000001
 44
0.0000000001
 40
0.0
 40
0.0
 40
0.0
 40
0.0
 40
0.5259477386
 40
1.0
 40
1.0
 40
1.0
 40
1.0
 10
3.829818477
 20
9.2211267309
 30
0.0
 10
3.8296597457
 20
9.2216516285
 30
0.0
 10
3.8294707499
 20
9.2226940028
 30
0.0
 10
3.829644929
 20
9.2237491864
 30
0.0
 10
3.829818477
 20
9.2242119811
 30
0.0
  0
SPLINE
  5
33B
100
AcDbEntity
  8
0
100
AcDbSpline
 62
9
  6
CONTINUOUS
 70
0
 71
3
 72
9
 73
5
 74
0
 42
0.0000001
 43
0.0000001
 44
0.0000000001
 40
0.0
 40
0.0
 40
0.0
 40
0.0
 40
0.2575776285
 40
1.0
 40
1.0
 40
1.0
 40
1.0
 10
3.8579083523
 20
9.2348914813
 30
0.0
 10
3.8563987824
 20
9.2348914813
 30
0.0
 10
3.850546552
 20
9.2345782128
 30
0.0
 10
3.8447276873
 20
9.2330285704
 30
0.0
 10
3.8408205072
 20
9.2311139532
 30
0.0
  0
SPLINE
  5
33C
100
AcDbEntity
  8
0
100
AcDbSpline
 62
9
  6
CONTINUOUS
 70
0
 71
3
 72
9
 73
5
 74
0
 42
0.0000001
 43
0.0000001
 44
0.0000000001
 40
0.0
 40
0.0
 40
0.0
 40
0.0
 40
0.5213391543
 40
1.0
 40
1.0
 40
1.0
 40
1.0
 10
3.8408205072
 20
9.2311139532
 30
0.0
 10
3.8388344759
 20
9.2301407475
 30
0.0
 10
3.8351972083
 20
9.2278823025
 30
0.0
 10
3.8322135995
 20
9.2247809051
 30
0.0
 10
3.831045089
 20
9.2231201953
 30
0.0
  0
LINE
  5
33D
100
AcDbEntity
  8
0
100
AcDbLine
 62
9
  6
CONTINUOUS
 10
3.831045089
 20
9.2231201953
 11
3.829818477
 21
9.2211267309
  0
SPLINE
  5
33E
100
AcDbEntity
  8
0
100
AcDbSpline
 62
9
  6
CONTINUOUS
 70
0
 71
3
 72
9
 73
5
 74
0
 42
0.0000001
 43
0.0000001
 44
0.0000000001
 40
0.0
 40
0.0
 40
0.0
 40
0.0
 40
0.2439009686
 40
1.0
 40
1.0
 40
1.0
 40
1.0
 10
3.829818477
 20
8.4662298249
 30
0.0
 10
3.8299949883
 20
8.465896992
 30
0.0
 10
3.8307620029
 20
8.4645555539
 30
0.0
 10
3.8316947576
 20
8.4633107914
 30
0.0
 10
3.8324681193
 20
8.4624356237
 30
0.0
  0
SPLINE
  5
33F
100
AcDbEntity
  8
0
100
AcDbSpline
 62
9
  6
CONTINUOUS
 70
0
 71
3
 72
9
 73
5
 74
0
 42
0.0000001
 43
0.0000001
 44
0.0000000001
 40
0.0
 40
0.0
 40
0.0
 40
0.0
 40
0.4812316486
 40
1.0
 40
1.0
 40
1.0
 40
1.0
 10
3.8324681193
 20
8.4624356237
 30
0.0
 10
3.8337082179
 20
8.4610322776
 30
0.0
 10
3.8366677745
 20
8.4584440989
 30
0.0
 10
3.8400931167
 20
8.4565413565
 30
0.0
 10
3.8419376967
 20
8.4557208538
 30
0.0
  0
SPLINE
  5
340
100
AcDbEntity
  8
0
100
AcDbSpline
 62
9
  6
CONTINUOUS
 70
0
 71
3
 72
10
 73
6
 74
0
 42
0.0000001
 43
0.0000001
 44
0.0000000001
 40
0.0
 40
0.0
 40
0.0
 40
0.0
 40
0.2415830658
 40
0.6167616843
 40
1.0
 40
1.0
 40
1.0
 40
1.0
 10
3.8419376967
 20
8.4557208538
 30
0.0
 10
3.84314453
 20
8.4551840324
 30
0.0
 10
3.8463079079
 20
8.4539935201
 30
0.0
 10
3.8516600686
 20
8.4527733981
 30
0.0
 10
3.8558130179
 20
8.4524650744
 30
0.0
 10
3.8579083523
 20
8.4524650744
 30
0.0
  0
SPLINE
  5
341
100
AcDbEntity
  8
0
100
AcDbSpline
 62
9
  6
CONTINUOUS
 70
0
 71
3
 72
9
 73
5
 74
0
 42
0.0000001
 43
0.0000001
 44
0.0000000001
 40
0.0
 40
0.0
 40
0.0
 40
0.0
 40
0.4740522587
 40
1.0
 40
1.0
 40
1.0
 40
1.0
 10
3.829818477
 20
8.4631445746
 30
0.0
 10
3.829644929
 20
8.4636073693
 30
0.0
 10
3.8294707499
 20
8.4646625529
 30
0.0
 10
3.8296597457
 20
8.4657049272
 30
0.0
 10
3.829818477
 20
8.4662298249
 30
0.0
  0
LINE
  5
342
100
AcDbEntity
  8
0
100
AcDbLine
 62
7
  6
CONTINUOUS
 10
7.0473183383
 20
7.6739666325
 11
7.0473183383
 21
8.1791365938
  0
LINE
  5
343
100
AcDbEntity
  8
0
100
AcDbLine
 62
7
  6
CONTINUOUS
 10
6.0343183383
 20
8.2588224552
 11
6.4718083581
 21
8.5114074359
  0
LINE
  5
344
100
AcDbEntity
  8
0
100
AcDbLine
 62
7
  6
CONTINUOUS
 10
6.0343183383
 20
9.4285341005
 11
6.4718083581
 21
9.1759491199
  0
LINE
  5
345
100
AcDbEntity
  8
0
100
AcDbLine
 62
7
  6
CONTINUOUS
 10
7.0473183383
 20
10.0133899232
 11
7.0473183383
 21
9.5082199619
  0
LINE
  5
346
100
AcDbEntity
  8
0
100
AcDbLine
 62
7
  6
CONTINUOUS
 10
8.0603183383
 20
9.4285341005
 11
7.6228283185
 21
9.1759491199
  0
LINE
  5
347
100
AcDbEntity
  8
0
100
AcDbLine
 62
7
  6
CONTINUOUS
 10
8.0603183383
 20
8.2588224552
 11
7.6228283185
 21
8.5114074359
  0
ENDSEC
  0
SECTION
  2
OBJECTS
  0
DICTIONARY
  5
C
100
AcDbDictionary
280
0
281
1
  3
ACAD_GROUP
350
D
  3
ACAD_MLINESTYLE
350
17
  3
ACAD_LAYOUT
350
1A
  3
ACAD_PLOTSETTINGS
350
19
  3
ACAD_PLOTSTYLENAME
350
E
  0
DICTIONARY
  5
D
102
{ACAD_REACTORS
330
C
102
}
100
AcDbDictionary
280
0
281
1
  0
ACDBDICTIONARYWDFLT
  5
E
102
{ACAD_REACTORS
330
C
102
}
100
AcDbDictionary
281
1
  3
Normal
350
F
100
AcDbDictionaryWithDefault
340
F
  0
DICTIONARY
  5
17
102
{ACAD_REACTORS
330
C
102
}
100
AcDbDictionary
280
0
281
1
  3
Standard
350
18
  0
DICTIONARY
  5
19
102
{ACAD_REACTORS
330
C
102
}
100
AcDbDictionary
281
1
  0
DICTIONARY
  5
1A
102
{ACAD_REACTORS
330
C
102
}
100
AcDbDictionary
281
1
  3
Model
350
348
  3
Layout1
350
349
  0
ACDBPLACEHOLDER
  5
F
102
{ACAD_REACTORS
330
E
102
}
  0
MLINESTYLE
  5
18
102
{ACAD_REACTORS
330
17
102
}
100
AcDbMlineStyle
  2
STANDARD
 70
0
  3

 62
256
 51
90.0
 52
90.0
 71
2
 49
0.5
 62
256
  6
BYLAYER
 49
-0.5
 62
256
  6
BYLAYER
  0
LAYOUT
  5
348
102
{ACAD_REACTORS
330
1A
102
}
100
AcDbPlotSettings
  1

  2
none_device
  4
ANSI_C_(22.00_x_17.00_Inches)
  6

 40
0.0
 41
0.0
 42
0.0
 43
0.0
 44
558.8
 45
431.8
 46
0.0
 47
0.0
 48
0.0
 49
0.0
140
0.0
141
0.0
142
1.0
143
1.0
 70
1024
 72
0
 73
0
 74
0
  7

 75
0
147
1.0
148
0.0
149
0.0
100
AcDbLayout
  1
Model
 70
0
 71
0
 10
0.0
 20
0.0
 11
22.0
 21
17.0
 12
0.0
 22
0.0
 32
0.0
 14
0.0
 24
0.0
 34
0.0
 15
0.0
 25
0.0
 35
0.0
146
0.0
 13
0.0
 23
0.0
 33
0.0
 16
1.0
 26
0.0
 36
0.0
 17
0.0
 27
1.0
 37
0.0
 76
0
330
202
345
0
346
0
  0
LAYOUT
  5
349
102
{ACAD_REACTORS
330
1A
102
}
100
AcDbPlotSettings
  1

  2
none_device
  4
ANSI_C_(22.00_x_17.00_Inches)
  6

 40
0.0
 41
0.0
 42
0.0
 43
0.0
 44
558.8
 45
431.8
 46
0.0
 47
0.0
 48
0.0
 49
0.0
140
0.0
141
0.0
142
1.0
143
1.0
 70
0
 72
0
 73
0
 74
0
  7

 75
0
147
1.0
148
0.0
149
0.0
100
AcDbLayout
  1
Layout1
 70
0
 71
1
 10
0.0
 20
0.0
 11
22.0
 21
17.0
 12
0.0
 22
0.0
 32
0.0
 14
0.0
 24
0.0
 34
0.0
 15
0.0
 25
0.0
 35
0.0
146
0.0
 13
0.0
 23
0.0
 33
0.0
 16
1.0
 26
0.0
 36
0.0
 17
0.0
 27
1.0
 37
0.0
 76
0
330
203
345
0
346
0
  0
ENDSEC
  0
EOF
