999
DXF file: 127_TOP.dxf
999
Pro/ENGINEER 2018400 by Parametric Technology Corporation
  0
SECTION
  2
HEADER
  9
$ACADVER
  1
AC1027
  9
$DWGCODEPAGE
  3
ANSI_1252
  9
$EXTMAX
 10
11.0
 20
8.5
 30
0.0
  9
$EXTMIN
 10
0.0
 20
0.0
 30
0.0
  9
$LIMMIN
 10
0.0
 20
0.0
  9
$LIMMAX
 10
11.0
 20
8.5
  9
$VIEWCTR
 10
5.5
 20
4.25
  9
$VIEWSIZE
 40
8.5
  9
$CLAYER
  8
0
  9
$LTSCALE
 40
0.605
  9
$CELTYPE
  6
BYLAYER
  9
$DIMSCALE
 40
1.0
  9
$DIMASZ
 40
0.1
  9
$DIMEXO
 40
0.0625
  9
$DIMDLI
 40
0.418
  9
$DIMEXE
 40
0.125
  9
$DIMCEN
 40
0.099
  9
$DIMLFAC
 40
1.0
  9
$DIMBLK
  1
_FILLED
  9
$DIMALT
 70
1
  9
$DIMALTD
 70
1
  9
$DIMALTTD
 70
2
  9
$DIMALTF
 40
25.4
  9
$DIMTXT
 40
0.08
  9
$DIMTOL
 70
1
  9
$DIMLIM
 70
0
  9
$DIMTFAC
 40
1.0
  9
$DIMTP
 40
0.01
  9
$DIMTM
 40
0.01
  9
$DIMGAP
 40
0.09
  9
$DIMDSEP
 70
46
  9
$AUNITS
 70
0
  9
$PDMODE
 70
3
  9
$PDSIZE
 40
0.3125
  9
$HANDSEED
  5
22E
  9
$TILEMODE
 70
1
  9
$MEASUREMENT
 70
0
  9
$INSUNITS
 70
1
  0
ENDSEC
  0
SECTION
  2
CLASSES
  0
CLASS
  1
ACDBDICTIONARYWDFLT
  2
AcDbDictionaryWithDefault
  3
AutoCAD 2000
 90
0
 91
1
280
0
281
0
  0
CLASS
  1
ACDBPLACEHOLDER
  2
AcDbPlaceHolder
  3
AutoCAD 2000
 90
0
 91
1
280
0
281
0
  0
CLASS
  1
LAYOUT
  2
AcDbLayout
  3
AutoCAD 2000
 90
0
 91
0
280
0
281
0
  0
ENDSEC
  0
SECTION
  2
TABLES
  0
TABLE
  2
VPORT
  5
8
100
AcDbSymbolTable
 70
2
  0
VPORT
  5
1F4
100
AcDbSymbolTableRecord
100
AcDbViewportTableRecord
  2
*ACTIVE
 70
0
 10
0.0
 20
0.0
 11
1.0
 21
1.0
 12
5.5
 22
4.25
 13
0.0
 23
0.0
 14
1.0
 24
1.0
 15
0.0
 25
0.0
 16
0.0
 26
0.0
 36
1.0
 17
0.0
 27
0.0
 37
0.0
 40
8.5
 41
1.2941176471
 42
50.0
 43
0.0
 44
0.0
 50
0.0
 51
0.0
 71
0
 72
100
 73
1
 74
1
 75
0
 76
0
 77
0
 78
0
  0
ENDTAB
  0
TABLE
  2
LTYPE
  5
5
100
AcDbSymbolTable
 70
6
  0
LTYPE
  5
14
100
AcDbSymbolTableRecord
100
AcDbLinetypeTableRecord
  2
BYBLOCK
 70
0
  3

 72
65
 73
0
 40
0.0
  0
LTYPE
  5
15
100
AcDbSymbolTableRecord
100
AcDbLinetypeTableRecord
  2
BYLAYER
 70
0
  3

 72
65
 73
0
 40
0.0
  0
LTYPE
  5
16
100
AcDbSymbolTableRecord
100
AcDbLinetypeTableRecord
  2
CONTINUOUS
 70
64
  3
Solid line
 72
65
 73
0
 40
0.0
  0
LTYPE
  5
1F5
100
AcDbSymbolTableRecord
100
AcDbLinetypeTableRecord
  2
CENTER
 70
64
  3
____ _ ____ _ ____ _ ____ _ ____ _ ____ _ ____
 72
65
 73
4
 40
0.6
 49
0.375
 74
0
 49
-0.075
 74
0
 49
0.075
 74
0
 49
-0.075
 74
0
  0
LTYPE
  5
1F6
100
AcDbSymbolTableRecord
100
AcDbLinetypeTableRecord
  2
HIDDEN
 70
64
  3
- - - - - - - - - - - - - - - - - - - -
 72
65
 73
2
 40
0.2
 49
0.1
 74
0
 49
-0.1
 74
0
  0
LTYPE
  5
1F7
100
AcDbSymbolTableRecord
100
AcDbLinetypeTableRecord
  2
PHANTOM
 70
64
  3
_____ _ _ _____ _ _ _____ _ _ _____
 72
65
 73
6
 40
0.8
 49
0.45
 74
0
 49
-0.05
 74
0
 49
0.1
 74
0
 49
-0.05
 74
0
 49
0.1
 74
0
 49
-0.05
 74
0
  0
LTYPE
  5
1F8
100
AcDbSymbolTableRecord
100
AcDbLinetypeTableRecord
  2
DOT
 70
64
  3
. . . . . . . . . . . . . . . . . . . .
 72
65
 73
2
 40
0.2
 49
0.1
 74
0
 49
-0.1
 74
0
  0
LTYPE
  5
1F9
100
AcDbSymbolTableRecord
100
AcDbLinetypeTableRecord
  2
DASHED
 70
64
  3
- - - - - - - - - - - - - - - - - - - -
 72
65
 73
2
 40
0.2
 49
0.1
 74
0
 49
-0.1
 74
0
  0
ENDTAB
  0
TABLE
  2
LAYER
  5
2
100
AcDbSymbolTable
 70
36
  0
LAYER
  5
10
100
AcDbSymbolTableRecord
100
AcDbLayerTableRecord
  2
0
 70
0
 62
7
  6
CONTINUOUS
370
-3
390
F
  0
LAYER
  5
1FA
100
AcDbSymbolTableRecord
100
AcDbLayerTableRecord
  2
DEFAULT_1
 70
0
 62
7
  6
CENTER
370
-3
390
F
  0
LAYER
  5
1FB
100
AcDbSymbolTableRecord
100
AcDbLayerTableRecord
  2
DEFAULT_2
 70
0
 62
8
  6
HIDDEN
370
-3
390
F
  0
LAYER
  5
1FC
100
AcDbSymbolTableRecord
100
AcDbLayerTableRecord
  2
DEFAULT_3
 70
0
 62
7
  6
PHANTOM
370
-3
390
F
  0
LAYER
  5
1FD
100
AcDbSymbolTableRecord
100
AcDbLayerTableRecord
  2
DEFAULT_COORDINATE_SYSTEM
 70
0
 62
7
  6
CONTINUOUS
370
-3
390
F
  0
LAYER
  5
1FE
100
AcDbSymbolTableRecord
100
AcDbLayerTableRecord
  2
DEFAULT_DATUM_AXES
 70
0
 62
7
  6
CONTINUOUS
370
-3
390
F
  0
LAYER
  5
1FF
100
AcDbSymbolTableRecord
100
AcDbLayerTableRecord
  2
DEFAULT_DATUM_PLANES
 70
0
 62
7
  6
CONTINUOUS
370
-3
390
F
  0
ENDTAB
  0
TABLE
  2
STYLE
  5
3
100
AcDbSymbolTable
 70
1
  0
STYLE
  5
11
100
AcDbSymbolTableRecord
100
AcDbTextStyleTableRecord
  2
STANDARD
 70
0
 40
0.0
 41
0.8
 50
0.0
 71
0
 42
0.2
  3
txt
  4

  0
STYLE
  5
200
100
AcDbSymbolTableRecord
100
AcDbTextStyleTableRecord
  2
TEXTSTYLE_1
 70
0
 40
0.0
 41
0.8
 50
0.0
 71
0
 42
0.2
  3
gdt
  4

  0
ENDTAB
  0
TABLE
  2
VIEW
  5
6
100
AcDbSymbolTable
 70
0
  0
ENDTAB
  0
TABLE
  2
UCS
  5
7
100
AcDbSymbolTable
 70
0
  0
ENDTAB
  0
TABLE
  2
APPID
  5
9
100
AcDbSymbolTable
 70
1
  0
APPID
  5
201
100
AcDbSymbolTableRecord
100
AcDbRegAppTableRecord
  2
ACAD
 70
0
  0
ENDTAB
  0
TABLE
  2
BLOCK_RECORD
  5
1
100
AcDbSymbolTable
 70
0
  0
BLOCK_RECORD
  5
202
100
AcDbSymbolTableRecord
100
AcDbBlockTableRecord
  2
*Model_Space
  0
BLOCK_RECORD
  5
203
100
AcDbSymbolTableRecord
100
AcDbBlockTableRecord
  2
*Paper_Space
  0
BLOCK_RECORD
  5
204
100
AcDbSymbolTableRecord
100
AcDbBlockTableRecord
  2
_FILLED
  0
ENDTAB
  0
TABLE
  2
DIMSTYLE
  5
A
100
AcDbSymbolTable
 70
1
100
AcDbDimStyleTable
 71
0
  0
DIMSTYLE
105
205
100
AcDbSymbolTableRecord
100
AcDbDimStyleTableRecord
  2
STANDARD
 70
0
  3

  4

 40
1.0
 41
0.1
 42
0.0625
 43
0.38
 44
0.125
 45
0.0
 46
0.0
 47
0.01
 48
0.01
140
0.08
141
0.09
142
0.0
143
25.4
144
1.0
145
0.0
146
1.0
147
0.09
 71
1.0
 72
0.0
 73
1
 74
1
 75
0
 76
0
 77
0
 78
4
 79
1
170
1
171
1
172
0
173
0
174
0
175
0
176
0
177
0
178
0
270
2
179
2
271
2
272
2
273
2
274
2
275
0
280
0
281
0
282
0
283
1
284
4
285
0
286
0
287
3
288
0
340
11
278
46
341
204
342
204
343
204
344
204
  0
ENDTAB
  0
ENDSEC
  0
SECTION
  2
BLOCKS
  0
BLOCK
  5
20
100
AcDbEntity
  8
0
100
AcDbBlockBegin
  2
*Model_Space
 70
0
 10
0.0
 20
0.0
 30
0.0
  3
*Model_Space
  1

  0
ENDBLK
  5
21
100
AcDbEntity
  8
0
100
AcDbBlockEnd
  0
BLOCK
  5
1C
100
AcDbEntity
  8
0
100
AcDbBlockBegin
  2
*Paper_Space
 70
0
 10
0.0
 20
0.0
 30
0.0
  3
*Paper_Space
  1

  0
ENDBLK
  5
1D
100
AcDbEntity
  8
0
100
AcDbBlockEnd
  0
BLOCK
  5
206
100
AcDbEntity
  8
0
100
AcDbBlockBegin
  2
_FILLED
 70
64
 10
0.0
 20
0.0
  3
_FILLED
  1

  0
SOLID
  5
207
100
AcDbEntity
  8
0
  6
BYBLOCK
 62
0
100
AcDbTrace
 10
0.0
 20
0.0
 11
-1.0
 21
0.2
 12
-1.0
 22
-0.2
 13
-1.0
 23
-0.2
  0
ENDBLK
  5
208
100
AcDbEntity
  8
0
  6
BYBLOCK
 62
0
100
AcDbBlockEnd
  0
ENDSEC
  0
SECTION
  2
ENTITIES
  0
MTEXT
  5
209
100
AcDbEntity
  8
0
100
AcDbMText
 62
2
  6
CONTINUOUS
  7
STANDARD
 71
3
 72
1
 10
5.1425854037
 20
1.2298291108
 30
0.0
 11
1.0
 21
0.0
 31
0.0
 73
2
 44
0.9
  1
SCALE  .500
 40
0.08
 41
0.704
  0
LINE
  5
20A
100
AcDbEntity
  8
0
100
AcDbLine
 62
7
  6
CONTINUOUS
 10
0.0
 20
0.0
 11
0.0
 21
8.5
  0
LINE
  5
20B
100
AcDbEntity
  8
0
100
AcDbLine
 62
7
  6
CONTINUOUS
 10
0.0
 20
0.0
 11
11.0
 21
0.0
  0
LINE
  5
20C
100
AcDbEntity
  8
0
100
AcDbLine
 62
7
  6
CONTINUOUS
 10
0.0
 20
8.5
 11
11.0
 21
8.5
  0
LINE
  5
20D
100
AcDbEntity
  8
0
100
AcDbLine
 62
7
  6
CONTINUOUS
 10
11.0
 20
0.0
 11
11.0
 21
8.5
  0
LINE
  5
20E
100
AcDbEntity
  8
0
100
AcDbLine
 62
7
  6
CONTINUOUS
 10
4.676552795
 20
3.9909229452
 11
4.676552795
 21
2.4448097147
  0
LINE
  5
20F
100
AcDbEntity
  8
0
100
AcDbLine
 62
7
  6
CONTINUOUS
 10
4.801552795
 20
3.9909229452
 11
4.801552795
 21
2.4448097147
  0
ARC
  5
210
100
AcDbEntity
  8
0
100
AcDbCircle
 62
7
  6
CONTINUOUS
 10
4.883584045
 20
4.3568956685
 40
0.54453125
100
AcDbArc
 50
107.4478688137
 51
118.3926953628
  0
ARC
  5
211
100
AcDbEntity
  8
0
100
AcDbCircle
 62
7
  6
CONTINUOUS
 10
4.883584045
 20
4.3568956685
 40
0.54453125
100
AcDbArc
 50
241.6073046372
 51
247.6525474151
  0
ARC
  5
212
100
AcDbEntity
  8
0
100
AcDbCircle
 62
7
  6
CONTINUOUS
 10
4.594521545
 20
4.3568956685
 40
0.54453125
100
AcDbArc
 50
292.3474525849
 51
298.3926953628
  0
ARC
  5
213
100
AcDbEntity
  8
0
100
AcDbCircle
 62
7
  6
CONTINUOUS
 10
4.594521545
 20
4.3568956685
 40
0.54453125
100
AcDbArc
 50
61.6073046372
 51
72.5521311863
  0
ARC
  5
214
100
AcDbEntity
  8
0
100
AcDbCircle
 62
7
  6
CONTINUOUS
 10
4.739052795
 20
4.3568956685
 40
0.4925
100
AcDbArc
 50
277.2913441303
 51
262.7086558697
  0
ARC
  5
215
100
AcDbEntity
  8
0
100
AcDbCircle
 62
7
  6
CONTINUOUS
 10
4.739052795
 20
4.3568956685
 40
0.465
100
AcDbArc
 50
277.7246921273
 51
262.2753078727
  0
ARC
  5
216
100
AcDbEntity
  8
0
100
AcDbCircle
 62
7
  6
CONTINUOUS
 10
4.739052795
 20
4.3568956685
 40
0.435
100
AcDbArc
 50
278.2615223371
 51
261.7384776629
  0
ARC
  5
217
100
AcDbEntity
  8
0
100
AcDbCircle
 62
7
  6
CONTINUOUS
 10
4.739052795
 20
4.3568956685
 40
0.41875
100
AcDbArc
 50
278.5840436503
 51
261.4159563497
  0
ARC
  5
218
100
AcDbEntity
  8
0
100
AcDbCircle
 62
7
  6
CONTINUOUS
 10
4.739052795
 20
4.3568956685
 40
0.37125
100
AcDbArc
 50
279.6721969627
 51
260.3278030373
  0
CIRCLE
  5
219
100
AcDbEntity
  8
0
100
AcDbCircle
 62
7
  6
CONTINUOUS
 10
4.739052795
 20
4.3568956685
 40
0.338713966
  0
ARC
  5
21A
100
AcDbEntity
  8
0
100
AcDbCircle
 62
7
  6
CONTINUOUS
 10
4.739052795
 20
3.9193956685
 40
0.1181102362
100
AcDbArc
 50
301.9530038868
 51
338.0950478526
  0
ARC
  5
21B
100
AcDbEntity
  8
0
100
AcDbCircle
 62
7
  6
CONTINUOUS
 10
4.739052795
 20
3.9193956685
 40
0.1181102362
100
AcDbArc
 50
201.9049595318
 51
238.0470014347
  0
ARC
  5
21C
100
AcDbEntity
  8
0
100
AcDbCircle
 62
7
  6
CONTINUOUS
 10
4.739052795
 20
4.7943956685
 40
0.1181102362
100
AcDbArc
 50
21.904858499
 51
158.0951486312
  0
ARC
  5
21D
100
AcDbEntity
  8
0
100
AcDbCircle
 62
7
  6
CONTINUOUS
 10
4.739052795
 20
4.816748736
 40
0.0625
100
AcDbArc
 50
72.5521311863
 51
107.4478688137
  0
ARC
  5
21E
100
AcDbEntity
  8
0
100
AcDbCircle
 62
7
  6
CONTINUOUS
 10
4.7390527575
 20
4.794395672
 40
0.0590549834
100
AcDbArc
 50
67.2787967347
 51
110.6959367751
  0
ARC
  5
21F
100
AcDbEntity
  8
0
100
AcDbCircle
 62
7
  6
CONTINUOUS
 10
4.7438597273
 20
4.7968669817
 40
0.058688183
100
AcDbArc
 50
115.946024875
 51
117.5865781305
  0
SPLINE
  5
220
100
AcDbEntity
  8
0
100
AcDbSpline
 62
7
  6
CONTINUOUS
 70
0
 71
3
 72
32
 73
28
 74
0
 42
0.0000001
 43
0.0000001
 44
0.0000000001
 40
0.0
 40
0.0
 40
0.0
 40
0.0
 40
0.0041077848
 40
0.0082940069
 40
0.0171736357
 40
0.027150125
 40
0.0385646561
 40
0.051635973
 40
0.0664958654
 40
0.0746231449
 40
0.083222713
 40
0.1018491406
 40
0.1223890958
 40
0.1448351721
 40
0.1691650932
 40
0.1953458927
 40
0.2233340795
 40
0.2530794561
 40
0.3175996839
 40
0.3883757532
 40
0.4647915815
 40
0.5461632651
 40
0.6317499433
 40
0.7207647634
 40
0.8123818815
 40
0.9057519698
 40
1.0
 40
1.0
 40
1.0
 40
1.0
 10
4.801552795
 20
3.4248661852
 30
0.0
 10
4.801552795
 20
3.4249551889
 30
0.0
 10
4.801539934
 20
3.4251351532
 30
0.0
 10
4.8014618582
 20
3.4255000227
 30
0.0
 10
4.8012591075
 20
3.425962263
 30
0.0
 10
4.8008702729
 20
3.4264949941
 30
0.0
 10
4.8003354858
 20
3.4270197704
 30
0.0
 10
4.7996559697
 20
3.427537283
 30
0.0
 10
4.7989912198
 20
3.4279496241
 30
0.0
 10
4.7983906814
 20
3.4282780589
 30
0.0
 10
4.797706402
 20
3.4286226356
 30
0.0
 10
4.7967609536
 20
3.429045051
 30
0.0
 10
4.7955165823
 20
3.4295295674
 30
0.0
 10
4.794136704
 20
3.4300031522
 30
0.0
 10
4.7926245404
 20
3.430464668
 30
0.0
 10
4.7909836109
 20
3.4309129333
 30
0.0
 10
4.7892177989
 20
3.4313469039
 30
0.0
 10
4.7866315919
 20
3.4319205799
 30
0.0
 10
4.7831173757
 20
3.4325871029
 30
0.0
 10
4.7785844625
 20
3.4332947315
 30
0.0
 10
4.7736716017
 20
3.4339229689
 30
0.0
 10
4.7684259301
 20
3.4344655489
 30
0.0
 10
4.7628977495
 20
3.434917019
 30
0.0
 10
4.7571402084
 20
3.4352728814
 30
0.0
 10
4.751208613
 20
3.4355296205
 30
0.0
 10
4.7451600985
 20
3.4356846763
 30
0.0
 10
4.7410948748
 20
3.4357191963
 30
0.0
 10
4.739052795
 20
3.4357191963
 30
0.0
  0
LINE
  5
221
100
AcDbEntity
  8
0
100
AcDbLine
 62
7
  6
CONTINUOUS
 10
4.8014268708
 20
3.9909229637
 11
4.8012377307
 21
3.9909300709
  0
SPLINE
  5
222
100
AcDbEntity
  8
0
100
AcDbSpline
 62
7
  6
CONTINUOUS
 70
0
 71
3
 72
30
 73
26
 74
0
 42
0.0000001
 43
0.0000001
 44
0.0000000001
 40
0.0
 40
0.0
 40
0.0
 40
0.0
 40
0.0024793714
 40
0.0055407712
 40
0.0091966516
 40
0.0134518215
 40
0.0237639885
 40
0.0364609248
 40
0.0514952952
 40
0.0688021536
 40
0.0883001624
 40
0.1098979581
 40
0.1334941648
 40
0.1589830018
 40
0.2151954007
 40
0.2776487332
 40
0.3454831463
 40
0.4178978529
 40
0.4941673645
 40
0.5736431409
 40
0.655744762
 40
0.7399413118
 40
0.8257262509
 40
0.9125883161
 40
1.0
 40
1.0
 40
1.0
 40
1.0
 10
4.8012377307
 20
3.9909300709
 30
0.0
 10
4.8011834165
 20
3.990939189
 30
0.0
 10
4.8010634521
 20
3.9909678023
 30
0.0
 10
4.8008687732
 20
3.9910299787
 30
0.0
 10
4.8006405795
 20
3.9911158524
 30
0.0
 10
4.8002670531
 20
3.9912719915
 30
0.0
 10
4.7997180348
 20
3.9915281087
 30
0.0
 10
4.7989625632
 20
3.9919068535
 30
0.0
 10
4.7980761924
 20
3.9923708501
 30
0.0
 10
4.7970616487
 20
3.992915536
 30
0.0
 10
4.7959222945
 20
3.9935359124
 30
0.0
 10
4.7946620554
 20
3.9942264025
 30
0.0
 10
4.7932852121
 20
3.9949810213
 30
0.0
 10
4.7912320572
 20
3.9961014445
 30
0.0
 10
4.7884127231
 20
3.997619725
 30
0.0
 10
4.7847400141
 20
3.9995366958
 30
0.0
 10
4.7807107271
 20
4.0015470393
 30
0.0
 10
4.7763564298
 20
4.0035908705
 30
0.0
 10
4.7717044756
 20
4.0056045531
 30
0.0
 10
4.7667786938
 20
4.0075192627
 30
0.0
 10
4.7616016593
 20
4.009259683
 30
0.0
 10
4.756198891
 20
4.0107441622
 30
0.0
 10
4.7506044568
 20
4.0118881598
 30
0.0
 10
4.7448675832
 20
4.0126133806
 30
0.0
 10
4.740994471
 20
4.0127791198
 30
0.0
 10
4.739052795
 20
4.0127791198
 30
0.0
  0
SPLINE
  5
223
100
AcDbEntity
  8
0
100
AcDbSpline
 62
7
  6
CONTINUOUS
 70
0
 71
3
 72
23
 73
19
 74
0
 42
0.0000001
 43
0.0000001
 44
0.0000000001
 40
0.0
 40
0.0
 40
0.0
 40
0.0
 40
0.0561809951
 40
0.1126244267
 40
0.1695791331
 40
0.2272680313
 40
0.2858780775
 40
0.3455530919
 40
0.4063895738
 40
0.4684352754
 40
0.5316900954
 40
0.596108751
 40
0.6616048409
 40
0.72805555
 40
0.7953077732
 40
0.8631822204
 40
0.931483878
 40
1.0
 40
1.0
 40
1.0
 40
1.0
 10
4.801552795
 20
3.0042409983
 30
0.0
 10
4.801552795
 20
3.0059167318
 30
0.0
 10
4.8013507281
 20
3.0092794767
 30
0.0
 10
4.8004452515
 20
3.0142673908
 30
0.0
 10
4.7989464408
 20
3.019157679
 30
0.0
 10
4.7968695235
 20
3.0239017682
 30
0.0
 10
4.7942353783
 20
3.0284540425
 30
0.0
 10
4.7910701953
 20
3.0327707168
 30
0.0
 10
4.7874051268
 20
3.0368106023
 30
0.0
 10
4.7832759407
 20
3.0405352972
 30
0.0
 10
4.7787226704
 20
3.0439095014
 30
0.0
 10
4.7737892512
 20
3.0469012879
 30
0.0
 10
4.7685231327
 20
3.049482354
 30
0.0
 10
4.7629748434
 20
3.0516283068
 30
0.0
 10
4.7571976056
 20
3.0533188024
 30
0.0
 10
4.7512465793
 20
3.0545379076
 30
0.0
 10
4.7451792852
 20
3.0552739813
 30
0.0
 10
4.7410964534
 20
3.0554380011
 30
0.0
 10
4.739052795
 20
3.0554380011
 30
0.0
  0
SPLINE
  5
224
100
AcDbEntity
  8
0
100
AcDbSpline
 62
7
  6
CONTINUOUS
 70
0
 71
3
 72
23
 73
19
 74
0
 42
0.0000001
 43
0.0000001
 44
0.0000000001
 40
0.0
 40
0.0
 40
0.0
 40
0.0
 40
0.0561809951
 40
0.1126244267
 40
0.1695791331
 40
0.2272680313
 40
0.2858780775
 40
0.3455530919
 40
0.4063895738
 40
0.4684352754
 40
0.5316900954
 40
0.596108751
 40
0.6616048409
 40
0.72805555
 40
0.7953077732
 40
0.8631822204
 40
0.931483878
 40
1.0
 40
1.0
 40
1.0
 40
1.0
 10
4.801552795
 20
3.2231462269
 30
0.0
 10
4.801552795
 20
3.2248219604
 30
0.0
 10
4.8013507281
 20
3.2281847053
 30
0.0
 10
4.8004452515
 20
3.2331726193
 30
0.0
 10
4.7989464408
 20
3.2380629076
 30
0.0
 10
4.7968695235
 20
3.2428069967
 30
0.0
 10
4.7942353783
 20
3.2473592711
 30
0.0
 10
4.7910701953
 20
3.2516759453
 30
0.0
 10
4.7874051268
 20
3.2557158308
 30
0.0
 10
4.7832759407
 20
3.2594405257
 30
0.0
 10
4.7787226704
 20
3.26281473
 30
0.0
 10
4.7737892512
 20
3.2658065165
 30
0.0
 10
4.7685231327
 20
3.2683875825
 30
0.0
 10
4.7629748434
 20
3.2705335353
 30
0.0
 10
4.7571976056
 20
3.2722240309
 30
0.0
 10
4.7512465793
 20
3.2734431362
 30
0.0
 10
4.7451792852
 20
3.2741792099
 30
0.0
 10
4.7410964534
 20
3.2743432297
 30
0.0
 10
4.739052795
 20
3.2743432297
 30
0.0
  0
SPLINE
  5
225
100
AcDbEntity
  8
0
100
AcDbSpline
 62
7
  6
CONTINUOUS
 70
0
 71
3
 72
23
 73
19
 74
0
 42
0.0000001
 43
0.0000001
 44
0.0000000001
 40
0.0
 40
0.0
 40
0.0
 40
0.0
 40
0.068516122
 40
0.1368177796
 40
0.2046922268
 40
0.27194445
 40
0.3383951591
 40
0.403891249
 40
0.4683099046
 40
0.5315647246
 40
0.5936104262
 40
0.6544469081
 40
0.7141219225
 40
0.7727319687
 40
0.8304208669
 40
0.8873755733
 40
0.9438190049
 40
1.0
 40
1.0
 40
1.0
 40
1.0
 10
4.739052795
 20
2.4410739679
 30
0.0
 10
4.7370091367
 20
2.4410739679
 30
0.0
 10
4.7329263049
 20
2.4412379877
 30
0.0
 10
4.7268590108
 20
2.4419740614
 30
0.0
 10
4.7209079844
 20
2.4431931666
 30
0.0
 10
4.7151307466
 20
2.4448836622
 30
0.0
 10
4.7095824573
 20
2.447029615
 30
0.0
 10
4.7043163389
 20
2.449610681
 30
0.0
 10
4.6993829197
 20
2.4526024676
 30
0.0
 10
4.6948296494
 20
2.4559766718
 30
0.0
 10
4.6907004633
 20
2.4597013667
 30
0.0
 10
4.6870353948
 20
2.4637412522
 30
0.0
 10
4.6838702117
 20
2.4680579265
 30
0.0
 10
4.6812360665
 20
2.4726102008
 30
0.0
 10
4.6791591492
 20
2.47735429
 30
0.0
 10
4.6776603386
 20
2.4822445782
 30
0.0
 10
4.676754862
 20
2.4872324923
 30
0.0
 10
4.676552795
 20
2.4905952372
 30
0.0
 10
4.676552795
 20
2.4922709707
 30
0.0
  0
SPLINE
  5
226
100
AcDbEntity
  8
0
100
AcDbSpline
 62
7
  6
CONTINUOUS
 70
0
 71
3
 72
23
 73
19
 74
0
 42
0.0000001
 43
0.0000001
 44
0.0000000001
 40
0.0
 40
0.0
 40
0.0
 40
0.0
 40
0.068516122
 40
0.1368177796
 40
0.2046922268
 40
0.27194445
 40
0.3383951591
 40
0.403891249
 40
0.4683099046
 40
0.5315647246
 40
0.5936104262
 40
0.6544469081
 40
0.7141219225
 40
0.7727319687
 40
0.8304208669
 40
0.8873755733
 40
0.9438190049
 40
1.0
 40
1.0
 40
1.0
 40
1.0
 10
4.739052795
 20
3.0554380011
 30
0.0
 10
4.7370091367
 20
3.0554380011
 30
0.0
 10
4.7329263049
 20
3.0552739813
 30
0.0
 10
4.7268590108
 20
3.0545379076
 30
0.0
 10
4.7209079844
 20
3.0533188024
 30
0.0
 10
4.7151307466
 20
3.0516283068
 30
0.0
 10
4.7095824573
 20
3.049482354
 30
0.0
 10
4.7043163389
 20
3.0469012879
 30
0.0
 10
4.6993829197
 20
3.0439095014
 30
0.0
 10
4.6948296494
 20
3.0405352972
 30
0.0
 10
4.6907004633
 20
3.0368106023
 30
0.0
 10
4.6870353948
 20
3.0327707168
 30
0.0
 10
4.6838702117
 20
3.0284540425
 30
0.0
 10
4.6812360665
 20
3.0239017682
 30
0.0
 10
4.6791591492
 20
3.019157679
 30
0.0
 10
4.6776603386
 20
3.0142673908
 30
0.0
 10
4.676754862
 20
3.0092794767
 30
0.0
 10
4.676552795
 20
3.0059167318
 30
0.0
 10
4.676552795
 20
3.0042409983
 30
0.0
  0
SPLINE
  5
227
100
AcDbEntity
  8
0
100
AcDbSpline
 62
7
  6
CONTINUOUS
 70
0
 71
3
 72
23
 73
19
 74
0
 42
0.0000001
 43
0.0000001
 44
0.0000000001
 40
0.0
 40
0.0
 40
0.0
 40
0.0
 40
0.068516122
 40
0.1368177796
 40
0.2046922268
 40
0.27194445
 40
0.3383951591
 40
0.403891249
 40
0.4683099046
 40
0.5315647246
 40
0.5936104262
 40
0.6544469081
 40
0.7141219225
 40
0.7727319687
 40
0.8304208669
 40
0.8873755733
 40
0.9438190049
 40
1.0
 40
1.0
 40
1.0
 40
1.0
 10
4.739052795
 20
3.2743432297
 30
0.0
 10
4.7370091367
 20
3.2743432297
 30
0.0
 10
4.7329263049
 20
3.2741792099
 30
0.0
 10
4.7268590108
 20
3.2734431362
 30
0.0
 10
4.7209079844
 20
3.2722240309
 30
0.0
 10
4.7151307466
 20
3.2705335353
 30
0.0
 10
4.7095824573
 20
3.2683875825
 30
0.0
 10
4.7043163389
 20
3.2658065165
 30
0.0
 10
4.6993829197
 20
3.26281473
 30
0.0
 10
4.6948296494
 20
3.2594405257
 30
0.0
 10
4.6907004633
 20
3.2557158308
 30
0.0
 10
4.6870353948
 20
3.2516759453
 30
0.0
 10
4.6838702117
 20
3.2473592711
 30
0.0
 10
4.6812360665
 20
3.2428069967
 30
0.0
 10
4.6791591492
 20
3.2380629076
 30
0.0
 10
4.6776603386
 20
3.2331726193
 30
0.0
 10
4.676754862
 20
3.2281847053
 30
0.0
 10
4.676552795
 20
3.2248219604
 30
0.0
 10
4.676552795
 20
3.2231462269
 30
0.0
  0
SPLINE
  5
228
100
AcDbEntity
  8
0
100
AcDbSpline
 62
7
  6
CONTINUOUS
 70
0
 71
3
 72
32
 73
28
 74
0
 42
0.0000001
 43
0.0000001
 44
0.0000000001
 40
0.0
 40
0.0
 40
0.0
 40
0.0
 40
0.0942480302
 40
0.1876181185
 40
0.2792352366
 40
0.3682500567
 40
0.4538367349
 40
0.5352084185
 40
0.6116242468
 40
0.6824003161
 40
0.7469205439
 40
0.7766659205
 40
0.8046541073
 40
0.8308349068
 40
0.8551648279
 40
0.8776109042
 40
0.8981508594
 40
0.916777287
 40
0.9253768551
 40
0.9335041346
 40
0.948364027
 40
0.9614353439
 40
0.972849875
 40
0.9828263643
 40
0.9917059931
 40
0.9958922152
 40
1.0
 40
1.0
 40
1.0
 40
1.0
 10
4.739052795
 20
3.4357191963
 30
0.0
 10
4.7370107152
 20
3.4357191963
 30
0.0
 10
4.7329454916
 20
3.4356846763
 30
0.0
 10
4.7268969771
 20
3.4355296205
 30
0.0
 10
4.7209653817
 20
3.4352728814
 30
0.0
 10
4.7152078406
 20
3.434917019
 30
0.0
 10
4.70967966
 20
3.4344655489
 30
0.0
 10
4.7044339884
 20
3.4339229689
 30
0.0
 10
4.6995211275
 20
3.4332947315
 30
0.0
 10
4.6949882144
 20
3.4325871029
 30
0.0
 10
4.6914739982
 20
3.4319205799
 30
0.0
 10
4.6888877912
 20
3.4313469039
 30
0.0
 10
4.6871219791
 20
3.4309129333
 30
0.0
 10
4.6854810497
 20
3.430464668
 30
0.0
 10
4.683968886
 20
3.4300031522
 30
0.0
 10
4.6825890078
 20
3.4295295674
 30
0.0
 10
4.6813446365
 20
3.429045051
 30
0.0
 10
4.680399188
 20
3.4286226356
 30
0.0
 10
4.6797149087
 20
3.4282780589
 30
0.0
 10
4.6791143703
 20
3.4279496241
 30
0.0
 10
4.6784496204
 20
3.427537283
 30
0.0
 10
4.6777701043
 20
3.4270197704
 30
0.0
 10
4.6772353172
 20
3.4264949941
 30
0.0
 10
4.6768464826
 20
3.425962263
 30
0.0
 10
4.6766437319
 20
3.4255000227
 30
0.0
 10
4.6765656561
 20
3.4251351532
 30
0.0
 10
4.676552795
 20
3.4249551889
 30
0.0
 10
4.676552795
 20
3.4248661852
 30
0.0
  0
SPLINE
  5
229
100
AcDbEntity
  8
0
100
AcDbSpline
 62
7
  6
CONTINUOUS
 70
0
 71
3
 72
32
 73
28
 74
0
 42
0.0000001
 43
0.0000001
 44
0.0000000001
 40
0.0
 40
0.0
 40
0.0
 40
0.0
 40
0.0893475016
 40
0.1781046523
 40
0.2657065221
 40
0.3516043209
 40
0.4352528296
 40
0.5160765558
 40
0.59344258
 40
0.6666411586
 40
0.7348773648
 40
0.7972753202
 40
0.8259943674
 40
0.852901009
 40
0.8778761138
 40
0.9008029986
 40
0.921571342
 40
0.9400773823
 40
0.9562308891
 40
0.969954252
 40
0.981191724
 40
0.985867203
 40
0.9899135116
 40
0.9933338339
 40
0.9961366527
 40
0.9983433552
 40
1.0
 40
1.0
 40
1.0
 40
1.0
 10
4.739052795
 20
4.0127791198
 30
0.0
 10
4.7370624775
 20
4.0127791198
 30
0.0
 10
4.7330928764
 20
4.0126049469
 30
0.0
 10
4.7272167846
 20
4.0118439104
 30
0.0
 10
4.7214933883
 20
4.010646594
 30
0.0
 10
4.7159746072
 20
4.0090981608
 30
0.0
 10
4.7106960859
 20
4.0072897145
 30
0.0
 10
4.7056847165
 20
4.0053085288
 30
0.0
 10
4.7009648038
 20
4.003234755
 30
0.0
 10
4.6965625194
 20
4.0011415194
 30
0.0
 10
4.6925081619
 20
3.9990965023
 30
0.0
 10
4.6893670715
 20
3.9974426084
 30
0.0
 10
4.6870519854
 20
3.9961965607
 30
0.0
 10
4.6854746679
 20
3.9953387642
 30
0.0
 10
4.6840128736
 20
3.9945386348
 30
0.0
 10
4.6826715712
 20
3.9938031628
 30
0.0
 10
4.6814555789
 20
3.9931388818
 30
0.0
 10
4.6803692337
 20
3.9925520267
 30
0.0
 10
4.6794164504
 20
3.9920481494
 30
0.0
 10
4.6786003373
 20
3.9916324213
 30
0.0
 10
4.6780046796
 20
3.9913473759
 30
0.0
 10
4.6775970286
 20
3.991169766
 30
0.0
 10
4.6773457392
 20
3.9910695154
 30
0.0
 10
4.6771297178
 20
3.9909940216
 30
0.0
 10
4.6769485958
 20
3.9909434303
 30
0.0
 10
4.6768022174
 20
3.9909176689
 30
0.0
 10
4.6767151001
 20
3.9909167738
 30
0.0
 10
4.6766787192
 20
3.9909229636
 30
0.0
  0
SPLINE
  5
22A
100
AcDbEntity
  8
0
100
AcDbSpline
 62
7
  6
CONTINUOUS
 70
0
 71
3
 72
23
 73
19
 74
0
 42
0.0000001
 43
0.0000001
 44
0.0000000001
 40
0.0
 40
0.0
 40
0.0
 40
0.0
 40
0.0561809951
 40
0.1126244267
 40
0.1695791331
 40
0.2272680313
 40
0.2858780775
 40
0.3455530919
 40
0.4063895738
 40
0.4684352754
 40
0.5316900954
 40
0.596108751
 40
0.6616048409
 40
0.72805555
 40
0.7953077732
 40
0.8631822204
 40
0.931483878
 40
1.0
 40
1.0
 40
1.0
 40
1.0
 10
4.801552795
 20
2.4922709707
 30
0.0
 10
4.801552795
 20
2.4905952372
 30
0.0
 10
4.8013507281
 20
2.4872324923
 30
0.0
 10
4.8004452515
 20
2.4822445782
 30
0.0
 10
4.7989464408
 20
2.47735429
 30
0.0
 10
4.7968695235
 20
2.4726102008
 30
0.0
 10
4.7942353783
 20
2.4680579265
 30
0.0
 10
4.7910701953
 20
2.4637412522
 30
0.0
 10
4.7874051268
 20
2.4597013667
 30
0.0
 10
4.7832759407
 20
2.4559766718
 30
0.0
 10
4.7787226704
 20
2.4526024676
 30
0.0
 10
4.7737892512
 20
2.449610681
 30
0.0
 10
4.7685231327
 20
2.447029615
 30
0.0
 10
4.7629748434
 20
2.4448836622
 30
0.0
 10
4.7571976056
 20
2.4431931666
 30
0.0
 10
4.7512465793
 20
2.4419740614
 30
0.0
 10
4.7451792852
 20
2.4412379877
 30
0.0
 10
4.7410964534
 20
2.4410739679
 30
0.0
 10
4.739052795
 20
2.4410739679
 30
0.0
  0
ELLIPSE
  5
22B
100
AcDbEntity
  8
0
100
AcDbEllipse
 62
7
  6
CONTINUOUS
 10
4.739052795
 20
2.4448097147
 30
0.0
 11
0.0
 21
0.0679134456
 31
0.0
 40
0.9202890455
 41
1.5707963268
 42
4.7123889804
  0
ENDSEC
  0
SECTION
  2
OBJECTS
  0
DICTIONARY
  5
C
100
AcDbDictionary
280
0
281
1
  3
ACAD_GROUP
350
D
  3
ACAD_MLINESTYLE
350
17
  3
ACAD_LAYOUT
350
1A
  3
ACAD_PLOTSETTINGS
350
19
  3
ACAD_PLOTSTYLENAME
350
E
  0
DICTIONARY
  5
D
102
{ACAD_REACTORS
330
C
102
}
100
AcDbDictionary
280
0
281
1
  0
ACDBDICTIONARYWDFLT
  5
E
102
{ACAD_REACTORS
330
C
102
}
100
AcDbDictionary
281
1
  3
Normal
350
F
100
AcDbDictionaryWithDefault
340
F
  0
DICTIONARY
  5
17
102
{ACAD_REACTORS
330
C
102
}
100
AcDbDictionary
280
0
281
1
  3
Standard
350
18
  0
DICTIONARY
  5
19
102
{ACAD_REACTORS
330
C
102
}
100
AcDbDictionary
281
1
  0
DICTIONARY
  5
1A
102
{ACAD_REACTORS
330
C
102
}
100
AcDbDictionary
281
1
  3
Model
350
22C
  3
Layout1
350
22D
  0
ACDBPLACEHOLDER
  5
F
102
{ACAD_REACTORS
330
E
102
}
  0
MLINESTYLE
  5
18
102
{ACAD_REACTORS
330
17
102
}
100
AcDbMlineStyle
  2
STANDARD
 70
0
  3

 62
256
 51
90.0
 52
90.0
 71
2
 49
0.5
 62
256
  6
BYLAYER
 49
-0.5
 62
256
  6
BYLAYER
  0
LAYOUT
  5
22C
102
{ACAD_REACTORS
330
1A
102
}
100
AcDbPlotSettings
  1

  2
none_device
  4
ANSI_A_(11.00_x_8.50_Inches)
  6

 40
0.0
 41
0.0
 42
0.0
 43
0.0
 44
279.4
 45
215.9
 46
0.0
 47
0.0
 48
0.0
 49
0.0
140
0.0
141
0.0
142
1.0
143
1.0
 70
1024
 72
0
 73
0
 74
0
  7

 75
0
147
1.0
148
0.0
149
0.0
100
AcDbLayout
  1
Model
 70
0
 71
0
 10
0.0
 20
0.0
 11
11.0
 21
8.5
 12
0.0
 22
0.0
 32
0.0
 14
0.0
 24
0.0
 34
0.0
 15
0.0
 25
0.0
 35
0.0
146
0.0
 13
0.0
 23
0.0
 33
0.0
 16
1.0
 26
0.0
 36
0.0
 17
0.0
 27
1.0
 37
0.0
 76
0
330
202
345
0
346
0
  0
LAYOUT
  5
22D
102
{ACAD_REACTORS
330
1A
102
}
100
AcDbPlotSettings
  1

  2
none_device
  4
ANSI_A_(11.00_x_8.50_Inches)
  6

 40
0.0
 41
0.0
 42
0.0
 43
0.0
 44
279.4
 45
215.9
 46
0.0
 47
0.0
 48
0.0
 49
0.0
140
0.0
141
0.0
142
1.0
143
1.0
 70
0
 72
0
 73
0
 74
0
  7

 75
0
147
1.0
148
0.0
149
0.0
100
AcDbLayout
  1
Layout1
 70
0
 71
1
 10
0.0
 20
0.0
 11
11.0
 21
8.5
 12
0.0
 22
0.0
 32
0.0
 14
0.0
 24
0.0
 34
0.0
 15
0.0
 25
0.0
 35
0.0
146
0.0
 13
0.0
 23
0.0
 33
0.0
 16
1.0
 26
0.0
 36
0.0
 17
0.0
 27
1.0
 37
0.0
 76
0
330
203
345
0
346
0
  0
ENDSEC
  0
EOF
