999
DXF file: 129_right.dxf
999
Pro/ENGINEER 2012230 by Parametric Technology Corporation
  0
SECTION
  2
HEADER
  9
$ACADVER
  1
AC1015
  9
$DWGCODEPAGE
  3
ANSI_1252
  9
$EXTMAX
 10
11.6929133858
 20
8.2677165354
 30
0.0
  9
$EXTMIN
 10
0.0
 20
0.0
 30
0.0
  9
$LIMMIN
 10
0.0
 20
0.0
  9
$LIMMAX
 10
11.6929133858
 20
8.2677165354
  9
$VIEWCTR
 10
5.8464566929
 20
4.1338582677
  9
$VIEWSIZE
 40
8.2677165354
  9
$CLAYER
  8
0
  9
$LTSCALE
 40
0.6431102362
  9
$CELTYPE
  6
BYLAYER
  9
$DIMSCALE
 40
1.0
  9
$DIMASZ
 40
0.1875
  9
$DIMEXO
 40
0.0625
  9
$DIMDLI
 40
0.4443307087
  9
$DIMEXE
 40
0.125
  9
$DIMCEN
 40
0.1052362205
  9
$DIMLFAC
 40
1.0
  9
$DIMBLK
  1
_CLOSED
  9
$DIMTXT
 40
0.15625
  9
$DIMTOL
 70
0
  9
$DIMLIM
 70
0
  9
$DIMTFAC
 40
1.0
  9
$DIMGAP
 40
0.09
  9
$DIMDSEP
 70
46
  9
$PDMODE
 70
3
  9
$PDSIZE
 40
0.3125
  9
$HANDSEED
  5
461
  9
$TILEMODE
 70
1
  9
$MEASUREMENT
 70
0
  9
$INSUNITS
 70
1
  0
ENDSEC
  0
SECTION
  2
CLASSES
  0
CLASS
  1
ACDBDICTIONARYWDFLT
  2
AcDbDictionaryWithDefault
  3
AutoCAD 2000
 90
0
280
0
281
0
  0
CLASS
  1
ACDBPLACEHOLDER
  2
AcDbPlaceHolder
  3
AutoCAD 2000
 90
0
280
0
281
0
  0
CLASS
  1
LAYOUT
  2
AcDbLayout
  3
AutoCAD 2000
 90
0
280
0
281
0
  0
ENDSEC
  0
SECTION
  2
TABLES
  0
TABLE
  2
VPORT
  5
8
100
AcDbSymbolTable
 70
2
  0
VPORT
  5
1F4
100
AcDbSymbolTableRecord
100
AcDbViewportTableRecord
  2
*ACTIVE
 70
0
 10
0.0
 20
0.0
 11
1.0
 21
1.0
 12
5.8464566929
 22
4.1338582677
 13
0.0
 23
0.0
 14
1.0
 24
1.0
 15
0.0
 25
0.0
 16
0.0
 26
0.0
 36
1.0
 17
0.0
 27
0.0
 37
0.0
 40
8.2677165354
 41
1.4142857143
 42
50.0
 43
0.0
 44
0.0
 50
0.0
 51
0.0
 71
0
 72
100
 73
1
 74
1
 75
0
 76
0
 77
0
 78
0
  0
ENDTAB
  0
TABLE
  2
LTYPE
  5
5
100
AcDbSymbolTable
 70
6
  0
LTYPE
  5
14
100
AcDbSymbolTableRecord
100
AcDbLinetypeTableRecord
  2
BYBLOCK
 70
0
  3

 72
65
 73
0
 40
0.0
  0
LTYPE
  5
15
100
AcDbSymbolTableRecord
100
AcDbLinetypeTableRecord
  2
BYLAYER
 70
0
  3

 72
65
 73
0
 40
0.0
  0
LTYPE
  5
16
100
AcDbSymbolTableRecord
100
AcDbLinetypeTableRecord
  2
CONTINUOUS
 70
64
  3
Solid line
 72
65
 73
0
 40
0.0
  0
LTYPE
  5
1F5
100
AcDbSymbolTableRecord
100
AcDbLinetypeTableRecord
  2
CENTER
 70
64
  3
____ _ ____ _ ____ _ ____ _ ____ _ ____ _ ____
 72
65
 73
4
 40
0.6
 49
0.375
 74
0
 49
-0.075
 74
0
 49
0.075
 74
0
 49
-0.075
 74
0
  0
LTYPE
  5
1F6
100
AcDbSymbolTableRecord
100
AcDbLinetypeTableRecord
  2
HIDDEN
 70
64
  3
- - - - - - - - - - - - - - - - - - - -
 72
65
 73
2
 40
0.2
 49
0.1
 74
0
 49
-0.1
 74
0
  0
LTYPE
  5
1F7
100
AcDbSymbolTableRecord
100
AcDbLinetypeTableRecord
  2
PHANTOM
 70
64
  3
_____ _ _ _____ _ _ _____ _ _ _____
 72
65
 73
6
 40
0.8
 49
0.45
 74
0
 49
-0.05
 74
0
 49
0.1
 74
0
 49
-0.05
 74
0
 49
0.1
 74
0
 49
-0.05
 74
0
  0
LTYPE
  5
1F8
100
AcDbSymbolTableRecord
100
AcDbLinetypeTableRecord
  2
DOT
 70
64
  3
. . . . . . . . . . . . . . . . . . . .
 72
65
 73
2
 40
0.2
 49
0.1
 74
0
 49
-0.1
 74
0
  0
LTYPE
  5
1F9
100
AcDbSymbolTableRecord
100
AcDbLinetypeTableRecord
  2
DASHED
 70
64
  3
- - - - - - - - - - - - - - - - - - - -
 72
65
 73
2
 40
0.2
 49
0.1
 74
0
 49
-0.1
 74
0
  0
ENDTAB
  0
TABLE
  2
LAYER
  5
2
100
AcDbSymbolTable
 70
36
  0
LAYER
  5
10
100
AcDbSymbolTableRecord
100
AcDbLayerTableRecord
  2
0
 70
0
 62
7
  6
CONTINUOUS
370
-3
390
F
  0
LAYER
  5
1FA
100
AcDbSymbolTableRecord
100
AcDbLayerTableRecord
  2
DEFAULT_1
 70
0
 62
7
  6
CENTER
370
-3
390
F
  0
LAYER
  5
1FB
100
AcDbSymbolTableRecord
100
AcDbLayerTableRecord
  2
DEFAULT_2
 70
0
 62
8
  6
HIDDEN
370
-3
390
F
  0
LAYER
  5
1FC
100
AcDbSymbolTableRecord
100
AcDbLayerTableRecord
  2
DEFAULT_3
 70
0
 62
7
  6
PHANTOM
370
-3
390
F
  0
LAYER
  5
1FD
100
AcDbSymbolTableRecord
100
AcDbLayerTableRecord
  2
1-078
 70
0
 62
7
  6
CONTINUOUS
370
-3
390
F
  0
LAYER
  5
1FE
100
AcDbSymbolTableRecord
100
AcDbLayerTableRecord
  2
10451
 70
0
 62
7
  6
CONTINUOUS
370
-3
390
F
  0
LAYER
  5
1FF
100
AcDbSymbolTableRecord
100
AcDbLayerTableRecord
  2
10698
 70
0
 62
7
  6
CONTINUOUS
370
-3
390
F
  0
LAYER
  5
200
100
AcDbSymbolTableRecord
100
AcDbLayerTableRecord
  2
10800
 70
0
 62
7
  6
CONTINUOUS
370
-3
390
F
  0
LAYER
  5
201
100
AcDbSymbolTableRecord
100
AcDbLayerTableRecord
  2
10801
 70
0
 62
7
  6
CONTINUOUS
370
-3
390
F
  0
LAYER
  5
202
100
AcDbSymbolTableRecord
100
AcDbLayerTableRecord
  2
10802
 70
0
 62
7
  6
CONTINUOUS
370
-3
390
F
  0
LAYER
  5
203
100
AcDbSymbolTableRecord
100
AcDbLayerTableRecord
  2
10803
 70
0
 62
7
  6
CONTINUOUS
370
-3
390
F
  0
LAYER
  5
204
100
AcDbSymbolTableRecord
100
AcDbLayerTableRecord
  2
10804
 70
0
 62
7
  6
CONTINUOUS
370
-3
390
F
  0
LAYER
  5
205
100
AcDbSymbolTableRecord
100
AcDbLayerTableRecord
  2
10805
 70
0
 62
7
  6
CONTINUOUS
370
-3
390
F
  0
LAYER
  5
206
100
AcDbSymbolTableRecord
100
AcDbLayerTableRecord
  2
10806
 70
0
 62
7
  6
CONTINUOUS
370
-3
390
F
  0
LAYER
  5
207
100
AcDbSymbolTableRecord
100
AcDbLayerTableRecord
  2
11830
 70
0
 62
7
  6
CONTINUOUS
370
-3
390
F
  0
LAYER
  5
208
100
AcDbSymbolTableRecord
100
AcDbLayerTableRecord
  2
12088
 70
0
 62
7
  6
CONTINUOUS
370
-3
390
F
  0
LAYER
  5
209
100
AcDbSymbolTableRecord
100
AcDbLayerTableRecord
  2
2-119B
 70
0
 62
7
  6
CONTINUOUS
370
-3
390
F
  0
LAYER
  5
20A
100
AcDbSymbolTableRecord
100
AcDbLayerTableRecord
  2
2-735
 70
0
 62
7
  6
CONTINUOUS
370
-3
390
F
  0
LAYER
  5
20B
100
AcDbSymbolTableRecord
100
AcDbLayerTableRecord
  2
2-853
 70
0
 62
7
  6
CONTINUOUS
370
-3
390
F
  0
LAYER
  5
20C
100
AcDbSymbolTableRecord
100
AcDbLayerTableRecord
  2
50967
 70
0
 62
7
  6
CONTINUOUS
370
-3
390
F
  0
LAYER
  5
20D
100
AcDbSymbolTableRecord
100
AcDbLayerTableRecord
  2
91021
 70
0
 62
7
  6
CONTINUOUS
370
-3
390
F
  0
LAYER
  5
20E
100
AcDbSymbolTableRecord
100
AcDbLayerTableRecord
  2
91218
 70
0
 62
7
  6
CONTINUOUS
370
-3
390
F
  0
LAYER
  5
20F
100
AcDbSymbolTableRecord
100
AcDbLayerTableRecord
  2
91219
 70
0
 62
7
  6
CONTINUOUS
370
-3
390
F
  0
LAYER
  5
210
100
AcDbSymbolTableRecord
100
AcDbLayerTableRecord
  2
91221
 70
0
 62
7
  6
CONTINUOUS
370
-3
390
F
  0
LAYER
  5
211
100
AcDbSymbolTableRecord
100
AcDbLayerTableRecord
  2
91224
 70
0
 62
7
  6
CONTINUOUS
370
-3
390
F
  0
LAYER
  5
212
100
AcDbSymbolTableRecord
100
AcDbLayerTableRecord
  2
91394
 70
0
 62
7
  6
CONTINUOUS
370
-3
390
F
  0
LAYER
  5
213
100
AcDbSymbolTableRecord
100
AcDbLayerTableRecord
  2
91543
 70
0
 62
7
  6
CONTINUOUS
370
-3
390
F
  0
LAYER
  5
214
100
AcDbSymbolTableRecord
100
AcDbLayerTableRecord
  2
91580
 70
0
 62
7
  6
CONTINUOUS
370
-3
390
F
  0
LAYER
  5
215
100
AcDbSymbolTableRecord
100
AcDbLayerTableRecord
  2
92079
 70
0
 62
7
  6
CONTINUOUS
370
-3
390
F
  0
LAYER
  5
216
100
AcDbSymbolTableRecord
100
AcDbLayerTableRecord
  2
92080
 70
0
 62
7
  6
CONTINUOUS
370
-3
390
F
  0
LAYER
  5
217
100
AcDbSymbolTableRecord
100
AcDbLayerTableRecord
  2
ALL_ASSEMBLY_MEMBERS
 70
0
 62
7
  6
CONTINUOUS
370
-3
390
F
  0
LAYER
  5
218
100
AcDbSymbolTableRecord
100
AcDbLayerTableRecord
  2
ALL_ASSEMBLY_MEMBERS_1
 70
0
 62
7
  6
CONTINUOUS
370
-3
390
F
  0
LAYER
  5
219
100
AcDbSymbolTableRecord
100
AcDbLayerTableRecord
  2
ALL_ASSEMBLY_MEMBERS_2
 70
0
 62
7
  6
CONTINUOUS
370
-3
390
F
  0
LAYER
  5
21A
100
AcDbSymbolTableRecord
100
AcDbLayerTableRecord
  2
ALL_ASSEMBLY_MEMBERS_3
 70
0
 62
7
  6
CONTINUOUS
370
-3
390
F
  0
LAYER
  5
21B
100
AcDbSymbolTableRecord
100
AcDbLayerTableRecord
  2
COLOR11
 70
0
 62
7
  6
CONTINUOUS
370
-3
390
F
  0
LAYER
  5
21C
100
AcDbSymbolTableRecord
100
AcDbLayerTableRecord
  2
COLOR12
 70
0
 62
7
  6
CONTINUOUS
370
-3
390
F
  0
LAYER
  5
21D
100
AcDbSymbolTableRecord
100
AcDbLayerTableRecord
  2
COLOR13
 70
0
 62
7
  6
CONTINUOUS
370
-3
390
F
  0
LAYER
  5
21E
100
AcDbSymbolTableRecord
100
AcDbLayerTableRecord
  2
COLOR14
 70
0
 62
7
  6
CONTINUOUS
370
-3
390
F
  0
LAYER
  5
21F
100
AcDbSymbolTableRecord
100
AcDbLayerTableRecord
  2
COLOR2
 70
0
 62
7
  6
CONTINUOUS
370
-3
390
F
  0
LAYER
  5
220
100
AcDbSymbolTableRecord
100
AcDbLayerTableRecord
  2
COLOR3
 70
0
 62
7
  6
CONTINUOUS
370
-3
390
F
  0
LAYER
  5
221
100
AcDbSymbolTableRecord
100
AcDbLayerTableRecord
  2
COLOR4
 70
0
 62
7
  6
CONTINUOUS
370
-3
390
F
  0
LAYER
  5
222
100
AcDbSymbolTableRecord
100
AcDbLayerTableRecord
  2
COLOR6
 70
0
 62
7
  6
CONTINUOUS
370
-3
390
F
  0
LAYER
  5
223
100
AcDbSymbolTableRecord
100
AcDbLayerTableRecord
  2
COLOR7
 70
0
 62
7
  6
CONTINUOUS
370
-3
390
F
  0
LAYER
  5
224
100
AcDbSymbolTableRecord
100
AcDbLayerTableRecord
  2
COLOR8
 70
0
 62
7
  6
CONTINUOUS
370
-3
390
F
  0
LAYER
  5
225
100
AcDbSymbolTableRecord
100
AcDbLayerTableRecord
  2
COLOR9
 70
0
 62
7
  6
CONTINUOUS
370
-3
390
F
  0
LAYER
  5
226
100
AcDbSymbolTableRecord
100
AcDbLayerTableRecord
  2
DEFAULT_SURFACES
 70
0
 62
7
  6
CONTINUOUS
370
-3
390
F
  0
LAYER
  5
227
100
AcDbSymbolTableRecord
100
AcDbLayerTableRecord
  2
DEFAULT_SURFACES_1
 70
0
 62
7
  6
CONTINUOUS
370
-3
390
F
  0
LAYER
  5
228
100
AcDbSymbolTableRecord
100
AcDbLayerTableRecord
  2
DEFAULT_SURFACES_2
 70
0
 62
7
  6
CONTINUOUS
370
-3
390
F
  0
LAYER
  5
229
100
AcDbSymbolTableRecord
100
AcDbLayerTableRecord
  2
DEFAULT_SURFACES_3
 70
0
 62
7
  6
CONTINUOUS
370
-3
390
F
  0
LAYER
  5
22A
100
AcDbSymbolTableRecord
100
AcDbLayerTableRecord
  2
DEFAULT_SURFACES_4
 70
0
 62
7
  6
CONTINUOUS
370
-3
390
F
  0
LAYER
  5
22B
100
AcDbSymbolTableRecord
100
AcDbLayerTableRecord
  2
DEFAULT_SURFACES_5
 70
0
 62
7
  6
CONTINUOUS
370
-3
390
F
  0
LAYER
  5
22C
100
AcDbSymbolTableRecord
100
AcDbLayerTableRecord
  2
INTF_10451
 70
0
 62
7
  6
CONTINUOUS
370
-3
390
F
  0
LAYER
  5
22D
100
AcDbSymbolTableRecord
100
AcDbLayerTableRecord
  2
INTF_10698
 70
0
 62
7
  6
CONTINUOUS
370
-3
390
F
  0
LAYER
  5
22E
100
AcDbSymbolTableRecord
100
AcDbLayerTableRecord
  2
INTF_10800
 70
0
 62
7
  6
CONTINUOUS
370
-3
390
F
  0
LAYER
  5
22F
100
AcDbSymbolTableRecord
100
AcDbLayerTableRecord
  2
INTF_10801
 70
0
 62
7
  6
CONTINUOUS
370
-3
390
F
  0
LAYER
  5
230
100
AcDbSymbolTableRecord
100
AcDbLayerTableRecord
  2
INTF_10802
 70
0
 62
7
  6
CONTINUOUS
370
-3
390
F
  0
LAYER
  5
231
100
AcDbSymbolTableRecord
100
AcDbLayerTableRecord
  2
INTF_10803
 70
0
 62
7
  6
CONTINUOUS
370
-3
390
F
  0
LAYER
  5
232
100
AcDbSymbolTableRecord
100
AcDbLayerTableRecord
  2
INTF_10804
 70
0
 62
7
  6
CONTINUOUS
370
-3
390
F
  0
LAYER
  5
233
100
AcDbSymbolTableRecord
100
AcDbLayerTableRecord
  2
INTF_10805
 70
0
 62
7
  6
CONTINUOUS
370
-3
390
F
  0
LAYER
  5
234
100
AcDbSymbolTableRecord
100
AcDbLayerTableRecord
  2
INTF_10806
 70
0
 62
7
  6
CONTINUOUS
370
-3
390
F
  0
LAYER
  5
235
100
AcDbSymbolTableRecord
100
AcDbLayerTableRecord
  2
INTF_11830
 70
0
 62
7
  6
CONTINUOUS
370
-3
390
F
  0
LAYER
  5
236
100
AcDbSymbolTableRecord
100
AcDbLayerTableRecord
  2
INTF_12088
 70
0
 62
7
  6
CONTINUOUS
370
-3
390
F
  0
LAYER
  5
237
100
AcDbSymbolTableRecord
100
AcDbLayerTableRecord
  2
INTF_50967
 70
0
 62
7
  6
CONTINUOUS
370
-3
390
F
  0
LAYER
  5
238
100
AcDbSymbolTableRecord
100
AcDbLayerTableRecord
  2
INTF_91021
 70
0
 62
7
  6
CONTINUOUS
370
-3
390
F
  0
LAYER
  5
239
100
AcDbSymbolTableRecord
100
AcDbLayerTableRecord
  2
INTF_91218
 70
0
 62
7
  6
CONTINUOUS
370
-3
390
F
  0
LAYER
  5
23A
100
AcDbSymbolTableRecord
100
AcDbLayerTableRecord
  2
INTF_91219
 70
0
 62
7
  6
CONTINUOUS
370
-3
390
F
  0
LAYER
  5
23B
100
AcDbSymbolTableRecord
100
AcDbLayerTableRecord
  2
INTF_91221
 70
0
 62
7
  6
CONTINUOUS
370
-3
390
F
  0
LAYER
  5
23C
100
AcDbSymbolTableRecord
100
AcDbLayerTableRecord
  2
INTF_91224
 70
0
 62
7
  6
CONTINUOUS
370
-3
390
F
  0
LAYER
  5
23D
100
AcDbSymbolTableRecord
100
AcDbLayerTableRecord
  2
INTF_91394
 70
0
 62
7
  6
CONTINUOUS
370
-3
390
F
  0
LAYER
  5
23E
100
AcDbSymbolTableRecord
100
AcDbLayerTableRecord
  2
INTF_91543
 70
0
 62
7
  6
CONTINUOUS
370
-3
390
F
  0
LAYER
  5
23F
100
AcDbSymbolTableRecord
100
AcDbLayerTableRecord
  2
INTF_91580
 70
0
 62
7
  6
CONTINUOUS
370
-3
390
F
  0
LAYER
  5
240
100
AcDbSymbolTableRecord
100
AcDbLayerTableRecord
  2
INTF_92079
 70
0
 62
7
  6
CONTINUOUS
370
-3
390
F
  0
LAYER
  5
241
100
AcDbSymbolTableRecord
100
AcDbLayerTableRecord
  2
INTF_92080
 70
0
 62
7
  6
CONTINUOUS
370
-3
390
F
  0
LAYER
  5
242
100
AcDbSymbolTableRecord
100
AcDbLayerTableRecord
  2
INTF_BLANK
 70
0
 62
7
  6
CONTINUOUS
370
-3
390
F
  0
LAYER
  5
243
100
AcDbSymbolTableRecord
100
AcDbLayerTableRecord
  2
O_RING_1-078
 70
0
 62
7
  6
CONTINUOUS
370
-3
390
F
  0
LAYER
  5
244
100
AcDbSymbolTableRecord
100
AcDbLayerTableRecord
  2
QUILT
 70
0
 62
7
  6
CONTINUOUS
370
-3
390
F
  0
LAYER
  5
245
100
AcDbSymbolTableRecord
100
AcDbLayerTableRecord
  2
SCREW_1-078
 70
0
 62
7
  6
CONTINUOUS
370
-3
390
F
  0
LAYER
  5
246
100
AcDbSymbolTableRecord
100
AcDbLayerTableRecord
  2
SEAT_1-078
 70
0
 62
7
  6
CONTINUOUS
370
-3
390
F
  0
LAYER
  5
247
100
AcDbSymbolTableRecord
100
AcDbLayerTableRecord
  2
WETTED_SURFACE
 70
0
 62
7
  6
CONTINUOUS
370
-3
390
F
  0
LAYER
  5
248
100
AcDbSymbolTableRecord
100
AcDbLayerTableRecord
  2
WETTED_SURFACE_1
 70
0
 62
7
  6
CONTINUOUS
370
-3
390
F
  0
LAYER
  5
249
100
AcDbSymbolTableRecord
100
AcDbLayerTableRecord
  2
WETTED_SURFACE_AREA
 70
0
 62
7
  6
CONTINUOUS
370
-3
390
F
  0
LAYER
  5
24A
100
AcDbSymbolTableRecord
100
AcDbLayerTableRecord
  2
WETTED_SURFACE_AREA_1
 70
0
 62
7
  6
CONTINUOUS
370
-3
390
F
  0
LAYER
  5
24B
100
AcDbSymbolTableRecord
100
AcDbLayerTableRecord
  2
WETTED_SURFACE_AREA_2
 70
0
 62
7
  6
CONTINUOUS
370
-3
390
F
  0
LAYER
  5
24C
100
AcDbSymbolTableRecord
100
AcDbLayerTableRecord
  2
_BLACK_HOLE
 70
0
 62
7
  6
CONTINUOUS
370
-3
390
F
  0
ENDTAB
  0
TABLE
  2
STYLE
  5
3
100
AcDbSymbolTable
 70
1
  0
STYLE
  5
11
100
AcDbSymbolTableRecord
100
AcDbTextStyleTableRecord
  2
STANDARD
 70
0
 40
0.0
 41
0.8
 50
0.0
 71
0
 42
0.2
  3
txt
  4

  0
STYLE
  5
24D
100
AcDbSymbolTableRecord
100
AcDbTextStyleTableRecord
  2
TEXTSTYLE_1
 70
0
 40
0.0
 41
0.8
 50
0.0
 71
0
 42
0.2
  3
gdt
  4

  0
ENDTAB
  0
TABLE
  2
VIEW
  5
6
100
AcDbSymbolTable
 70
0
  0
ENDTAB
  0
TABLE
  2
UCS
  5
7
100
AcDbSymbolTable
 70
0
  0
ENDTAB
  0
TABLE
  2
APPID
  5
9
100
AcDbSymbolTable
 70
1
  0
APPID
  5
24E
100
AcDbSymbolTableRecord
100
AcDbRegAppTableRecord
  2
ACAD
 70
0
  0
ENDTAB
  0
TABLE
  2
BLOCK_RECORD
  5
1
100
AcDbSymbolTable
 70
0
  0
BLOCK_RECORD
  5
24F
100
AcDbSymbolTableRecord
100
AcDbBlockTableRecord
  2
*Model_Space
  0
BLOCK_RECORD
  5
250
100
AcDbSymbolTableRecord
100
AcDbBlockTableRecord
  2
*Paper_Space
  0
ENDTAB
  0
TABLE
  2
DIMSTYLE
  5
A
100
AcDbSymbolTable
 70
1
100
AcDbDimStyleTable
 71
0
  0
DIMSTYLE
105
251
100
AcDbSymbolTableRecord
100
AcDbDimStyleTableRecord
  2
STANDARD
 70
0
  3

  4

 40
1.0
 41
0.1875
 42
0.0625
 43
0.38
 44
0.125
 45
0.0
 46
0.0
 47
0.001
 48
0.001
140
0.15625
141
0.09
142
0.0
143
25.4
144
1.0
145
0.0
146
1.0
147
0.09
 71
0.0
 72
0.0
 73
1
 74
1
 75
0
 76
0
 77
0
 78
4
170
0
171
2
172
0
173
0
174
0
175
0
176
0
177
0
178
0
270
2
271
3
272
3
273
2
274
2
275
0
280
0
281
0
282
0
283
1
284
4
285
0
286
0
287
3
288
0
340
11
278
46
  0
ENDTAB
  0
ENDSEC
  0
SECTION
  2
BLOCKS
  0
BLOCK
  5
20
100
AcDbEntity
  8
0
100
AcDbBlockBegin
  2
*Model_Space
 70
0
 10
0.0
 20
0.0
 30
0.0
  3
*Model_Space
  1

  0
ENDBLK
  5
21
100
AcDbEntity
  8
0
100
AcDbBlockEnd
  0
BLOCK
  5
1C
100
AcDbEntity
  8
0
100
AcDbBlockBegin
  2
*Paper_Space
 70
0
 10
0.0
 20
0.0
 30
0.0
  3
*Paper_Space
  1

  0
ENDBLK
  5
1D
100
AcDbEntity
  8
0
100
AcDbBlockEnd
  0
ENDSEC
  0
SECTION
  2
ENTITIES
  0
LINE
  5
252
100
AcDbEntity
  8
0
100
AcDbLine
 62
6
  6
CONTINUOUS
 10
4.8499536401
 20
6.5739152313
 11
4.6570856778
 21
6.4533727549
  0
LINE
  5
253
100
AcDbEntity
  8
0
100
AcDbLine
 62
7
  6
CONTINUOUS
 10
4.7373856672
 20
1.8394352483
 11
4.7573856672
 21
1.8194352483
  0
LINE
  5
254
100
AcDbEntity
  8
0
100
AcDbLine
 62
7
  6
CONTINUOUS
 10
7.0673856672
 20
1.8194352483
 11
4.7573856673
 21
1.8194352483
  0
LINE
  5
255
100
AcDbEntity
  8
0
100
AcDbLine
 62
7
  6
CONTINUOUS
 10
4.7373856672
 20
1.8394352483
 11
7.0873856672
 21
1.8394352483
  0
LINE
  5
256
100
AcDbEntity
  8
0
100
AcDbLine
 62
9
  6
CONTINUOUS
 10
7.0873856672
 20
1.9244352483
 11
4.7373856672
 21
1.9244352483
  0
LINE
  5
257
100
AcDbEntity
  8
0
100
AcDbLine
 62
7
  6
CONTINUOUS
 10
7.0573856672
 20
1.9544352483
 11
4.7673856672
 21
1.9544352483
  0
LINE
  5
258
100
AcDbEntity
  8
0
100
AcDbLine
 62
7
  6
CONTINUOUS
 10
6.7823618399
 20
2.1944352483
 11
5.0424094946
 21
2.1944352483
  0
LINE
  5
259
100
AcDbEntity
  8
0
100
AcDbLine
 62
7
  6
CONTINUOUS
 10
5.3813856672
 20
2.5294352483
 11
6.4433856672
 21
2.5294352483
  0
LINE
  5
25A
100
AcDbEntity
  8
0
100
AcDbLine
 62
6
  6
CONTINUOUS
 10
6.4335660071
 20
2.5504352483
 11
5.3912053274
 21
2.5504352483
  0
LINE
  5
25B
100
AcDbEntity
  8
0
100
AcDbLine
 62
6
  6
CONTINUOUS
 10
6.4223856672
 20
2.6754352483
 11
5.4023856672
 21
2.6754352483
  0
LINE
  5
25C
100
AcDbEntity
  8
0
100
AcDbLine
 62
7
  6
CONTINUOUS
 10
4.6373856672
 20
6.310274466
 11
4.6373856672
 21
5.7405960306
  0
LINE
  5
25D
100
AcDbEntity
  8
0
100
AcDbLine
 62
6
  6
CONTINUOUS
 10
4.6523856672
 20
6.4448927718
 11
4.6523856672
 21
5.6059777247
  0
LINE
  5
25E
100
AcDbEntity
  8
0
100
AcDbLine
 62
9
  6
CONTINUOUS
 10
4.6570856778
 20
6.4533727549
 11
4.6570856778
 21
5.5974977416
  0
LINE
  5
25F
100
AcDbEntity
  8
0
100
AcDbLine
 62
6
  6
CONTINUOUS
 10
6.4223856672
 20
2.8004352483
 11
5.4023856672
 21
2.8004352483
  0
LINE
  5
260
100
AcDbEntity
  8
0
100
AcDbLine
 62
7
  6
CONTINUOUS
 10
5.3912053274
 20
2.9254352483
 11
6.4335660071
 21
2.9254352483
  0
LINE
  5
261
100
AcDbEntity
  8
0
100
AcDbLine
 62
7
  6
CONTINUOUS
 10
4.7373856672
 20
1.9244352483
 11
4.7373856672
 21
1.8394352483
  0
LINE
  5
262
100
AcDbEntity
  8
0
100
AcDbLine
 62
9
  6
CONTINUOUS
 10
4.8499536401
 20
6.5739152313
 11
4.8499536401
 21
5.4769552652
  0
LINE
  5
263
100
AcDbEntity
  8
0
100
AcDbLine
 62
9
  6
CONTINUOUS
 10
4.8552536295
 20
6.5754352483
 11
4.8552536295
 21
5.4754352483
  0
LINE
  5
264
100
AcDbEntity
  8
0
100
AcDbLine
 62
9
  6
CONTINUOUS
 10
6.6853807663
 20
5.635194419
 11
6.6475600232
 21
5.6221716929
  0
LWPOLYLINE
  5
265
100
AcDbEntity
  8
0
100
AcDbPolyline
 62
6
  6
CONTINUOUS
 90
12
 70
0
 10
6.5398531154
 20
5.5945174207
 10
6.5421178397
 20
5.5951956405
 10
6.5455581656
 20
5.5966197902
 10
6.5488008476
 20
5.5984625887
 10
6.5517652812
 20
5.6006727323
 10
6.5544540448
 20
5.6032511068
 10
6.5567999153
 20
5.6061391774
 10
6.5587561847
 20
5.6092694821
 10
6.5603271998
 20
5.612652066
 10
6.5614750923
 20
5.6162379681
 10
6.5621610254
 20
5.6199087511
 10
6.5623856672
 20
5.6235731813
  0
LINE
  5
266
100
AcDbEntity
  8
0
100
AcDbLine
 62
6
  6
CONTINUOUS
 10
4.9123856672
 20
5.455109363
 11
4.9123856672
 21
5.4541986068
  0
LINE
  5
267
100
AcDbEntity
  8
0
100
AcDbLine
 62
6
  6
CONTINUOUS
 10
4.9123856672
 20
5.4554674722
 11
4.9123856672
 21
5.6932104445
  0
LINE
  5
268
100
AcDbEntity
  8
0
100
AcDbLine
 62
6
  6
CONTINUOUS
 10
4.9123856672
 20
5.693870912
 11
4.9123856672
 21
6.3569995845
  0
LINE
  5
269
100
AcDbEntity
  8
0
100
AcDbLine
 62
6
  6
CONTINUOUS
 10
4.9123856672
 20
6.3576600521
 11
4.9123856672
 21
6.5967998327
  0
LINE
  5
26A
100
AcDbEntity
  8
0
100
AcDbLine
 62
9
  6
CONTINUOUS
 10
6.8290045368
 20
5.4945205162
 11
6.7911837938
 21
5.48149779
  0
LINE
  5
26B
100
AcDbEntity
  8
0
100
AcDbLine
 62
9
  6
CONTINUOUS
 10
6.3782887612
 20
3.1454352483
 11
5.4464825733
 21
3.1454352483
  0
LINE
  5
26C
100
AcDbEntity
  8
0
100
AcDbLine
 62
9
  6
CONTINUOUS
 10
5.1523856672
 20
5.4540706638
 11
5.1523856672
 21
5.4554674722
  0
LINE
  5
26D
100
AcDbEntity
  8
0
100
AcDbLine
 62
9
  6
CONTINUOUS
 10
5.1523856672
 20
5.4609676907
 11
5.1523856672
 21
5.4642120322
  0
LINE
  5
26E
100
AcDbEntity
  8
0
100
AcDbLine
 62
9
  6
CONTINUOUS
 10
5.1523856672
 20
5.4567397999
 11
5.1523856672
 21
5.4590635595
  0
LINE
  5
26F
100
AcDbEntity
  8
0
100
AcDbLine
 62
9
  6
CONTINUOUS
 10
5.1523856672
 20
5.4740259975
 11
5.1523856672
 21
5.4791054712
  0
LINE
  5
270
100
AcDbEntity
  8
0
100
AcDbLine
 62
9
  6
CONTINUOUS
 10
5.1523856672
 20
5.4667427478
 11
5.1523856672
 21
5.470920169
  0
LINE
  5
271
100
AcDbEntity
  8
0
100
AcDbLine
 62
9
  6
CONTINUOUS
 10
5.1523856672
 20
5.4828668477
 11
5.1523856672
 21
5.4888096156
  0
LINE
  5
272
100
AcDbEntity
  8
0
100
AcDbLine
 62
9
  6
CONTINUOUS
 10
5.1523856672
 20
5.4931716954
 11
5.1523856672
 21
5.4999846136
  0
LINE
  5
273
100
AcDbEntity
  8
0
100
AcDbLine
 62
9
  6
CONTINUOUS
 10
5.1523856672
 20
5.5049354405
 11
5.1523856672
 21
5.5125998352
  0
LINE
  5
274
100
AcDbEntity
  8
0
100
AcDbLine
 62
9
  6
CONTINUOUS
 10
5.1523856672
 20
5.5181258394
 11
5.1523856672
 21
5.5266629341
  0
LINE
  5
275
100
AcDbEntity
  8
0
100
AcDbLine
 62
9
  6
CONTINUOUS
 10
5.1523856672
 20
5.5326629341
 11
5.1523856672
 21
5.542008787
  0
LINE
  5
276
100
AcDbEntity
  8
0
100
AcDbLine
 62
9
  6
CONTINUOUS
 10
5.1523856672
 20
5.5486381714
 11
5.1523856672
 21
5.5587219092
  0
LINE
  5
277
100
AcDbEntity
  8
0
100
AcDbLine
 62
9
  6
CONTINUOUS
 10
5.1523856672
 20
5.5658764724
 11
5.1523856672
 21
5.5767142602
  0
LINE
  5
278
100
AcDbEntity
  8
0
100
AcDbLine
 62
9
  6
CONTINUOUS
 10
5.1523856672
 20
5.584374392
 11
5.1523856672
 21
5.5959365242
  0
LINE
  5
279
100
AcDbEntity
  8
0
100
AcDbLine
 62
9
  6
CONTINUOUS
 10
5.1523856672
 20
5.6040812288
 11
5.1523856672
 21
5.6163962081
  0
LINE
  5
27A
100
AcDbEntity
  8
0
100
AcDbLine
 62
9
  6
CONTINUOUS
 10
5.1523856672
 20
5.6248814895
 11
5.1523856672
 21
5.6378568172
  0
LINE
  5
27B
100
AcDbEntity
  8
0
100
AcDbLine
 62
9
  6
CONTINUOUS
 10
5.1523856672
 20
5.646902428
 11
5.1523856672
 21
5.6604399454
  0
LINE
  5
27C
100
AcDbEntity
  8
0
100
AcDbLine
 62
9
  6
CONTINUOUS
 10
5.1523856672
 20
5.6698994205
 11
5.1523856672
 21
5.6840235005
  0
LINE
  5
27D
100
AcDbEntity
  8
0
100
AcDbLine
 62
9
  6
CONTINUOUS
 10
5.1523856672
 20
5.693870912
 11
5.1523856672
 21
5.7085428414
  0
LINE
  5
27E
100
AcDbEntity
  8
0
100
AcDbLine
 62
9
  6
CONTINUOUS
 10
5.1523856672
 20
5.7187511983
 11
5.1523856672
 21
5.7340048168
  0
LINE
  5
27F
100
AcDbEntity
  8
0
100
AcDbLine
 62
9
  6
CONTINUOUS
 10
5.1523856672
 20
5.7443971216
 11
5.1523856672
 21
5.7601176769
  0
LINE
  5
280
100
AcDbEntity
  8
0
100
AcDbLine
 62
9
  6
CONTINUOUS
 10
5.1523856672
 20
5.7709630707
 11
5.1523856672
 21
5.7870318084
  0
LINE
  5
281
100
AcDbEntity
  8
0
100
AcDbLine
 62
9
  6
CONTINUOUS
 10
5.1523856672
 20
5.7981515477
 11
5.1523856672
 21
5.8145993872
  0
LINE
  5
282
100
AcDbEntity
  8
0
100
AcDbLine
 62
9
  6
CONTINUOUS
 10
5.1523856672
 20
5.8259629935
 11
5.1523856672
 21
5.8427448525
  0
LINE
  5
283
100
AcDbEntity
  8
0
100
AcDbLine
 62
9
  6
CONTINUOUS
 10
5.1523856672
 20
5.854321179
 11
5.1523856672
 21
5.8714739277
  0
LINE
  5
284
100
AcDbEntity
  8
0
100
AcDbLine
 62
9
  6
CONTINUOUS
 10
5.1523856672
 20
5.8830650377
 11
5.1523856672
 21
5.9004594907
  0
LINE
  5
285
100
AcDbEntity
  8
0
100
AcDbLine
 62
9
  6
CONTINUOUS
 10
5.1523856672
 20
5.9123655718
 11
5.1523856672
 21
5.9298704719
  0
LINE
  5
286
100
AcDbEntity
  8
0
100
AcDbLine
 62
9
  6
CONTINUOUS
 10
5.1523856672
 20
5.9418926835
 11
5.1523856672
 21
5.9595433895
  0
LINE
  5
287
100
AcDbEntity
  8
0
100
AcDbLine
 62
9
  6
CONTINUOUS
 10
5.1523856672
 20
5.9716487796
 11
5.1523856672
 21
5.9893969121
  0
LINE
  5
288
100
AcDbEntity
  8
0
100
AcDbLine
 62
9
  6
CONTINUOUS
 10
5.1523856672
 20
6.0015523007
 11
5.1523856672
 21
6.0194352483
  0
LINE
  5
289
100
AcDbEntity
  8
0
100
AcDbLine
 62
9
  6
CONTINUOUS
 10
5.1523856672
 20
6.0314352483
 11
5.1523856672
 21
6.0493181958
  0
LINE
  5
28A
100
AcDbEntity
  8
0
100
AcDbLine
 62
9
  6
CONTINUOUS
 10
5.1523856672
 20
6.0614735844
 11
5.1523856672
 21
6.0792217169
  0
LINE
  5
28B
100
AcDbEntity
  8
0
100
AcDbLine
 62
9
  6
CONTINUOUS
 10
5.1523856672
 20
6.091327107
 11
5.1523856672
 21
6.108977813
  0
LINE
  5
28C
100
AcDbEntity
  8
0
100
AcDbLine
 62
9
  6
CONTINUOUS
 10
5.1523856672
 20
6.1210000246
 11
5.1523856672
 21
6.1385049248
  0
LINE
  5
28D
100
AcDbEntity
  8
0
100
AcDbLine
 62
9
  6
CONTINUOUS
 10
5.1523856672
 20
6.1504110058
 11
5.1523856672
 21
6.1678054589
  0
LINE
  5
28E
100
AcDbEntity
  8
0
100
AcDbLine
 62
9
  6
CONTINUOUS
 10
5.1523856672
 20
6.1793965688
 11
5.1523856672
 21
6.1965493176
  0
LINE
  5
28F
100
AcDbEntity
  8
0
100
AcDbLine
 62
9
  6
CONTINUOUS
 10
5.1523856672
 20
6.2081256441
 11
5.1523856672
 21
6.224907503
  0
LINE
  5
290
100
AcDbEntity
  8
0
100
AcDbLine
 62
9
  6
CONTINUOUS
 10
5.1523856672
 20
6.2362711093
 11
5.1523856672
 21
6.2527189488
  0
LINE
  5
291
100
AcDbEntity
  8
0
100
AcDbLine
 62
9
  6
CONTINUOUS
 10
5.1523856672
 20
6.2638386881
 11
5.1523856672
 21
6.2799074258
  0
LINE
  5
292
100
AcDbEntity
  8
0
100
AcDbLine
 62
9
  6
CONTINUOUS
 10
5.1523856672
 20
6.2907528196
 11
5.1523856672
 21
6.3064733749
  0
LINE
  5
293
100
AcDbEntity
  8
0
100
AcDbLine
 62
9
  6
CONTINUOUS
 10
5.1523856672
 20
6.3168656797
 11
5.1523856672
 21
6.3321192983
  0
LINE
  5
294
100
AcDbEntity
  8
0
100
AcDbLine
 62
9
  6
CONTINUOUS
 10
5.1523856672
 20
6.3423276551
 11
5.1523856672
 21
6.3569995845
  0
LINE
  5
295
100
AcDbEntity
  8
0
100
AcDbLine
 62
9
  6
CONTINUOUS
 10
5.1523856672
 20
6.366846996
 11
5.1523856672
 21
6.380971076
  0
LINE
  5
296
100
AcDbEntity
  8
0
100
AcDbLine
 62
9
  6
CONTINUOUS
 10
5.1523856672
 20
6.3904305511
 11
5.1523856672
 21
6.4039680685
  0
LINE
  5
297
100
AcDbEntity
  8
0
100
AcDbLine
 62
9
  6
CONTINUOUS
 10
5.1523856672
 20
6.4130136794
 11
5.1523856672
 21
6.425989007
  0
LINE
  5
298
100
AcDbEntity
  8
0
100
AcDbLine
 62
9
  6
CONTINUOUS
 10
5.1523856672
 20
6.4344742884
 11
5.1523856672
 21
6.4467892677
  0
LINE
  5
299
100
AcDbEntity
  8
0
100
AcDbLine
 62
9
  6
CONTINUOUS
 10
5.1523856672
 20
6.4549339723
 11
5.1523856672
 21
6.4664961045
  0
LINE
  5
29A
100
AcDbEntity
  8
0
100
AcDbLine
 62
9
  6
CONTINUOUS
 10
5.1523856672
 20
6.4741562364
 11
5.1523856672
 21
6.4849940241
  0
LINE
  5
29B
100
AcDbEntity
  8
0
100
AcDbLine
 62
9
  6
CONTINUOUS
 10
5.1523856672
 20
6.4921485874
 11
5.1523856672
 21
6.5022323251
  0
LINE
  5
29C
100
AcDbEntity
  8
0
100
AcDbLine
 62
9
  6
CONTINUOUS
 10
5.1523856672
 20
6.5088617096
 11
5.1523856672
 21
6.5182075624
  0
LINE
  5
29D
100
AcDbEntity
  8
0
100
AcDbLine
 62
9
  6
CONTINUOUS
 10
5.1523856672
 20
6.5242075624
 11
5.1523856672
 21
6.5327446571
  0
LINE
  5
29E
100
AcDbEntity
  8
0
100
AcDbLine
 62
9
  6
CONTINUOUS
 10
5.1523856672
 20
6.5382706613
 11
5.1523856672
 21
6.545935056
  0
LINE
  5
29F
100
AcDbEntity
  8
0
100
AcDbLine
 62
9
  6
CONTINUOUS
 10
5.1523856672
 20
6.5508858829
 11
5.1523856672
 21
6.5576988011
  0
LINE
  5
2A0
100
AcDbEntity
  8
0
100
AcDbLine
 62
9
  6
CONTINUOUS
 10
5.1523856672
 20
6.5717650253
 11
5.1523856672
 21
6.576844499
  0
LINE
  5
2A1
100
AcDbEntity
  8
0
100
AcDbLine
 62
9
  6
CONTINUOUS
 10
5.1523856672
 20
6.5620608809
 11
5.1523856672
 21
6.5680036488
  0
LINE
  5
2A2
100
AcDbEntity
  8
0
100
AcDbLine
 62
9
  6
CONTINUOUS
 10
5.1523856672
 20
6.5866584643
 11
5.1523856672
 21
6.5899028058
  0
LINE
  5
2A3
100
AcDbEntity
  8
0
100
AcDbLine
 62
9
  6
CONTINUOUS
 10
5.1523856672
 20
6.5799503275
 11
5.1523856672
 21
6.5841277487
  0
LINE
  5
2A4
100
AcDbEntity
  8
0
100
AcDbLine
 62
9
  6
CONTINUOUS
 10
5.1523856672
 20
6.5957611142
 11
5.1523856672
 21
6.5966718967
  0
LINE
  5
2A5
100
AcDbEntity
  8
0
100
AcDbLine
 62
9
  6
CONTINUOUS
 10
5.1523856672
 20
6.5918069371
 11
5.1523856672
 21
6.5941306966
  0
LINE
  5
2A6
100
AcDbEntity
  8
0
100
AcDbLine
 62
6
  6
CONTINUOUS
 10
5.1723856672
 20
6.5779352483
 11
5.1723856672
 21
5.4729352483
  0
LINE
  5
2A7
100
AcDbEntity
  8
0
100
AcDbLine
 62
7
  6
CONTINUOUS
 10
5.3952037841
 20
2.5504352483
 11
5.3955703405
 21
2.5294352483
  0
LINE
  5
2A8
100
AcDbEntity
  8
0
100
AcDbLine
 62
6
  6
CONTINUOUS
 10
5.4023856672
 20
2.8004352483
 11
5.4023856672
 21
2.6754352483
  0
LINE
  5
2A9
100
AcDbEntity
  8
0
100
AcDbLine
 62
6
  6
CONTINUOUS
 10
5.4123856672
 20
5.3639355229
 11
5.4123856672
 21
5.1754352483
  0
LINE
  5
2AA
100
AcDbEntity
  8
0
100
AcDbLine
 62
9
  6
CONTINUOUS
 10
5.9123856672
 20
5.9026211802
 11
5.9123856672
 21
6.536932804
  0
LINE
  5
2AB
100
AcDbEntity
  8
0
100
AcDbLine
 62
7
  6
CONTINUOUS
 10
7.2596198374
 20
4.0790394101
 11
7.2064190527
 21
4.0799680332
  0
LINE
  5
2AC
100
AcDbEntity
  8
0
100
AcDbLine
 62
9
  6
CONTINUOUS
 10
7.1655393354
 20
4.2407126796
 11
7.2187401194
 21
4.2397840583
  0
LINE
  5
2AD
100
AcDbEntity
  8
0
100
AcDbLine
 62
9
  6
CONTINUOUS
 10
7.1655416618
 20
4.2407059232
 11
7.1277209188
 21
4.227683197
  0
LINE
  5
2AE
100
AcDbEntity
  8
0
100
AcDbLine
 62
9
  6
CONTINUOUS
 10
7.2565631895
 20
4.2528000262
 11
7.2187424464
 21
4.2397773001
  0
LINE
  5
2AF
100
AcDbEntity
  8
0
100
AcDbLine
 62
9
  6
CONTINUOUS
 10
5.446247548
 20
4.5424352483
 11
6.3785237865
 21
4.5424352483
  0
LINE
  5
2B0
100
AcDbEntity
  8
0
100
AcDbLine
 62
6
  6
CONTINUOUS
 10
6.4123856672
 20
5.1754352483
 11
6.4123856672
 21
5.4454637049
  0
LINE
  5
2B1
100
AcDbEntity
  8
0
100
AcDbLine
 62
6
  6
CONTINUOUS
 10
6.4223856672
 20
2.8004352483
 11
6.4223856672
 21
2.6754352483
  0
LINE
  5
2B2
100
AcDbEntity
  8
0
100
AcDbLine
 62
9
  6
CONTINUOUS
 10
6.5398772878
 20
6.0254352479
 11
6.5398497606
 21
6.4563249028
  0
LINE
  5
2B3
100
AcDbEntity
  8
0
100
AcDbLine
 62
7
  6
CONTINUOUS
 10
6.4295675504
 20
2.5504352483
 11
6.429200994
 21
2.5294352483
  0
LINE
  5
2B4
100
AcDbEntity
  8
0
100
AcDbLine
 62
6
  6
CONTINUOUS
 10
4.6570856778
 20
5.5974977416
 11
4.8499536401
 21
5.4769552652
  0
LINE
  5
2B5
100
AcDbEntity
  8
0
100
AcDbLine
 62
7
  6
CONTINUOUS
 10
6.5663074193
 20
6.417783103
 11
6.6085259172
 21
5.8140304534
  0
LINE
  5
2B6
100
AcDbEntity
  8
0
100
AcDbLine
 62
7
  6
CONTINUOUS
 10
6.5662617109
 20
6.4226689049
 11
6.5663055823
 21
6.417809372
  0
LINE
  5
2B7
100
AcDbEntity
  8
0
100
AcDbLine
 62
9
  6
CONTINUOUS
 10
6.5623856672
 20
6.4272963792
 11
6.5623856672
 21
6.0254358181
  0
LINE
  5
2B8
100
AcDbEntity
  8
0
100
AcDbLine
 62
6
  6
CONTINUOUS
 10
6.5623856672
 20
6.0254358181
 11
6.5623856672
 21
5.6234931297
  0
LINE
  5
2B9
100
AcDbEntity
  8
0
100
AcDbLine
 62
9
  6
CONTINUOUS
 10
6.6303663074
 20
6.075121804
 11
6.6484284793
 21
5.8168207123
  0
LINE
  5
2BA
100
AcDbEntity
  8
0
100
AcDbLine
 62
9
  6
CONTINUOUS
 10
6.6850110255
 20
6.0033536186
 11
6.6800531537
 21
6.0742544888
  0
LINE
  5
2BB
100
AcDbEntity
  8
0
100
AcDbLine
 62
7
  6
CONTINUOUS
 10
6.7249135875
 20
6.0061438776
 11
6.6957993876
 21
6.4224963338
  0
LINE
  5
2BC
100
AcDbEntity
  8
0
100
AcDbLine
 62
6
  6
CONTINUOUS
 10
6.4228856672
 20
5.0504352483
 11
5.4018856672
 21
5.0504352483
  0
LINE
  5
2BD
100
AcDbEntity
  8
0
100
AcDbLine
 62
9
  6
CONTINUOUS
 10
6.4228856672
 20
5.1754352483
 11
5.4018856672
 21
5.1754352483
  0
LINE
  5
2BE
100
AcDbEntity
  8
0
100
AcDbLine
 62
7
  6
CONTINUOUS
 10
7.169296406
 20
4.1069392148
 11
6.6475600232
 21
5.6221716929
  0
LWPOLYLINE
  5
2BF
100
AcDbEntity
  8
0
100
AcDbPolyline
 62
7
  6
CONTINUOUS
 90
14
 70
0
 10
6.6957975507
 20
6.4225226028
 10
6.6952028627
 20
6.4271411563
 10
6.6940539842
 20
6.4317277584
 10
6.6923575613
 20
6.4361785942
 10
6.6901644868
 20
6.440362402
 10
6.6875201198
 20
6.4442241457
 10
6.6844216355
 20
6.4477720869
 10
6.6809284603
 20
6.4509304464
 10
6.6771181067
 20
6.4536377291
 10
6.6729838913
 20
6.4558981417
 10
6.6686172604
 20
6.4576551474
 10
6.6641048218
 20
6.4588806982
 10
6.6594256166
 20
6.4595761579
 10
6.6565930902
 20
6.4597261866
  0
LINE
  5
2C0
100
AcDbEntity
  8
0
100
AcDbLine
 62
7
  6
CONTINUOUS
 10
7.0873856672
 20
1.9244352483
 11
7.0873856672
 21
1.8394352483
  0
LWPOLYLINE
  5
2C1
100
AcDbEntity
  8
0
100
AcDbPolyline
 62
6
  6
CONTINUOUS
 90
3
 70
0
 10
6.5257232016
 20
5.5909142587
 10
6.5285820435
 20
5.5916365628
 10
6.539838306
 20
5.5945135919
  0
LINE
  5
2C2
100
AcDbEntity
  8
0
100
AcDbLine
 62
6
  6
CONTINUOUS
 10
4.9123856672
 20
5.4534336269
 11
5.1523856789
 21
5.4534336269
  0
LINE
  5
2C3
100
AcDbEntity
  8
0
100
AcDbLine
 62
6
  6
CONTINUOUS
 10
5.1523866468
 20
5.4540706638
 11
4.9123856672
 21
5.4540706638
  0
LINE
  5
2C4
100
AcDbEntity
  8
0
100
AcDbLine
 62
6
  6
CONTINUOUS
 10
4.9123856672
 20
5.4554674722
 11
5.1523863671
 21
5.4554674722
  0
LINE
  5
2C5
100
AcDbEntity
  8
0
100
AcDbLine
 62
6
  6
CONTINUOUS
 10
5.1523856215
 20
5.4567397999
 11
4.9123856672
 21
5.4567397999
  0
LINE
  5
2C6
100
AcDbEntity
  8
0
100
AcDbLine
 62
6
  6
CONTINUOUS
 10
4.9123856672
 20
5.4590635595
 11
5.1523861874
 21
5.4590635595
  0
LINE
  5
2C7
100
AcDbEntity
  8
0
100
AcDbLine
 62
6
  6
CONTINUOUS
 10
5.1523856194
 20
5.4609676907
 11
4.9123856672
 21
5.4609676907
  0
LINE
  5
2C8
100
AcDbEntity
  8
0
100
AcDbLine
 62
6
  6
CONTINUOUS
 10
4.9123856672
 20
5.4642120322
 11
5.1523857365
 21
5.4642120322
  0
LINE
  5
2C9
100
AcDbEntity
  8
0
100
AcDbLine
 62
6
  6
CONTINUOUS
 10
5.1523859379
 20
5.4667427478
 11
4.9123856672
 21
5.4667427478
  0
LINE
  5
2CA
100
AcDbEntity
  8
0
100
AcDbLine
 62
6
  6
CONTINUOUS
 10
4.9123856672
 20
5.470920169
 11
5.1523856967
 21
5.470920169
  0
LINE
  5
2CB
100
AcDbEntity
  8
0
100
AcDbLine
 62
6
  6
CONTINUOUS
 10
5.1523856875
 20
5.4740259975
 11
4.9123856672
 21
5.4740259975
  0
LINE
  5
2CC
100
AcDbEntity
  8
0
100
AcDbLine
 62
6
  6
CONTINUOUS
 10
4.8552536295
 20
5.4754352483
 11
4.9123856672
 21
5.4754352483
  0
LINE
  5
2CD
100
AcDbEntity
  8
0
100
AcDbLine
 62
6
  6
CONTINUOUS
 10
4.9123856672
 20
5.4791054712
 11
5.1523856789
 21
5.4791054712
  0
LINE
  5
2CE
100
AcDbEntity
  8
0
100
AcDbLine
 62
6
  6
CONTINUOUS
 10
5.1523866469
 20
5.4828668477
 11
4.9123856672
 21
5.4828668477
  0
LINE
  5
2CF
100
AcDbEntity
  8
0
100
AcDbLine
 62
6
  6
CONTINUOUS
 10
4.9123856672
 20
5.4888096156
 11
5.1523863671
 21
5.4888096156
  0
LINE
  5
2D0
100
AcDbEntity
  8
0
100
AcDbLine
 62
6
  6
CONTINUOUS
 10
5.1523856215
 20
5.4931716954
 11
4.9123856672
 21
5.4931716954
  0
LINE
  5
2D1
100
AcDbEntity
  8
0
100
AcDbLine
 62
6
  6
CONTINUOUS
 10
4.9123856672
 20
5.4999846136
 11
5.1523861874
 21
5.4999846136
  0
LINE
  5
2D2
100
AcDbEntity
  8
0
100
AcDbLine
 62
6
  6
CONTINUOUS
 10
5.1523856182
 20
5.5049354405
 11
4.9123856672
 21
5.5049354405
  0
LINE
  5
2D3
100
AcDbEntity
  8
0
100
AcDbLine
 62
9
  6
CONTINUOUS
 10
6.6853807663
 20
5.635194419
 11
7.1655393354
 21
4.2407126796
  0
LINE
  5
2D4
100
AcDbEntity
  8
0
100
AcDbLine
 62
9
  6
CONTINUOUS
 10
7.2187401194
 20
4.2397840583
 11
6.7911837938
 21
5.48149779
  0
LINE
  5
2D5
100
AcDbEntity
  8
0
100
AcDbLine
 62
7
  6
CONTINUOUS
 10
7.2981386767
 20
4.132056044
 11
6.8290045368
 21
5.4945205162
  0
LINE
  5
2D6
100
AcDbEntity
  8
0
100
AcDbLine
 62
7
  6
CONTINUOUS
 10
6.6064854939
 20
5.8432098667
 11
6.5623856672
 21
5.8346377287
  0
LINE
  5
2D7
100
AcDbEntity
  8
0
100
AcDbLine
 62
6
  6
CONTINUOUS
 10
4.9123856672
 20
5.5125998352
 11
5.1523857361
 21
5.5125998352
  0
LINE
  5
2D8
100
AcDbEntity
  8
0
100
AcDbLine
 62
6
  6
CONTINUOUS
 10
5.1723856672
 20
5.5139352483
 11
5.2623856672
 21
5.5139352483
  0
LINE
  5
2D9
100
AcDbEntity
  8
0
100
AcDbLine
 62
6
  6
CONTINUOUS
 10
5.1523859379
 20
5.5181258394
 11
4.9123856672
 21
5.5181258394
  0
LINE
  5
2DA
100
AcDbEntity
  8
0
100
AcDbLine
 62
6
  6
CONTINUOUS
 10
4.9123856672
 20
5.5266629341
 11
5.1523856962
 21
5.5266629341
  0
LINE
  5
2DB
100
AcDbEntity
  8
0
100
AcDbLine
 62
6
  6
CONTINUOUS
 10
5.1523856875
 20
5.5326629341
 11
4.9123856672
 21
5.5326629341
  0
LINE
  5
2DC
100
AcDbEntity
  8
0
100
AcDbLine
 62
6
  6
CONTINUOUS
 10
4.9123856672
 20
5.542008787
 11
5.152385679
 21
5.542008787
  0
LINE
  5
2DD
100
AcDbEntity
  8
0
100
AcDbLine
 62
6
  6
CONTINUOUS
 10
5.152386647
 20
5.5486381714
 11
4.9123856672
 21
5.5486381714
  0
LINE
  5
2DE
100
AcDbEntity
  8
0
100
AcDbLine
 62
6
  6
CONTINUOUS
 10
4.9123856672
 20
5.5587219092
 11
5.1523863671
 21
5.5587219092
  0
LINE
  5
2DF
100
AcDbEntity
  8
0
100
AcDbLine
 62
6
  6
CONTINUOUS
 10
5.1523856215
 20
5.5658764724
 11
4.9123856672
 21
5.5658764724
  0
LINE
  5
2E0
100
AcDbEntity
  8
0
100
AcDbLine
 62
6
  6
CONTINUOUS
 10
4.9123856672
 20
5.5767142602
 11
5.1523861874
 21
5.5767142602
  0
LINE
  5
2E1
100
AcDbEntity
  8
0
100
AcDbLine
 62
6
  6
CONTINUOUS
 10
5.1523856201
 20
5.584374392
 11
4.9123856672
 21
5.584374392
  0
LINE
  5
2E2
100
AcDbEntity
  8
0
100
AcDbLine
 62
6
  6
CONTINUOUS
 10
4.9123856672
 20
5.5959365242
 11
5.1523857368
 21
5.5959365242
  0
LINE
  5
2E3
100
AcDbEntity
  8
0
100
AcDbLine
 62
6
  6
CONTINUOUS
 10
5.1523859379
 20
5.6040812288
 11
4.9123856672
 21
5.6040812288
  0
LINE
  5
2E4
100
AcDbEntity
  8
0
100
AcDbLine
 62
6
  6
CONTINUOUS
 10
4.9123856672
 20
5.6163962081
 11
5.1523856964
 21
5.6163962081
  0
LINE
  5
2E5
100
AcDbEntity
  8
0
100
AcDbLine
 62
6
  6
CONTINUOUS
 10
5.1523856875
 20
5.6248814895
 11
4.9123856672
 21
5.6248814895
  0
LINE
  5
2E6
100
AcDbEntity
  8
0
100
AcDbLine
 62
6
  6
CONTINUOUS
 10
4.9123856672
 20
5.6378568172
 11
5.1523856789
 21
5.6378568172
  0
LINE
  5
2E7
100
AcDbEntity
  8
0
100
AcDbLine
 62
6
  6
CONTINUOUS
 10
5.1523866466
 20
5.646902428
 11
4.9123856672
 21
5.646902428
  0
LINE
  5
2E8
100
AcDbEntity
  8
0
100
AcDbLine
 62
6
  6
CONTINUOUS
 10
4.9123856672
 20
5.6604399454
 11
5.1523863671
 21
5.6604399454
  0
LINE
  5
2E9
100
AcDbEntity
  8
0
100
AcDbLine
 62
6
  6
CONTINUOUS
 10
5.1523856215
 20
5.6698994205
 11
4.9123856672
 21
5.6698994205
  0
LINE
  5
2EA
100
AcDbEntity
  8
0
100
AcDbLine
 62
6
  6
CONTINUOUS
 10
4.9123856672
 20
5.6840235005
 11
5.1523861875
 21
5.6840235005
  0
LINE
  5
2EB
100
AcDbEntity
  8
0
100
AcDbLine
 62
9
  6
CONTINUOUS
 10
6.5623856672
 20
5.8448248957
 11
6.6057826906
 21
5.8532604225
  0
LINE
  5
2EC
100
AcDbEntity
  8
0
100
AcDbLine
 62
9
  6
CONTINUOUS
 10
6.6085259172
 20
5.8140304534
 11
6.6484284793
 21
5.8168207123
  0
LINE
  5
2ED
100
AcDbEntity
  8
0
100
AcDbLine
 62
6
  6
CONTINUOUS
 10
4.9123856672
 20
5.6932104445
 11
5.1678239007
 21
5.6932104445
  0
LINE
  5
2EE
100
AcDbEntity
  8
0
100
AcDbLine
 62
6
  6
CONTINUOUS
 10
5.1523856191
 20
5.693870912
 11
4.9123856672
 21
5.693870912
  0
LINE
  5
2EF
100
AcDbEntity
  8
0
100
AcDbLine
 62
6
  6
CONTINUOUS
 10
4.9123856672
 20
5.7085428414
 11
5.1523857367
 21
5.7085428414
  0
LINE
  5
2F0
100
AcDbEntity
  8
0
100
AcDbLine
 62
6
  6
CONTINUOUS
 10
4.9123856672
 20
5.7175973162
 11
5.1678239007
 21
5.7175973162
  0
LINE
  5
2F1
100
AcDbEntity
  8
0
100
AcDbLine
 62
6
  6
CONTINUOUS
 10
5.152385938
 20
5.7187511983
 11
4.9123856672
 21
5.7187511983
  0
LINE
  5
2F2
100
AcDbEntity
  8
0
100
AcDbLine
 62
6
  6
CONTINUOUS
 10
4.9123856672
 20
5.7340048168
 11
5.1523856903
 21
5.7340048168
  0
LINE
  5
2F3
100
AcDbEntity
  8
0
100
AcDbLine
 62
6
  6
CONTINUOUS
 10
4.9123856672
 20
5.74277623
 11
5.1677381244
 21
5.74277623
  0
LINE
  5
2F4
100
AcDbEntity
  8
0
100
AcDbLine
 62
6
  6
CONTINUOUS
 10
5.1523856826
 20
5.7443971216
 11
4.9123856672
 21
5.7443971216
  0
LINE
  5
2F5
100
AcDbEntity
  8
0
100
AcDbLine
 62
6
  6
CONTINUOUS
 10
4.9123856672
 20
5.7601176769
 11
5.1523856786
 21
5.7601176769
  0
LINE
  5
2F6
100
AcDbEntity
  8
0
100
AcDbLine
 62
6
  6
CONTINUOUS
 10
4.9123856672
 20
5.7688331914
 11
5.1678239007
 21
5.7688331914
  0
LINE
  5
2F7
100
AcDbEntity
  8
0
100
AcDbLine
 62
6
  6
CONTINUOUS
 10
5.1523866466
 20
5.7709630707
 11
4.9123856672
 21
5.7709630707
  0
LINE
  5
2F8
100
AcDbEntity
  8
0
100
AcDbLine
 62
6
  6
CONTINUOUS
 10
4.9123856672
 20
5.7870318084
 11
5.1523863671
 21
5.7870318084
  0
LINE
  5
2F9
100
AcDbEntity
  8
0
100
AcDbLine
 62
6
  6
CONTINUOUS
 10
4.9123856672
 20
5.7955417609
 11
5.1678239007
 21
5.7955417609
  0
LINE
  5
2FA
100
AcDbEntity
  8
0
100
AcDbLine
 62
6
  6
CONTINUOUS
 10
5.1523856215
 20
5.7981515477
 11
4.9123856672
 21
5.7981515477
  0
LINE
  5
2FB
100
AcDbEntity
  8
0
100
AcDbLine
 62
6
  6
CONTINUOUS
 10
4.9123856672
 20
5.8145993872
 11
5.1523861875
 21
5.8145993872
  0
LINE
  5
2FC
100
AcDbEntity
  8
0
100
AcDbLine
 62
6
  6
CONTINUOUS
 10
4.9123856672
 20
5.8228804525
 11
5.1678239007
 21
5.8228804525
  0
LINE
  5
2FD
100
AcDbEntity
  8
0
100
AcDbLine
 62
6
  6
CONTINUOUS
 10
5.1523856188
 20
5.8259629935
 11
4.9123856672
 21
5.8259629935
  0
LINE
  5
2FE
100
AcDbEntity
  8
0
100
AcDbLine
 62
6
  6
CONTINUOUS
 10
4.9123856672
 20
5.8427448525
 11
5.1523857367
 21
5.8427448525
  0
LINE
  5
2FF
100
AcDbEntity
  8
0
100
AcDbLine
 62
6
  6
CONTINUOUS
 10
4.9123856672
 20
5.8507743327
 11
5.1678239007
 21
5.8507743327
  0
LINE
  5
300
100
AcDbEntity
  8
0
100
AcDbLine
 62
6
  6
CONTINUOUS
 10
5.152385939
 20
5.854321179
 11
4.9123856672
 21
5.854321179
  0
LINE
  5
301
100
AcDbEntity
  8
0
100
AcDbLine
 62
6
  6
CONTINUOUS
 10
4.9123856672
 20
5.8714739277
 11
5.1523856957
 21
5.8714739277
  0
LINE
  5
302
100
AcDbEntity
  8
0
100
AcDbLine
 62
9
  6
CONTINUOUS
 10
6.5929565299
 20
6.0366830662
 11
6.5623856672
 21
6.0307406925
  0
LINE
  5
303
100
AcDbEntity
  8
0
100
AcDbLine
 62
9
  6
CONTINUOUS
 10
6.6850110255
 20
6.0033536186
 11
6.7249135875
 21
6.0061438776
  0
LINE
  5
304
100
AcDbEntity
  8
0
100
AcDbLine
 62
9
  6
CONTINUOUS
 10
6.6800528991
 20
6.0742581293
 11
6.7199554611
 21
6.0770483883
  0
LINE
  5
305
100
AcDbEntity
  8
0
100
AcDbLine
 62
9
  6
CONTINUOUS
 10
6.5904634928
 20
6.0723351574
 11
6.6303660548
 21
6.0751254164
  0
LINE
  5
306
100
AcDbEntity
  8
0
100
AcDbLine
 62
6
  6
CONTINUOUS
 10
4.9123856672
 20
5.8791201739
 11
5.1677381244
 21
5.8791201739
  0
LINE
  5
307
100
AcDbEntity
  8
0
100
AcDbLine
 62
6
  6
CONTINUOUS
 10
5.1523856873
 20
5.8830650377
 11
4.9123856672
 21
5.8830650377
  0
LINE
  5
308
100
AcDbEntity
  8
0
100
AcDbLine
 62
6
  6
CONTINUOUS
 10
4.9123856672
 20
5.9004594907
 11
5.1523856788
 21
5.9004594907
  0
LINE
  5
309
100
AcDbEntity
  8
0
100
AcDbLine
 62
6
  6
CONTINUOUS
 10
4.9123856672
 20
5.907920526
 11
5.1678239007
 21
5.907920526
  0
LINE
  5
30A
100
AcDbEntity
  8
0
100
AcDbLine
 62
6
  6
CONTINUOUS
 10
5.1523866468
 20
5.9123655718
 11
4.9123856672
 21
5.9123655718
  0
LINE
  5
30B
100
AcDbEntity
  8
0
100
AcDbLine
 62
6
  6
CONTINUOUS
 10
4.9123856672
 20
5.9298704719
 11
5.152386367
 21
5.9298704719
  0
LINE
  5
30C
100
AcDbEntity
  8
0
100
AcDbLine
 62
6
  6
CONTINUOUS
 10
4.9123856672
 20
5.9370162053
 11
5.1678239007
 21
5.9370162053
  0
LINE
  5
30D
100
AcDbEntity
  8
0
100
AcDbLine
 62
6
  6
CONTINUOUS
 10
5.1523856215
 20
5.9418926835
 11
4.9123856672
 21
5.9418926835
  0
LINE
  5
30E
100
AcDbEntity
  8
0
100
AcDbLine
 62
6
  6
CONTINUOUS
 10
4.9123856672
 20
5.9595433895
 11
5.1523861874
 21
5.9595433895
  0
LINE
  5
30F
100
AcDbEntity
  8
0
100
AcDbLine
 62
6
  6
CONTINUOUS
 10
4.9123856672
 20
5.9663542351
 11
5.1678239007
 21
5.9663542351
  0
LINE
  5
310
100
AcDbEntity
  8
0
100
AcDbLine
 62
6
  6
CONTINUOUS
 10
5.1523856196
 20
5.9716487796
 11
4.9123856672
 21
5.9716487796
  0
LINE
  5
311
100
AcDbEntity
  8
0
100
AcDbLine
 62
6
  6
CONTINUOUS
 10
4.9123856672
 20
5.9893969121
 11
5.1523857359
 21
5.9893969121
  0
LINE
  5
312
100
AcDbEntity
  8
0
100
AcDbLine
 62
6
  6
CONTINUOUS
 10
4.9123856672
 20
5.9958542019
 11
5.1678239007
 21
5.9958542019
  0
LINE
  5
313
100
AcDbEntity
  8
0
100
AcDbLine
 62
6
  6
CONTINUOUS
 10
5.152385938
 20
6.0015523007
 11
4.9123856672
 21
6.0015523007
  0
LINE
  5
314
100
AcDbEntity
  8
0
100
AcDbLine
 62
6
  6
CONTINUOUS
 10
4.9123856672
 20
6.0194352483
 11
5.1523856903
 21
6.0194352483
  0
LINE
  5
315
100
AcDbEntity
  8
0
100
AcDbLine
 62
6
  6
CONTINUOUS
 10
4.9123856672
 20
6.0254352483
 11
5.1677381244
 21
6.0254352483
  0
LINE
  5
316
100
AcDbEntity
  8
0
100
AcDbLine
 62
9
  6
CONTINUOUS
 10
5.9123856672
 20
6.0254352483
 11
6.5623854948
 21
6.0254358181
  0
LINE
  5
317
100
AcDbEntity
  8
0
100
AcDbLine
 62
6
  6
CONTINUOUS
 10
5.1523856806
 20
6.0314352483
 11
4.9123856672
 21
6.0314352483
  0
LINE
  5
318
100
AcDbEntity
  8
0
100
AcDbLine
 62
6
  6
CONTINUOUS
 10
4.9123856672
 20
6.0493181958
 11
5.1523856788
 21
6.0493181958
  0
LINE
  5
319
100
AcDbEntity
  8
0
100
AcDbLine
 62
6
  6
CONTINUOUS
 10
4.9123856672
 20
6.0550162946
 11
5.1678239007
 21
6.0550162946
  0
LINE
  5
31A
100
AcDbEntity
  8
0
100
AcDbLine
 62
7
  6
CONTINUOUS
 10
6.5623856672
 20
6.3694639936
 11
6.5692982426
 21
6.3708076621
  0
LINE
  5
31B
100
AcDbEntity
  8
0
100
AcDbLine
 62
6
  6
CONTINUOUS
 10
5.1523866471
 20
6.0614735844
 11
4.9123856672
 21
6.0614735844
  0
LINE
  5
31C
100
AcDbEntity
  8
0
100
AcDbLine
 62
6
  6
CONTINUOUS
 10
4.9123856672
 20
6.0792217169
 11
5.1523863672
 21
6.0792217169
  0
LINE
  5
31D
100
AcDbEntity
  8
0
100
AcDbLine
 62
6
  6
CONTINUOUS
 10
4.9123856672
 20
6.0845162614
 11
5.1678239007
 21
6.0845162614
  0
LINE
  5
31E
100
AcDbEntity
  8
0
100
AcDbLine
 62
6
  6
CONTINUOUS
 10
5.1523856215
 20
6.091327107
 11
4.9123856672
 21
6.091327107
  0
LINE
  5
31F
100
AcDbEntity
  8
0
100
AcDbLine
 62
6
  6
CONTINUOUS
 10
4.9123856672
 20
6.108977813
 11
5.1523861874
 21
6.108977813
  0
LINE
  5
320
100
AcDbEntity
  8
0
100
AcDbLine
 62
6
  6
CONTINUOUS
 10
4.9123856672
 20
6.1138542912
 11
5.1678239007
 21
6.1138542912
  0
LINE
  5
321
100
AcDbEntity
  8
0
100
AcDbLine
 62
6
  6
CONTINUOUS
 10
5.1523856184
 20
6.1210000246
 11
4.9123856672
 21
6.1210000246
  0
LINE
  5
322
100
AcDbEntity
  8
0
100
AcDbLine
 62
6
  6
CONTINUOUS
 10
4.9123856672
 20
6.1385049248
 11
5.1523857356
 21
6.1385049248
  0
LINE
  5
323
100
AcDbEntity
  8
0
100
AcDbLine
 62
6
  6
CONTINUOUS
 10
4.9123856672
 20
6.1429499706
 11
5.1678239007
 21
6.1429499706
  0
LINE
  5
324
100
AcDbEntity
  8
0
100
AcDbLine
 62
6
  6
CONTINUOUS
 10
5.1523859379
 20
6.1504110058
 11
4.9123856672
 21
6.1504110058
  0
LINE
  5
325
100
AcDbEntity
  8
0
100
AcDbLine
 62
6
  6
CONTINUOUS
 10
4.9123856672
 20
6.1678054589
 11
5.1523856965
 21
6.1678054589
  0
LINE
  5
326
100
AcDbEntity
  8
0
100
AcDbLine
 62
6
  6
CONTINUOUS
 10
4.9123856672
 20
6.1717503227
 11
5.1677381244
 21
6.1717503227
  0
LINE
  5
327
100
AcDbEntity
  8
0
100
AcDbLine
 62
6
  6
CONTINUOUS
 10
5.1523856876
 20
6.1793965688
 11
4.9123856672
 21
6.1793965688
  0
LINE
  5
328
100
AcDbEntity
  8
0
100
AcDbLine
 62
6
  6
CONTINUOUS
 10
4.9123856672
 20
6.1965493176
 11
5.1523856789
 21
6.1965493176
  0
LINE
  5
329
100
AcDbEntity
  8
0
100
AcDbLine
 62
6
  6
CONTINUOUS
 10
4.9123856672
 20
6.2000961638
 11
5.1678239007
 21
6.2000961638
  0
LINE
  5
32A
100
AcDbEntity
  8
0
100
AcDbLine
 62
6
  6
CONTINUOUS
 10
5.1523866473
 20
6.2081256441
 11
4.9123856672
 21
6.2081256441
  0
LINE
  5
32B
100
AcDbEntity
  8
0
100
AcDbLine
 62
6
  6
CONTINUOUS
 10
4.9123856672
 20
6.224907503
 11
5.1523863671
 21
6.224907503
  0
LINE
  5
32C
100
AcDbEntity
  8
0
100
AcDbLine
 62
6
  6
CONTINUOUS
 10
4.9123856672
 20
6.227990044
 11
5.1678239007
 21
6.227990044
  0
LINE
  5
32D
100
AcDbEntity
  8
0
100
AcDbLine
 62
6
  6
CONTINUOUS
 10
5.1523856215
 20
6.2362711093
 11
4.9123856672
 21
6.2362711093
  0
LINE
  5
32E
100
AcDbEntity
  8
0
100
AcDbLine
 62
9
  6
CONTINUOUS
 10
6.6800531537
 20
6.0742544888
 11
6.6303663074
 21
6.075121804
  0
LINE
  5
32F
100
AcDbEntity
  8
0
100
AcDbLine
 62
6
  6
CONTINUOUS
 10
4.9123856672
 20
6.2527189488
 11
5.1523861875
 21
6.2527189488
  0
LINE
  5
330
100
AcDbEntity
  8
0
100
AcDbLine
 62
6
  6
CONTINUOUS
 10
4.9123856672
 20
6.2553287356
 11
5.1678239007
 21
6.2553287356
  0
LINE
  5
331
100
AcDbEntity
  8
0
100
AcDbLine
 62
6
  6
CONTINUOUS
 10
5.1523856163
 20
6.2638386881
 11
4.9123856672
 21
6.2638386881
  0
LINE
  5
332
100
AcDbEntity
  8
0
100
AcDbLine
 62
6
  6
CONTINUOUS
 10
4.9123856672
 20
6.2799074258
 11
5.1523857353
 21
6.2799074258
  0
LINE
  5
333
100
AcDbEntity
  8
0
100
AcDbLine
 62
6
  6
CONTINUOUS
 10
4.9123856672
 20
6.2820373051
 11
5.1678239007
 21
6.2820373051
  0
LINE
  5
334
100
AcDbEntity
  8
0
100
AcDbLine
 62
6
  6
CONTINUOUS
 10
5.1523859379
 20
6.2907528196
 11
4.9123856672
 21
6.2907528196
  0
LINE
  5
335
100
AcDbEntity
  8
0
100
AcDbLine
 62
6
  6
CONTINUOUS
 10
4.9123856672
 20
6.3064733749
 11
5.1523856907
 21
6.3064733749
  0
LINE
  5
336
100
AcDbEntity
  8
0
100
AcDbLine
 62
6
  6
CONTINUOUS
 10
4.9123856672
 20
6.3080942665
 11
5.1677381244
 21
6.3080942665
  0
LINE
  5
337
100
AcDbEntity
  8
0
100
AcDbLine
 62
6
  6
CONTINUOUS
 10
5.1523856873
 20
6.3168656797
 11
4.9123856672
 21
6.3168656797
  0
LINE
  5
338
100
AcDbEntity
  8
0
100
AcDbLine
 62
6
  6
CONTINUOUS
 10
4.9123856672
 20
6.3321192983
 11
5.1523856786
 21
6.3321192983
  0
LINE
  5
339
100
AcDbEntity
  8
0
100
AcDbLine
 62
6
  6
CONTINUOUS
 10
4.9123856672
 20
6.3332731803
 11
5.1678239007
 21
6.3332731803
  0
LINE
  5
33A
100
AcDbEntity
  8
0
100
AcDbLine
 62
6
  6
CONTINUOUS
 10
5.1523866467
 20
6.3423276551
 11
4.9123856672
 21
6.3423276551
  0
LINE
  5
33B
100
AcDbEntity
  8
0
100
AcDbLine
 62
6
  6
CONTINUOUS
 10
4.9123856672
 20
6.3569995845
 11
5.1523863672
 21
6.3569995845
  0
LINE
  5
33C
100
AcDbEntity
  8
0
100
AcDbLine
 62
6
  6
CONTINUOUS
 10
4.9123856672
 20
6.3576600521
 11
5.1678239007
 21
6.3576600521
  0
LINE
  5
33D
100
AcDbEntity
  8
0
100
AcDbLine
 62
6
  6
CONTINUOUS
 10
5.1523856215
 20
6.366846996
 11
4.9123856672
 21
6.366846996
  0
LINE
  5
33E
100
AcDbEntity
  8
0
100
AcDbLine
 62
6
  6
CONTINUOUS
 10
4.9123856672
 20
6.380971076
 11
5.1523861874
 21
6.380971076
  0
LINE
  5
33F
100
AcDbEntity
  8
0
100
AcDbLine
 62
6
  6
CONTINUOUS
 10
5.1523856192
 20
6.3904305511
 11
4.9123856672
 21
6.3904305511
  0
LINE
  5
340
100
AcDbEntity
  8
0
100
AcDbLine
 62
6
  6
CONTINUOUS
 10
4.9123856672
 20
6.4039680685
 11
5.1523857369
 21
6.4039680685
  0
LINE
  5
341
100
AcDbEntity
  8
0
100
AcDbLine
 62
6
  6
CONTINUOUS
 10
5.152385938
 20
6.4130136794
 11
4.9123856672
 21
6.4130136794
  0
LWPOLYLINE
  5
342
100
AcDbEntity
  8
0
100
AcDbPolyline
 62
7
  6
CONTINUOUS
 90
14
 70
0
 10
6.6069062459
 20
6.4605934736
 10
6.604793853
 20
6.4605745551
 10
6.5998156511
 20
6.4600854617
 10
6.5949851083
 20
6.4589928384
 10
6.590380316
 20
6.4573348315
 10
6.5859783829
 20
6.4551069076
 10
6.5818749777
 20
6.4523469575
 10
6.5781716214
 20
6.4491294318
 10
6.5748662986
 20
6.4454529073
 10
6.5720413996
 20
6.4413994076
 10
6.5697531243
 20
6.437062596
 10
6.5679988636
 20
6.4324338671
 10
6.5668225497
 20
6.4275834549
 10
6.5662617109
 20
6.4226689049
  0
LINE
  5
343
100
AcDbEntity
  8
0
100
AcDbLine
 62
6
  6
CONTINUOUS
 10
4.9123856672
 20
6.425989007
 11
5.1523856966
 21
6.425989007
  0
LINE
  5
344
100
AcDbEntity
  8
0
100
AcDbLine
 62
6
  6
CONTINUOUS
 10
5.1523856875
 20
6.4344742884
 11
4.9123856672
 21
6.4344742884
  0
LINE
  5
345
100
AcDbEntity
  8
0
100
AcDbLine
 62
6
  6
CONTINUOUS
 10
4.9123856672
 20
6.4467892677
 11
5.1523856787
 21
6.4467892677
  0
LINE
  5
346
100
AcDbEntity
  8
0
100
AcDbLine
 62
6
  6
CONTINUOUS
 10
5.1523866468
 20
6.4549339723
 11
4.9123856672
 21
6.4549339723
  0
LINE
  5
347
100
AcDbEntity
  8
0
100
AcDbLine
 62
6
  6
CONTINUOUS
 10
4.9123856672
 20
6.4664961045
 11
5.152386367
 21
6.4664961045
  0
LINE
  5
348
100
AcDbEntity
  8
0
100
AcDbLine
 62
6
  6
CONTINUOUS
 10
5.1523856214
 20
6.4741562364
 11
4.9123856672
 21
6.4741562364
  0
LINE
  5
349
100
AcDbEntity
  8
0
100
AcDbLine
 62
6
  6
CONTINUOUS
 10
4.9123856672
 20
6.4849940241
 11
5.1523861874
 21
6.4849940241
  0
LINE
  5
34A
100
AcDbEntity
  8
0
100
AcDbLine
 62
6
  6
CONTINUOUS
 10
5.1523856168
 20
6.4921485874
 11
4.9123856672
 21
6.4921485874
  0
LINE
  5
34B
100
AcDbEntity
  8
0
100
AcDbLine
 62
6
  6
CONTINUOUS
 10
4.9123856672
 20
6.5022323251
 11
5.1523857367
 21
6.5022323251
  0
LINE
  5
34C
100
AcDbEntity
  8
0
100
AcDbLine
 62
6
  6
CONTINUOUS
 10
5.152385938
 20
6.5088617096
 11
4.9123856672
 21
6.5088617096
  0
LINE
  5
34D
100
AcDbEntity
  8
0
100
AcDbLine
 62
6
  6
CONTINUOUS
 10
4.9123856672
 20
6.5182075624
 11
5.1523856926
 21
6.5182075624
  0
LINE
  5
34E
100
AcDbEntity
  8
0
100
AcDbLine
 62
6
  6
CONTINUOUS
 10
5.1523856794
 20
6.5242075624
 11
4.9123856672
 21
6.5242075624
  0
LINE
  5
34F
100
AcDbEntity
  8
0
100
AcDbLine
 62
6
  6
CONTINUOUS
 10
4.9123856672
 20
6.5327446571
 11
5.152385679
 21
6.5327446571
  0
LINE
  5
350
100
AcDbEntity
  8
0
100
AcDbLine
 62
6
  6
CONTINUOUS
 10
5.1723856672
 20
6.5369328096
 11
5.9123856672
 21
6.5369328096
  0
LINE
  5
351
100
AcDbEntity
  8
0
100
AcDbLine
 62
6
  6
CONTINUOUS
 10
5.1523866467
 20
6.5382706613
 11
4.9123856672
 21
6.5382706613
  0
LINE
  5
352
100
AcDbEntity
  8
0
100
AcDbLine
 62
6
  6
CONTINUOUS
 10
4.9123856672
 20
6.545935056
 11
5.152386367
 21
6.545935056
  0
LINE
  5
353
100
AcDbEntity
  8
0
100
AcDbLine
 62
6
  6
CONTINUOUS
 10
5.1523856214
 20
6.5508858829
 11
4.9123856672
 21
6.5508858829
  0
LINE
  5
354
100
AcDbEntity
  8
0
100
AcDbLine
 62
6
  6
CONTINUOUS
 10
4.9123856672
 20
6.5576988011
 11
5.1523861874
 21
6.5576988011
  0
LINE
  5
355
100
AcDbEntity
  8
0
100
AcDbLine
 62
6
  6
CONTINUOUS
 10
5.1523856186
 20
6.5620608809
 11
4.9123856672
 21
6.5620608809
  0
LINE
  5
356
100
AcDbEntity
  8
0
100
AcDbLine
 62
6
  6
CONTINUOUS
 10
4.9123856672
 20
6.5680036488
 11
5.152385737
 21
6.5680036488
  0
LINE
  5
357
100
AcDbEntity
  8
0
100
AcDbLine
 62
6
  6
CONTINUOUS
 10
5.152385938
 20
6.5717650253
 11
4.9123856672
 21
6.5717650253
  0
LINE
  5
358
100
AcDbEntity
  8
0
100
AcDbLine
 62
6
  6
CONTINUOUS
 10
4.9123856672
 20
6.5754352483
 11
4.8552536295
 21
6.5754352483
  0
LINE
  5
359
100
AcDbEntity
  8
0
100
AcDbLine
 62
6
  6
CONTINUOUS
 10
4.9123856672
 20
6.576844499
 11
5.1523856959
 21
6.576844499
  0
LINE
  5
35A
100
AcDbEntity
  8
0
100
AcDbLine
 62
6
  6
CONTINUOUS
 10
5.1523856873
 20
6.5799503275
 11
4.9123856672
 21
6.5799503275
  0
LINE
  5
35B
100
AcDbEntity
  8
0
100
AcDbLine
 62
6
  6
CONTINUOUS
 10
4.9123856672
 20
6.5841277487
 11
5.1523856788
 21
6.5841277487
  0
LINE
  5
35C
100
AcDbEntity
  8
0
100
AcDbLine
 62
6
  6
CONTINUOUS
 10
5.1523866461
 20
6.5866584643
 11
4.9123856672
 21
6.5866584643
  0
LINE
  5
35D
100
AcDbEntity
  8
0
100
AcDbLine
 62
6
  6
CONTINUOUS
 10
4.9123856672
 20
6.5899028058
 11
5.1523863671
 21
6.5899028058
  0
LINE
  5
35E
100
AcDbEntity
  8
0
100
AcDbLine
 62
6
  6
CONTINUOUS
 10
5.1523856215
 20
6.5918069371
 11
4.9123856672
 21
6.5918069371
  0
LINE
  5
35F
100
AcDbEntity
  8
0
100
AcDbLine
 62
6
  6
CONTINUOUS
 10
4.9123856672
 20
6.5941306966
 11
5.1523861875
 21
6.5941306966
  0
LINE
  5
360
100
AcDbEntity
  8
0
100
AcDbLine
 62
6
  6
CONTINUOUS
 10
5.1523856195
 20
6.5954030244
 11
4.9123856672
 21
6.5954030244
  0
LINE
  5
361
100
AcDbEntity
  8
0
100
AcDbLine
 62
6
  6
CONTINUOUS
 10
4.9123856672
 20
6.5967998327
 11
5.1523857363
 21
6.5967998327
  0
LINE
  5
362
100
AcDbEntity
  8
0
100
AcDbLine
 62
6
  6
CONTINUOUS
 10
5.1523859379
 20
6.5974368696
 11
4.9123856672
 21
6.5974368696
  0
LINE
  5
363
100
AcDbEntity
  8
0
100
AcDbLine
 62
7
  6
CONTINUOUS
 10
6.6069062974
 20
6.4605935543
 11
6.6565931405
 21
6.4597262672
  0
LINE
  5
364
100
AcDbEntity
  8
0
100
AcDbLine
 62
7
  6
CONTINUOUS
 10
7.0873856672
 20
1.8394352483
 11
7.0673856672
 21
1.8194352483
  0
ARC
  5
365
100
AcDbEntity
  8
0
100
AcDbCircle
 62
9
  6
CONTINUOUS
 10
-2.5749666595
 20
6.0389863189
 40
9.1148654275
100
AcDbArc
 50
358.0173768555
 51
359.9148182416
  0
ARC
  5
366
100
AcDbEntity
  8
0
100
AcDbCircle
 62
7
  6
CONTINUOUS
 10
4.7925857473
 20
2.2044352483
 40
0.25
100
AcDbArc
 50
270.0
 51
357.7075572241
  0
ARC
  5
367
100
AcDbEntity
  8
0
100
AcDbCircle
 62
7
  6
CONTINUOUS
 10
4.7673856672
 20
1.9244352483
 40
0.03
100
AcDbArc
 50
90.0
 51
180.0
  0
ARC
  5
368
100
AcDbEntity
  8
0
100
AcDbCircle
 62
6
  6
CONTINUOUS
 10
3.4063856672
 20
3.8444352483
 40
3.053
100
AcDbArc
 50
346.7644365334
 51
13.2162850744
  0
ARC
  5
369
100
AcDbEntity
  8
0
100
AcDbCircle
 62
7
  6
CONTINUOUS
 10
5.4614545661
 20
2.1682026758
 40
0.37
100
AcDbArc
 50
102.4978177688
 51
175.9343845019
  0
ARC
  5
36A
100
AcDbEntity
  8
0
100
AcDbCircle
 62
7
  6
CONTINUOUS
 10
6.3633167683
 20
2.1682026758
 40
0.37
100
AcDbArc
 50
4.0656154981
 51
77.5021822312
  0
ARC
  5
36B
100
AcDbEntity
  8
0
100
AcDbCircle
 62
6
  6
CONTINUOUS
 10
5.4023856672
 20
2.8634352483
 40
0.063
100
AcDbArc
 50
100.2221793906
 51
270.0
  0
ARC
  5
36C
100
AcDbEntity
  8
0
100
AcDbCircle
 62
6
  6
CONTINUOUS
 10
5.4023856672
 20
2.6124352483
 40
0.063
100
AcDbArc
 50
90.0
 51
259.7778206094
  0
ARC
  5
36D
100
AcDbEntity
  8
0
100
AcDbCircle
 62
6
  6
CONTINUOUS
 10
5.0405593534
 20
3.0499609607
 40
0.417
100
AcDbArc
 50
342.6250952378
 51
13.2355634666
  0
ARC
  5
36E
100
AcDbEntity
  8
0
100
AcDbCircle
 62
6
  6
CONTINUOUS
 10
4.5905287773
 20
4.7433988906
 40
0.879
100
AcDbArc
 50
346.7837149256
 51
20.4446212878
  0
ARC
  5
36F
100
AcDbEntity
  8
0
100
AcDbCircle
 62
6
  6
CONTINUOUS
 10
4.8552536295
 20
5.4854352483
 40
0.01
100
AcDbArc
 50
237.9946167912
 51
270.0
  0
ARC
  5
370
100
AcDbEntity
  8
0
100
AcDbCircle
 62
6
  6
CONTINUOUS
 10
4.6623856672
 20
5.6059777247
 40
0.01
100
AcDbArc
 50
180.0
 51
237.9946167892
  0
ARC
  5
371
100
AcDbEntity
  8
0
100
AcDbCircle
 62
7
  6
CONTINUOUS
 10
4.6673856672
 20
5.7405960306
 40
0.03
100
AcDbArc
 50
180.0
 51
239.9756735709
  0
ARC
  5
372
100
AcDbEntity
  8
0
100
AcDbCircle
 62
7
  6
CONTINUOUS
 10
4.6673856672
 20
6.310274466
 40
0.03
100
AcDbArc
 50
120.0243264291
 51
180.0
  0
ARC
  5
373
100
AcDbEntity
  8
0
100
AcDbCircle
 62
6
  6
CONTINUOUS
 10
4.6623856672
 20
6.4448927718
 40
0.01
100
AcDbArc
 50
122.0053832101
 51
180.0
  0
ARC
  5
374
100
AcDbEntity
  8
0
100
AcDbCircle
 62
6
  6
CONTINUOUS
 10
4.8552536295
 20
6.5654352483
 40
0.01
100
AcDbArc
 50
90.0
 51
122.0053832089
  0
ARC
  5
375
100
AcDbEntity
  8
0
100
AcDbCircle
 62
6
  6
CONTINUOUS
 10
5.2623882679
 20
5.3639377976
 40
0.1499959358
100
AcDbArc
 50
359.9991310872
 51
90.0010476356
  0
ARC
  5
376
100
AcDbEntity
  8
0
100
AcDbCircle
 62
6
  6
CONTINUOUS
 10
5.4018856672
 20
5.1129352483
 40
0.0625
100
AcDbArc
 50
90.0
 51
270.0
  0
ARC
  5
377
100
AcDbEntity
  8
0
100
AcDbCircle
 62
6
  6
CONTINUOUS
 10
5.1523783671
 20
5.4842411271
 40
0.0232734375
100
AcDbArc
 50
270.0178540992
 51
274.6677823968
  0
ARC
  5
378
100
AcDbEntity
  8
0
100
AcDbCircle
 62
6
  6
CONTINUOUS
 10
5.1489098626
 20
5.5007374622
 40
0.0228680252
100
AcDbArc
 50
320.0535656946
 51
325.8015098544
  0
ARC
  5
379
100
AcDbEntity
  8
0
100
AcDbCircle
 62
6
  6
CONTINUOUS
 10
5.1494667946
 20
5.4922612059
 40
0.0223554931
100
AcDbArc
 50
319.2531228378
 51
324.8162436529
  0
ARC
  5
37A
100
AcDbEntity
  8
0
100
AcDbCircle
 62
6
  6
CONTINUOUS
 10
5.1523781322
 20
5.4787298895
 40
0.0219900909
100
AcDbArc
 50
270.0195135641
 51
274.9414710679
  0
ARC
  5
37B
100
AcDbEntity
  8
0
100
AcDbCircle
 62
6
  6
CONTINUOUS
 10
5.1499701962
 20
5.485317361
 40
0.0219362789
100
AcDbArc
 50
318.6659189744
 51
324.477694398
  0
ARC
  5
37C
100
AcDbEntity
  8
0
100
AcDbCircle
 62
6
  6
CONTINUOUS
 10
5.1505641681
 20
5.4798743317
 40
0.0214256883
100
AcDbArc
 50
317.8203267252
 51
323.6646214111
  0
ARC
  5
37D
100
AcDbEntity
  8
0
100
AcDbCircle
 62
6
  6
CONTINUOUS
 10
5.1511922493
 20
5.4759683836
 40
0.0208966605
100
AcDbArc
 50
316.8651755408
 51
322.7403426952
  0
ARC
  5
37E
100
AcDbEntity
  8
0
100
AcDbCircle
 62
6
  6
CONTINUOUS
 10
5.1523788877
 20
5.4749567513
 40
0.0208860889
100
AcDbArc
 50
270.02128516
 51
275.2028469728
  0
ARC
  5
37F
100
AcDbEntity
  8
0
100
AcDbCircle
 62
6
  6
CONTINUOUS
 10
5.1518476486
 20
5.4736145614
 40
0.020358964
100
AcDbArc
 50
315.7931985392
 51
321.6955421613
  0
ARC
  5
380
100
AcDbEntity
  8
0
100
AcDbCircle
 62
6
  6
CONTINUOUS
 10
5.1523856672
 20
5.4729352483
 40
0.02
100
AcDbArc
 50
320.1409006518
 51
360.0
  0
ARC
  5
381
100
AcDbEntity
  8
0
100
AcDbCircle
 62
6
  6
CONTINUOUS
 10
5.1523293648
 20
5.4731265907
 40
0.0196950673
100
AcDbArc
 50
275.6697186053
 51
286.6810540602
  0
ARC
  5
382
100
AcDbEntity
  8
0
100
AcDbCircle
 62
6
  6
CONTINUOUS
 10
5.1530284632
 20
5.4738015875
 40
0.0195693557
100
AcDbArc
 50
307.5109545613
 51
313.2646687968
  0
ARC
  5
383
100
AcDbEntity
  8
0
100
AcDbCircle
 62
6
  6
CONTINUOUS
 10
5.1532616787
 20
5.4735599516
 40
0.0192335592
100
AcDbArc
 50
313.2521077403
 51
319.2114572543
  0
ARC
  5
384
100
AcDbEntity
  8
0
100
AcDbCircle
 62
6
  6
CONTINUOUS
 10
5.1523774478
 20
5.4725853638
 40
0.0191517387
100
AcDbArc
 50
270.0246248152
 51
275.6865381432
  0
ARC
  5
385
100
AcDbEntity
  8
0
100
AcDbCircle
 62
6
  6
CONTINUOUS
 10
5.1523216602
 20
5.4745093292
 40
0.0190445111
100
AcDbArc
 50
275.8885143896
 51
287.2927185504
  0
ARC
  5
386
100
AcDbEntity
  8
0
100
AcDbCircle
 62
6
  6
CONTINUOUS
 10
5.1539874328
 20
5.4758878408
 40
0.0186942494
100
AcDbArc
 50
311.7709978807
 51
317.7438266262
  0
ARC
  5
387
100
AcDbEntity
  8
0
100
AcDbCircle
 62
6
  6
CONTINUOUS
 10
5.1523778887
 20
5.4739188016
 40
0.0184513314
100
AcDbArc
 50
270.0263272906
 51
275.9029605945
  0
ARC
  5
388
100
AcDbEntity
  8
0
100
AcDbCircle
 62
6
  6
CONTINUOUS
 10
5.1547103364
 20
5.4797963834
 40
0.0181976452
100
AcDbArc
 50
310.1363615175
 51
316.105588968
  0
ARC
  5
389
100
AcDbEntity
  8
0
100
AcDbCircle
 62
6
  6
CONTINUOUS
 10
5.1554226168
 20
5.4852886946
 40
0.0177625308
100
AcDbArc
 50
308.3379907887
 51
314.2804468631
  0
ARC
  5
38A
100
AcDbEntity
  8
0
100
AcDbCircle
 62
6
  6
CONTINUOUS
 10
5.156054443
 20
5.4924191898
 40
0.0175079984
100
AcDbArc
 50
306.0442697705
 51
311.8616280747
  0
ARC
  5
38B
100
AcDbEntity
  8
0
100
AcDbCircle
 62
6
  6
CONTINUOUS
 10
5.1523790607
 20
6.5666382437
 40
0.0232645633
100
AcDbArc
 50
85.3242853848
 51
89.9820059249
  0
ARC
  5
38C
100
AcDbEntity
  8
0
100
AcDbCircle
 62
6
  6
CONTINUOUS
 10
5.1487583938
 20
6.5500185584
 40
0.0230576488
100
AcDbArc
 50
34.222215184
 51
39.9260143988
  0
ARC
  5
38D
100
AcDbEntity
  8
0
100
AcDbCircle
 62
6
  6
CONTINUOUS
 10
5.1493336435
 20
6.5585066124
 40
0.022523483
100
AcDbArc
 50
35.2020669224
 51
40.7218794558
  0
ARC
  5
38E
100
AcDbEntity
  8
0
100
AcDbCircle
 62
6
  6
CONTINUOUS
 10
5.1523543399
 20
6.571765087
 40
0.0223662855
100
AcDbArc
 50
75.4251087759
 51
85.0727507924
  0
ARC
  5
38F
100
AcDbEntity
  8
0
100
AcDbCircle
 62
6
  6
CONTINUOUS
 10
5.1498684838
 20
6.5654724199
 40
0.0220659599
100
AcDbArc
 50
35.5394344531
 51
41.3202428248
  0
ARC
  5
390
100
AcDbEntity
  8
0
100
AcDbCircle
 62
6
  6
CONTINUOUS
 10
5.1523786487
 20
6.5721470809
 40
0.021983617
100
AcDbArc
 50
85.0503608197
 51
89.9803516667
  0
ARC
  5
391
100
AcDbEntity
  8
0
100
AcDbCircle
 62
6
  6
CONTINUOUS
 10
5.1504907526
 20
6.570936118
 40
0.021520408
100
AcDbArc
 50
36.348349726
 51
42.17013986
  0
ARC
  5
392
100
AcDbEntity
  8
0
100
AcDbCircle
 62
6
  6
CONTINUOUS
 10
5.1523458363
 20
6.5754674773
 40
0.0213334674
100
AcDbArc
 50
74.6789821535
 51
84.8113144422
  0
ARC
  5
393
100
AcDbEntity
  8
0
100
AcDbCircle
 62
6
  6
CONTINUOUS
 10
5.1511484285
 20
6.5748650359
 40
0.0209539852
100
AcDbArc
 50
37.2678037423
 51
43.1301525937
  0
ARC
  5
394
100
AcDbEntity
  8
0
100
AcDbCircle
 62
6
  6
CONTINUOUS
 10
5.1523779729
 20
6.5759053542
 40
0.0208944799
100
AcDbArc
 50
84.7904880703
 51
89.9787114153
  0
ARC
  5
395
100
AcDbEntity
  8
0
100
AcDbCircle
 62
6
  6
CONTINUOUS
 10
5.1518344888
 20
6.5772443666
 40
0.0203764616
100
AcDbArc
 50
38.3070479436
 51
44.2076176912
  0
ARC
  5
396
100
AcDbEntity
  8
0
100
AcDbCircle
 62
6
  6
CONTINUOUS
 10
5.1523856672
 20
6.5779352483
 40
0.02
100
AcDbArc
 50
0.0
 51
37.7167383721
  0
ARC
  5
397
100
AcDbEntity
  8
0
100
AcDbCircle
 62
6
  6
CONTINUOUS
 10
5.1532107925
 20
6.57726181
 40
0.0193039238
100
AcDbArc
 50
40.7993943832
 51
46.7336644211
  0
ARC
  5
398
100
AcDbEntity
  8
0
100
AcDbCircle
 62
6
  6
CONTINUOUS
 10
5.1523777336
 20
6.5782870017
 40
0.0191498697
100
AcDbArc
 50
84.321658822
 51
89.9754530245
  0
ARC
  5
399
100
AcDbEntity
  8
0
100
AcDbCircle
 62
6
  6
CONTINUOUS
 10
5.1539036661
 20
6.5748982153
 40
0.0188130316
100
AcDbArc
 50
42.2749628632
 51
48.2067045489
  0
ARC
  5
39A
100
AcDbEntity
  8
0
100
AcDbCircle
 62
6
  6
CONTINUOUS
 10
5.1523772007
 20
6.576944795
 40
0.0184582313
100
AcDbArc
 50
84.1070342512
 51
89.9738673624
  0
ARC
  5
39B
100
AcDbEntity
  8
0
100
AcDbCircle
 62
6
  6
CONTINUOUS
 10
5.1545940504
 20
6.5709499797
 40
0.0183675108
100
AcDbArc
 50
43.9219495338
 51
49.8325833359
  0
ARC
  5
39C
100
AcDbEntity
  8
0
100
AcDbCircle
 62
6
  6
CONTINUOUS
 10
5.1552744459
 20
6.5654132165
 40
0.0179866787
100
AcDbArc
 50
45.7565725192
 51
51.6215824221
  0
ARC
  5
39D
100
AcDbEntity
  8
0
100
AcDbCircle
 62
6
  6
CONTINUOUS
 10
5.1558838482
 20
6.5582390666
 40
0.0177799157
100
AcDbArc
 50
48.1853660281
 51
53.9088546918
  0
ARC
  5
39E
100
AcDbEntity
  8
0
100
AcDbCircle
 62
9
  6
CONTINUOUS
 10
15.3810598939
 20
-7.6363004445
 40
16.5921032517
100
AcDbArc
 50
126.4996802695
 51
126.685892368
  0
ARC
  5
39F
100
AcDbEntity
  8
0
100
AcDbCircle
 62
6
  6
CONTINUOUS
 10
6.7842119811
 20
3.0499609607
 40
0.417
100
AcDbArc
 50
166.7644365334
 51
197.3749047622
  0
ARC
  5
3A0
100
AcDbEntity
  8
0
100
AcDbCircle
 62
7
  6
CONTINUOUS
 10
7.0321855872
 20
2.2044352483
 40
0.25
100
AcDbArc
 50
182.2924427759
 51
270.0
  0
ARC
  5
3A1
100
AcDbEntity
  8
0
100
AcDbCircle
 62
6
  6
CONTINUOUS
 10
6.4223856672
 20
2.8634352483
 40
0.063
100
AcDbArc
 50
270.0
 51
79.7778206094
  0
ARC
  5
3A2
100
AcDbEntity
  8
0
100
AcDbCircle
 62
6
  6
CONTINUOUS
 10
6.4223856672
 20
2.6124352483
 40
0.063
100
AcDbArc
 50
280.2221793906
 51
90.0
  0
ARC
  5
3A3
100
AcDbEntity
  8
0
100
AcDbCircle
 62
7
  6
CONTINUOUS
 10
7.2603179336
 20
4.1190333179
 40
0.04
100
AcDbArc
 50
269.0000000007
 51
19.0000000007
  0
ARC
  5
3A4
100
AcDbEntity
  8
0
100
AcDbCircle
 62
7
  6
CONTINUOUS
 10
7.207117149
 20
4.119961941
 40
0.04
100
AcDbArc
 50
198.9999999993
 51
268.9999999993
  0
ARC
  5
3A5
100
AcDbEntity
  8
0
100
AcDbCircle
 62
7
  6
CONTINUOUS
 10
7.0573856672
 20
1.9244352483
 40
0.03
100
AcDbArc
 50
0.0
 51
90.0
  0
ARC
  5
3A6
100
AcDbEntity
  8
0
100
AcDbCircle
 62
6
  6
CONTINUOUS
 10
6.5623840083
 20
5.4454644163
 40
0.149997417
100
AcDbArc
 50
104.1468015915
 51
180.0002400909
  0
ARC
  5
3A7
100
AcDbEntity
  8
0
100
AcDbCircle
 62
6
  6
CONTINUOUS
 10
6.4228856672
 20
5.1129352483
 40
0.0625
100
AcDbArc
 50
270.0
 51
90.0
  0
ARC
  5
3A8
100
AcDbEntity
  8
0
100
AcDbCircle
 62
9
  6
CONTINUOUS
 10
6.5993706654
 20
6.5041269025
 40
0.9045023861
100
AcDbArc
 50
261.6136225198
 51
265.6484108169
  0
ARC
  5
3A9
100
AcDbEntity
  8
0
100
AcDbCircle
 62
6
  6
CONTINUOUS
 10
6.5323858586
 20
6.4272682397
 40
0.0299999917
100
AcDbArc
 50
359.9856557959
 51
75.5936756179
  0
ARC
  5
3AA
100
AcDbEntity
  8
0
100
AcDbCircle
 62
9
  6
CONTINUOUS
 10
6.5324138194
 20
5.6321638613
 40
0.0299739045
100
AcDbArc
 50
266.8002417731
 51
359.9280625626
  0
ARC
  5
3AB
100
AcDbEntity
  8
0
100
AcDbCircle
 62
6
  6
CONTINUOUS
 10
7.2342425572
 20
4.7433988906
 40
0.879
100
AcDbArc
 50
159.5553787122
 51
193.2162850744
  0
ARC
  5
3AC
100
AcDbEntity
  8
0
100
AcDbCircle
 62
7
  6
CONTINUOUS
 10
7.3566989549
 20
5.8663478087
 40
0.75
100
AcDbArc
 50
184.0
 51
199.0
  0
ARC
  5
3AD
100
AcDbEntity
  8
0
100
AcDbCircle
 62
9
  6
CONTINUOUS
 10
7.3566989549
 20
5.8663478087
 40
0.71
100
AcDbArc
 50
184.0
 51
199.0
  0
ARC
  5
3AE
100
AcDbEntity
  8
0
100
AcDbCircle
 62
6
  6
CONTINUOUS
 10
8.4183856672
 20
3.8444352483
 40
3.053
100
AcDbArc
 50
166.7837149256
 51
193.2355634666
  0
ARC
  5
3AF
100
AcDbEntity
  8
0
100
AcDbCircle
 62
9
  6
CONTINUOUS
 10
8.720041688
 20
6.1456568251
 40
2.04
100
AcDbArc
 50
184.0
 51
199.0
  0
ARC
  5
3B0
100
AcDbEntity
  8
0
100
AcDbCircle
 62
7
  6
CONTINUOUS
 10
8.720041688
 20
6.1456568251
 40
2.0
100
AcDbArc
 50
184.0
 51
199.0
  0
LINE
  5
3B1
100
AcDbEntity
  8
0
100
AcDbLine
 62
9
  6
CONTINUOUS
 10
6.630366274
 20
6.0751218046
 11
6.6069062456
 21
6.4605935552
  0
LINE
  5
3B2
100
AcDbEntity
  8
0
100
AcDbLine
 62
9
  6
CONTINUOUS
 10
7.2187407426
 20
4.2397840475
 11
7.2596198383
 21
4.0790394095
  0
LINE
  5
3B3
100
AcDbEntity
  8
0
100
AcDbLine
 62
9
  6
CONTINUOUS
 10
6.6565930899
 20
6.4597262681
 11
6.6800531201
 21
6.0742544893
  0
LINE
  5
3B4
100
AcDbEntity
  8
0
100
AcDbLine
 62
9
  6
CONTINUOUS
 10
7.2064190527
 20
4.0799680332
 11
7.1655399584
 21
4.2407126687
  0
SPLINE
  5
3B5
100
AcDbEntity
  8
0
100
AcDbSpline
 62
6
  6
CONTINUOUS
 70
0
 71
3
 72
11
 73
7
 74
0
 42
0.0000001
 43
0.0000001
 44
0.0000000001
 40
0.0
 40
0.0
 40
0.0
 40
0.0
 40
0.2482921531
 40
0.4970552672
 40
0.7472965551
 40
1.0
 40
1.0
 40
1.0
 40
1.0
 10
5.9123856871
 20
6.5369328298
 30
0.0
 10
5.9648771373
 20
6.5369328672
 30
0.0
 10
6.0699905865
 20
6.5335610804
 30
0.0
 10
6.2273491952
 20
6.5183779861
 30
0.0
 10
6.3843467456
 20
6.49309478
 30
0.0
 10
6.4881407367
 20
6.4696608063
 30
0.0
 10
6.5398740707
 20
6.4563270012
 30
0.0
  0
SPLINE
  5
3B6
100
AcDbEntity
  8
0
100
AcDbSpline
 62
6
  6
CONTINUOUS
 70
0
 71
3
 72
9
 73
5
 74
0
 42
0.0000001
 43
0.0000001
 44
0.0000000001
 40
0.0
 40
0.0
 40
0.0
 40
0.0
 40
0.5181897119
 40
1.0
 40
1.0
 40
1.0
 40
1.0
 10
5.1579827114
 20
6.5960427652
 30
0.0
 10
5.1596082193
 20
6.5955954276
 30
0.0
 10
5.1626516361
 20
6.5943410346
 30
0.0
 10
5.1653001413
 20
6.5923929559
 30
0.0
 10
5.166441521
 20
6.5913184561
 30
0.0
  0
SPLINE
  5
3B7
100
AcDbEntity
  8
0
100
AcDbSpline
 62
6
  6
CONTINUOUS
 70
0
 71
3
 72
9
 73
5
 74
0
 42
0.0000001
 43
0.0000001
 44
0.0000000001
 40
0.0
 40
0.0
 40
0.0
 40
0.0
 40
0.5207678709
 40
1.0
 40
1.0
 40
1.0
 40
1.0
 10
5.1579827095
 20
6.5934116152
 30
0.0
 10
5.1596021387
 20
6.5929883013
 30
0.0
 10
5.1626288424
 20
6.5918070454
 30
0.0
 10
5.1652932747
 20
6.5899510747
 30
0.0
 10
5.1664415213
 20
6.5889243461
 30
0.0
  0
LINE
  5
3B8
100
AcDbEntity
  8
0
100
AcDbLine
 62
6
  6
CONTINUOUS
 10
5.1542754964
 20
6.5898253831
 11
5.1579827087
 21
6.589223681
  0
SPLINE
  5
3B9
100
AcDbEntity
  8
0
100
AcDbSpline
 62
6
  6
CONTINUOUS
 70
0
 71
3
 72
9
 73
5
 74
0
 42
0.0000001
 43
0.0000001
 44
0.0000000001
 40
0.0
 40
0.0
 40
0.0
 40
0.0
 40
0.5234673435
 40
1.0
 40
1.0
 40
1.0
 40
1.0
 10
5.1579827087
 20
6.589223681
 30
0.0
 10
5.1595959753
 20
6.5888254065
 30
0.0
 10
5.1626050517
 20
6.5877197791
 30
0.0
 10
5.1652857882
 20
6.5859617515
 30
0.0
 10
5.1664415215
 20
6.5849857513
 30
0.0
  0
SPLINE
  5
3BA
100
AcDbEntity
  8
0
100
AcDbSpline
 62
6
  6
CONTINUOUS
 70
0
 71
3
 72
9
 73
5
 74
0
 42
0.0000001
 43
0.0000001
 44
0.0000000001
 40
0.0
 40
0.0
 40
0.0
 40
0.0
 40
0.5042029152
 40
1.0
 40
1.0
 40
1.0
 40
1.0
 10
5.1523856788
 20
6.5841277487
 30
0.0
 10
5.153333943
 20
6.5841277487
 30
0.0
 10
5.1552159742
 20
6.584017861
 30
0.0
 10
5.1570743141
 20
6.5837008845
 30
0.0
 10
5.1579827117
 20
6.583490441
 30
0.0
  0
SPLINE
  5
3BB
100
AcDbEntity
  8
0
100
AcDbSpline
 62
6
  6
CONTINUOUS
 70
0
 71
3
 72
9
 73
5
 74
0
 42
0.0000001
 43
0.0000001
 44
0.0000000001
 40
0.0
 40
0.0
 40
0.0
 40
0.0
 40
0.526265361
 40
1.0
 40
1.0
 40
1.0
 40
1.0
 10
5.1579827117
 20
6.583490441
 30
0.0
 10
5.1595898008
 20
6.5831181355
 30
0.0
 10
5.1625804963
 20
6.5820901842
 30
0.0
 10
5.1652776872
 20
6.5804357863
 30
0.0
 10
5.1664415209
 20
6.5795134664
 30
0.0
  0
SPLINE
  5
3BC
100
AcDbEntity
  8
0
100
AcDbSpline
 62
6
  6
CONTINUOUS
 70
0
 71
3
 72
9
 73
5
 74
0
 42
0.0000001
 43
0.0000001
 44
0.0000000001
 40
0.0
 40
0.0
 40
0.0
 40
0.0
 40
0.5045587642
 40
1.0
 40
1.0
 40
1.0
 40
1.0
 10
5.1523856959
 20
6.576844499
 30
0.0
 10
5.153326246
 20
6.576844499
 30
0.0
 10
5.1551914623
 20
6.5767441163
 30
0.0
 10
5.1570366643
 20
6.5764536649
 30
0.0
 10
5.1579397597
 20
6.5762603495
 30
0.0
  0
SPLINE
  5
3BD
100
AcDbEntity
  8
0
100
AcDbSpline
 62
6
  6
CONTINUOUS
 70
0
 71
3
 72
9
 73
5
 74
0
 42
0.0000001
 43
0.0000001
 44
0.0000000001
 40
0.0
 40
0.0
 40
0.0
 40
0.0
 40
0.5287847023
 40
1.0
 40
1.0
 40
1.0
 40
1.0
 10
5.1579397597
 20
6.5762603495
 30
0.0
 10
5.1595299879
 20
6.5759199475
 30
0.0
 10
5.1624844271
 20
6.5749841107
 30
0.0
 10
5.1651867538
 20
6.5734608213
 30
0.0
 10
5.1663574895
 20
6.5726066775
 30
0.0
  0
SPLINE
  5
3BE
100
AcDbEntity
  8
0
100
AcDbSpline
 62
6
  6
CONTINUOUS
 70
0
 71
3
 72
9
 73
5
 74
0
 42
0.0000001
 43
0.0000001
 44
0.0000000001
 40
0.0
 40
0.0
 40
0.0
 40
0.0
 40
0.5050287661
 40
1.0
 40
1.0
 40
1.0
 40
1.0
 10
5.152385737
 20
6.5680036488
 30
0.0
 10
5.1533335854
 20
6.5680036488
 30
0.0
 10
5.1552113746
 20
6.5679094041
 30
0.0
 10
5.1570716737
 20
6.5676367604
 30
0.0
 10
5.1579827107
 20
6.5674550982
 30
0.0
  0
SPLINE
  5
3BF
100
AcDbEntity
  8
0
100
AcDbSpline
 62
6
  6
CONTINUOUS
 70
0
 71
3
 72
9
 73
5
 74
0
 42
0.0000001
 43
0.0000001
 44
0.0000000001
 40
0.0
 40
0.0
 40
0.0
 40
0.0
 40
0.5320398689
 40
1.0
 40
1.0
 40
1.0
 40
1.0
 10
5.1579827107
 20
6.5674550982
 30
0.0
 10
5.1595776742
 20
6.56713706
 30
0.0
 10
5.1625302449
 20
6.5662689855
 30
0.0
 10
5.1652597821
 20
6.5648380738
 30
0.0
 10
5.1664415209
 20
6.5640319905
 30
0.0
  0
LINE
  5
3C0
100
AcDbEntity
  8
0
100
AcDbLine
 62
6
  6
CONTINUOUS
 10
5.1664415209
 20
6.5640319905
 11
5.1678239007
 21
6.5629862727
  0
SPLINE
  5
3C1
100
AcDbEntity
  8
0
100
AcDbSpline
 62
6
  6
CONTINUOUS
 70
0
 71
3
 72
9
 73
5
 74
0
 42
0.0000001
 43
0.0000001
 44
0.0000000001
 40
0.0
 40
0.0
 40
0.0
 40
0.0
 40
0.505415883
 40
1.0
 40
1.0
 40
1.0
 40
1.0
 10
5.1523861874
 20
6.5576988011
 30
0.0
 10
5.1533337706
 20
6.5576988011
 30
0.0
 10
5.1552094379
 20
6.5576127147
 30
0.0
 10
5.1570704893
 20
6.5573633643
 30
0.0
 10
5.1579827088
 20
6.5571969465
 30
0.0
  0
SPLINE
  5
3C2
100
AcDbEntity
  8
0
100
AcDbSpline
 62
6
  6
CONTINUOUS
 70
0
 71
3
 72
10
 73
6
 74
0
 42
0.0000001
 43
0.0000001
 44
0.0000000001
 40
0.0
 40
0.0
 40
0.0
 40
0.0
 40
0.2829518482
 40
0.5450679525
 40
1.0
 40
1.0
 40
1.0
 40
1.0
 10
5.1579827088
 20
6.5571969465
 30
0.0
 10
5.1589790903
 20
6.5570151749
 30
0.0
 10
5.1608828533
 20
6.5565642986
 30
0.0
 10
5.164257998
 20
6.5553644551
 30
0.0
 10
5.1665326778
 20
6.5541007644
 30
0.0
 10
5.1678239007
 20
6.5531085317
 30
0.0
  0
SPLINE
  5
3C3
100
AcDbEntity
  8
0
100
AcDbSpline
 62
6
  6
CONTINUOUS
 70
0
 71
3
 72
9
 73
5
 74
0
 42
0.0000001
 43
0.0000001
 44
0.0000000001
 40
0.0
 40
0.0
 40
0.0
 40
0.0
 40
0.5057799262
 40
1.0
 40
1.0
 40
1.0
 40
1.0
 10
5.152386367
 20
6.545935056
 30
0.0
 10
5.1533337426
 20
6.545935056
 30
0.0
 10
5.1552075011
 20
6.5458573342
 30
0.0
 10
5.1570693289
 20
6.5456319426
 30
0.0
 10
5.157982708
 20
6.5454812727
 30
0.0
  0
SPLINE
  5
3C4
100
AcDbEntity
  8
0
100
AcDbSpline
 62
6
  6
CONTINUOUS
 70
0
 71
3
 72
11
 73
7
 74
0
 42
0.0000001
 43
0.0000001
 44
0.0000000001
 40
0.0
 40
0.0
 40
0.0
 40
0.0
 40
0.2854875119
 40
0.548481209
 40
0.7865915583
 40
1.0
 40
1.0
 40
1.0
 40
1.0
 10
5.157982708
 20
6.5454812727
 30
0.0
 10
5.158977116
 20
6.5453172365
 30
0.0
 10
5.1608741606
 20
6.5449115205
 30
0.0
 10
5.163522757
 20
6.5440611028
 30
0.0
 10
5.16583151
 20
6.5430327007
 30
0.0
 10
5.1672052039
 20
6.5422143684
 30
0.0
 10
5.1678239007
 20
6.5417844749
 30
0.0
  0
SPLINE
  5
3C5
100
AcDbEntity
  8
0
100
AcDbSpline
 62
6
  6
CONTINUOUS
 70
0
 71
3
 72
9
 73
5
 74
0
 42
0.0000001
 43
0.0000001
 44
0.0000000001
 40
0.0
 40
0.0
 40
0.0
 40
0.0
 40
0.5061165948
 40
1.0
 40
1.0
 40
1.0
 40
1.0
 10
5.152385679
 20
6.5327446571
 30
0.0
 10
5.1533330077
 20
6.5327446571
 30
0.0
 10
5.1552052907
 20
6.5326754917
 30
0.0
 10
5.1570681123
 20
6.5324746585
 30
0.0
 10
5.157982711
 20
6.5323401883
 30
0.0
  0
SPLINE
  5
3C6
100
AcDbEntity
  8
0
100
AcDbSpline
 62
6
  6
CONTINUOUS
 70
0
 71
3
 72
11
 73
7
 74
0
 42
0.0000001
 43
0.0000001
 44
0.0000000001
 40
0.0
 40
0.0
 40
0.0
 40
0.0
 40
0.2882059029
 40
0.5523014504
 40
0.7895707353
 40
1.0
 40
1.0
 40
1.0
 40
1.0
 10
5.157982711
 20
6.5323401883
 30
0.0
 10
5.158975277
 20
6.5321942548
 30
0.0
 10
5.1608667586
 20
6.5318340453
 30
0.0
 10
5.1635132334
 20
6.5310775085
 30
0.0
 10
5.165820376
 20
6.5301627284
 30
0.0
 10
5.1672011603
 20
6.5294308198
 30
0.0
 10
5.1678239007
 20
6.5290451407
 30
0.0
  0
SPLINE
  5
3C7
100
AcDbEntity
  8
0
100
AcDbSpline
 62
6
  6
CONTINUOUS
 70
0
 71
3
 72
12
 73
8
 74
0
 42
0.0000001
 43
0.0000001
 44
0.0000000001
 40
0.0
 40
0.0
 40
0.0
 40
0.0
 40
0.1474563052
 40
0.292579041
 40
0.563845172
 40
0.8009402229
 40
1.0
 40
1.0
 40
1.0
 40
1.0
 10
5.1523856926
 20
6.5182075624
 30
0.0
 10
5.1531631254
 20
6.5182075624
 30
0.0
 10
5.154706025
 20
6.5181665149
 30
0.0
 10
5.1576707557
 20
6.5179368545
 30
0.0
 10
5.1610825177
 20
6.517404087
 30
0.0
 10
5.1646859828
 20
6.5164114598
 30
0.0
 10
5.1668126402
 20
6.5155099355
 30
0.0
 10
5.1677381244
 20
6.5150150291
 30
0.0
  0
SPLINE
  5
3C8
100
AcDbEntity
  8
0
100
AcDbSpline
 62
6
  6
CONTINUOUS
 70
0
 71
3
 72
11
 73
7
 74
0
 42
0.0000001
 43
0.0000001
 44
0.0000000001
 40
0.0
 40
0.0
 40
0.0
 40
0.0
 40
0.2953320458
 40
0.5681052931
 40
0.8044373905
 40
1.0
 40
1.0
 40
1.0
 40
1.0
 10
5.1523857367
 20
6.5022323251
 30
0.0
 10
5.1539399266
 20
6.5022323251
 30
0.0
 10
5.1569312976
 20
6.5021008311
 30
0.0
 10
5.1611332864
 20
6.5015372848
 30
0.0
 10
5.1647475081
 20
6.5006798461
 30
0.0
 10
5.1668901431
 20
6.4998968179
 30
0.0
 10
5.1678239007
 20
6.4994640944
 30
0.0
  0
SPLINE
  5
3C9
100
AcDbEntity
  8
0
100
AcDbSpline
 62
6
  6
CONTINUOUS
 70
0
 71
3
 72
11
 73
7
 74
0
 42
0.0000001
 43
0.0000001
 44
0.0000000001
 40
0.0
 40
0.0
 40
0.0
 40
0.0
 40
0.2972801658
 40
0.5711320974
 40
0.806986335
 40
1.0
 40
1.0
 40
1.0
 40
1.0
 10
5.1523861874
 20
6.4849940241
 30
0.0
 10
5.1539398432
 20
6.4849940241
 30
0.0
 10
5.1569258709
 20
6.4848854935
 30
0.0
 10
5.1611220217
 20
6.484420509
 30
0.0
 10
5.1647301842
 20
6.4837133528
 30
0.0
 10
5.1668820375
 20
6.4830646254
 30
0.0
 10
5.1678239007
 20
6.4827034618
 30
0.0
  0
SPLINE
  5
3CA
100
AcDbEntity
  8
0
100
AcDbSpline
 62
6
  6
CONTINUOUS
 70
0
 71
3
 72
11
 73
7
 74
0
 42
0.0000001
 43
0.0000001
 44
0.0000000001
 40
0.0
 40
0.0
 40
0.0
 40
0.0
 40
0.2989216594
 40
0.5736893383
 40
0.8091502625
 40
1.0
 40
1.0
 40
1.0
 40
1.0
 10
5.152386367
 20
6.4664961045
 30
0.0
 10
5.1539396023
 20
6.4664961045
 30
0.0
 10
5.1569212784
 20
6.4664106853
 30
0.0
 10
5.1611125228
 20
6.4660448276
 30
0.0
 10
5.1647153403
 20
6.4654886288
 30
0.0
 10
5.1668746838
 20
6.4649765704
 30
0.0
 10
5.1678239007
 20
6.4646894888
 30
0.0
  0
SPLINE
  5
3CB
100
AcDbEntity
  8
0
100
AcDbSpline
 62
6
  6
CONTINUOUS
 70
0
 71
3
 72
11
 73
7
 74
0
 42
0.0000001
 43
0.0000001
 44
0.0000000001
 40
0.0
 40
0.0
 40
0.0
 40
0.0
 40
0.3002133342
 40
0.57570733
 40
0.810865112
 40
1.0
 40
1.0
 40
1.0
 40
1.0
 10
5.1523856787
 20
6.4467892677
 30
0.0
 10
5.1539386692
 20
6.4467892677
 30
0.0
 10
5.1569171537
 20
6.4467270897
 30
0.0
 10
5.161104735
 20
6.446460763
 30
0.0
 10
5.1647033737
 20
6.4460559546
 30
0.0
 10
5.1668684845
 20
6.4456823108
 30
0.0
 10
5.1678239007
 20
6.4454715504
 30
0.0
  0
SPLINE
  5
3CC
100
AcDbEntity
  8
0
100
AcDbSpline
 62
6
  6
CONTINUOUS
 70
0
 71
3
 72
11
 73
7
 74
0
 42
0.0000001
 43
0.0000001
 44
0.0000000001
 40
0.0
 40
0.0
 40
0.0
 40
0.0
 40
0.3003444344
 40
0.5759938707
 40
0.8112111709
 40
1.0
 40
1.0
 40
1.0
 40
1.0
 10
5.1523856966
 20
6.425989007
 30
0.0
 10
5.153925802
 20
6.425989007
 30
0.0
 10
5.1568795259
 20
6.4259507971
 30
0.0
 10
5.1610365813
 20
6.4257866494
 30
0.0
 10
5.1646160909
 20
6.4255369169
 30
0.0
 10
5.1667789184
 20
6.4253061759
 30
0.0
 10
5.1677381244
 20
6.4251754654
 30
0.0
  0
LINE
  5
3CD
100
AcDbEntity
  8
0
100
AcDbLine
 62
6
  6
CONTINUOUS
 10
5.1523857369
 20
6.4039680685
 11
5.1678239007
 21
6.4036376335
  0
LINE
  5
3CE
100
AcDbEntity
  8
0
100
AcDbLine
 62
6
  6
CONTINUOUS
 10
5.1678239007
 20
5.647232863
 11
5.1523866466
 21
5.646902428
  0
SPLINE
  5
3CF
100
AcDbEntity
  8
0
100
AcDbSpline
 62
6
  6
CONTINUOUS
 70
0
 71
3
 72
11
 73
7
 74
0
 42
0.0000001
 43
0.0000001
 44
0.0000000001
 40
0.0
 40
0.0
 40
0.0
 40
0.0
 40
0.188778109
 40
0.4240036506
 40
0.6996669599
 40
1.0
 40
1.0
 40
1.0
 40
1.0
 10
5.1677381244
 20
5.6256950311
 30
0.0
 10
5.1667789724
 20
5.625564328
 30
0.0
 10
5.1646161631
 20
5.625333525
 30
0.0
 10
5.1610365852
 20
5.6250838758
 30
0.0
 10
5.1568794726
 20
5.6249197787
 30
0.0
 10
5.1539257353
 20
5.6248814895
 30
0.0
 10
5.1523856875
 20
5.6248814895
 30
0.0
  0
SPLINE
  5
3D0
100
AcDbEntity
  8
0
100
AcDbSpline
 62
6
  6
CONTINUOUS
 70
0
 71
3
 72
11
 73
7
 74
0
 42
0.0000001
 43
0.0000001
 44
0.0000000001
 40
0.0
 40
0.0
 40
0.0
 40
0.0
 40
0.1891361545
 40
0.4242963822
 40
0.6997885665
 40
1.0
 40
1.0
 40
1.0
 40
1.0
 10
5.1678239007
 20
5.6053989461
 30
0.0
 10
5.166868494
 20
5.6051881878
 30
0.0
 10
5.1647034004
 20
5.6048145471
 30
0.0
 10
5.1611048119
 20
5.6044097476
 30
0.0
 10
5.1569173083
 20
5.6041434078
 30
0.0
 10
5.1539388926
 20
5.6040812288
 30
0.0
 10
5.1523859379
 20
5.6040812288
 30
0.0
  0
SPLINE
  5
3D1
100
AcDbEntity
  8
0
100
AcDbSpline
 62
6
  6
CONTINUOUS
 70
0
 71
3
 72
11
 73
7
 74
0
 42
0.0000001
 43
0.0000001
 44
0.0000000001
 40
0.0
 40
0.0
 40
0.0
 40
0.0
 40
0.1908499077
 40
0.4263137518
 40
0.7010810097
 40
1.0
 40
1.0
 40
1.0
 40
1.0
 10
5.1678239007
 20
5.5861810078
 30
0.0
 10
5.1668746375
 20
5.5858939121
 30
0.0
 10
5.1647151722
 20
5.5853818356
 30
0.0
 10
5.1611121662
 20
5.5848256253
 30
0.0
 10
5.1569207195
 20
5.5844597692
 30
0.0
 10
5.1539389158
 20
5.584374392
 30
0.0
 10
5.1523856201
 20
5.584374392
 30
0.0
  0
SPLINE
  5
3D2
100
AcDbEntity
  8
0
100
AcDbSpline
 62
6
  6
CONTINUOUS
 70
0
 71
3
 72
11
 73
7
 74
0
 42
0.0000001
 43
0.0000001
 44
0.0000000001
 40
0.0
 40
0.0
 40
0.0
 40
0.0
 40
0.1930140124
 40
0.4288710561
 40
0.7027223188
 40
1.0
 40
1.0
 40
1.0
 40
1.0
 10
5.1678239007
 20
5.5681670348
 30
0.0
 10
5.1668820019
 20
5.5678058574
 30
0.0
 10
5.1647300516
 20
5.5671571119
 30
0.0
 10
5.1611217431
 20
5.5664499466
 30
0.0
 10
5.1569254403
 20
5.5659849596
 30
0.0
 10
5.1539393202
 20
5.5658764724
 30
0.0
 10
5.1523856215
 20
5.5658764724
 30
0.0
  0
SPLINE
  5
3D3
100
AcDbEntity
  8
0
100
AcDbSpline
 62
6
  6
CONTINUOUS
 70
0
 71
3
 72
11
 73
7
 74
0
 42
0.0000001
 43
0.0000001
 44
0.0000000001
 40
0.0
 40
0.0
 40
0.0
 40
0.0
 40
0.1955645709
 40
0.4318987603
 40
0.7046694865
 40
1.0
 40
1.0
 40
1.0
 40
1.0
 10
5.1678239007
 20
5.5514064022
 30
0.0
 10
5.1668901876
 20
5.5509736992
 30
0.0
 10
5.1647476593
 20
5.5501906997
 30
0.0
 10
5.16113364
 20
5.5493333029
 30
0.0
 10
5.1569319166
 20
5.5487697112
 30
0.0
 10
5.1539407393
 20
5.5486381714
 30
0.0
 10
5.152386647
 20
5.5486381714
 30
0.0
  0
SPLINE
  5
3D4
100
AcDbEntity
  8
0
100
AcDbSpline
 62
6
  6
CONTINUOUS
 70
0
 71
3
 72
12
 73
8
 74
0
 42
0.0000001
 43
0.0000001
 44
0.0000000001
 40
0.0
 40
0.0
 40
0.0
 40
0.0
 40
0.1990518542
 40
0.4361526106
 40
0.7074311889
 40
0.8525484781
 40
1.0
 40
1.0
 40
1.0
 40
1.0
 10
5.1677381244
 20
5.5358554674
 30
0.0
 10
5.1668126775
 20
5.5353605809
 30
0.0
 10
5.1646861204
 20
5.5344588509
 30
0.0
 10
5.161082497
 20
5.5334665049
 30
0.0
 10
5.1576706625
 20
5.5329339225
 30
0.0
 10
5.1547059402
 20
5.5327040414
 30
0.0
 10
5.1531630947
 20
5.5326629341
 30
0.0
 10
5.1523856875
 20
5.5326629341
 30
0.0
  0
SPLINE
  5
3D5
100
AcDbEntity
  8
0
100
AcDbSpline
 62
6
  6
CONTINUOUS
 70
0
 71
3
 72
12
 73
8
 74
0
 42
0.0000001
 43
0.0000001
 44
0.0000000001
 40
0.0
 40
0.0
 40
0.0
 40
0.0
 40
0.2015104059
 40
0.4389942248
 40
0.7092027729
 40
0.8534824738
 40
1.0
 40
1.0
 40
1.0
 40
1.0
 10
5.1678239007
 20
5.5218253558
 30
0.0
 10
5.1669071792
 20
5.5212576067
 30
0.0
 10
5.1647875818
 20
5.5202155205
 30
0.0
 10
5.161161227
 20
5.5190613325
 30
0.0
 10
5.1577177011
 20
5.5184409273
 30
0.0
 10
5.1547264807
 20
5.5181736647
 30
0.0
 10
5.1531699616
 20
5.5181258394
 30
0.0
 10
5.1523859379
 20
5.5181258394
 30
0.0
  0
SPLINE
  5
3D6
100
AcDbEntity
  8
0
100
AcDbSpline
 62
6
  6
CONTINUOUS
 70
0
 71
3
 72
12
 73
8
 74
0
 42
0.0000001
 43
0.0000001
 44
0.0000000001
 40
0.0
 40
0.0
 40
0.0
 40
0.0
 40
0.2047849861
 40
0.4429459769
 40
0.7117579009
 40
0.8548363648
 40
1.0
 40
1.0
 40
1.0
 40
1.0
 10
5.1678239007
 20
5.5090860217
 30
0.0
 10
5.1669154784
 20
5.508454816
 30
0.0
 10
5.1648090602
 20
5.507289066
 30
0.0
 10
5.1611768187
 20
5.505988985
 30
0.0
 10
5.1577228172
 20
5.5052894885
 30
0.0
 10
5.1547273025
 20
5.5049891561
 30
0.0
 10
5.1531697492
 20
5.5049354405
 30
0.0
 10
5.1523856182
 20
5.5049354405
 30
0.0
  0
SPLINE
  5
3D7
100
AcDbEntity
  8
0
100
AcDbSpline
 62
6
  6
CONTINUOUS
 70
0
 71
3
 72
12
 73
8
 74
0
 42
0.0000001
 43
0.0000001
 44
0.0000000001
 40
0.0
 40
0.0
 40
0.0
 40
0.0
 40
0.2081678406
 40
0.4470549683
 40
0.7144244276
 40
0.8562504485
 40
1.0
 40
1.0
 40
1.0
 40
1.0
 10
5.1678239007
 20
5.4977619648
 30
0.0
 10
5.1669234004
 20
5.4970699807
 30
0.0
 10
5.1648308917
 20
5.4957850665
 30
0.0
 10
5.1611934307
 20
5.4943415793
 30
0.0
 10
5.1577285671
 20
5.4935639444
 30
0.0
 10
5.1547284927
 20
5.4932311804
 30
0.0
 10
5.1531698532
 20
5.4931716954
 30
0.0
 10
5.1523856215
 20
5.4931716954
 30
0.0
  0
LINE
  5
3D8
100
AcDbEntity
  8
0
100
AcDbLine
 62
6
  6
CONTINUOUS
 10
5.1678239007
 20
5.4878842238
 11
5.1664407016
 21
5.486837948
  0
SPLINE
  5
3D9
100
AcDbEntity
  8
0
100
AcDbSpline
 62
6
  6
CONTINUOUS
 70
0
 71
3
 72
10
 73
6
 74
0
 42
0.0000001
 43
0.0000001
 44
0.0000000001
 40
0.0
 40
0.0
 40
0.0
 40
0.0
 40
0.4597677697
 40
0.7236122138
 40
1.0
 40
1.0
 40
1.0
 40
1.0
 10
5.1664407016
 20
5.486837948
 30
0.0
 10
5.1645690756
 20
5.4855614312
 30
0.0
 10
5.1612418359
 20
5.4840833256
 30
0.0
 10
5.1564159073
 20
5.4830561847
 30
0.0
 10
5.1537485428
 20
5.4828668477
 30
0.0
 10
5.1523866469
 20
5.4828668477
 30
0.0
  0
SPLINE
  5
3DA
100
AcDbEntity
  8
0
100
AcDbSpline
 62
6
  6
CONTINUOUS
 70
0
 71
3
 72
10
 73
6
 74
0
 42
0.0000001
 43
0.0000001
 44
0.0000000001
 40
0.0
 40
0.0
 40
0.0
 40
0.0
 40
0.4634349216
 40
0.7260301351
 40
1.0
 40
1.0
 40
1.0
 40
1.0
 10
5.1663563273
 20
5.4782628771
 30
0.0
 10
5.1645094788
 20
5.4769154986
 30
0.0
 10
5.1612071993
 20
5.4753301057
 30
0.0
 10
5.15638988
 20
5.4742284788
 30
0.0
 10
5.1537371696
 20
5.4740259975
 30
0.0
 10
5.1523856875
 20
5.4740259975
 30
0.0
  0
SPLINE
  5
3DB
100
AcDbEntity
  8
0
100
AcDbSpline
 62
6
  6
CONTINUOUS
 70
0
 71
3
 72
12
 73
8
 74
0
 42
0.0000001
 43
0.0000001
 44
0.0000000001
 40
0.0
 40
0.0
 40
0.0
 40
0.0
 40
0.2236351369
 40
0.466967742
 40
0.5956013612
 40
0.7283257424
 40
1.0
 40
1.0
 40
1.0
 40
1.0
 10
5.1664407014
 20
5.4713563828
 30
0.0
 10
5.165561223
 20
5.4706594929
 30
0.0
 10
5.1635894407
 20
5.4693690308
 30
0.0
 10
5.1608349922
 20
5.468173481
 30
0.0
 10
5.1584044377
 20
5.4674533676
 30
0.0
 10
5.155783118
 20
5.4669116186
 30
0.0
 10
5.1537490923
 20
5.4667427478
 30
0.0
 10
5.1523859379
 20
5.4667427478
 30
0.0
  0
SPLINE
  5
3DC
100
AcDbEntity
  8
0
100
AcDbSpline
 62
6
  6
CONTINUOUS
 70
0
 71
3
 72
11
 73
7
 74
0
 42
0.0000001
 43
0.0000001
 44
0.0000000001
 40
0.0
 40
0.0
 40
0.0
 40
0.0
 40
0.2277446245
 40
0.4713317692
 40
0.7297965422
 40
1.0
 40
1.0
 40
1.0
 40
1.0
 10
5.1664407012
 20
5.4658840567
 30
0.0
 10
5.1656696834
 20
5.4652330222
 30
0.0
 10
5.1639627301
 20
5.4640124934
 30
0.0
 10
5.1610610069
 20
5.4625574404
 30
0.0
 10
5.1577906628
 20
5.4615063587
 30
0.0
 10
5.1554656179
 20
5.4611419782
 30
0.0
 10
5.1542723149
 20
5.4610448805
 30
0.0
  0
SPLINE
  5
3DD
100
AcDbEntity
  8
0
100
AcDbSpline
 62
6
  6
CONTINUOUS
 70
0
 71
3
 72
11
 73
7
 74
0
 42
0.0000001
 43
0.0000001
 44
0.0000000001
 40
0.0
 40
0.0
 40
0.0
 40
0.0
 40
0.2302028271
 40
0.4744437757
 40
0.7319376756
 40
1.0
 40
1.0
 40
1.0
 40
1.0
 10
5.1664407012
 20
5.4619454211
 30
0.0
 10
5.1656730839
 20
5.4612591231
 30
0.0
 10
5.1639736735
 20
5.4599706584
 30
0.0
 10
5.1610710554
 20
5.4584273107
 30
0.0
 10
5.1577979847
 20
5.4573118274
 30
0.0
 10
5.1554669135
 20
5.4569244533
 30
0.0
 10
5.154272316
 20
5.4568215312
 30
0.0
  0
SPLINE
  5
3DE
100
AcDbEntity
  8
0
100
AcDbSpline
 62
6
  6
CONTINUOUS
 70
0
 71
3
 72
10
 73
6
 74
0
 42
0.0000001
 43
0.0000001
 44
0.0000000001
 40
0.0
 40
0.0
 40
0.0
 40
0.0
 40
0.481253802
 40
0.736993539
 40
1.0
 40
1.0
 40
1.0
 40
1.0
 10
5.1649445003
 20
5.4582784517
 30
0.0
 10
5.1634723544
 20
5.4571480333
 30
0.0
 10
5.1609539566
 20
5.4557293361
 30
0.0
 10
5.1572666648
 20
5.4545703867
 30
0.0
 10
5.1552830884
 20
5.4542483707
 30
0.0
 10
5.1542728814
 20
5.4541567153
 30
0.0
  0
SPLINE
  5
3DF
100
AcDbEntity
  8
0
100
AcDbSpline
 62
6
  6
CONTINUOUS
 70
0
 71
3
 72
11
 73
7
 74
0
 42
0.0000001
 43
0.0000001
 44
0.0000000001
 40
0.0
 40
0.0
 40
0.0
 40
0.0
 40
0.2389149048
 40
0.4855870887
 40
0.7396660556
 40
1.0
 40
1.0
 40
1.0
 40
1.0
 10
5.1664407012
 20
6.5891903941
 30
0.0
 10
5.1656838803
 20
6.5899979342
 30
0.0
 10
5.1640107183
 20
6.5915189782
 30
0.0
 10
5.1611074795
 20
6.5933705942
 30
0.0
 10
5.157825991
 20
6.5947126532
 30
0.0
 10
5.1554719632
 20
6.5951821312
 30
0.0
 10
5.154272315
 20
6.5953054825
 30
0.0
  0
SPLINE
  5
3E0
100
AcDbEntity
  8
0
100
AcDbSpline
 62
6
  6
CONTINUOUS
 70
0
 71
3
 72
9
 73
5
 74
0
 42
0.0000001
 43
0.0000001
 44
0.0000000001
 40
0.0
 40
0.0
 40
0.0
 40
0.0
 40
0.4939595784
 40
1.0
 40
1.0
 40
1.0
 40
1.0
 10
5.1664407012
 20
6.5853835087
 30
0.0
 10
5.1657538179
 20
6.5861412924
 30
0.0
 10
5.16424997
 20
6.5875767972
 30
0.0
 10
5.1625407722
 20
6.5887634142
 30
0.0
 10
5.1616344041
 20
6.5892890889
 30
0.0
  0
SPLINE
  5
3E1
100
AcDbEntity
  8
0
100
AcDbSpline
 62
6
  6
CONTINUOUS
 70
0
 71
3
 72
11
 73
7
 74
0
 42
0.0000001
 43
0.0000001
 44
0.0000000001
 40
0.0
 40
0.0
 40
0.0
 40
0.0
 40
0.2451274833
 40
0.4943063026
 40
0.746830312
 40
1.0
 40
1.0
 40
1.0
 40
1.0
 10
5.1616344041
 20
6.5892890889
 30
0.0
 10
5.1609495277
 20
6.589686303
 30
0.0
 10
5.1595177549
 20
6.590403665
 30
0.0
 10
5.1572334415
 20
6.5911995586
 30
0.0
 10
5.1548385352
 20
6.591691581
 30
0.0
 10
5.1532033256
 20
6.5918069371
 30
0.0
 10
5.1523856215
 20
6.5918069371
 30
0.0
  0
SPLINE
  5
3E2
100
AcDbEntity
  8
0
100
AcDbSpline
 62
6
  6
CONTINUOUS
 70
0
 71
3
 72
12
 73
8
 74
0
 42
0.0000001
 43
0.0000001
 44
0.0000000001
 40
0.0
 40
0.0
 40
0.0
 40
0.0
 40
0.241837864
 40
0.4895832234
 40
0.6157298892
 40
0.7433633259
 40
1.0
 40
1.0
 40
1.0
 40
1.0
 10
5.1664407017
 20
6.5800418462
 30
0.0
 10
5.1655891234
 20
6.5810095829
 30
0.0
 10
5.1636846692
 20
6.5828188622
 30
0.0
 10
5.1608876202
 20
6.5845822272
 30
0.0
 10
5.1584235085
 20
6.5856324557
 30
0.0
 10
5.1558121971
 20
6.5864098702
 30
0.0
 10
5.1537545976
 20
6.5866584643
 30
0.0
 10
5.1523866461
 20
6.5866584643
 30
0.0
  0
SPLINE
  5
3E3
100
AcDbEntity
  8
0
100
AcDbSpline
 62
6
  6
CONTINUOUS
 70
0
 71
3
 72
12
 73
8
 74
0
 42
0.0000001
 43
0.0000001
 44
0.0000000001
 40
0.0
 40
0.0
 40
0.0
 40
0.0
 40
0.2434905243
 40
0.4916802289
 40
0.6176109768
 40
0.7447708305
 40
1.0
 40
1.0
 40
1.0
 40
1.0
 10
5.1664038594
 20
6.5732006594
 30
0.0
 10
5.1655546314
 20
6.5741861998
 30
0.0
 10
5.1636580665
 20
6.576028814
 30
0.0
 10
5.1608641923
 20
6.5778314435
 30
0.0
 10
5.158404014
 20
6.5789040005
 30
0.0
 10
5.1558020999
 20
6.5796965398
 30
0.0
 10
5.1537493589
 20
6.5799503275
 30
0.0
 10
5.1523856873
 20
6.5799503275
 30
0.0
  0
SPLINE
  5
3E4
100
AcDbEntity
  8
0
100
AcDbSpline
 62
6
  6
CONTINUOUS
 70
0
 71
3
 72
12
 73
8
 74
0
 42
0.0000001
 43
0.0000001
 44
0.0000000001
 40
0.0
 40
0.0
 40
0.0
 40
0.0
 40
0.2449164963
 40
0.4934834549
 40
0.6192272498
 40
0.7459911991
 40
1.0
 40
1.0
 40
1.0
 40
1.0
 10
5.1664407013
 20
6.5648169087
 30
0.0
 10
5.1655928959
 20
6.5658286257
 30
0.0
 10
5.163699265
 20
6.5677210543
 30
0.0
 10
5.1608965865
 20
6.5695804057
 30
0.0
 10
5.1584265752
 20
6.5706864666
 30
0.0
 10
5.1558172062
 20
6.5715027523
 30
0.0
 10
5.1537549202
 20
6.5717650253
 30
0.0
 10
5.152385938
 20
6.5717650253
 30
0.0
  0
SPLINE
  5
3E5
100
AcDbEntity
  8
0
100
AcDbSpline
 62
6
  6
CONTINUOUS
 70
0
 71
3
 72
14
 73
10
 74
0
 42
0.0000001
 43
0.0000001
 44
0.0000000001
 40
0.0
 40
0.0
 40
0.0
 40
0.0
 40
0.2452147214
 40
0.3692256049
 40
0.4940702243
 40
0.6196128011
 40
0.7460083819
 40
0.8731023626
 40
1.0
 40
1.0
 40
1.0
 40
1.0
 10
5.1678239007
 20
6.5531085317
 30
0.0
 10
5.1669811174
 20
6.5543716006
 30
0.0
 10
5.1655254539
 20
6.5561611481
 30
0.0
 10
5.1632355228
 20
6.5581974319
 30
0.0
 10
5.1613310741
 20
6.5595297134
 30
0.0
 10
5.1592637261
 20
6.5606247576
 30
0.0
 10
5.1570545655
 20
6.5614394283
 30
0.0
 10
5.1547462417
 20
6.5619429494
 30
0.0
 10
5.1531713996
 20
6.5620608809
 30
0.0
 10
5.1523856186
 20
6.5620608809
 30
0.0
  0
SPLINE
  5
3E6
100
AcDbEntity
  8
0
100
AcDbSpline
 62
6
  6
CONTINUOUS
 70
0
 71
3
 72
14
 73
10
 74
0
 42
0.0000001
 43
0.0000001
 44
0.0000000001
 40
0.0
 40
0.0
 40
0.0
 40
0.0
 40
0.2464641326
 40
0.370783533
 40
0.4957050526
 40
0.6210956067
 40
0.747130784
 40
0.8737055312
 40
1.0
 40
1.0
 40
1.0
 40
1.0
 10
5.1678239007
 20
6.5417844749
 30
0.0
 10
5.1669824207
 20
6.5430665885
 30
0.0
 10
5.1655287926
 20
6.5448846097
 30
0.0
 10
5.1632372266
 20
6.5469567379
 30
0.0
 10
5.1613329005
 20
6.5483114336
 30
0.0
 10
5.1592655095
 20
6.5494250461
 30
0.0
 10
5.1570559838
 20
6.5502536801
 30
0.0
 10
5.1547470506
 20
6.5507658933
 30
0.0
 10
5.1531714728
 20
6.5508858829
 30
0.0
 10
5.1523856214
 20
6.5508858829
 30
0.0
  0
SPLINE
  5
3E7
100
AcDbEntity
  8
0
100
AcDbSpline
 62
6
  6
CONTINUOUS
 70
0
 71
3
 72
12
 73
8
 74
0
 42
0.0000001
 43
0.0000001
 44
0.0000000001
 40
0.0
 40
0.0
 40
0.0
 40
0.0
 40
0.2477704691
 40
0.4971786408
 40
0.6225812058
 40
0.7484557032
 40
1.0
 40
1.0
 40
1.0
 40
1.0
 10
5.1678239007
 20
6.5290451407
 30
0.0
 10
5.1669835228
 20
6.530343036
 30
0.0
 10
5.1650498197
 20
6.5327986944
 30
0.0
 10
5.1620175034
 20
6.5352877028
 30
0.0
 10
5.1592669859
 20
6.5367889371
 30
0.0
 10
5.1563282271
 20
6.5379073829
 30
0.0
 10
5.1539564079
 20
6.5382706613
 30
0.0
 10
5.1523866467
 20
6.5382706613
 30
0.0
  0
SPLINE
  5
3E8
100
AcDbEntity
  8
0
100
AcDbSpline
 62
6
  6
CONTINUOUS
 70
0
 71
3
 72
12
 73
8
 74
0
 42
0.0000001
 43
0.0000001
 44
0.0000000001
 40
0.0
 40
0.0
 40
0.0
 40
0.0
 40
0.2486070878
 40
0.4982777175
 40
0.6235808668
 40
0.7492136133
 40
1.0
 40
1.0
 40
1.0
 40
1.0
 10
5.1677381244
 20
6.5150150291
 30
0.0
 10
5.1668974141
 20
6.5163095237
 30
0.0
 10
5.1649681928
 20
6.5187567968
 30
0.0
 10
5.161948009
 20
6.5212386931
 30
0.0
 10
5.1592129424
 20
6.5227339564
 30
0.0
 10
5.1562962798
 20
6.5238462587
 30
0.0
 10
5.1539427483
 20
6.5242075624
 30
0.0
 10
5.1523856794
 20
6.5242075624
 30
0.0
  0
SPLINE
  5
3E9
100
AcDbEntity
  8
0
100
AcDbSpline
 62
6
  6
CONTINUOUS
 70
0
 71
3
 72
12
 73
8
 74
0
 42
0.0000001
 43
0.0000001
 44
0.0000000001
 40
0.0
 40
0.0
 40
0.0
 40
0.0
 40
0.2491347798
 40
0.498947772
 40
0.7490321293
 40
0.8743551007
 40
1.0
 40
1.0
 40
1.0
 40
1.0
 10
5.1678239007
 20
6.4994640944
 30
0.0
 10
5.167152803
 20
6.5005198844
 30
0.0
 10
5.1656496438
 20
6.5025393093
 30
0.0
 10
5.1629216468
 20
6.5051554238
 30
0.0
 10
5.1602645651
 20
6.5068727888
 30
0.0
 10
5.1579555736
 20
6.5078831087
 30
0.0
 10
5.1567473676
 20
6.5082534379
 30
0.0
 10
5.1561344973
 20
6.508403286
 30
0.0
  0
SPLINE
  5
3EA
100
AcDbEntity
  8
0
100
AcDbSpline
 62
6
  6
CONTINUOUS
 70
0
 71
3
 72
9
 73
5
 74
0
 42
0.0000001
 43
0.0000001
 44
0.0000000001
 40
0.0
 40
0.0
 40
0.0
 40
0.0
 40
0.2508122803
 40
1.0
 40
1.0
 40
1.0
 40
1.0
 10
5.1561344973
 20
6.508403286
 30
0.0
 10
5.1558273948
 20
6.5084783731
 30
0.0
 10
5.1545946506
 20
6.5087422927
 30
0.0
 10
5.1533302888
 20
6.5088617096
 30
0.0
 10
5.152385938
 20
6.5088617096
 30
0.0
  0
SPLINE
  5
3EB
100
AcDbEntity
  8
0
100
AcDbSpline
 62
6
  6
CONTINUOUS
 70
0
 71
3
 72
11
 73
7
 74
0
 42
0.0000001
 43
0.0000001
 44
0.0000000001
 40
0.0
 40
0.0
 40
0.0
 40
0.0
 40
0.249565204
 40
0.4996322984
 40
0.7498518689
 40
1.0
 40
1.0
 40
1.0
 40
1.0
 10
5.1678239007
 20
6.4827034618
 30
0.0
 10
5.1672384591
 20
6.4836291514
 30
0.0
 10
5.1659453661
 20
6.4854095582
 30
0.0
 10
5.1636439165
 20
6.4877793158
 30
0.0
 10
5.1609878029
 20
6.4897518143
 30
0.0
 10
5.1590052605
 20
6.4907325238
 30
0.0
 10
5.1579773142
 20
6.4911179849
 30
0.0
  0
SPLINE
  5
3EC
100
AcDbEntity
  8
0
100
AcDbSpline
 62
6
  6
CONTINUOUS
 70
0
 71
3
 72
9
 73
5
 74
0
 42
0.0000001
 43
0.0000001
 44
0.0000000001
 40
0.0
 40
0.0
 40
0.0
 40
0.0
 40
0.5008245437
 40
1.0
 40
1.0
 40
1.0
 40
1.0
 10
5.1579773142
 20
6.4911179849
 30
0.0
 10
5.1570849866
 20
6.4914525915
 30
0.0
 10
5.15524179
 20
6.4919668144
 30
0.0
 10
5.1533354793
 20
6.4921485874
 30
0.0
 10
5.1523856168
 20
6.4921485874
 30
0.0
  0
SPLINE
  5
3ED
100
AcDbEntity
  8
0
100
AcDbSpline
 62
6
  6
CONTINUOUS
 70
0
 71
3
 72
12
 73
8
 74
0
 42
0.0000001
 43
0.0000001
 44
0.0000000001
 40
0.0
 40
0.0
 40
0.0
 40
0.0
 40
0.249778336
 40
0.4998187673
 40
0.6249861174
 40
0.750286828
 40
1.0
 40
1.0
 40
1.0
 40
1.0
 10
5.1678239007
 20
6.4646894888
 30
0.0
 10
5.1669854652
 20
6.4660182428
 30
0.0
 10
5.1650587727
 20
6.4685315658
 30
0.0
 10
5.1620240938
 20
6.4710912347
 30
0.0
 10
5.159269292
 20
6.4726347065
 30
0.0
 10
5.1563324768
 20
6.473782154
 30
0.0
 10
5.1539563772
 20
6.4741562364
 30
0.0
 10
5.1523856214
 20
6.4741562364
 30
0.0
  0
SPLINE
  5
3EE
100
AcDbEntity
  8
0
100
AcDbSpline
 62
6
  6
CONTINUOUS
 70
0
 71
3
 72
12
 73
8
 74
0
 42
0.0000001
 43
0.0000001
 44
0.0000000001
 40
0.0
 40
0.0
 40
0.0
 40
0.0
 40
0.249742803
 40
0.499771396
 40
0.6249429591
 40
0.7502544357
 40
1.0
 40
1.0
 40
1.0
 40
1.0
 10
5.1678239007
 20
6.4454715504
 30
0.0
 10
5.1669854745
 20
6.4467996826
 30
0.0
 10
5.1650587816
 20
6.4493118536
 30
0.0
 10
5.1620243396
 20
6.4518701558
 30
0.0
 10
5.1592698027
 20
6.4534128607
 30
0.0
 10
5.1563331842
 20
6.4545599012
 30
0.0
 10
5.153957299
 20
6.4549339723
 30
0.0
 10
5.1523866468
 20
6.4549339723
 30
0.0
  0
SPLINE
  5
3EF
100
AcDbEntity
  8
0
100
AcDbSpline
 62
6
  6
CONTINUOUS
 70
0
 71
3
 72
12
 73
8
 74
0
 42
0.0000001
 43
0.0000001
 44
0.0000000001
 40
0.0
 40
0.0
 40
0.0
 40
0.0
 40
0.249496905
 40
0.4994459838
 40
0.6246445351
 40
0.750023384
 40
1.0
 40
1.0
 40
1.0
 40
1.0
 10
5.1677381244
 20
6.4251754654
 30
0.0
 10
5.1668982984
 20
6.4264835503
 30
0.0
 10
5.1649722353
 20
6.4289562237
 30
0.0
 10
5.1619510765
 20
6.4314692065
 30
0.0
 10
5.1592142026
 20
6.4329830445
 30
0.0
 10
5.1562984946
 20
6.4341081547
 30
0.0
 10
5.1539431517
 20
6.4344742884
 30
0.0
 10
5.1523856875
 20
6.4344742884
 30
0.0
  0
SPLINE
  5
3F0
100
AcDbEntity
  8
0
100
AcDbSpline
 62
6
  6
CONTINUOUS
 70
0
 71
3
 72
12
 73
8
 74
0
 42
0.0000001
 43
0.0000001
 44
0.0000000001
 40
0.0
 40
0.0
 40
0.0
 40
0.0
 40
0.2490255943
 40
0.4988279352
 40
0.6240831209
 40
0.7495989728
 40
1.0
 40
1.0
 40
1.0
 40
1.0
 10
5.1678239007
 20
6.4036376335
 30
0.0
 10
5.1669847423
 20
6.4049547913
 30
0.0
 10
5.1650554268
 20
6.4074464661
 30
0.0
 10
5.1620215948
 20
6.4099795685
 30
0.0
 10
5.1592683845
 20
6.4115071443
 30
0.0
 10
5.1563308143
 20
6.4126436829
 30
0.0
 10
5.1539563231
 20
6.4130136794
 30
0.0
 10
5.152385938
 20
6.4130136794
 30
0.0
  0
SPLINE
  5
3F1
100
AcDbEntity
  8
0
100
AcDbSpline
 62
6
  6
CONTINUOUS
 70
0
 71
3
 72
12
 73
8
 74
0
 42
0.0000001
 43
0.0000001
 44
0.0000000001
 40
0.0
 40
0.0
 40
0.0
 40
0.0
 40
0.2483440719
 40
0.4979323269
 40
0.6232673554
 40
0.7489775777
 40
1.0
 40
1.0
 40
1.0
 40
1.0
 10
5.1678239007
 20
6.3811363187
 30
0.0
 10
5.1669840534
 20
6.3824430552
 30
0.0
 10
5.1650522751
 20
6.3849152476
 30
0.0
 10
5.1620191179
 20
6.3874244497
 30
0.0
 10
5.1592672368
 20
6.3889377077
 30
0.0
 10
5.1563288556
 20
6.390064336
 30
0.0
 10
5.1539557243
 20
6.3904305511
 30
0.0
 10
5.1523856192
 20
6.3904305511
 30
0.0
  0
LINE
  5
3F2
100
AcDbEntity
  8
0
100
AcDbLine
 62
6
  6
CONTINUOUS
 10
5.1523861874
 20
6.380971076
 11
5.1678239007
 21
6.3811363187
  0
SPLINE
  5
3F3
100
AcDbEntity
  8
0
100
AcDbSpline
 62
6
  6
CONTINUOUS
 70
0
 71
3
 72
12
 73
8
 74
0
 42
0.0000001
 43
0.0000001
 44
0.0000000001
 40
0.0
 40
0.0
 40
0.0
 40
0.0
 40
0.247447182
 40
0.4967551058
 40
0.6221957512
 40
0.7481619218
 40
1.0
 40
1.0
 40
1.0
 40
1.0
 10
5.1678239007
 20
6.3576600521
 30
0.0
 10
5.1669831523
 20
6.35895309
 30
0.0
 10
5.1650481642
 20
6.3613996441
 30
0.0
 10
5.1620160159
 20
6.36387747
 30
0.0
 10
5.1592659661
 20
6.365371971
 30
0.0
 10
5.156326631
 20
6.3664856457
 30
0.0
 10
5.1539553275
 20
6.366846996
 30
0.0
 10
5.1523856215
 20
6.366846996
 30
0.0
  0
SPLINE
  5
3F4
100
AcDbEntity
  8
0
100
AcDbSpline
 62
6
  6
CONTINUOUS
 70
0
 71
3
 72
11
 73
7
 74
0
 42
0.0000001
 43
0.0000001
 44
0.0000000001
 40
0.0
 40
0.0
 40
0.0
 40
0.0
 40
0.3013336677
 40
0.5774582641
 40
0.8123571583
 40
1.0
 40
1.0
 40
1.0
 40
1.0
 10
5.1523863672
 20
6.3569995845
 30
0.0
 10
5.1539390271
 20
6.3569995845
 30
0.0
 10
5.1569145473
 20
6.3570307171
 30
0.0
 10
5.1610985725
 20
6.3571639851
 30
0.0
 10
5.1646931789
 20
6.3573664952
 30
0.0
 10
5.1668629035
 20
6.3575537975
 30
0.0
 10
5.1678239007
 20
6.3576600521
 30
0.0
  0
SPLINE
  5
3F5
100
AcDbEntity
  8
0
100
AcDbSpline
 62
6
  6
CONTINUOUS
 70
0
 71
3
 72
14
 73
10
 74
0
 42
0.0000001
 43
0.0000001
 44
0.0000000001
 40
0.0
 40
0.0
 40
0.0
 40
0.0
 40
0.2460718176
 40
0.3702939117
 40
0.4951906792
 40
0.620628847
 40
0.7467777
 40
0.8735159769
 40
1.0
 40
1.0
 40
1.0
 40
1.0
 10
5.1678239007
 20
6.3332731803
 30
0.0
 10
5.1669820589
 20
6.334549231
 30
0.0
 10
5.1655278855
 20
6.336358203
 30
0.0
 10
5.1632369832
 20
6.3384189609
 30
0.0
 10
5.1613327451
 20
6.3397665534
 30
0.0
 10
5.1592655117
 20
6.3408743145
 30
0.0
 10
5.1570562689
 20
6.3416986349
 30
0.0
 10
5.1547476904
 20
6.3422082572
 30
0.0
 10
5.1531724311
 20
6.3423276551
 30
0.0
 10
5.1523866467
 20
6.3423276551
 30
0.0
  0
SPLINE
  5
3F6
100
AcDbEntity
  8
0
100
AcDbSpline
 62
6
  6
CONTINUOUS
 70
0
 71
3
 72
11
 73
7
 74
0
 42
0.0000001
 43
0.0000001
 44
0.0000000001
 40
0.0
 40
0.0
 40
0.0
 40
0.0
 40
0.3005600871
 40
0.5762493672
 40
0.8113266423
 40
1.0
 40
1.0
 40
1.0
 40
1.0
 10
5.1523856786
 20
6.3321192983
 30
0.0
 10
5.1539385867
 20
6.3321192983
 30
0.0
 10
5.1569161897
 20
6.3321737219
 30
0.0
 10
5.1611027315
 20
6.3324068139
 30
0.0
 10
5.1647001821
 20
6.3327610839
 30
0.0
 10
5.1668667729
 20
6.3330882937
 30
0.0
 10
5.1678239007
 20
6.3332731803
 30
0.0
  0
SPLINE
  5
3F7
100
AcDbEntity
  8
0
100
AcDbSpline
 62
6
  6
CONTINUOUS
 70
0
 71
3
 72
14
 73
10
 74
0
 42
0.0000001
 43
0.0000001
 44
0.0000000001
 40
0.0
 40
0.0
 40
0.0
 40
0.0
 40
0.2447943573
 40
0.3687051159
 40
0.4935267998
 40
0.6191246654
 40
0.7456415072
 40
0.8729023613
 40
1.0
 40
1.0
 40
1.0
 40
1.0
 10
5.1677381244
 20
6.3080942665
 30
0.0
 10
5.1668937333
 20
6.3093348667
 30
0.0
 10
5.1654386687
 20
6.3110907607
 30
0.0
 10
5.1631575845
 20
6.3130856743
 30
0.0
 10
5.1612627754
 20
6.3143902727
 30
0.0
 10
5.1592085036
 20
6.3154617557
 30
0.0
 10
5.1570157108
 20
6.3162583813
 30
0.0
 10
5.1547261716
 20
6.3167505125
 30
0.0
 10
5.1531648505
 20
6.3168656797
 30
0.0
 10
5.1523856873
 20
6.3168656797
 30
0.0
  0
SPLINE
  5
3F8
100
AcDbEntity
  8
0
100
AcDbSpline
 62
6
  6
CONTINUOUS
 70
0
 71
3
 72
11
 73
7
 74
0
 42
0.0000001
 43
0.0000001
 44
0.0000000001
 40
0.0
 40
0.0
 40
0.0
 40
0.0
 40
0.2986526602
 40
0.5733498434
 40
0.8089611125
 40
1.0
 40
1.0
 40
1.0
 40
1.0
 10
5.1523856907
 20
6.3064733749
 30
0.0
 10
5.1539261975
 20
6.3064733749
 30
0.0
 10
5.1568842238
 20
6.3065496678
 30
0.0
 10
5.161046324
 20
6.3068775462
 30
0.0
 10
5.164631542
 20
6.3073765299
 30
0.0
 10
5.1667871367
 20
6.3078360717
 30
0.0
 10
5.1677381244
 20
6.3080942665
 30
0.0
  0
SPLINE
  5
3F9
100
AcDbEntity
  8
0
100
AcDbSpline
 62
6
  6
CONTINUOUS
 70
0
 71
3
 72
14
 73
10
 74
0
 42
0.0000001
 43
0.0000001
 44
0.0000000001
 40
0.0
 40
0.0
 40
0.0
 40
0.0
 40
0.2432164442
 40
0.3667372536
 40
0.4914625104
 40
0.6172505292
 40
0.7442221815
 40
0.8721431751
 40
1.0
 40
1.0
 40
1.0
 40
1.0
 10
5.1678239007
 20
6.2820373051
 30
0.0
 10
5.1669789848
 20
6.2832700712
 30
0.0
 10
5.1655200728
 20
6.2850142582
 30
0.0
 10
5.163232876
 20
6.2869936113
 30
0.0
 10
5.1613282991
 20
6.2882902597
 30
0.0
 10
5.1592610922
 20
6.2893558105
 30
0.0
 10
5.1570525778
 20
6.2901483485
 30
0.0
 10
5.154745265
 20
6.2906381314
 30
0.0
 10
5.1531715954
 20
6.2907528196
 30
0.0
 10
5.1523859379
 20
6.2907528196
 30
0.0
  0
SPLINE
  5
3FA
100
AcDbEntity
  8
0
100
AcDbSpline
 62
6
  6
CONTINUOUS
 70
0
 71
3
 72
11
 73
7
 74
0
 42
0.0000001
 43
0.0000001
 44
0.0000000001
 40
0.0
 40
0.0
 40
0.0
 40
0.0
 40
0.2978632415
 40
0.5720406616
 40
0.807754366
 40
1.0
 40
1.0
 40
1.0
 40
1.0
 10
5.1523857353
 20
6.2799074258
 30
0.0
 10
5.1539392897
 20
6.2799074258
 30
0.0
 10
5.1569238593
 20
6.2800082396
 30
0.0
 10
5.1611184156
 20
6.2804402235
 30
0.0
 10
5.1647248292
 20
6.2810971375
 30
0.0
 10
5.1668794518
 20
6.2817005551
 30
0.0
 10
5.1678239007
 20
6.2820373051
 30
0.0
  0
SPLINE
  5
3FB
100
AcDbEntity
  8
0
100
AcDbSpline
 62
6
  6
CONTINUOUS
 70
0
 71
3
 72
14
 73
10
 74
0
 42
0.0000001
 43
0.0000001
 44
0.0000000001
 40
0.0
 40
0.0
 40
0.0
 40
0.0
 40
0.2414695375
 40
0.364565563
 40
0.4891904887
 40
0.6151953764
 40
0.7426698653
 40
0.8713101181
 40
1.0
 40
1.0
 40
1.0
 40
1.0
 10
5.1678239007
 20
6.2553287356
 30
0.0
 10
5.166977029
 20
6.2565352122
 30
0.0
 10
5.1655152019
 20
6.2582399816
 30
0.0
 10
5.1632303784
 20
6.2601700182
 30
0.0
 10
5.161325642
 20
6.2614357603
 30
0.0
 10
5.159258499
 20
6.2624757265
 30
0.0
 10
5.1570504596
 20
6.2632490342
 30
0.0
 10
5.154743921
 20
6.2637268375
 30
0.0
 10
5.1531711949
 20
6.2638386881
 30
0.0
 10
5.1523856163
 20
6.2638386881
 30
0.0
  0
SPLINE
  5
3FC
100
AcDbEntity
  8
0
100
AcDbSpline
 62
6
  6
CONTINUOUS
 70
0
 71
3
 72
11
 73
7
 74
0
 42
0.0000001
 43
0.0000001
 44
0.0000000001
 40
0.0
 40
0.0
 40
0.0
 40
0.0
 40
0.2960128091
 40
0.5691615715
 40
0.8053252522
 40
1.0
 40
1.0
 40
1.0
 40
1.0
 10
5.1523861875
 20
6.2527189488
 30
0.0
 10
5.1539401613
 20
6.2527189488
 30
0.0
 10
5.1569295923
 20
6.2528428242
 30
0.0
 10
5.1611294648
 20
6.2533735983
 30
0.0
 10
5.1647415443
 20
6.2541810263
 30
0.0
 10
5.1668873981
 20
6.2549195803
 30
0.0
 10
5.1678239007
 20
6.2553287356
 30
0.0
  0
SPLINE
  5
3FD
100
AcDbEntity
  8
0
100
AcDbSpline
 62
6
  6
CONTINUOUS
 70
0
 71
3
 72
13
 73
9
 74
0
 42
0.0000001
 43
0.0000001
 44
0.0000000001
 40
0.0
 40
0.0
 40
0.0
 40
0.0
 40
0.2396083826
 40
0.4864475979
 40
0.6127484319
 40
0.7408370061
 40
0.8703310169
 40
1.0
 40
1.0
 40
1.0
 40
1.0
 10
5.1678239007
 20
6.227990044
 30
0.0
 10
5.1669747781
 20
6.2291671912
 30
0.0
 10
5.1650113893
 20
6.2313952331
 30
0.0
 10
5.1619893752
 20
6.233608765
 30
0.0
 10
5.1592559142
 20
6.2349457481
 30
0.0
 10
5.1570483796
 20
6.2356978839
 30
0.0
 10
5.154742776
 20
6.2361623781
 30
0.0
 10
5.1531710992
 20
6.2362711093
 30
0.0
 10
5.1523856215
 20
6.2362711093
 30
0.0
  0
SPLINE
  5
3FE
100
AcDbEntity
  8
0
100
AcDbSpline
 62
6
  6
CONTINUOUS
 70
0
 71
3
 72
12
 73
8
 74
0
 42
0.0000001
 43
0.0000001
 44
0.0000000001
 40
0.0
 40
0.0
 40
0.0
 40
0.0
 40
0.148186236
 40
0.2939507664
 40
0.5659030622
 40
0.8025754555
 40
1.0
 40
1.0
 40
1.0
 40
1.0
 10
5.1523863671
 20
6.224907503
 30
0.0
 10
5.1531702641
 20
6.224907503
 30
0.0
 10
5.1547255626
 20
6.2249473047
 30
0.0
 10
5.1577116809
 20
6.2251695849
 30
0.0
 10
5.1611423123
 20
6.2256833825
 30
0.0
 10
5.1647603209
 20
6.2266401706
 30
0.0
 10
5.1668958227
 20
6.2275111191
 30
0.0
 10
5.1678239007
 20
6.227990044
 30
0.0
  0
SPLINE
  5
3FF
100
AcDbEntity
  8
0
100
AcDbSpline
 62
6
  6
CONTINUOUS
 70
0
 71
3
 72
13
 73
9
 74
0
 42
0.0000001
 43
0.0000001
 44
0.0000000001
 40
0.0
 40
0.0
 40
0.0
 40
0.0
 40
0.2374421636
 40
0.4836554217
 40
0.6102294378
 40
0.7389387787
 40
0.8693139482
 40
1.0
 40
1.0
 40
1.0
 40
1.0
 10
5.1678239007
 20
6.2000961638
 30
0.0
 10
5.1669722369
 20
6.2012409642
 30
0.0
 10
5.1650006444
 20
6.2034075074
 30
0.0
 10
5.1619824334
 20
6.2055477669
 30
0.0
 10
5.1592535958
 20
6.2068414308
 30
0.0
 10
5.157046892
 20
6.207570207
 30
0.0
 10
5.1547424338
 20
6.2080202929
 30
0.0
 10
5.1531719725
 20
6.2081256441
 30
0.0
 10
5.1523866473
 20
6.2081256441
 30
0.0
  0
SPLINE
  5
400
100
AcDbEntity
  8
0
100
AcDbSpline
 62
6
  6
CONTINUOUS
 70
0
 71
3
 72
12
 73
8
 74
0
 42
0.0000001
 43
0.0000001
 44
0.0000000001
 40
0.0
 40
0.0
 40
0.0
 40
0.0
 40
0.1469513384
 40
0.2916179398
 40
0.562278854
 40
0.7995473569
 40
1.0
 40
1.0
 40
1.0
 40
1.0
 10
5.1523856789
 20
6.1965493176
 30
0.0
 10
5.1531696876
 20
6.1965493176
 30
0.0
 10
5.1547259277
 20
6.1965951513
 30
0.0
 10
5.1577158887
 20
6.1968512382
 30
0.0
 10
5.161156154
 20
6.1974450734
 30
0.0
 10
5.1647805284
 20
6.1985502081
 30
0.0
 10
5.166904339
 20
6.1995501579
 30
0.0
 10
5.1678239007
 20
6.2000961638
 30
0.0
  0
SPLINE
  5
401
100
AcDbEntity
  8
0
100
AcDbSpline
 62
6
  6
CONTINUOUS
 70
0
 71
3
 72
13
 73
9
 74
0
 42
0.0000001
 43
0.0000001
 44
0.0000000001
 40
0.0
 40
0.0
 40
0.0
 40
0.0
 40
0.2352035824
 40
0.4808144739
 40
0.6076834393
 40
0.7370297056
 40
0.868290438
 40
1.0
 40
1.0
 40
1.0
 40
1.0
 10
5.1677381244
 20
6.1717503227
 30
0.0
 10
5.1668823596
 20
6.1728463499
 30
0.0
 10
5.1649036293
 20
6.1749182677
 30
0.0
 10
5.1619028882
 20
6.1769496982
 30
0.0
 10
5.1591956397
 20
6.1781774988
 30
0.0
 10
5.1570057006
 20
6.178869595
 30
0.0
 10
5.1547206012
 20
6.1792967127
 30
0.0
 10
5.1531643653
 20
6.1793965688
 30
0.0
 10
5.1523856876
 20
6.1793965688
 30
0.0
  0
SPLINE
  5
402
100
AcDbEntity
  8
0
100
AcDbSpline
 62
6
  6
CONTINUOUS
 70
0
 71
3
 72
12
 73
8
 74
0
 42
0.0000001
 43
0.0000001
 44
0.0000000001
 40
0.0
 40
0.0
 40
0.0
 40
0.0
 40
0.1453337857
 40
0.2885698787
 40
0.5576274652
 40
0.795764687
 40
1.0
 40
1.0
 40
1.0
 40
1.0
 10
5.1523856965
 20
6.1678054589
 30
0.0
 10
5.1531632701
 20
6.1678054589
 30
0.0
 10
5.1547076984
 20
6.1678562774
 30
0.0
 10
5.1576789095
 20
6.1681408021
 30
0.0
 10
5.1611068882
 20
6.1688042551
 30
0.0
 10
5.1647201668
 20
6.1700386278
 30
0.0
 10
5.1668264596
 20
6.1711479214
 30
0.0
 10
5.1677381244
 20
6.1717503227
 30
0.0
  0
SPLINE
  5
403
100
AcDbEntity
  8
0
100
AcDbSpline
 62
6
  6
CONTINUOUS
 70
0
 71
3
 72
13
 73
9
 74
0
 42
0.0000001
 43
0.0000001
 44
0.0000000001
 40
0.0
 40
0.0
 40
0.0
 40
0.0
 40
0.2325082996
 40
0.4773388255
 40
0.6045462084
 40
0.7346645651
 40
0.8670266446
 40
1.0
 40
1.0
 40
1.0
 40
1.0
 10
5.1678239007
 20
6.1429499706
 30
0.0
 10
5.1669659028
 20
6.1440216365
 30
0.0
 10
5.1649748288
 20
6.1460482218
 30
0.0
 10
5.1619657065
 20
6.1480237679
 30
0.0
 10
5.1592468424
 20
6.1492202053
 30
0.0
 10
5.1570415648
 20
6.1498961192
 30
0.0
 10
5.1547391616
 20
6.1503133974
 30
0.0
 10
5.1531710634
 20
6.1504110058
 30
0.0
 10
5.1523859379
 20
6.1504110058
 30
0.0
  0
SPLINE
  5
404
100
AcDbEntity
  8
0
100
AcDbSpline
 62
6
  6
CONTINUOUS
 70
0
 71
3
 72
12
 73
8
 74
0
 42
0.0000001
 43
0.0000001
 44
0.0000000001
 40
0.0
 40
0.0
 40
0.0
 40
0.0
 40
0.1442266636
 40
0.2864760875
 40
0.5543309257
 40
0.7929687578
 40
1.0
 40
1.0
 40
1.0
 40
1.0
 10
5.1523857356
 20
6.1385049248
 30
0.0
 10
5.1531699303
 20
6.1385049248
 30
0.0
 10
5.1547281998
 20
6.1385625113
 30
0.0
 10
5.1577267146
 20
6.138884566
 30
0.0
 10
5.1611878989
 20
6.1396362549
 30
0.0
 10
5.1648236554
 20
6.1410322588
 30
0.0
 10
5.1669208212
 20
6.1422779596
 30
0.0
 10
5.1678239007
 20
6.1429499706
 30
0.0
  0
SPLINE
  5
405
100
AcDbEntity
  8
0
100
AcDbSpline
 62
6
  6
CONTINUOUS
 70
0
 71
3
 72
13
 73
9
 74
0
 42
0.0000001
 43
0.0000001
 44
0.0000000001
 40
0.0
 40
0.0
 40
0.0
 40
0.0
 40
0.2297582127
 40
0.4738427934
 40
0.6014095543
 40
0.7323107816
 40
0.8657688402
 40
1.0
 40
1.0
 40
1.0
 40
1.0
 10
5.1678239007
 20
6.1138542912
 30
0.0
 10
5.1669621045
 20
6.1148852125
 30
0.0
 10
5.1649599509
 20
6.1168333
 30
0.0
 10
5.1619565341
 20
6.1187179193
 30
0.0
 10
5.1592432417
 20
6.1198608204
 30
0.0
 10
5.1570387847
 20
6.1205075086
 30
0.0
 10
5.1547374929
 20
6.1209066814
 30
0.0
 10
5.1531706371
 20
6.1210000246
 30
0.0
 10
5.1523856184
 20
6.1210000246
 30
0.0
  0
SPLINE
  5
406
100
AcDbEntity
  8
0
100
AcDbSpline
 62
6
  6
CONTINUOUS
 70
0
 71
3
 72
12
 73
8
 74
0
 42
0.0000001
 43
0.0000001
 44
0.0000000001
 40
0.0
 40
0.0
 40
0.0
 40
0.0
 40
0.1427855734
 40
0.2837601164
 40
0.5501561479
 40
0.7895466941
 40
1.0
 40
1.0
 40
1.0
 40
1.0
 10
5.1523861874
 20
6.108977813
 30
0.0
 10
5.1531704675
 20
6.108977813
 30
0.0
 10
5.1547298302
 20
6.1090410886
 30
0.0
 10
5.1577330023
 20
6.1093951332
 30
0.0
 10
5.16120514
 20
6.1102242024
 30
0.0
 10
5.1648455123
 20
6.1117616093
 30
0.0
 10
5.1669284374
 20
6.1131232729
 30
0.0
 10
5.1678239007
 20
6.1138542912
 30
0.0
  0
SPLINE
  5
407
100
AcDbEntity
  8
0
100
AcDbSpline
 62
6
  6
CONTINUOUS
 70
0
 71
3
 72
14
 73
10
 74
0
 42
0.0000001
 43
0.0000001
 44
0.0000000001
 40
0.0
 40
0.0
 40
0.0
 40
0.0
 40
0.2267590157
 40
0.3464095212
 40
0.4703264218
 40
0.5982364679
 40
0.7299229164
 40
0.8644911469
 40
1.0
 40
1.0
 40
1.0
 40
1.0
 10
5.1678239007
 20
6.0845162614
 30
0.0
 10
5.1669578504
 20
6.0855037186
 30
0.0
 10
5.1654712586
 20
6.0868784955
 30
0.0
 10
5.1632096938
 20
6.088403304
 30
0.0
 10
5.1613049736
 20
6.0894135098
 30
0.0
 10
5.1592395983
 20
6.0902425863
 30
0.0
 10
5.1570362035
 20
6.0908581884
 30
0.0
 10
5.1547360738
 20
6.0912382696
 30
0.0
 10
5.1531705175
 20
6.091327107
 30
0.0
 10
5.1523856215
 20
6.091327107
 30
0.0
  0
SPLINE
  5
408
100
AcDbEntity
  8
0
100
AcDbSpline
 62
6
  6
CONTINUOUS
 70
0
 71
3
 72
11
 73
7
 74
0
 42
0.0000001
 43
0.0000001
 44
0.0000000001
 40
0.0
 40
0.0
 40
0.0
 40
0.0
 40
0.1416064663
 40
0.2815704354
 40
0.5470373172
 40
1.0
 40
1.0
 40
1.0
 40
1.0
 10
5.1523863672
 20
6.0792217169
 30
0.0
 10
5.1531707509
 20
6.0792217169
 30
0.0
 10
5.154731032
 20
6.0792903801
 30
0.0
 10
5.1577406594
 20
6.079676402
 30
0.0
 10
5.1623548799
 20
6.0808714725
 30
0.0
 10
5.1659462494
 20
6.0828520148
 30
0.0
 10
5.1678239007
 20
6.0845162614
 30
0.0
  0
SPLINE
  5
409
100
AcDbEntity
  8
0
100
AcDbSpline
 62
6
  6
CONTINUOUS
 70
0
 71
3
 72
13
 73
9
 74
0
 42
0.0000001
 43
0.0000001
 44
0.0000000001
 40
0.0
 40
0.0
 40
0.0
 40
0.0
 40
0.2237587162
 40
0.4662767169
 40
0.5946420702
 40
0.727244373
 40
0.8630654056
 40
1.0
 40
1.0
 40
1.0
 40
1.0
 10
5.1678239007
 20
6.0550162946
 30
0.0
 10
5.1669531366
 20
6.0559575879
 30
0.0
 10
5.1649265537
 20
6.0577317852
 30
0.0
 10
5.1619374941
 20
6.0594191907
 30
0.0
 10
5.1592366366
 20
6.0604462055
 30
0.0
 10
5.1570342643
 20
6.061029415
 30
0.0
 10
5.1547355493
 20
6.0613894278
 30
0.0
 10
5.1531713747
 20
6.0614735844
 30
0.0
 10
5.1523866471
 20
6.0614735844
 30
0.0
  0
SPLINE
  5
40A
100
AcDbEntity
  8
0
100
AcDbSpline
 62
6
  6
CONTINUOUS
 70
0
 71
3
 72
13
 73
9
 74
0
 42
0.0000001
 43
0.0000001
 44
0.0000000001
 40
0.0
 40
0.0
 40
0.0
 40
0.0
 40
0.1398143698
 40
0.278165418
 40
0.4126097396
 40
0.541866079
 40
0.7827742549
 40
1.0
 40
1.0
 40
1.0
 40
1.0
 10
5.1523856788
 20
6.0493181958
 30
0.0
 10
5.1531702096
 20
6.0493181958
 30
0.0
 10
5.154731923
 20
6.0493922299
 30
0.0
 10
5.1570283428
 20
6.0497091335
 30
0.0
 10
5.1592287813
 20
6.0502225535
 30
0.0
 10
5.1619166144
 20
6.0511234315
 30
0.0
 10
5.164887954
 20
6.0525964053
 30
0.0
 10
5.1669419167
 20
6.0541749676
 30
0.0
 10
5.1678239007
 20
6.0550162946
 30
0.0
  0
SPLINE
  5
40B
100
AcDbEntity
  8
0
100
AcDbSpline
 62
6
  6
CONTINUOUS
 70
0
 71
3
 72
13
 73
9
 74
0
 42
0.0000001
 43
0.0000001
 44
0.0000000001
 40
0.0
 40
0.0
 40
0.0
 40
0.0
 40
0.2208437041
 40
0.4626955885
 40
0.5914737286
 40
0.724892466
 40
0.8618133759
 40
1.0
 40
1.0
 40
1.0
 40
1.0
 10
5.1677381244
 20
6.0254352483
 30
0.0
 10
5.1668610334
 20
6.0263167325
 30
0.0
 10
5.1648241571
 20
6.0279733341
 30
0.0
 10
5.1618565851
 20
6.0295331391
 30
0.0
 10
5.1591784669
 20
6.0304837414
 30
0.0
 10
5.1569930811
 20
6.0310240738
 30
0.0
 10
5.1547137737
 20
6.0313574167
 30
0.0
 10
5.1531637678
 20
6.0314352483
 30
0.0
 10
5.1523856806
 20
6.0314352483
 30
0.0
  0
SPLINE
  5
40C
100
AcDbEntity
  8
0
100
AcDbSpline
 62
6
  6
CONTINUOUS
 70
0
 71
3
 72
13
 73
9
 74
0
 42
0.0000001
 43
0.0000001
 44
0.0000000001
 40
0.0
 40
0.0
 40
0.0
 40
0.0
 40
0.138190323
 40
0.2751144844
 40
0.408530449
 40
0.5373026007
 40
0.7791540034
 40
1.0
 40
1.0
 40
1.0
 40
1.0
 10
5.1523856903
 20
6.0194352483
 30
0.0
 10
5.1531638011
 20
6.0194352483
 30
0.0
 10
5.1547138507
 20
6.0195129602
 30
0.0
 10
5.1569932347
 20
6.0198460233
 30
0.0
 10
5.1591786142
 20
6.020386336
 30
0.0
 10
5.1618565608
 20
6.021337329
 30
0.0
 10
5.1648239133
 20
6.0228974075
 30
0.0
 10
5.1668610212
 20
6.0245537517
 30
0.0
 10
5.1677381244
 20
6.0254352483
 30
0.0
  0
SPLINE
  5
40D
100
AcDbEntity
  8
0
100
AcDbSpline
 62
6
  6
CONTINUOUS
 70
0
 71
3
 72
13
 73
9
 74
0
 42
0.0000001
 43
0.0000001
 44
0.0000000001
 40
0.0
 40
0.0
 40
0.0
 40
0.0
 40
0.2172268608
 40
0.4581372366
 40
0.5873941555
 40
0.7218365451
 40
0.8601859837
 40
1.0
 40
1.0
 40
1.0
 40
1.0
 10
5.1678239007
 20
5.9958542019
 30
0.0
 10
5.1669419257
 20
5.9966955203
 30
0.0
 10
5.164887979
 20
5.9982740692
 30
0.0
 10
5.1619166634
 20
5.9997470247
 30
0.0
 10
5.159228873
 20
6.0006479043
 30
0.0
 10
5.1570284945
 20
6.0011613537
 30
0.0
 10
5.1547321331
 20
6.0014782659
 30
0.0
 10
5.1531704547
 20
6.0015523007
 30
0.0
 10
5.152385938
 20
6.0015523007
 30
0.0
  0
SPLINE
  5
40E
100
AcDbEntity
  8
0
100
AcDbSpline
 62
6
  6
CONTINUOUS
 70
0
 71
3
 72
13
 73
9
 74
0
 42
0.0000001
 43
0.0000001
 44
0.0000000001
 40
0.0
 40
0.0
 40
0.0
 40
0.0
 40
0.1369348686
 40
0.2727575652
 40
0.4053618438
 40
0.5337268027
 40
0.7762429398
 40
1.0
 40
1.0
 40
1.0
 40
1.0
 10
5.1523857359
 20
5.9893969121
 30
0.0
 10
5.1531705064
 20
5.9893969121
 30
0.0
 10
5.1547347742
 20
5.9894810429
 30
0.0
 10
5.1570336469
 20
5.9898409792
 30
0.0
 10
5.1592361833
 20
5.9904241159
 30
0.0
 10
5.1619372044
 20
5.9914511317
 30
0.0
 10
5.1649264126
 20
5.993138599
 30
0.0
 10
5.1669530971
 20
5.994912866
 30
0.0
 10
5.1678239007
 20
5.9958542019
 30
0.0
  0
SPLINE
  5
40F
100
AcDbEntity
  8
0
100
AcDbSpline
 62
6
  6
CONTINUOUS
 70
0
 71
3
 72
11
 73
7
 74
0
 42
0.0000001
 43
0.0000001
 44
0.0000000001
 40
0.0
 40
0.0
 40
0.0
 40
0.0
 40
0.4529653822
 40
0.7184317014
 40
0.8583942558
 40
1.0
 40
1.0
 40
1.0
 40
1.0
 10
5.1678239007
 20
5.9663542351
 30
0.0
 10
5.1659461549
 20
5.9680185655
 30
0.0
 10
5.1623545796
 20
5.9699991502
 30
0.0
 10
5.1577401341
 20
5.9711942225
 30
0.0
 10
5.1547303723
 20
5.9715801471
 30
0.0
 10
5.1531700341
 20
5.9716487796
 30
0.0
 10
5.1523856196
 20
5.9716487796
 30
0.0
  0
SPLINE
  5
410
100
AcDbEntity
  8
0
100
AcDbSpline
 62
6
  6
CONTINUOUS
 70
0
 71
3
 72
14
 73
10
 74
0
 42
0.0000001
 43
0.0000001
 44
0.0000000001
 40
0.0
 40
0.0
 40
0.0
 40
0.0
 40
0.1355093467
 40
0.2700790661
 40
0.4017671727
 40
0.5296763726
 40
0.6535917012
 40
0.7732413161
 40
1.0
 40
1.0
 40
1.0
 40
1.0
 10
5.1523861874
 20
5.9595433895
 30
0.0
 10
5.153171061
 20
5.9595433895
 30
0.0
 10
5.1547365787
 20
5.9596322595
 30
0.0
 10
5.1570366398
 20
5.9600124186
 30
0.0
 10
5.1592399653
 20
5.9606280392
 30
0.0
 10
5.1613052598
 20
5.961457113
 30
0.0
 10
5.1632098891
 20
5.9624673004
 30
0.0
 10
5.1654713525
 20
5.9639920732
 30
0.0
 10
5.1669578796
 20
5.9653668112
 30
0.0
 10
5.1678239007
 20
5.9663542351
 30
0.0
  0
SPLINE
  5
411
100
AcDbEntity
  8
0
100
AcDbSpline
 62
6
  6
CONTINUOUS
 70
0
 71
3
 72
12
 73
8
 74
0
 42
0.0000001
 43
0.0000001
 44
0.0000000001
 40
0.0
 40
0.0
 40
0.0
 40
0.0
 40
0.2104535892
 40
0.4498467533
 40
0.7162420674
 40
0.8572151434
 40
1.0
 40
1.0
 40
1.0
 40
1.0
 10
5.1678239007
 20
5.9370162053
 30
0.0
 10
5.1669284057
 20
5.9377472495
 30
0.0
 10
5.164845385
 20
5.9391089544
 30
0.0
 10
5.161204863
 20
5.940646381
 30
0.0
 10
5.1577325969
 20
5.9414754572
 30
0.0
 10
5.154729328
 20
5.941829431
 30
0.0
 10
5.1531699243
 20
5.9418926835
 30
0.0
 10
5.1523856215
 20
5.9418926835
 30
0.0
  0
SPLINE
  5
412
100
AcDbEntity
  8
0
100
AcDbSpline
 62
6
  6
CONTINUOUS
 70
0
 71
3
 72
13
 73
9
 74
0
 42
0.0000001
 43
0.0000001
 44
0.0000000001
 40
0.0
 40
0.0
 40
0.0
 40
0.0
 40
0.1342316212
 40
0.2676911635
 40
0.3985940418
 40
0.5261599247
 40
0.7702420005
 40
1.0
 40
1.0
 40
1.0
 40
1.0
 10
5.152386367
 20
5.9298704719
 30
0.0
 10
5.1531713553
 20
5.9298704719
 30
0.0
 10
5.1547381569
 20
5.9299638572
 30
0.0
 10
5.1570393513
 20
5.9303631324
 30
0.0
 10
5.1592437099
 20
5.9310098521
 30
0.0
 10
5.1619568586
 20
5.9321527475
 30
0.0
 10
5.1649601032
 20
5.9340373181
 30
0.0
 10
5.1669621417
 20
5.9359853285
 30
0.0
 10
5.1678239007
 20
5.9370162053
 30
0.0
  0
SPLINE
  5
413
100
AcDbEntity
  8
0
100
AcDbSpline
 62
6
  6
CONTINUOUS
 70
0
 71
3
 72
12
 73
8
 74
0
 42
0.0000001
 43
0.0000001
 44
0.0000000001
 40
0.0
 40
0.0
 40
0.0
 40
0.0
 40
0.2070331231
 40
0.4456729543
 40
0.7135256434
 40
0.8557732722
 40
1.0
 40
1.0
 40
1.0
 40
1.0
 10
5.1678239007
 20
5.907920526
 30
0.0
 10
5.1669208633
 20
5.9085925056
 30
0.0
 10
5.164823803
 20
5.9098381598
 30
0.0
 10
5.1611882451
 20
5.9112340969
 30
0.0
 10
5.1577272896
 20
5.9119858398
 30
0.0
 10
5.1547289719
 20
5.9123079686
 30
0.0
 10
5.1531707982
 20
5.9123655718
 30
0.0
 10
5.1523866468
 20
5.9123655718
 30
0.0
  0
SPLINE
  5
414
100
AcDbEntity
  8
0
100
AcDbSpline
 62
6
  6
CONTINUOUS
 70
0
 71
3
 72
13
 73
9
 74
0
 42
0.0000001
 43
0.0000001
 44
0.0000000001
 40
0.0
 40
0.0
 40
0.0
 40
0.0
 40
0.132973789
 40
0.2653374097
 40
0.395457454
 40
0.5226642023
 40
0.767492685
 40
1.0
 40
1.0
 40
1.0
 40
1.0
 10
5.1523856788
 20
5.9004594907
 30
0.0
 10
5.1531708183
 20
5.9004594907
 30
0.0
 10
5.154738951
 20
5.9005570981
 30
0.0
 10
5.1570414117
 20
5.9009743644
 30
0.0
 10
5.1592467523
 20
5.9016502407
 30
0.0
 10
5.1619656599
 20
5.902846677
 30
0.0
 10
5.1649748044
 20
5.9048222467
 30
0.0
 10
5.1669658939
 20
5.9068488489
 30
0.0
 10
5.1678239007
 20
5.907920526
 30
0.0
  0
SPLINE
  5
415
100
AcDbEntity
  8
0
100
AcDbSpline
 62
6
  6
CONTINUOUS
 70
0
 71
3
 72
12
 73
8
 74
0
 42
0.0000001
 43
0.0000001
 44
0.0000000001
 40
0.0
 40
0.0
 40
0.0
 40
0.0
 40
0.2042286461
 40
0.4423702452
 40
0.7114396609
 40
0.854670781
 40
1.0
 40
1.0
 40
1.0
 40
1.0
 10
5.1677381244
 20
5.8791201739
 30
0.0
 10
5.16682649
 20
5.879722555
 30
0.0
 10
5.1647203355
 20
5.8808320849
 30
0.0
 10
5.1611068568
 20
5.8820661347
 30
0.0
 10
5.1576788054
 20
5.8827293489
 30
0.0
 10
5.154707613
 20
5.8830141452
 30
0.0
 10
5.1531632359
 20
5.8830650377
 30
0.0
 10
5.1523856873
 20
5.8830650377
 30
0.0
  0
SPLINE
  5
416
100
AcDbEntity
  8
0
100
AcDbSpline
 62
6
  6
CONTINUOUS
 70
0
 71
3
 72
13
 73
9
 74
0
 42
0.0000001
 43
0.0000001
 44
0.0000000001
 40
0.0
 40
0.0
 40
0.0
 40
0.0
 40
0.1317125497
 40
0.2629749716
 40
0.392318187
 40
0.5191836146
 40
0.7647974661
 40
1.0
 40
1.0
 40
1.0
 40
1.0
 10
5.1523856957
 20
5.8714739277
 30
0.0
 10
5.1531643957
 20
5.8714739277
 30
0.0
 10
5.1547206673
 20
5.8715736281
 30
0.0
 10
5.1570058633
 20
5.8720003901
 30
0.0
 10
5.1591958108
 20
5.8726924744
 30
0.0
 10
5.1619028417
 20
5.8739207764
 30
0.0
 10
5.1649033177
 20
5.8759524879
 30
0.0
 10
5.1668823583
 20
5.8780241449
 30
0.0
 10
5.1677381244
 20
5.8791201739
 30
0.0
  0
SPLINE
  5
417
100
AcDbEntity
  8
0
100
AcDbSpline
 62
6
  6
CONTINUOUS
 70
0
 71
3
 72
12
 73
8
 74
0
 42
0.0000001
 43
0.0000001
 44
0.0000000001
 40
0.0
 40
0.0
 40
0.0
 40
0.0
 40
0.2004538587
 40
0.437724709
 40
0.7083839959
 40
0.8530489264
 40
1.0
 40
1.0
 40
1.0
 40
1.0
 10
5.1678239007
 20
5.8507743327
 30
0.0
 10
5.1669043484
 20
5.8513203331
 30
0.0
 10
5.1647805546
 20
5.8523202749
 30
0.0
 10
5.1611562276
 20
5.8534253861
 30
0.0
 10
5.1577160307
 20
5.8540192481
 30
0.0
 10
5.1547261381
 20
5.8542753453
 30
0.0
 10
5.1531699336
 20
5.854321179
 30
0.0
 10
5.152385939
 20
5.854321179
 30
0.0
  0
SPLINE
  5
418
100
AcDbEntity
  8
0
100
AcDbSpline
 62
6
  6
CONTINUOUS
 70
0
 71
3
 72
13
 73
9
 74
0
 42
0.0000001
 43
0.0000001
 44
0.0000000001
 40
0.0
 40
0.0
 40
0.0
 40
0.0
 40
0.1306865895
 40
0.261063262
 40
0.3897741296
 40
0.516347596
 40
0.7625591649
 40
1.0
 40
1.0
 40
1.0
 40
1.0
 10
5.1523857367
 20
5.8427448525
 30
0.0
 10
5.1531711045
 20
5.8427448525
 30
0.0
 10
5.1547416562
 20
5.8428501709
 30
0.0
 10
5.157046273
 20
5.8433001609
 30
0.0
 10
5.1592531464
 20
5.8440288486
 30
0.0
 10
5.1619821494
 20
5.8453225154
 30
0.0
 10
5.1650005082
 20
5.8474628531
 30
0.0
 10
5.166972199
 20
5.8496294814
 30
0.0
 10
5.1678239007
 20
5.8507743327
 30
0.0
  0
SPLINE
  5
419
100
AcDbEntity
  8
0
100
AcDbSpline
 62
6
  6
CONTINUOUS
 70
0
 71
3
 72
12
 73
8
 74
0
 42
0.0000001
 43
0.0000001
 44
0.0000000001
 40
0.0
 40
0.0
 40
0.0
 40
0.0
 40
0.1974246634
 40
0.4340999009
 40
0.7060517485
 40
0.8518148267
 40
1.0
 40
1.0
 40
1.0
 40
1.0
 10
5.1678239007
 20
5.8228804525
 30
0.0
 10
5.1668957785
 20
5.8233594003
 30
0.0
 10
5.1647601546
 20
5.8242303808
 30
0.0
 10
5.1611419561
 20
5.8251871882
 30
0.0
 10
5.1577111534
 20
5.8257009857
 30
0.0
 10
5.1547249052
 20
5.8259232095
 30
0.0
 10
5.1531695469
 20
5.8259629935
 30
0.0
 10
5.1523856188
 20
5.8259629935
 30
0.0
  0
SPLINE
  5
41A
100
AcDbEntity
  8
0
100
AcDbSpline
 62
6
  6
CONTINUOUS
 70
0
 71
3
 72
13
 73
9
 74
0
 42
0.0000001
 43
0.0000001
 44
0.0000000001
 40
0.0
 40
0.0
 40
0.0
 40
0.0
 40
0.1296693156
 40
0.2591648699
 40
0.3872551533
 40
0.5135552159
 40
0.7603920783
 40
1.0
 40
1.0
 40
1.0
 40
1.0
 10
5.1523861875
 20
5.8145993872
 30
0.0
 10
5.1531716431
 20
5.8145993872
 30
0.0
 10
5.1547432835
 20
5.8147081587
 30
0.0
 10
5.1570488151
 20
5.8151727474
 30
0.0
 10
5.1592562805
 20
5.8159249051
 30
0.0
 10
5.1619896309
 20
5.8172618825
 30
0.0
 10
5.1650115058
 20
5.8194753708
 30
0.0
 10
5.1669748058
 20
5.8217033437
 30
0.0
 10
5.1678239007
 20
5.8228804525
 30
0.0
  0
SPLINE
  5
41B
100
AcDbEntity
  8
0
100
AcDbSpline
 62
6
  6
CONTINUOUS
 70
0
 71
3
 72
11
 73
7
 74
0
 42
0.0000001
 43
0.0000001
 44
0.0000000001
 40
0.0
 40
0.0
 40
0.0
 40
0.0
 40
0.1946750819
 40
0.4308415491
 40
0.70398964
 40
1.0
 40
1.0
 40
1.0
 40
1.0
 10
5.1678239007
 20
5.7955417609
 30
0.0
 10
5.166887363
 20
5.7959509316
 30
0.0
 10
5.1647414121
 20
5.7966895064
 30
0.0
 10
5.1611291864
 20
5.7974969449
 30
0.0
 10
5.1569291615
 20
5.7980277219
 30
0.0
 10
5.1539396381
 20
5.7981515477
 30
0.0
 10
5.1523856215
 20
5.7981515477
 30
0.0
  0
SPLINE
  5
41C
100
AcDbEntity
  8
0
100
AcDbSpline
 62
6
  6
CONTINUOUS
 70
0
 71
3
 72
14
 73
10
 74
0
 42
0.0000001
 43
0.0000001
 44
0.0000000001
 40
0.0
 40
0.0
 40
0.0
 40
0.0
 40
0.1286901571
 40
0.2573319829
 40
0.3848082374
 40
0.5108123507
 40
0.6354357139
 40
0.7585308523
 40
1.0
 40
1.0
 40
1.0
 40
1.0
 10
5.1523863671
 20
5.7870318084
 30
0.0
 10
5.1531719156
 20
5.7870318084
 30
0.0
 10
5.1547445901
 20
5.78714371
 30
0.0
 10
5.1570510271
 20
5.7876216354
 30
0.0
 10
5.1592589671
 20
5.78839498
 30
0.0
 10
5.1613260031
 20
5.7894349422
 30
0.0
 10
5.1632306251
 20
5.7907006529
 30
0.0
 10
5.1655153178
 20
5.7926306298
 30
0.0
 10
5.1669770646
 20
5.7943353351
 30
0.0
 10
5.1678239007
 20
5.7955417609
 30
0.0
  0
SPLINE
  5
41D
100
AcDbEntity
  8
0
100
AcDbSpline
 62
6
  6
CONTINUOUS
 70
0
 71
3
 72
11
 73
7
 74
0
 42
0.0000001
 43
0.0000001
 44
0.0000000001
 40
0.0
 40
0.0
 40
0.0
 40
0.0
 40
0.1922476005
 40
0.4279634141
 40
0.7021382093
 40
1.0
 40
1.0
 40
1.0
 40
1.0
 10
5.1678239007
 20
5.7688331914
 30
0.0
 10
5.1668794971
 20
5.7691699253
 30
0.0
 10
5.1647249816
 20
5.7697733209
 30
0.0
 10
5.1611187717
 20
5.7704302026
 30
0.0
 10
5.1569244776
 20
5.7708622219
 30
0.0
 10
5.153940103
 20
5.7709630707
 30
0.0
 10
5.1523866466
 20
5.7709630707
 30
0.0
  0
SPLINE
  5
41E
100
AcDbEntity
  8
0
100
AcDbSpline
 62
6
  6
CONTINUOUS
 70
0
 71
3
 72
14
 73
10
 74
0
 42
0.0000001
 43
0.0000001
 44
0.0000000001
 40
0.0
 40
0.0
 40
0.0
 40
0.0
 40
0.1278573123
 40
0.2557797871
 40
0.3827529348
 40
0.5085402766
 40
0.6332643565
 40
0.7567844234
 40
1.0
 40
1.0
 40
1.0
 40
1.0
 10
5.1523856786
 20
5.7601176769
 30
0.0
 10
5.15317135
 20
5.7601176769
 30
0.0
 10
5.1547450536
 20
5.7602323639
 30
0.0
 10
5.1570524233
 20
5.7607221321
 30
0.0
 10
5.1592610033
 20
5.7615146274
 30
0.0
 10
5.1613282466
 20
5.7625801782
 30
0.0
 10
5.1632328353
 20
5.7638768382
 30
0.0
 10
5.1655200517
 20
5.7658562071
 30
0.0
 10
5.1669789759
 20
5.7676004125
 30
0.0
 10
5.1678239007
 20
5.7688331914
 30
0.0
  0
SPLINE
  5
41F
100
AcDbEntity
  8
0
100
AcDbSpline
 62
6
  6
CONTINUOUS
 70
0
 71
3
 72
11
 73
7
 74
0
 42
0.0000001
 43
0.0000001
 44
0.0000000001
 40
0.0
 40
0.0
 40
0.0
 40
0.0
 40
0.1910290218
 40
0.4266479619
 40
0.7013584729
 40
1.0
 40
1.0
 40
1.0
 40
1.0
 10
5.1677381244
 20
5.74277623
 30
0.0
 10
5.1667871855
 20
5.7430344116
 30
0.0
 10
5.1646316266
 20
5.7434940703
 30
0.0
 10
5.1610463197
 20
5.7439928942
 30
0.0
 10
5.1568841675
 20
5.7443206713
 30
0.0
 10
5.1539261325
 20
5.7443971216
 30
0.0
 10
5.1523856826
 20
5.7443971216
 30
0.0
  0
SPLINE
  5
420
100
AcDbEntity
  8
0
100
AcDbSpline
 62
6
  6
CONTINUOUS
 70
0
 71
3
 72
13
 73
9
 74
0
 42
0.0000001
 43
0.0000001
 44
0.0000000001
 40
0.0
 40
0.0
 40
0.0
 40
0.0
 40
0.1271527552
 40
0.2544668584
 40
0.3810329192
 40
0.5066811075
 40
0.7551075472
 40
1.0
 40
1.0
 40
1.0
 40
1.0
 10
5.1523856903
 20
5.7340048168
 30
0.0
 10
5.1531648752
 20
5.7340048168
 30
0.0
 10
5.1547262308
 20
5.734119813
 30
0.0
 10
5.1570158633
 20
5.7346114862
 30
0.0
 10
5.159208756
 20
5.7354082847
 30
0.0
 10
5.1619354399
 20
5.7368305087
 30
0.0
 10
5.1649514612
 20
5.7391897103
 30
0.0
 10
5.1668937377
 20
5.7415356362
 30
0.0
 10
5.1677381244
 20
5.74277623
 30
0.0
  0
SPLINE
  5
421
100
AcDbEntity
  8
0
100
AcDbSpline
 62
6
  6
CONTINUOUS
 70
0
 71
3
 72
11
 73
7
 74
0
 42
0.0000001
 43
0.0000001
 44
0.0000000001
 40
0.0
 40
0.0
 40
0.0
 40
0.0
 40
0.1886746258
 40
0.4237543504
 40
0.6994418117
 40
1.0
 40
1.0
 40
1.0
 40
1.0
 10
5.1678239007
 20
5.7175973162
 30
0.0
 10
5.1668667825
 20
5.717782201
 30
0.0
 10
5.1647002089
 20
5.7181094081
 30
0.0
 10
5.1611028086
 20
5.7184636704
 30
0.0
 10
5.1569163444
 20
5.7186967738
 30
0.0
 10
5.1539388103
 20
5.7187511983
 30
0.0
 10
5.152385938
 20
5.7187511983
 30
0.0
  0
SPLINE
  5
422
100
AcDbEntity
  8
0
100
AcDbSpline
 62
6
  6
CONTINUOUS
 70
0
 71
3
 72
14
 73
10
 74
0
 42
0.0000001
 43
0.0000001
 44
0.0000000001
 40
0.0
 40
0.0
 40
0.0
 40
0.0
 40
0.1264847138
 40
0.2532243536
 40
0.3793744063
 40
0.5048119129
 40
0.6297077673
 40
0.7539292411
 40
1.0
 40
1.0
 40
1.0
 40
1.0
 10
5.1523857367
 20
5.7085428414
 30
0.0
 10
5.1531715635
 20
5.7085428414
 30
0.0
 10
5.1547469109
 20
5.7086622021
 30
0.0
 10
5.157055649
 20
5.7091717154
 30
0.0
 10
5.1592650652
 20
5.7099959382
 30
0.0
 10
5.1613324271
 20
5.7111037022
 30
0.0
 10
5.1632367578
 20
5.7124513359
 30
0.0
 10
5.1655277771
 20
5.7145121622
 30
0.0
 10
5.1669820218
 20
5.7163212094
 30
0.0
 10
5.1678239007
 20
5.7175973162
 30
0.0
  0
SPLINE
  5
423
100
AcDbEntity
  8
0
100
AcDbSpline
 62
6
  6
CONTINUOUS
 70
0
 71
3
 72
11
 73
7
 74
0
 42
0.0000001
 43
0.0000001
 44
0.0000000001
 40
0.0
 40
0.0
 40
0.0
 40
0.0
 40
0.1876430471
 40
0.4225449035
 40
0.6986690938
 40
1.0
 40
1.0
 40
1.0
 40
1.0
 10
5.1678239007
 20
5.6932104445
 30
0.0
 10
5.1668628559
 20
5.6933167043
 30
0.0
 10
5.1646930097
 20
5.6935040131
 30
0.0
 10
5.1610982149
 20
5.6937065274
 30
0.0
 10
5.1569139879
 20
5.6938397947
 30
0.0
 10
5.1539383399
 20
5.693870912
 30
0.0
 10
5.1523856191
 20
5.693870912
 30
0.0
  0
SPLINE
  5
424
100
AcDbEntity
  8
0
100
AcDbSpline
 62
6
  6
CONTINUOUS
 70
0
 71
3
 72
12
 73
8
 74
0
 42
0.0000001
 43
0.0000001
 44
0.0000000001
 40
0.0
 40
0.0
 40
0.0
 40
0.0
 40
0.2518397948
 40
0.3778077431
 40
0.50324769
 40
0.7525533471
 40
1.0
 40
1.0
 40
1.0
 40
1.0
 10
5.1523861875
 20
5.6840235005
 30
0.0
 10
5.1539558572
 20
5.6840235005
 30
0.0
 10
5.1563270968
 20
5.684384994
 30
0.0
 10
5.1592663312
 20
5.6854986993
 30
0.0
 10
5.1620162706
 20
5.6869931938
 30
0.0
 10
5.1650482777
 20
5.6894709696
 30
0.0
 10
5.1669831792
 20
5.691917448
 30
0.0
 10
5.1678239007
 20
5.6932104445
 30
0.0
  0
LINE
  5
425
100
AcDbEntity
  8
0
100
AcDbLine
 62
6
  6
CONTINUOUS
 10
5.1678239007
 20
5.6697341778
 11
5.1523856215
 21
5.6698994205
  0
SPLINE
  5
426
100
AcDbEntity
  8
0
100
AcDbSpline
 62
6
  6
CONTINUOUS
 70
0
 71
3
 72
12
 73
8
 74
0
 42
0.0000001
 43
0.0000001
 44
0.0000000001
 40
0.0
 40
0.0
 40
0.0
 40
0.0
 40
0.2510240647
 40
0.3767361571
 40
0.5020704974
 40
0.7516564077
 40
1.0
 40
1.0
 40
1.0
 40
1.0
 10
5.1523863671
 20
5.6604399454
 30
0.0
 10
5.1539564205
 20
5.6604399454
 30
0.0
 10
5.1563294631
 20
5.6608063379
 30
0.0
 10
5.1592677017
 20
5.6619330172
 30
0.0
 10
5.1620194383
 20
5.6634462671
 30
0.0
 10
5.1650524186
 20
5.6659554007
 30
0.0
 10
5.1669840881
 20
5.6684274954
 30
0.0
 10
5.1678239007
 20
5.6697341778
 30
0.0
  0
SPLINE
  5
427
100
AcDbEntity
  8
0
100
AcDbSpline
 62
6
  6
CONTINUOUS
 70
0
 71
3
 72
12
 73
8
 74
0
 42
0.0000001
 43
0.0000001
 44
0.0000000001
 40
0.0
 40
0.0
 40
0.0
 40
0.0
 40
0.250403054
 40
0.3759202879
 40
0.5011747619
 40
0.7509752271
 40
1.0
 40
1.0
 40
1.0
 40
1.0
 10
5.1523856789
 20
5.6378568172
 30
0.0
 10
5.1539560984
 20
5.6378568172
 30
0.0
 10
5.1563306378
 20
5.6382268116
 30
0.0
 10
5.1592682968
 20
5.6393632892
 30
0.0
 10
5.1620215511
 20
5.640890865
 30
0.0
 10
5.1650554027
 20
5.6434239962
 30
0.0
 10
5.1669847335
 20
5.6459156914
 30
0.0
 10
5.1678239007
 20
5.647232863
 30
0.0
  0
SPLINE
  5
428
100
AcDbEntity
  8
0
100
AcDbSpline
 62
6
  6
CONTINUOUS
 70
0
 71
3
 72
12
 73
8
 74
0
 42
0.0000001
 43
0.0000001
 44
0.0000000001
 40
0.0
 40
0.0
 40
0.0
 40
0.0
 40
0.2499791791
 40
0.3753547007
 40
0.5005523463
 40
0.7505075499
 40
1.0
 40
1.0
 40
1.0
 40
1.0
 10
5.1523856964
 20
5.6163962081
 30
0.0
 10
5.1539431907
 20
5.6163962081
 30
0.0
 10
5.1562986258
 20
5.6167617148
 30
0.0
 10
5.1592144045
 20
5.6178868313
 30
0.0
 10
5.1619510046
 20
5.6194012677
 30
0.0
 10
5.1649718746
 20
5.6219145243
 30
0.0
 10
5.1668983058
 20
5.6243869577
 30
0.0
 10
5.1677381244
 20
5.6256950311
 30
0.0
  0
SPLINE
  5
429
100
AcDbEntity
  8
0
100
AcDbSpline
 62
6
  6
CONTINUOUS
 70
0
 71
3
 72
12
 73
8
 74
0
 42
0.0000001
 43
0.0000001
 44
0.0000000001
 40
0.0
 40
0.0
 40
0.0
 40
0.0
 40
0.2497478439
 40
0.3750603526
 40
0.5002311746
 40
0.7502582054
 40
1.0
 40
1.0
 40
1.0
 40
1.0
 10
5.1523857368
 20
5.5959365242
 30
0.0
 10
5.1539564786
 20
5.5959365242
 30
0.0
 10
5.1563325005
 20
5.5963104746
 30
0.0
 10
5.1592693581
 20
5.5974573808
 30
0.0
 10
5.1620240608
 20
5.5990000912
 30
0.0
 10
5.1650586495
 20
5.6015584866
 30
0.0
 10
5.1669854377
 20
5.6040707556
 30
0.0
 10
5.1678239007
 20
5.6053989461
 30
0.0
  0
SPLINE
  5
42A
100
AcDbEntity
  8
0
100
AcDbSpline
 62
6
  6
CONTINUOUS
 70
0
 71
3
 72
12
 73
8
 74
0
 42
0.0000001
 43
0.0000001
 44
0.0000000001
 40
0.0
 40
0.0
 40
0.0
 40
0.0
 40
0.2497148774
 40
0.3750173829
 40
0.5001840518
 40
0.7502222294
 40
1.0
 40
1.0
 40
1.0
 40
1.0
 10
5.1523861874
 20
5.5767142602
 30
0.0
 10
5.1539569074
 20
5.5767142602
 30
0.0
 10
5.1563329428
 20
5.5770884905
 30
0.0
 10
5.1592696569
 20
5.5782359691
 30
0.0
 10
5.1620243481
 20
5.5797794341
 30
0.0
 10
5.1650588854
 20
5.5823390508
 30
0.0
 10
5.1669854919
 20
5.5848522961
 30
0.0
 10
5.1678239007
 20
5.5861810078
 30
0.0
  0
SPLINE
  5
42B
100
AcDbEntity
  8
0
100
AcDbSpline
 62
6
  6
CONTINUOUS
 70
0
 71
3
 72
9
 73
5
 74
0
 42
0.0000001
 43
0.0000001
 44
0.0000000001
 40
0.0
 40
0.0
 40
0.0
 40
0.0
 40
0.4991729024
 40
1.0
 40
1.0
 40
1.0
 40
1.0
 10
5.1523863671
 20
5.5587219092
 30
0.0
 10
5.1533370566
 20
5.5587219092
 30
0.0
 10
5.1552450425
 20
5.5589040976
 30
0.0
 10
5.1570897126
 20
5.5594193304
 30
0.0
 10
5.1579827084
 20
5.5597545455
 30
0.0
  0
SPLINE
  5
42C
100
AcDbEntity
  8
0
100
AcDbSpline
 62
6
  6
CONTINUOUS
 70
0
 71
3
 72
11
 73
7
 74
0
 42
0.0000001
 43
0.0000001
 44
0.0000000001
 40
0.0
 40
0.0
 40
0.0
 40
0.0
 40
0.2501494943
 40
0.5003674495
 40
0.7504342021
 40
1.0
 40
1.0
 40
1.0
 40
1.0
 10
5.1579827084
 20
5.5597545455
 30
0.0
 10
5.1590100768
 20
5.5601402017
 30
0.0
 10
5.1609914607
 20
5.5611210308
 30
0.0
 10
5.1636460452
 20
5.5630931397
 30
0.0
 10
5.1659462413
 20
5.5654620816
 30
0.0
 10
5.167238713
 20
5.5672417464
 30
0.0
 10
5.1678239007
 20
5.5681670348
 30
0.0
  0
SPLINE
  5
42D
100
AcDbEntity
  8
0
100
AcDbSpline
 62
6
  6
CONTINUOUS
 70
0
 71
3
 72
9
 73
5
 74
0
 42
0.0000001
 43
0.0000001
 44
0.0000000001
 40
0.0
 40
0.0
 40
0.0
 40
0.0
 40
0.2497147945
 40
1.0
 40
1.0
 40
1.0
 40
1.0
 10
5.152385679
 20
5.542008787
 30
0.0
 10
5.1528607823
 20
5.542008787
 30
0.0
 10
5.1547626084
 20
5.5420989556
 30
0.0
 10
5.1566454529
 20
5.5425367899
 30
0.0
 10
5.1579827114
 20
5.5430362302
 30
0.0
  0
SPLINE
  5
42E
100
AcDbEntity
  8
0
100
AcDbSpline
 62
6
  6
CONTINUOUS
 70
0
 71
3
 72
11
 73
7
 74
0
 42
0.0000001
 43
0.0000001
 44
0.0000000001
 40
0.0
 40
0.0
 40
0.0
 40
0.0
 40
0.2504434986
 40
0.5007563979
 40
0.7507172946
 40
1.0
 40
1.0
 40
1.0
 40
1.0
 10
5.1579827114
 20
5.5430362302
 30
0.0
 10
5.1590097191
 20
5.5434197978
 30
0.0
 10
5.1609903228
 20
5.5443951332
 30
0.0
 10
5.1636450465
 20
5.5463571532
 30
0.0
 10
5.1659454897
 20
5.5487141552
 30
0.0
 10
5.1672385306
 20
5.5504854812
 30
0.0
 10
5.1678239007
 20
5.5514064022
 30
0.0
  0
SPLINE
  5
42F
100
AcDbEntity
  8
0
100
AcDbSpline
 62
6
  6
CONTINUOUS
 70
0
 71
3
 72
9
 73
5
 74
0
 42
0.0000001
 43
0.0000001
 44
0.0000000001
 40
0.0
 40
0.0
 40
0.0
 40
0.0
 40
0.2497886518
 40
1.0
 40
1.0
 40
1.0
 40
1.0
 10
5.1523856962
 20
5.5266629341
 30
0.0
 10
5.1528572842
 20
5.5266629341
 30
0.0
 10
5.1547444896
 20
5.5267510281
 30
0.0
 10
5.1566135463
 20
5.5271788155
 30
0.0
 10
5.1579428562
 20
5.5276677029
 30
0.0
  0
SPLINE
  5
430
100
AcDbEntity
  8
0
100
AcDbSpline
 62
6
  6
CONTINUOUS
 70
0
 71
3
 72
11
 73
7
 74
0
 42
0.0000001
 43
0.0000001
 44
0.0000000001
 40
0.0
 40
0.0
 40
0.0
 40
0.0
 40
0.2508922064
 40
0.5013463484
 40
0.7511469954
 40
1.0
 40
1.0
 40
1.0
 40
1.0
 10
5.1579428562
 20
5.5276677029
 30
0.0
 10
5.1589612013
 20
5.5280422251
 30
0.0
 10
5.1609260926
 20
5.5289941174
 30
0.0
 10
5.1635661287
 20
5.5309116764
 30
0.0
 10
5.1658589801
 20
5.5332175559
 30
0.0
 10
5.1671519496
 20
5.5349528972
 30
0.0
 10
5.1677381244
 20
5.5358554674
 30
0.0
  0
SPLINE
  5
431
100
AcDbEntity
  8
0
100
AcDbSpline
 62
6
  6
CONTINUOUS
 70
0
 71
3
 72
9
 73
5
 74
0
 42
0.0000001
 43
0.0000001
 44
0.0000000001
 40
0.0
 40
0.0
 40
0.0
 40
0.0
 40
0.7494681361
 40
1.0
 40
1.0
 40
1.0
 40
1.0
 10
5.1523857361
 20
5.5125998352
 30
0.0
 10
5.1538105419
 20
5.5125998352
 30
0.0
 10
5.1557237265
 20
5.5128668005
 30
0.0
 10
5.1575355364
 20
5.51344451
 30
0.0
 10
5.1579827111
 20
5.5136084632
 30
0.0
  0
SPLINE
  5
432
100
AcDbEntity
  8
0
100
AcDbSpline
 62
6
  6
CONTINUOUS
 70
0
 71
3
 72
11
 73
7
 74
0
 42
0.0000001
 43
0.0000001
 44
0.0000000001
 40
0.0
 40
0.0
 40
0.0
 40
0.0
 40
0.2515171575
 40
0.502176248
 40
0.7517515655
 40
1.0
 40
1.0
 40
1.0
 40
1.0
 10
5.1579827111
 20
5.5136084632
 30
0.0
 10
5.1590084081
 20
5.5139845273
 30
0.0
 10
5.160986164
 20
5.5149400059
 30
0.0
 10
5.1636414049
 20
5.5168654179
 30
0.0
 10
5.1659427256
 20
5.5191791509
 30
0.0
 10
5.1672378541
 20
5.5209202545
 30
0.0
 10
5.1678239007
 20
5.5218253558
 30
0.0
  0
SPLINE
  5
433
100
AcDbEntity
  8
0
100
AcDbSpline
 62
6
  6
CONTINUOUS
 70
0
 71
3
 72
9
 73
5
 74
0
 42
0.0000001
 43
0.0000001
 44
0.0000000001
 40
0.0
 40
0.0
 40
0.0
 40
0.0
 40
0.7496538592
 40
1.0
 40
1.0
 40
1.0
 40
1.0
 10
5.1523861874
 20
5.4999846136
 30
0.0
 10
5.153810536
 20
5.4999846136
 30
0.0
 10
5.1557223816
 20
5.5002476107
 30
0.0
 10
5.1575354124
 20
5.500817876
 30
0.0
 10
5.1579827092
 20
5.5009796716
 30
0.0
  0
SPLINE
  5
434
100
AcDbEntity
  8
0
100
AcDbSpline
 62
6
  6
CONTINUOUS
 70
0
 71
3
 72
10
 73
6
 74
0
 42
0.0000001
 43
0.0000001
 44
0.0000000001
 40
0.0
 40
0.0
 40
0.0
 40
0.0
 40
0.2526240984
 40
0.5038601442
 40
1.0
 40
1.0
 40
1.0
 40
1.0
 10
5.1579827092
 20
5.5009796716
 30
0.0
 10
5.1590074661
 20
5.5013503452
 30
0.0
 10
5.1609835976
 20
5.5022921058
 30
0.0
 10
5.1645054329
 20
5.5048091019
 30
0.0
 10
5.1666495851
 20
5.5072967859
 30
0.0
 10
5.1678239007
 20
5.5090860217
 30
0.0
  0
SPLINE
  5
435
100
AcDbEntity
  8
0
100
AcDbSpline
 62
6
  6
CONTINUOUS
 70
0
 71
3
 72
9
 73
5
 74
0
 42
0.0000001
 43
0.0000001
 44
0.0000000001
 40
0.0
 40
0.0
 40
0.0
 40
0.0
 40
0.2501327961
 40
1.0
 40
1.0
 40
1.0
 40
1.0
 10
5.1523863671
 20
5.4888096156
 30
0.0
 10
5.1528613647
 20
5.4888096156
 30
0.0
 10
5.1547596041
 20
5.4888954162
 30
0.0
 10
5.1566411124
 20
5.4893110396
 30
0.0
 10
5.1579827084
 20
5.4897883767
 30
0.0
  0
SPLINE
  5
436
100
AcDbEntity
  8
0
100
AcDbSpline
 62
6
  6
CONTINUOUS
 70
0
 71
3
 72
10
 73
6
 74
0
 42
0.0000001
 43
0.0000001
 44
0.0000000001
 40
0.0
 40
0.0
 40
0.0
 40
0.0
 40
0.2535718922
 40
0.5051177378
 40
1.0
 40
1.0
 40
1.0
 40
1.0
 10
5.1579827084
 20
5.4897883767
 30
0.0
 10
5.1590063458
 20
5.4901525848
 30
0.0
 10
5.1609799964
 20
5.4910772639
 30
0.0
 10
5.1644980104
 20
5.4935490608
 30
0.0
 10
5.1666469679
 20
5.4959981101
 30
0.0
 10
5.1678239007
 20
5.4977619648
 30
0.0
  0
SPLINE
  5
437
100
AcDbEntity
  8
0
100
AcDbSpline
 62
6
  6
CONTINUOUS
 70
0
 71
3
 72
9
 73
5
 74
0
 42
0.0000001
 43
0.0000001
 44
0.0000000001
 40
0.0
 40
0.0
 40
0.0
 40
0.0
 40
0.2502915474
 40
1.0
 40
1.0
 40
1.0
 40
1.0
 10
5.1523856789
 20
5.4791054712
 30
0.0
 10
5.152860716
 20
5.4791054712
 30
0.0
 10
5.1547579153
 20
5.4791895559
 30
0.0
 10
5.1566392313
 20
5.4795965328
 30
0.0
 10
5.1579827114
 20
5.4800652541
 30
0.0
  0
SPLINE
  5
438
100
AcDbEntity
  8
0
100
AcDbSpline
 62
6
  6
CONTINUOUS
 70
0
 71
3
 72
9
 73
5
 74
0
 42
0.0000001
 43
0.0000001
 44
0.0000000001
 40
0.0
 40
0.0
 40
0.0
 40
0.0
 40
0.5046039083
 40
1.0
 40
1.0
 40
1.0
 40
1.0
 10
5.1579827114
 20
5.4800652541
 30
0.0
 10
5.1596436873
 20
5.4806447451
 30
0.0
 10
5.1627722596
 20
5.4823078778
 30
0.0
 10
5.1653323294
 20
5.484730767
 30
0.0
 10
5.1664415209
 20
5.4860545629
 30
0.0
  0
SPLINE
  5
439
100
AcDbEntity
  8
0
100
AcDbSpline
 62
6
  6
CONTINUOUS
 70
0
 71
3
 72
9
 73
5
 74
0
 42
0.0000001
 43
0.0000001
 44
0.0000000001
 40
0.0
 40
0.0
 40
0.0
 40
0.0
 40
0.2504653052
 40
1.0
 40
1.0
 40
1.0
 40
1.0
 10
5.1523856967
 20
5.470920169
 30
0.0
 10
5.1528569323
 20
5.470920169
 30
0.0
 10
5.154737656
 20
5.4710008465
 30
0.0
 10
5.1566038988
 20
5.4713913498
 30
0.0
 10
5.1579397598
 20
5.4718431832
 30
0.0
  0
SPLINE
  5
43A
100
AcDbEntity
  8
0
100
AcDbSpline
 62
6
  6
CONTINUOUS
 70
0
 71
3
 72
9
 73
5
 74
0
 42
0.0000001
 43
0.0000001
 44
0.0000000001
 40
0.0
 40
0.0
 40
0.0
 40
0.0
 40
0.5060048746
 40
1.0
 40
1.0
 40
1.0
 40
1.0
 10
5.1579397598
 20
5.4718431832
 30
0.0
 10
5.1595961325
 20
5.4724034245
 30
0.0
 10
5.1627161434
 20
5.474012447
 30
0.0
 10
5.1652888775
 20
5.4763762934
 30
0.0
 10
5.1664033287
 20
5.4776693628
 30
0.0
  0
SPLINE
  5
43B
100
AcDbEntity
  8
0
100
AcDbSpline
 62
6
  6
CONTINUOUS
 70
0
 71
3
 72
9
 73
5
 74
0
 42
0.0000001
 43
0.0000001
 44
0.0000000001
 40
0.0
 40
0.0
 40
0.0
 40
0.0
 40
0.2506620716
 40
1.0
 40
1.0
 40
1.0
 40
1.0
 10
5.1523857365
 20
5.4642120322
 30
0.0
 10
5.1528607264
 20
5.4642120322
 30
0.0
 10
5.1547549563
 20
5.4642920218
 30
0.0
 10
5.1566351861
 20
5.4646783197
 30
0.0
 10
5.1579827111
 20
5.4651260234
 30
0.0
  0
SPLINE
  5
43C
100
AcDbEntity
  8
0
100
AcDbSpline
 62
6
  6
CONTINUOUS
 70
0
 71
3
 72
9
 73
5
 74
0
 42
0.0000001
 43
0.0000001
 44
0.0000000001
 40
0.0
 40
0.0
 40
0.0
 40
0.0
 40
0.5076159966
 40
1.0
 40
1.0
 40
1.0
 40
1.0
 10
5.1579827111
 20
5.4651260234
 30
0.0
 10
5.1596352845
 20
5.4656750767
 30
0.0
 10
5.1627455046
 20
5.4672433758
 30
0.0
 10
5.1653257229
 20
5.4695614342
 30
0.0
 10
5.1664415209
 20
5.4708295802
 30
0.0
  0
SPLINE
  5
43D
100
AcDbEntity
  8
0
100
AcDbSpline
 62
6
  6
CONTINUOUS
 70
0
 71
3
 72
9
 73
5
 74
0
 42
0.0000001
 43
0.0000001
 44
0.0000000001
 40
0.0
 40
0.0
 40
0.0
 40
0.0
 40
0.2508703357
 40
1.0
 40
1.0
 40
1.0
 40
1.0
 10
5.1523861874
 20
5.4590635595
 30
0.0
 10
5.1528611159
 20
5.4590635595
 30
0.0
 10
5.1547535452
 20
5.4591411769
 30
0.0
 10
5.1566329882
 20
5.459515513
 30
0.0
 10
5.1579827092
 20
5.4599508633
 30
0.0
  0
SPLINE
  5
43E
100
AcDbEntity
  8
0
100
AcDbSpline
 62
6
  6
CONTINUOUS
 70
0
 71
3
 72
9
 73
5
 74
0
 42
0.0000001
 43
0.0000001
 44
0.0000000001
 40
0.0
 40
0.0
 40
0.0
 40
0.0
 40
0.5093917124
 40
1.0
 40
1.0
 40
1.0
 40
1.0
 10
5.1579827092
 20
5.4599508633
 30
0.0
 10
5.1596304778
 20
5.4604823483
 30
0.0
 10
5.1627297237
 20
5.4619959973
 30
0.0
 10
5.1653216963
 20
5.4642523246
 30
0.0
 10
5.1664415213
 20
5.4654878876
 30
0.0
  0
SPLINE
  5
43F
100
AcDbEntity
  8
0
100
AcDbSpline
 62
6
  6
CONTINUOUS
 70
0
 71
3
 72
9
 73
5
 74
0
 42
0.0000001
 43
0.0000001
 44
0.0000000001
 40
0.0
 40
0.0
 40
0.0
 40
0.0
 40
0.5113432065
 40
1.0
 40
1.0
 40
1.0
 40
1.0
 10
5.1579827084
 20
5.456325657
 30
0.0
 10
5.159625323
 20
5.4568380973
 30
0.0
 10
5.162712381
 20
5.4582926847
 30
0.0
 10
5.1653171511
 20
5.4604811059
 30
0.0
 10
5.1664415214
 20
5.4616809723
 30
0.0
  0
LINE
  5
440
100
AcDbEntity
  8
0
100
AcDbLine
 62
9
  6
CONTINUOUS
 10
5.4123856672
 20
5.3639355229
 11
5.4890089831
 21
5.4615090519
  0
SPLINE
  5
441
100
AcDbEntity
  8
0
100
AcDbSpline
 62
9
  6
CONTINUOUS
 70
0
 71
3
 72
11
 73
7
 74
0
 42
0.0000001
 43
0.0000001
 44
0.0000000001
 40
0.0
 40
0.0
 40
0.0
 40
0.0
 40
0.2269739443
 40
0.4718222662
 40
0.7304712875
 40
1.0
 40
1.0
 40
1.0
 40
1.0
 10
5.4890089831
 20
5.4615090519
 30
0.0
 10
5.4980829855
 20
5.4730234383
 30
0.0
 10
5.5169546494
 20
5.4969518319
 30
0.0
 10
5.5462572527
 20
5.5339299697
 30
0.0
 10
5.5774183407
 20
5.5729418407
 30
0.0
 10
5.5987528733
 20
5.5995622752
 30
0.0
 10
5.6096383004
 20
5.6131479259
 30
0.0
  0
SPLINE
  5
442
100
AcDbEntity
  8
0
100
AcDbSpline
 62
9
  6
CONTINUOUS
 70
0
 71
3
 72
28
 73
24
 74
0
 42
0.0000001
 43
0.0000001
 44
0.0000000001
 40
0.0
 40
0.0
 40
0.0
 40
0.0
 40
0.0002142642
 40
0.0008605758
 40
0.0019389694
 40
0.0034494643
 40
0.0053920783
 40
0.0077668288
 40
0.0138128076
 40
0.021587537
 40
0.0310911529
 40
0.0423237911
 40
0.0552855875
 40
0.0863971973
 40
0.1244381609
 40
0.1696767416
 40
0.2226487896
 40
0.2839280599
 40
0.354120153
 40
0.4338625468
 40
0.5238224088
 40
0.7371717685
 40
1.0
 40
1.0
 40
1.0
 40
1.0
 10
6.5398775126
 20
5.5944872239
 30
0.0
 10
6.5398782441
 20
5.5944876735
 30
0.0
 10
6.5398718576
 20
5.5944896746
 30
0.0
 10
6.5398687532
 20
5.594493826
 30
0.0
 10
6.5398559468
 20
5.5945009554
 30
0.0
 10
6.5398415789
 20
5.5945108235
 30
0.0
 10
6.539821656
 20
5.5945235457
 30
0.0
 10
6.5397869704
 20
5.5945461337
 30
0.0
 10
6.5397323972
 20
5.5945814197
 30
0.0
 10
6.5396539803
 20
5.5946322055
 30
0.0
 10
6.5395580373
 20
5.5946942613
 30
0.0
 10
6.5394446495
 20
5.5947675837
 30
0.0
 10
6.5392585158
 20
5.5948878799
 30
0.0
 10
6.5389821704
 20
5.5950664987
 30
0.0
 10
6.5385968202
 20
5.5953147383
 30
0.0
 10
6.538139966
 20
5.5956137373
 30
0.0
 10
6.5376118908
 20
5.5959738198
 30
0.0
 10
6.5370114102
 20
5.5964048797
 30
0.0
 10
6.5363375608
 20
5.5969171929
 30
0.0
 10
6.5355893106
 20
5.5975209209
 30
0.0
 10
6.5344233286
 20
5.5985195266
 30
0.0
 10
6.5327688165
 20
5.6000736053
 30
0.0
 10
6.5314502948
 20
5.6014542446
 30
0.0
 10
6.5307401332
 20
5.6022319992
 30
0.0
  0
SPLINE
  5
443
100
AcDbEntity
  8
0
100
AcDbSpline
 62
9
  6
CONTINUOUS
 70
0
 71
3
 72
25
 73
21
 74
0
 42
0.0000001
 43
0.0000001
 44
0.0000000001
 40
0.0
 40
0.0
 40
0.0
 40
0.0
 40
0.0019646411
 40
0.0036407198
 40
0.0058545622
 40
0.0119564994
 40
0.0203262783
 40
0.0309681078
 40
0.0438730833
 40
0.0764127462
 40
0.1177495474
 40
0.1674638523
 40
0.2250858086
 40
0.2901427291
 40
0.3621132673
 40
0.440352186
 40
0.5241939291
 40
0.6129725289
 40
0.8021157
 40
1.0
 40
1.0
 40
1.0
 40
1.0
 10
6.5623855967
 20
5.7245803968
 30
0.0
 10
6.5623856391
 20
5.7245620619
 30
0.0
 10
6.5623542592
 20
5.7245349513
 30
0.0
 10
6.5623071675
 20
5.7245120643
 30
0.0
 10
6.5622185223
 20
5.724479344
 30
0.0
 10
6.5620676499
 20
5.7244427054
 30
0.0
 10
6.5618367863
 20
5.7244002891
 30
0.0
 10
6.5615419612
 20
5.7243582568
 30
0.0
 10
6.561022007
 20
5.7242973753
 30
0.0
 10
6.5602151558
 20
5.7242262231
 30
0.0
 10
6.5590643678
 20
5.724147998
 30
0.0
 10
6.5576788815
 20
5.7240730034
 30
0.0
 10
6.5560715861
 20
5.7240019387
 30
0.0
 10
6.554256228
 20
5.7239356839
 30
0.0
 10
6.5522481781
 20
5.7238749299
 30
0.0
 10
6.5500645908
 20
5.7238201411
 30
0.0
 10
6.5477239559
 20
5.7237718348
 30
0.0
 10
6.5443482836
 20
5.7237156334
 30
0.0
 10
6.5399080983
 20
5.7236661099
 30
0.0
 10
6.5362962153
 20
5.7236476607
 30
0.0
 10
6.5344494783
 20
5.7236436767
 30
0.0
  0
SPLINE
  5
444
100
AcDbEntity
  8
0
100
AcDbSpline
 62
9
  6
CONTINUOUS
 70
0
 71
3
 72
24
 73
20
 74
0
 42
0.0000001
 43
0.0000001
 44
0.0000000001
 40
0.0
 40
0.0
 40
0.0
 40
0.0
 40
0.1890030495
 40
0.3708169809
 40
0.5387383867
 40
0.615745984
 40
0.6872541891
 40
0.7526646226
 40
0.8113822066
 40
0.8628976745
 40
0.9068154557
 40
0.9427489468
 40
0.9576125229
 40
0.9703724992
 40
0.9810081392
 40
0.9895000632
 40
0.9958321396
 40
0.9981859798
 40
1.0
 40
1.0
 40
1.0
 40
1.0
 10
6.5344494783
 20
5.7236436767
 30
0.0
 10
6.5343245856
 20
5.7159904628
 30
0.0
 10
6.5340681121
 20
5.7009753199
 30
0.0
 10
6.5336400572
 20
5.6791616972
 30
0.0
 10
6.533241935
 20
5.6618840313
 30
0.0
 10
6.5329077089
 20
5.6490733288
 30
0.0
 10
6.532661465
 20
5.6404132491
 30
0.0
 10
6.532413965
 20
5.6324942399
 30
0.0
 10
6.5321664713
 20
5.6253853308
 30
0.0
 10
6.5319207794
 20
5.6191473459
 30
0.0
 10
6.5316795117
 20
5.6138327064
 30
0.0
 10
6.5314739749
 20
5.6100023754
 30
0.0
 10
6.5313087264
 20
5.6074337242
 30
0.0
 10
6.5311948594
 20
5.6058884798
 30
0.0
 10
6.5310835477
 20
5.6046018187
 30
0.0
 10
6.5309745803
 20
5.6035765308
 30
0.0
 10
6.5308805297
 20
5.6028868867
 30
0.0
 10
6.5308015115
 20
5.6024690132
 30
0.0
 10
6.5307617196
 20
5.6023047842
 30
0.0
 10
6.5307406301
 20
5.6022344123
 30
0.0
  0
SPLINE
  5
445
100
AcDbEntity
  8
0
100
AcDbSpline
 62
9
  6
CONTINUOUS
 70
0
 71
3
 72
17
 73
13
 74
0
 42
0.0000001
 43
0.0000001
 44
0.0000000001
 40
0.0
 40
0.0
 40
0.0
 40
0.0
 40
0.1247272945
 40
0.2495845346
 40
0.3120575224
 40
0.3745583412
 40
0.4996315011
 40
0.6247684731
 40
0.687348129
 40
0.7499266658
 40
0.8750345923
 40
1.0
 40
1.0
 40
1.0
 40
1.0
 10
6.2547069808
 20
5.7084346862
 30
0.0
 10
6.2663480553
 20
5.7088577934
 30
0.0
 10
6.2896428172
 20
5.7096907757
 30
0.0
 10
6.3187662852
 20
5.7107932987
 30
0.0
 10
6.3420786115
 20
5.7117686613
 30
0.0
 10
6.3654074756
 20
5.7128279027
 30
0.0
 10
6.3945747269
 20
5.714323129
 30
0.0
 10
6.4237391062
 20
5.7160043269
 30
0.0
 10
6.4470710539
 20
5.7174394782
 30
0.0
 10
6.4703969559
 20
5.7189277479
 30
0.0
 10
6.4995292862
 20
5.7209141311
 30
0.0
 10
6.5228171245
 20
5.7226936333
 30
0.0
 10
6.5344493184
 20
5.7236445773
 30
0.0
  0
SPLINE
  5
446
100
AcDbEntity
  8
0
100
AcDbSpline
 62
9
  6
CONTINUOUS
 70
0
 71
3
 72
32
 73
28
 74
0
 42
0.0000001
 43
0.0000001
 44
0.0000000001
 40
0.0
 40
0.0
 40
0.0
 40
0.0
 40
0.0587812896
 40
0.1183170889
 40
0.178552417
 40
0.2394312524
 40
0.3008865543
 40
0.3628473436
 40
0.425248207
 40
0.4880407456
 40
0.5195711604
 40
0.5511837057
 40
0.5828715153
 40
0.6146289732
 40
0.6464522749
 40
0.6783388187
 40
0.7102824855
 40
0.7422805131
 40
0.7743386407
 40
0.7903949596
 40
0.8064671224
 40
0.8386342077
 40
0.8708226116
 40
0.9030678696
 40
0.9354004815
 40
0.96773212
 40
1.0
 40
1.0
 40
1.0
 40
1.0
 10
5.5188140903
 20
5.7066371146
 30
0.0
 10
5.5260735694
 20
5.7119177041
 30
0.0
 10
5.5406569315
 20
5.7225861984
 30
0.0
 10
5.5626383997
 20
5.7387217509
 30
0.0
 10
5.5849093556
 20
5.7550043472
 30
0.0
 10
5.6075081379
 20
5.7713346783
 30
0.0
 10
5.6304227163
 20
5.7876769831
 30
0.0
 10
5.6536332441
 20
5.8040036245
 30
0.0
 10
5.677127446
 20
5.8202808614
 30
0.0
 10
5.6969383158
 20
5.8337126244
 30
0.0
 10
5.7129593297
 20
5.8443531266
 30
0.0
 10
5.7250813378
 20
5.8522776128
 30
0.0
 10
5.737304417
 20
5.8601098936
 30
0.0
 10
5.7496388758
 20
5.8678266162
 30
0.0
 10
5.7620956784
 20
5.8754029813
 30
0.0
 10
5.7746828919
 20
5.8828171731
 30
0.0
 10
5.7874232601
 20
5.8900201221
 30
0.0
 10
5.8003415223
 20
5.8969553048
 30
0.0
 10
5.8112688779
 20
5.9024615817
 30
0.0
 10
5.8201190395
 20
5.906676906
 30
0.0
 10
5.8290533353
 20
5.9107510276
 30
0.0
 10
5.8403777491
 20
5.9155181516
 30
0.0
 10
5.8542518263
 20
5.9205551808
 30
0.0
 10
5.8684375224
 20
5.9247359615
 30
0.0
 10
5.8829110224
 20
5.9278931505
 30
0.0
 10
5.897590075
 20
5.9299199054
 30
0.0
 10
5.9074578844
 20
5.930433663
 30
0.0
 10
5.9123856672
 20
5.9304594653
 30
0.0
  0
SPLINE
  5
447
100
AcDbEntity
  8
0
100
AcDbSpline
 62
9
  6
CONTINUOUS
 70
0
 71
3
 72
42
 73
38
 74
0
 42
0.0000001
 43
0.0000001
 44
0.0000000001
 40
0.0
 40
0.0
 40
0.0
 40
0.0
 40
0.0000434126
 40
0.0000797177
 40
0.0001464568
 40
0.000252523
 40
0.0003997076
 40
0.0005885238
 40
0.0008191156
 40
0.0010914839
 40
0.0017612392
 40
0.0025969382
 40
0.0035974798
 40
0.0047616695
 40
0.0060882672
 40
0.0075760081
 40
0.0110297942
 40
0.0151127168
 40
0.0198144065
 40
0.0310325527
 40
0.0446013658
 40
0.0604463027
 40
0.0785059882
 40
0.0987201547
 40
0.1210284848
 40
0.1453706419
 40
0.1716862661
 40
0.1999092356
 40
0.2299599997
 40
0.2952190673
 40
0.3668117607
 40
0.4440952535
 40
0.526529136
 40
0.6136385644
 40
0.7049497758
 40
0.8000039442
 40
1.0
 40
1.0
 40
1.0
 40
1.0
 10
5.2623856672
 20
5.5139352483
 30
0.0
 10
5.2623829632
 20
5.5139352483
 30
0.0
 10
5.2623766244
 20
5.5139358466
 30
0.0
 10
5.262376187
 20
5.5139467444
 30
0.0
 10
5.2623837268
 20
5.5139573605
 30
0.0
 10
5.2623959112
 20
5.5139731685
 30
0.0
 10
5.2624151411
 20
5.5139929334
 30
0.0
 10
5.2624405882
 20
5.5140173768
 30
0.0
 10
5.2624726387
 20
5.5140461921
 30
0.0
 10
5.2625279075
 20
5.514093953
 30
0.0
 10
5.2626133766
 20
5.5141643847
 30
0.0
 10
5.2627354414
 20
5.5142616759
 30
0.0
 10
5.2628828589
 20
5.5143765545
 30
0.0
 10
5.2630553677
 20
5.5145089662
 30
0.0
 10
5.2632527232
 20
5.5146588414
 30
0.0
 10
5.2635645157
 20
5.5148938284
 30
0.0
 10
5.2640147434
 20
5.5152303787
 30
0.0
 10
5.2646263289
 20
5.5156854233
 30
0.0
 10
5.2656264526
 20
5.5164284443
 30
0.0
 10
5.2671001817
 20
5.5175247479
 30
0.0
 10
5.2691253962
 20
5.5190425813
 30
0.0
 10
5.2714847746
 20
5.520825067
 30
0.0
 10
5.2741703375
 20
5.5228624509
 30
0.0
 10
5.2771739443
 20
5.5251467029
 30
0.0
 10
5.2804878409
 20
5.5276693974
 30
0.0
 10
5.2841041693
 20
5.530422243
 30
0.0
 10
5.2880148884
 20
5.533396591
 30
0.0
 10
5.2922107054
 20
5.5365834579
 30
0.0
 10
5.2983404588
 20
5.5412345288
 30
0.0
 10
5.3066259907
 20
5.5475135428
 30
0.0
 10
5.3172601187
 20
5.5555644412
 30
0.0
 10
5.3287492476
 20
5.5642583095
 30
0.0
 10
5.3410116146
 20
5.5735320426
 30
0.0
 10
5.3539747115
 20
5.5833277537
 30
0.0
 10
5.3675698651
 20
5.5935909066
 30
0.0
 10
5.3867850226
 20
5.608079794
 30
0.0
 10
5.4014704451
 20
5.6191291767
 30
0.0
 10
5.4114314643
 20
5.6266099471
 30
0.0
  0
LINE
  5
448
100
AcDbEntity
  8
0
100
AcDbLine
 62
9
  6
CONTINUOUS
 10
5.4114314643
 20
5.6266099471
 11
5.4123133968
 21
5.6272722461
  0
LINE
  5
449
100
AcDbEntity
  8
0
100
AcDbLine
 62
9
  6
CONTINUOUS
 10
5.4123133968
 20
5.6272722461
 11
5.4146362412
 21
5.629016267
  0
LINE
  5
44A
100
AcDbEntity
  8
0
100
AcDbLine
 62
9
  6
CONTINUOUS
 10
5.4146362412
 20
5.629016267
 11
5.4213366157
 21
5.6340440929
  0
LINE
  5
44B
100
AcDbEntity
  8
0
100
AcDbLine
 62
9
  6
CONTINUOUS
 10
5.4213366157
 20
5.6340440929
 11
5.4332172302
 21
5.6429480443
  0
LINE
  5
44C
100
AcDbEntity
  8
0
100
AcDbLine
 62
9
  6
CONTINUOUS
 10
5.4332172302
 20
5.6429480443
 11
5.4361444635
 21
5.6451396152
  0
LINE
  5
44D
100
AcDbEntity
  8
0
100
AcDbLine
 62
9
  6
CONTINUOUS
 10
5.4361444635
 20
5.6451396152
 11
5.4391442951
 21
5.647384589
  0
LINE
  5
44E
100
AcDbEntity
  8
0
100
AcDbLine
 62
9
  6
CONTINUOUS
 10
5.4391442951
 20
5.647384589
 11
5.4397897757
 21
5.6478675187
  0
LINE
  5
44F
100
AcDbEntity
  8
0
100
AcDbLine
 62
9
  6
CONTINUOUS
 10
5.4397897757
 20
5.6478675187
 11
5.442760017
 21
5.650089188
  0
LINE
  5
450
100
AcDbEntity
  8
0
100
AcDbLine
 62
9
  6
CONTINUOUS
 10
5.442760017
 20
5.650089188
 11
5.4569534983
 21
5.6606923217
  0
LINE
  5
451
100
AcDbEntity
  8
0
100
AcDbLine
 62
9
  6
CONTINUOUS
 10
5.4569534983
 20
5.6606923217
 11
5.4618387094
 21
5.6643366529
  0
LINE
  5
452
100
AcDbEntity
  8
0
100
AcDbLine
 62
9
  6
CONTINUOUS
 10
5.4618387094
 20
5.6643366529
 11
5.4652886017
 21
5.666908645
  0
LINE
  5
453
100
AcDbEntity
  8
0
100
AcDbLine
 62
9
  6
CONTINUOUS
 10
5.4652886017
 20
5.666908645
 11
5.4684776118
 21
5.6692849546
  0
LINE
  5
454
100
AcDbEntity
  8
0
100
AcDbLine
 62
9
  6
CONTINUOUS
 10
5.5117732287
 20
5.7014306607
 11
5.5188140903
 21
5.7066371146
  0
SPLINE
  5
455
100
AcDbEntity
  8
0
100
AcDbSpline
 62
9
  6
CONTINUOUS
 70
0
 71
3
 72
30
 73
26
 74
0
 42
0.0000001
 43
0.0000001
 44
0.0000000001
 40
0.0
 40
0.0
 40
0.0
 40
0.0
 40
0.1627478399
 40
0.3046418627
 40
0.4272736198
 40
0.5322078732
 40
0.621368971
 40
0.6969357607
 40
0.7610675006
 40
0.8157358008
 40
0.861974024
 40
0.9004639099
 40
0.9318673203
 40
0.9451127686
 40
0.9568127358
 40
0.9670120962
 40
0.9757538262
 40
0.9830808497
 40
0.989036043
 40
0.9936622542
 40
0.9970023629
 40
0.9982036153
 40
0.9990996122
 40
0.9996960897
 40
1.0
 40
1.0
 40
1.0
 40
1.0
 10
6.4674509668
 20
5.6092963266
 30
0.0
 10
6.4704771261
 20
5.6079093525
 30
0.0
 10
6.4761769947
 20
5.6053890476
 30
0.0
 10
6.484270416
 20
5.6020880651
 30
0.0
 10
6.4913480752
 20
5.599436798
 30
0.0
 10
6.4974726349
 20
5.5973229772
 30
0.0
 10
6.5027328817
 20
5.5956615045
 30
0.0
 10
6.5072361899
 20
5.5943810111
 30
0.0
 10
6.5110911368
 20
5.5934069072
 30
0.0
 10
6.5143848056
 20
5.5926655438
 30
0.0
 10
6.5171817272
 20
5.5921101305
 30
0.0
 10
6.519522588
 20
5.5917053612
 30
0.0
 10
6.5212043752
 20
5.591452876
 30
0.0
 10
6.5223460966
 20
5.5912951197
 30
0.0
 10
6.523058657
 20
5.591200166
 30
0.0
 10
6.5236803623
 20
5.5911208921
 30
0.0
 10
6.5242137457
 20
5.5910561668
 30
0.0
 10
6.5246613081
 20
5.5910049713
 30
0.0
 10
6.5250255642
 20
5.5909661864
 30
0.0
 10
6.5253089865
 20
5.5909388795
 30
0.0
 10
6.5254958911
 20
5.5909231091
 30
0.0
 10
6.5256068231
 20
5.5909159395
 30
0.0
 10
6.5256619432
 20
5.5909130081
 30
0.0
 10
6.5256985129
 20
5.5909127245
 30
0.0
 10
6.5257171739
 20
5.5909127394
 30
0.0
 10
6.5257232016
 20
5.5909142587
 30
0.0
  0
SPLINE
  5
456
100
AcDbEntity
  8
0
100
AcDbSpline
 62
9
  6
CONTINUOUS
 70
0
 71
3
 72
21
 73
17
 74
0
 42
0.0000001
 43
0.0000001
 44
0.0000000001
 40
0.0
 40
0.0
 40
0.0
 40
0.0
 40
0.0662511959
 40
0.1321755416
 40
0.1977935267
 40
0.2631297875
 40
0.3281511624
 40
0.3927917659
 40
0.4569731125
 40
0.5206275155
 40
0.6460897295
 40
0.7077354821
 40
0.7685276931
 40
0.8283004358
 40
0.886856361
 40
1.0
 40
1.0
 40
1.0
 40
1.0
 10
6.2547080304
 20
5.7084342887
 30
0.0
 10
6.2590094691
 20
5.7054983529
 30
0.0
 10
6.2676330378
 20
5.6997018606
 30
0.0
 10
6.2807026676
 20
5.6912776414
 30
0.0
 10
6.2939145121
 20
5.6832138453
 30
0.0
 10
6.3072936793
 20
5.6755731462
 30
0.0
 10
6.320782769
 20
5.6682902263
 30
0.0
 10
6.3343268966
 20
5.6613071668
 30
0.0
 10
6.3478745242
 20
5.6545689274
 30
0.0
 10
6.3658420585
 20
5.6459869898
 30
0.0
 10
6.3838452813
 20
5.6379458772
 30
0.0
 10
6.4018702248
 20
5.630536988
 30
0.0
 10
6.4152331849
 20
5.6253776112
 30
0.0
 10
6.4284872342
 20
5.6206192905
 30
0.0
 10
6.4457680509
 20
5.6149224904
 30
0.0
 10
6.4587824798
 20
5.611278315
 30
0.0
 10
6.4674528416
 20
5.6092962983
 30
0.0
  0
SPLINE
  5
457
100
AcDbEntity
  8
0
100
AcDbSpline
 62
9
  6
CONTINUOUS
 70
0
 71
3
 72
13
 73
9
 74
0
 42
0.0000001
 43
0.0000001
 44
0.0000000001
 40
0.0
 40
0.0
 40
0.0
 40
0.0
 40
0.1187416769
 40
0.2412291881
 40
0.4932478377
 40
0.7486851002
 40
0.8754072142
 40
1.0
 40
1.0
 40
1.0
 40
1.0
 10
6.1680908428
 20
5.6485531942
 30
0.0
 10
6.1712171688
 20
5.6513225856
 30
0.0
 10
6.1776649013
 20
5.6568406941
 30
0.0
 10
6.1911901714
 20
5.6677096448
 30
0.0
 10
6.2090725288
 20
5.6808145918
 30
0.0
 10
6.2277782036
 20
5.692988464
 30
0.0
 10
6.2431130683
 20
5.7020773848
 30
0.0
 10
6.2508440977
 20
5.7063665209
 30
0.0
 10
6.2547080234
 20
5.7084341187
 30
0.0
  0
SPLINE
  5
458
100
AcDbEntity
  8
0
100
AcDbSpline
 62
9
  6
CONTINUOUS
 70
0
 71
3
 72
22
 73
18
 74
0
 42
0.0000001
 43
0.0000001
 44
0.0000000001
 40
0.0
 40
0.0
 40
0.0
 40
0.0
 40
0.0557382846
 40
0.1125271728
 40
0.1703884624
 40
0.2293519045
 40
0.2894584472
 40
0.3507156482
 40
0.4130729714
 40
0.4764295893
 40
0.6055074994
 40
0.6710001937
 40
0.7368546087
 40
0.8028967523
 40
0.8689459135
 40
0.9347487081
 40
1.0
 40
1.0
 40
1.0
 40
1.0
 10
6.467451682
 20
5.6092964664
 30
0.0
 10
6.4634076269
 20
5.6091289739
 30
0.0
 10
6.4552560925
 20
5.6083277556
 30
0.0
 10
6.4431217521
 20
5.605800633
 30
0.0
 10
6.431091354
 20
5.6019562692
 30
0.0
 10
6.4192896383
 20
5.5968255061
 30
0.0
 10
6.4078195561
 20
5.5904677712
 30
0.0
 10
6.396786406
 20
5.5829348837
 30
0.0
 10
6.386285854
 20
5.5742993258
 30
0.0
 10
6.3730457855
 20
5.5613499711
 30
0.0
 10
6.3613559449
 20
5.5465875339
 30
0.0
 10
6.3514523351
 20
5.5304605813
 30
0.0
 10
6.3449345062
 20
5.5176765027
 30
0.0
 10
6.3394198026
 20
5.5043868116
 30
0.0
 10
6.3349675192
 20
5.4907076205
 30
0.0
 10
6.3316140155
 20
5.476778801
 30
0.0
 10
6.3301205076
 20
5.4673678339
 30
0.0
 10
6.329569561
 20
5.4626616495
 30
0.0
  0
SPLINE
  5
459
100
AcDbEntity
  8
0
100
AcDbSpline
 62
9
  6
CONTINUOUS
 70
0
 71
3
 72
30
 73
26
 74
0
 42
0.0000001
 43
0.0000001
 44
0.0000000001
 40
0.0
 40
0.0
 40
0.0
 40
0.0
 40
0.031924435
 40
0.0639124117
 40
0.0959451367
 40
0.1279466506
 40
0.1598400816
 40
0.191652596
 40
0.2234110936
 40
0.2551193609
 40
0.2867633128
 40
0.3183405068
 40
0.3813152529
 40
0.4127168411
 40
0.4440514179
 40
0.5065183844
 40
0.5687414249
 40
0.6307318203
 40
0.6925224475
 40
0.75416726
 40
0.7849492705
 40
0.8157095704
 40
0.8771766489
 40
0.9385965508
 40
1.0
 40
1.0
 40
1.0
 40
1.0
 10
5.9123856659
 20
5.9304595049
 30
0.0
 10
5.9168350299
 20
5.9305053218
 30
0.0
 10
5.925750427
 20
5.9302036044
 30
0.0
 10
5.9390497258
 20
5.928698752
 30
0.0
 10
5.9522205442
 20
5.9262677008
 30
0.0
 10
5.9652016289
 20
5.9230345913
 30
0.0
 10
5.9779571809
 20
5.9191103633
 30
0.0
 10
5.990471503
 20
5.9145758639
 30
0.0
 10
6.0027513858
 20
5.9095103085
 30
0.0
 10
6.0148064421
 20
5.9039893673
 30
0.0
 10
6.0266528313
 20
5.8980916666
 30
0.0
 10
6.0421642933
 20
5.8897946804
 30
0.0
 10
6.0573010452
 20
5.8808853561
 30
0.0
 10
6.0720891042
 20
5.8714862104
 30
0.0
 10
6.0866235168
 20
5.8618261858
 30
0.0
 10
6.1043840021
 20
5.8492676217
 30
0.0
 10
6.1250790019
 20
5.8334883881
 30
0.0
 10
6.1451675847
 20
5.8170936616
 30
0.0
 10
6.164684692
 20
5.8001464375
 30
0.0
 10
6.1805131406
 20
5.7855998912
 30
0.0
 10
6.1929287408
 20
5.7737396923
 30
0.0
 10
6.2051811747
 20
5.761746397
 30
0.0
 10
6.2202070475
 20
5.7464839988
 30
0.0
 10
6.2377552398
 20
5.7277228251
 30
0.0
 10
6.2491162351
 20
5.7149137418
 30
0.0
 10
6.2547072651
 20
5.7084340895
 30
0.0
  0
SPLINE
  5
45A
100
AcDbEntity
  8
0
100
AcDbSpline
 62
9
  6
CONTINUOUS
 70
0
 71
3
 72
13
 73
9
 74
0
 42
0.0000001
 43
0.0000001
 44
0.0000000001
 40
0.0
 40
0.0
 40
0.0
 40
0.0
 40
0.1212686649
 40
0.2462503317
 40
0.5015404879
 40
0.7560534517
 40
0.8800664367
 40
1.0
 40
1.0
 40
1.0
 40
1.0
 10
5.6096383017
 20
5.6131479259
 30
0.0
 10
5.6068907103
 20
5.617692222
 30
0.0
 10
5.6010137359
 20
5.6267428844
 30
0.0
 10
5.5880031035
 20
5.6444484311
 30
0.0
 10
5.5696914581
 20
5.6654396769
 30
0.0
 10
5.5492722106
 20
5.6843260632
 30
0.0
 10
5.5320431698
 20
5.6977434055
 30
0.0
 10
5.5232363455
 20
5.7038041042
 30
0.0
 10
5.5188140866
 20
5.7066371238
 30
0.0
  0
SPLINE
  5
45B
100
AcDbEntity
  8
0
100
AcDbSpline
 62
9
  6
CONTINUOUS
 70
0
 71
3
 72
29
 73
25
 74
0
 42
0.0000001
 43
0.0000001
 44
0.0000000001
 40
0.0
 40
0.0
 40
0.0
 40
0.0
 40
0.236755632
 40
0.4402691489
 40
0.5295953851
 40
0.6108941848
 40
0.6843322549
 40
0.7500035887
 40
0.8080109804
 40
0.8584180666
 40
0.9012094868
 40
0.9197264996
 40
0.9363091255
 40
0.9636597462
 40
0.9744263484
 40
0.9832555182
 40
0.986945578
 40
0.9901547192
 40
0.9928860478
 40
0.9951450726
 40
0.9969422242
 40
0.9982994277
 40
0.9992701012
 40
1.0
 40
1.0
 40
1.0
 40
1.0
 10
6.32957011
 20
5.4626616676
 30
0.0
 10
6.3356353627
 20
5.4596376163
 30
0.0
 10
6.3471778115
 20
5.4545195479
 30
0.0
 10
6.3616139101
 20
5.4497936514
 30
0.0
 10
6.3720405211
 20
5.4473255839
 30
0.0
 10
6.378917039
 20
5.4460730677
 30
0.0
 10
6.3851761404
 20
5.4452579096
 30
0.0
 10
6.390802263
 20
5.4448004051
 30
0.0
 10
6.3957836834
 20
5.4446172906
 30
0.0
 10
6.4001129181
 20
5.4446228769
 30
0.0
 10
6.4033096444
 20
5.4447194131
 30
0.0
 10
6.4055375097
 20
5.4448096717
 30
0.0
 10
6.4073236951
 20
5.4448827214
 30
0.0
 10
6.4088881202
 20
5.4449506475
 30
0.0
 10
6.4102296014
 20
5.4450313383
 30
0.0
 10
6.4108941853
 20
5.4450840712
 30
0.0
 10
6.4113418964
 20
5.4451320352
 30
0.0
 10
6.4116152327
 20
5.4451681474
 30
0.0
 10
6.4118468295
 20
5.4452068175
 30
0.0
 10
6.4120366829
 20
5.4452483992
 30
0.0
 10
6.4121855083
 20
5.4452928979
 30
0.0
 10
6.412293432
 20
5.4453412896
 30
0.0
 10
6.4123653639
 20
5.4453942862
 30
0.0
 10
6.4123856672
 20
5.4454428109
 30
0.0
 10
6.4123856672
 20
5.4454637049
 30
0.0
  0
SPLINE
  5
45C
100
AcDbEntity
  8
0
100
AcDbSpline
 62
9
  6
CONTINUOUS
 70
0
 71
3
 72
21
 73
17
 74
0
 42
0.0000001
 43
0.0000001
 44
0.0000000001
 40
0.0
 40
0.0
 40
0.0
 40
0.0
 40
0.1429624026
 40
0.2135642934
 40
0.2833613342
 40
0.3522091687
 40
0.4199799996
 40
0.5517585155
 40
0.6154957781
 40
0.6775658995
 40
0.7377195094
 40
0.795708271
 40
0.8513052005
 40
0.904187655
 40
0.9538807949
 40
1.0
 40
1.0
 40
1.0
 40
1.0
 10
6.1680917835
 20
5.648553337
 30
0.0
 10
6.1737131002
 20
5.6380895057
 30
0.0
 10
6.182437668
 20
5.6226285909
 30
0.0
 10
6.1947830794
 20
5.602579037
 30
0.0
 10
6.2043094693
 20
5.5880328354
 30
0.0
 10
6.2141484366
 20
5.5739816774
 30
0.0
 10
6.2275366423
 20
5.5561439672
 30
0.0
 10
6.2414737773
 20
5.5392625087
 30
0.0
 10
6.2558128918
 20
5.5233719021
 30
0.0
 10
6.2664851049
 20
5.5121958599
 30
0.0
 10
6.2771672939
 20
5.5016996581
 30
0.0
 10
6.2878261187
 20
5.4919594263
 30
0.0
 10
6.2984170782
 20
5.4830569143
 30
0.0
 10
6.3088828694
 20
5.475097215
 30
0.0
 10
6.3191666269
 20
5.46823497
 30
0.0
 10
6.3261287752
 20
5.4643470051
 30
0.0
 10
6.32957011
 20
5.4626616676
 30
0.0
  0
SPLINE
  5
45D
100
AcDbEntity
  8
0
100
AcDbSpline
 62
9
  6
CONTINUOUS
 70
0
 71
3
 72
33
 73
29
 74
0
 42
0.0000001
 43
0.0000001
 44
0.0000000001
 40
0.0
 40
0.0
 40
0.0
 40
0.0
 40
0.0318962828
 40
0.0638871541
 40
0.0798810645
 40
0.0958365324
 40
0.1276610623
 40
0.1594527252
 40
0.1753351172
 40
0.1911945518
 40
0.2228509345
 40
0.2544538563
 40
0.2860084244
 40
0.3175040201
 40
0.3489466372
 40
0.3803409489
 40
0.411684817
 40
0.4429760324
 40
0.4742182057
 40
0.5054138
 40
0.567665476
 40
0.6297489548
 40
0.6916848953
 40
0.7534932971
 40
0.81520543
 40
0.8768533525
 40
0.9384534745
 40
1.0
 40
1.0
 40
1.0
 40
1.0
 10
5.9123856672
 20
5.9026211802
 30
0.0
 10
5.916355621
 20
5.9026176529
 30
0.0
 10
5.924314066
 20
5.9020721784
 30
0.0
 10
5.9341013682
 20
5.9002062365
 30
0.0
 10
5.9417762417
 20
5.8980895973
 30
0.0
 10
5.9493118862
 20
5.8955856763
 30
0.0
 10
5.958473767
 20
5.8917871877
 30
0.0
 10
5.9672889728
 20
5.8872742263
 30
0.0
 10
5.9741468141
 20
5.8833353152
 30
0.0
 10
5.980876839
 20
5.8792138633
 30
0.0
 10
5.9890703856
 20
5.8737435666
 30
0.0
 10
5.9985798285
 20
5.8667498985
 30
0.0
 10
6.007797633
 20
5.8594096885
 30
0.0
 10
6.0167630228
 20
5.8517949838
 30
0.0
 10
6.025488662
 20
5.8439367979
 30
0.0
 10
6.0339909689
 20
5.8358653671
 30
0.0
 10
6.0422885656
 20
5.8276106739
 30
0.0
 10
6.0503960277
 20
5.8191956118
 30
0.0
 10
6.0583173889
 20
5.8106302841
 30
0.0
 10
6.0686314948
 20
5.7990330599
 30
0.0
 10
6.0810965145
 20
5.7842164983
 30
0.0
 10
6.095407108
 20
5.7659708235
 30
0.0
 10
6.1090818921
 20
5.7473125101
 30
0.0
 10
6.1221360721
 20
5.7282710641
 30
0.0
 10
6.1345581578
 20
5.7088536034
 30
0.0
 10
6.1463327243
 20
5.6890672712
 30
0.0
 10
6.1575112593
 20
5.6689629203
 30
0.0
 10
6.1646161161
 20
5.6553798168
 30
0.0
 10
6.1680917835
 20
5.648553337
 30
0.0
  0
SPLINE
  5
45E
100
AcDbEntity
  8
0
100
AcDbSpline
 62
9
  6
CONTINUOUS
 70
0
 71
3
 72
31
 73
27
 74
0
 42
0.0000001
 43
0.0000001
 44
0.0000000001
 40
0.0
 40
0.0
 40
0.0
 40
0.0
 40
0.0588103652
 40
0.118357313
 40
0.1785962251
 40
0.2394588114
 40
0.3627742216
 40
0.425121894
 40
0.4878656131
 40
0.5509613923
 40
0.6143706628
 40
0.6461817802
 40
0.6780592286
 40
0.7419922487
 40
0.7740473438
 40
0.8061534344
 40
0.8222303934
 40
0.8383209166
 40
0.8544219144
 40
0.8705367351
 40
0.8866759623
 40
0.9028380884
 40
0.9351623921
 40
0.9513718033
 40
0.9676157195
 40
1.0
 40
1.0
 40
1.0
 40
1.0
 10
5.6096383004
 20
5.6131479259
 30
0.0
 10
5.6148588351
 20
5.6196819859
 30
0.0
 10
5.6254239079
 20
5.6327851303
 30
0.0
 10
5.6414733278
 20
5.6524700024
 30
0.0
 10
5.6577390785
 20
5.6723550176
 30
0.0
 10
5.6798230923
 20
5.6991966317
 30
0.0
 10
5.7023068506
 20
5.7260976467
 30
0.0
 10
5.7252422898
 20
5.7529663821
 30
0.0
 10
5.7428047954
 20
5.7731606353
 30
0.0
 10
5.7607142131
 20
5.7932509042
 30
0.0
 10
5.7759687647
 20
5.8098118841
 30
0.0
 10
5.7884469425
 20
5.8228890328
 30
0.0
 10
5.8011547067
 20
5.8358471356
 30
0.0
 10
5.8142204083
 20
5.8485033969
 30
0.0
 10
5.8277803503
 20
5.8606709823
 30
0.0
 10
5.8365324086
 20
5.867997601
 30
0.0
 10
5.8437232356
 20
5.8736413451
 30
0.0
 10
5.849226687
 20
5.8777452893
 30
0.0
 10
5.8548533173
 20
5.8816886436
 30
0.0
 10
5.8606170043
 20
5.8854419041
 30
0.0
 10
5.8665287286
 20
5.8889761696
 30
0.0
 10
5.8746186306
 20
5.8933402793
 30
0.0
 10
5.8830666777
 20
5.8970566621
 30
0.0
 10
5.891860077
 20
5.8998334088
 30
0.0
 10
5.9008502781
 20
5.9019068077
 30
0.0
 10
5.9077802801
 20
5.9026085029
 30
0.0
 10
5.9123856672
 20
5.9026211802
 30
0.0
  0
ENDSEC
  0
SECTION
  2
OBJECTS
  0
DICTIONARY
  5
C
100
AcDbDictionary
280
0
281
1
  3
ACAD_GROUP
350
D
  3
ACAD_MLINESTYLE
350
17
  3
ACAD_LAYOUT
350
1A
  3
ACAD_PLOTSETTINGS
350
19
  3
ACAD_PLOTSTYLENAME
350
E
  0
DICTIONARY
  5
D
102
{ACAD_REACTORS
330
C
102
}
100
AcDbDictionary
280
0
281
1
  0
ACDBDICTIONARYWDFLT
  5
E
102
{ACAD_REACTORS
330
C
102
}
100
AcDbDictionary
281
1
  3
Normal
350
F
100
AcDbDictionaryWithDefault
340
F
  0
DICTIONARY
  5
17
102
{ACAD_REACTORS
330
C
102
}
100
AcDbDictionary
280
0
281
1
  3
Standard
350
18
  0
DICTIONARY
  5
19
102
{ACAD_REACTORS
330
C
102
}
100
AcDbDictionary
281
1
  0
DICTIONARY
  5
1A
102
{ACAD_REACTORS
330
C
102
}
100
AcDbDictionary
281
1
  3
Model
350
45F
  3
Layout1
350
460
  0
ACDBPLACEHOLDER
  5
F
102
{ACAD_REACTORS
330
E
102
}
  0
MLINESTYLE
  5
18
102
{ACAD_REACTORS
330
17
102
}
100
AcDbMlineStyle
  2
STANDARD
 70
0
  3

 62
256
 51
90.0
 52
90.0
 71
2
 49
0.5
 62
256
  6
BYLAYER
 49
-0.5
 62
256
  6
BYLAYER
  0
LAYOUT
  5
45F
102
{ACAD_REACTORS
330
1A
102
}
100
AcDbPlotSettings
  1

  2
none_device
  4
ISO_A4_(297.00_x_210.00_MM)
  6

 40
0.0
 41
0.0
 42
0.0
 43
0.0
 44
297.0
 45
210.0
 46
0.0
 47
0.0
 48
0.0
 49
0.0
140
0.0
141
0.0
142
1.0
143
1.0
 70
1024
 72
0
 73
0
 74
0
  7

 75
0
147
1.0
148
0.0
149
0.0
100
AcDbLayout
  1
Model
 70
0
 71
0
 10
0.0
 20
0.0
 11
11.6929133858
 21
8.2677165354
 12
0.0
 22
0.0
 32
0.0
 14
0.0
 24
0.0
 34
0.0
 15
0.0
 25
0.0
 35
0.0
146
0.0
 13
0.0
 23
0.0
 33
0.0
 16
1.0
 26
0.0
 36
0.0
 17
0.0
 27
1.0
 37
0.0
 76
0
330
24F
345
0
346
0
  0
LAYOUT
  5
460
102
{ACAD_REACTORS
330
1A
102
}
100
AcDbPlotSettings
  1

  2
none_device
  4
ISO_A4_(297.00_x_210.00_MM)
  6

 40
0.0
 41
0.0
 42
0.0
 43
0.0
 44
297.0
 45
210.0
 46
0.0
 47
0.0
 48
0.0
 49
0.0
140
0.0
141
0.0
142
1.0
143
1.0
 70
0
 72
0
 73
0
 74
0
  7

 75
0
147
1.0
148
0.0
149
0.0
100
AcDbLayout
  1
Layout1
 70
0
 71
1
 10
0.0
 20
0.0
 11
11.6929133858
 21
8.2677165354
 12
0.0
 22
0.0
 32
0.0
 14
0.0
 24
0.0
 34
0.0
 15
0.0
 25
0.0
 35
0.0
146
0.0
 13
0.0
 23
0.0
 33
0.0
 16
1.0
 26
0.0
 36
0.0
 17
0.0
 27
1.0
 37
0.0
 76
0
330
250
345
0
346
0
  0
ENDSEC
  0
EOF
