  0
SECTION
  2
HEADER
  9
$ACADVER
  1
AC1021
  9
$DWGCODEPAGE
  3
ANSI_1252
  9
$EXTMAX
 10
33.1102362205
 20
23.3858267717
 30
0.0
  9
$EXTMIN
 10
0.0
 20
0.0
 30
0.0
  9
$LIMMIN
 10
0.0
 20
0.0
  9
$LIMMAX
 10
33.1102362205
 20
23.3858267717
  9
$VIEWCTR
 10
16.5551181102
 20
11.6929133858
  9
$VIEWSIZE
 40
23.3858267717
  9
$CLAYER
  8
0
  9
$LTSCALE
 40
1.8210629921
  9
$CELTYPE
  6
BYLAYER
  9
$DIMSCALE
 40
1.0
  9
$DIMASZ
 40
0.1
  9
$DIMEXO
 40
0.2069389764
  9
$DIMDLI
 40
1.2581889764
  9
$DIMEXE
 40
0.595984252
  9
$DIMCEN
 40
0.297992126
  9
$DIMLFAC
 40
1.0
  9
$DIMBLK
  1
_FILLED
  9
$DIMTXT
 40
0.08
  9
$DIMTOL
 70
1
  9
$DIMLIM
 70
0
  9
$DIMTFAC
 40
1.0
  9
$DIMTP
 40
0.001
  9
$DIMTM
 40
0.001
  9
$PDMODE
 70
3
  9
$PDSIZE
 40
0.06
  9
$HANDSEED
  5
279
  9
$TILEMODE
 70
1
  9
$MEASUREMENT
 70
0
  9
$INSUNITS
 70
1
  0
ENDSEC
  0
SECTION
  2
CLASSES
  0
CLASS
  1
ACDBDICTIONARYWDFLT
  2
AcDbDictionaryWithDefault
  3
AutoCAD 2000
 90
0
 91
1
280
0
281
0
  0
CLASS
  1
ACDBPLACEHOLDER
  2
AcDbPlaceHolder
  3
AutoCAD 2000
 90
0
 91
1
280
0
281
0
  0
CLASS
  1
LAYOUT
  2
AcDbLayout
  3
AutoCAD 2000
 90
0
 91
0
280
0
281
0
  0
ENDSEC
  0
SECTION
  2
TABLES
  0
TABLE
  2
VPORT
  5
8
100
AcDbSymbolTable
 70
2
  0
VPORT
  5
1F4
100
AcDbSymbolTableRecord
100
AcDbViewportTableRecord
  2
*ACTIVE
 70
0
 10
0.0
 20
0.0
 11
1.0
 21
1.0
 12
16.5551181102
 22
11.6929133858
 13
0.0
 23
0.0
 14
1.0
 24
1.0
 15
0.0
 25
0.0
 16
0.0
 26
0.0
 36
1.0
 17
0.0
 27
0.0
 37
0.0
 40
23.3858267717
 41
1.4158249158
 42
50.0
 43
0.0
 44
0.0
 50
0.0
 51
0.0
 71
0
 72
100
 73
1
 74
1
 75
0
 76
0
 77
0
 78
0
  0
ENDTAB
  0
TABLE
  2
LTYPE
  5
5
100
AcDbSymbolTable
 70
6
  0
LTYPE
  5
14
100
AcDbSymbolTableRecord
100
AcDbLinetypeTableRecord
  2
BYBLOCK
 70
0
  3

 72
65
 73
0
 40
0.0
  0
LTYPE
  5
15
100
AcDbSymbolTableRecord
100
AcDbLinetypeTableRecord
  2
BYLAYER
 70
0
  3

 72
65
 73
0
 40
0.0
  0
LTYPE
  5
16
100
AcDbSymbolTableRecord
100
AcDbLinetypeTableRecord
  2
CONTINUOUS
 70
64
  3
Solid line
 72
65
 73
0
 40
0.0
  0
LTYPE
  5
1F5
100
AcDbSymbolTableRecord
100
AcDbLinetypeTableRecord
  2
CENTER
 70
64
  3
____ _ ____ _ ____ _ ____ _ ____ _ ____ _ ____
 72
65
 73
4
 40
0.6
 49
0.375
 74
0
 49
-0.075
 74
0
 49
0.075
 74
0
 49
-0.075
 74
0
  0
LTYPE
  5
1F6
100
AcDbSymbolTableRecord
100
AcDbLinetypeTableRecord
  2
HIDDEN
 70
64
  3
- - - - - - - - - - - - - - - - - - - -
 72
65
 73
2
 40
0.2
 49
0.1
 74
0
 49
-0.1
 74
0
  0
LTYPE
  5
1F7
100
AcDbSymbolTableRecord
100
AcDbLinetypeTableRecord
  2
PHANTOM
 70
64
  3
_____ _ _ _____ _ _ _____ _ _ _____
 72
65
 73
6
 40
0.8
 49
0.45
 74
0
 49
-0.05
 74
0
 49
0.1
 74
0
 49
-0.05
 74
0
 49
0.1
 74
0
 49
-0.05
 74
0
  0
LTYPE
  5
1F8
100
AcDbSymbolTableRecord
100
AcDbLinetypeTableRecord
  2
DOT
 70
64
  3
. . . . . . . . . . . . . . . . . . . .
 72
65
 73
2
 40
0.2
 49
0.1
 74
0
 49
-0.1
 74
0
  0
LTYPE
  5
1F9
100
AcDbSymbolTableRecord
100
AcDbLinetypeTableRecord
  2
DASHED
 70
64
  3
- - - - - - - - - - - - - - - - - - - -
 72
65
 73
2
 40
0.2
 49
0.1
 74
0
 49
-0.1
 74
0
  0
ENDTAB
  0
TABLE
  2
LAYER
  5
2
100
AcDbSymbolTable
 70
36
  0
LAYER
  5
10
100
AcDbSymbolTableRecord
100
AcDbLayerTableRecord
  2
0
 70
0
 62
7
  6
CONTINUOUS
370
-3
390
F
  0
LAYER
  5
1FA
100
AcDbSymbolTableRecord
100
AcDbLayerTableRecord
  2
DEFAULT_1
 70
0
 62
7
  6
CENTER
370
-3
390
F
  0
LAYER
  5
1FB
100
AcDbSymbolTableRecord
100
AcDbLayerTableRecord
  2
DEFAULT_2
 70
0
 62
8
  6
HIDDEN
370
-3
390
F
  0
LAYER
  5
1FC
100
AcDbSymbolTableRecord
100
AcDbLayerTableRecord
  2
DEFAULT_3
 70
0
 62
7
  6
PHANTOM
370
-3
390
F
  0
LAYER
  5
1FD
100
AcDbSymbolTableRecord
100
AcDbLayerTableRecord
  2
DEFAULT_COORDINATE_SYSTEM
 70
0
 62
7
  6
CONTINUOUS
370
-3
390
F
  0
LAYER
  5
1FE
100
AcDbSymbolTableRecord
100
AcDbLayerTableRecord
  2
DEFAULT_DATUM_AXES
 70
0
 62
7
  6
CONTINUOUS
370
-3
390
F
  0
LAYER
  5
1FF
100
AcDbSymbolTableRecord
100
AcDbLayerTableRecord
  2
DEFAULT_DATUM_CURVES
 70
0
 62
7
  6
CONTINUOUS
370
-3
390
F
  0
LAYER
  5
200
100
AcDbSymbolTableRecord
100
AcDbLayerTableRecord
  2
DEFAULT_DATUM_PLANES
 70
0
 62
7
  6
CONTINUOUS
370
-3
390
F
  0
ENDTAB
  0
TABLE
  2
STYLE
  5
3
100
AcDbSymbolTable
 70
1
  0
STYLE
  5
11
100
AcDbSymbolTableRecord
100
AcDbTextStyleTableRecord
  2
STANDARD
 70
0
 40
0.0
 41
0.8
 50
0.0
 71
0
 42
0.2
  3
txt
  4

  0
STYLE
  5
201
100
AcDbSymbolTableRecord
100
AcDbTextStyleTableRecord
  2
TEXTSTYLE_1
 70
0
 40
0.0
 41
0.8
 50
0.0
 71
0
 42
0.2
  3
gdt
  4

  0
ENDTAB
  0
TABLE
  2
VIEW
  5
6
100
AcDbSymbolTable
 70
0
  0
ENDTAB
  0
TABLE
  2
UCS
  5
7
100
AcDbSymbolTable
 70
0
  0
ENDTAB
  0
TABLE
  2
APPID
  5
9
100
AcDbSymbolTable
 70
1
  0
APPID
  5
202
100
AcDbSymbolTableRecord
100
AcDbRegAppTableRecord
  2
ACAD
 70
0
  0
ENDTAB
  0
TABLE
  2
BLOCK_RECORD
  5
1
100
AcDbSymbolTable
 70
0
  0
BLOCK_RECORD
  5
203
100
AcDbSymbolTableRecord
100
AcDbBlockTableRecord
  2
*Model_Space
  0
BLOCK_RECORD
  5
204
100
AcDbSymbolTableRecord
100
AcDbBlockTableRecord
  2
*Paper_Space
  0
ENDTAB
  0
TABLE
  2
DIMSTYLE
  5
A
100
AcDbSymbolTable
 70
1
100
AcDbDimStyleTable
 71
0
  0
DIMSTYLE
105
205
100
AcDbSymbolTableRecord
100
AcDbDimStyleTableRecord
  2
STANDARD
 70
0
  3

  4

 40
1.0
 41
0.1
 42
0.0625
 43
0.38
 44
0.18
 45
0.0
 46
0.0
 47
0.001
 48
0.001
140
0.08
141
0.09
142
0.0
143
25.4
144
1.0
145
0.0
146
1.0
147
0.09
 71
1.0
 72
0.0
 73
1
 74
1
 75
0
 76
0
 77
0
 78
4
170
0
171
2
172
0
173
0
174
0
175
0
176
0
177
0
178
0
270
2
271
3
272
3
273
2
274
2
275
0
280
0
281
0
282
0
283
1
284
4
285
0
286
0
287
3
288
0
340
11
  0
ENDTAB
  0
ENDSEC
  0
SECTION
  2
BLOCKS
  0
BLOCK
  5
20
100
AcDbEntity
  8
0
100
AcDbBlockBegin
  2
*Model_Space
 70
0
 10
0.0
 20
0.0
 30
0.0
  3
*Model_Space
  1

  0
ENDBLK
  5
21
100
AcDbEntity
  8
0
100
AcDbBlockEnd
  0
BLOCK
  5
1C
100
AcDbEntity
  8
0
100
AcDbBlockBegin
  2
*Paper_Space
 70
0
 10
0.0
 20
0.0
 30
0.0
  3
*Paper_Space
  1

  0
ENDBLK
  5
1D
100
AcDbEntity
  8
0
100
AcDbBlockEnd
  0
ENDSEC
  0
SECTION
  2
ENTITIES
  0
LINE
  5
206
100
AcDbEntity
  8
0
100
AcDbLine
 62
6
  6
CONTINUOUS
 10
3.4263449847
 20
13.2597666403
 11
3.4263449847
 21
13.1977666403
  0
LINE
  5
207
100
AcDbEntity
  8
0
100
AcDbLine
 62
6
  6
CONTINUOUS
 10
3.5423449847
 20
12.8484577041
 11
3.5423449847
 21
13.1977666403
  0
LINE
  5
208
100
AcDbEntity
  8
0
100
AcDbLine
 62
6
  6
CONTINUOUS
 10
3.7183588463
 20
12.1273772641
 11
3.8408166559
 21
11.3079929274
  0
LINE
  5
209
100
AcDbEntity
  8
0
100
AcDbLine
 62
6
  6
CONTINUOUS
 10
4.1673449847
 20
13.1977666403
 11
4.1673449847
 21
12.9451455406
  0
LINE
  5
20A
100
AcDbEntity
  8
0
100
AcDbLine
 62
7
  6
CONTINUOUS
 10
4.6542761914
 20
10.4766473887
 11
4.6542761914
 21
11.1376473887
  0
LINE
  5
20B
100
AcDbEntity
  8
0
100
AcDbLine
 62
6
  6
CONTINUOUS
 10
4.7923449847
 20
13.1977666403
 11
4.7923449847
 21
12.8484577041
  0
LINE
  5
20C
100
AcDbEntity
  8
0
100
AcDbLine
 62
6
  6
CONTINUOUS
 10
4.6163311232
 20
12.1273772641
 11
4.4938733136
 21
11.3079929274
  0
LINE
  5
20D
100
AcDbEntity
  8
0
100
AcDbLine
 62
6
  6
CONTINUOUS
 10
4.9083449847
 20
13.2597666403
 11
4.9083449847
 21
13.1977666403
  0
LINE
  5
20E
100
AcDbEntity
  8
0
100
AcDbLine
 62
6
  6
CONTINUOUS
 10
4.7406064059
 20
12.6256666403
 11
4.7467596514
 21
12.6149215875
  0
LINE
  5
20F
100
AcDbEntity
  8
0
100
AcDbLine
 62
6
  6
CONTINUOUS
 10
4.7923449847
 20
12.8484577041
 11
4.7712226184
 21
12.8273353378
  0
LINE
  5
210
100
AcDbEntity
  8
0
100
AcDbLine
 62
6
  6
CONTINUOUS
 10
3.5423449847
 20
12.8484577041
 11
3.5634673511
 21
12.8273353378
  0
LINE
  5
211
100
AcDbEntity
  8
0
100
AcDbLine
 62
6
  6
CONTINUOUS
 10
4.6657676018
 20
10.4946473887
 11
28.1334223677
 21
10.4946473887
  0
LINE
  5
212
100
AcDbEntity
  8
0
100
AcDbLine
 62
6
  6
CONTINUOUS
 10
4.6657553751
 20
11.1196473887
 11
28.1334345944
 21
11.1196473887
  0
LINE
  5
213
100
AcDbEntity
  8
0
100
AcDbLine
 62
7
  6
CONTINUOUS
 10
3.8423449847
 20
11.2977666403
 11
4.4923449847
 21
11.2977666403
  0
LINE
  5
214
100
AcDbEntity
  8
0
100
AcDbLine
 62
7
  6
CONTINUOUS
 10
28.3068449847
 20
11.2977666403
 11
28.9568449847
 21
11.2977666403
  0
LINE
  5
215
100
AcDbEntity
  8
0
100
AcDbLine
 62
7
  6
CONTINUOUS
 10
28.9583733136
 20
11.3079929274
 11
28.3053166559
 21
11.3079929274
  0
LINE
  5
216
100
AcDbEntity
  8
0
100
AcDbLine
 62
7
  6
CONTINUOUS
 10
4.4938733136
 20
11.3079929274
 11
3.8408166559
 21
11.3079929274
  0
LINE
  5
217
100
AcDbEntity
  8
0
100
AcDbLine
 62
9
  6
CONTINUOUS
 10
29.0808311232
 20
12.1273772641
 11
28.1828588463
 21
12.1273772641
  0
LINE
  5
218
100
AcDbEntity
  8
0
100
AcDbLine
 62
9
  6
CONTINUOUS
 10
3.7183588463
 20
12.1273772641
 11
4.6163311232
 21
12.1273772641
  0
LINE
  5
219
100
AcDbEntity
  8
0
100
AcDbLine
 62
9
  6
CONTINUOUS
 10
29.1937643251
 20
12.3765835698
 11
28.0699256444
 21
12.3765835698
  0
LINE
  5
21A
100
AcDbEntity
  8
0
100
AcDbLine
 62
9
  6
CONTINUOUS
 10
3.6054256444
 20
12.3765835698
 11
4.7292643251
 21
12.3765835698
  0
LINE
  5
21B
100
AcDbEntity
  8
0
100
AcDbLine
 62
9
  6
CONTINUOUS
 10
29.2112596514
 20
12.6149215875
 11
28.0524303181
 21
12.6149215875
  0
LINE
  5
21C
100
AcDbEntity
  8
0
100
AcDbLine
 62
9
  6
CONTINUOUS
 10
3.5879303181
 20
12.6149215875
 11
4.7467596514
 21
12.6149215875
  0
LINE
  5
21D
100
AcDbEntity
  8
0
100
AcDbLine
 62
9
  6
CONTINUOUS
 10
29.2357226184
 20
12.8273353378
 11
28.0279673511
 21
12.8273353378
  0
LINE
  5
21E
100
AcDbEntity
  8
0
100
AcDbLine
 62
9
  6
CONTINUOUS
 10
3.5634673511
 20
12.8273353378
 11
4.7712226184
 21
12.8273353378
  0
LINE
  5
21F
100
AcDbEntity
  8
0
100
AcDbLine
 62
6
  6
CONTINUOUS
 10
3.4263449847
 20
13.1977666403
 11
4.9083449847
 21
13.1977666403
  0
LINE
  5
220
100
AcDbEntity
  8
0
100
AcDbLine
 62
6
  6
CONTINUOUS
 10
27.8908449847
 20
13.1977666403
 11
29.3728449847
 21
13.1977666403
  0
LINE
  5
221
100
AcDbEntity
  8
0
100
AcDbLine
 62
9
  6
CONTINUOUS
 10
3.3543423109
 20
13.2597666403
 11
4.9803476586
 21
13.2597666403
  0
LINE
  5
222
100
AcDbEntity
  8
0
100
AcDbLine
 62
9
  6
CONTINUOUS
 10
27.8188423109
 20
13.2597666403
 11
29.4448476586
 21
13.2597666403
  0
LINE
  5
223
100
AcDbEntity
  8
0
100
AcDbLine
 62
6
  6
CONTINUOUS
 10
3.1673449847
 20
13.4477666403
 11
5.1673449847
 21
13.4477666403
  0
LINE
  5
224
100
AcDbEntity
  8
0
100
AcDbLine
 62
6
  6
CONTINUOUS
 10
27.6318449847
 20
13.4477666403
 11
29.6318449847
 21
13.4477666403
  0
LINE
  5
225
100
AcDbEntity
  8
0
100
AcDbLine
 62
6
  6
CONTINUOUS
 10
2.9873449847
 20
13.6347666403
 11
5.3473449847
 21
13.6347666403
  0
LINE
  5
226
100
AcDbEntity
  8
0
100
AcDbLine
 62
6
  6
CONTINUOUS
 10
27.4518449847
 20
13.6347666403
 11
29.8118449847
 21
13.6347666403
  0
LINE
  5
227
100
AcDbEntity
  8
0
100
AcDbLine
 62
6
  6
CONTINUOUS
 10
29.2568449847
 20
12.8484577041
 11
29.2357226184
 21
12.8273353378
  0
LINE
  5
228
100
AcDbEntity
  8
0
100
AcDbLine
 62
6
  6
CONTINUOUS
 10
28.0279673511
 20
12.8273353378
 11
28.0068449847
 21
12.8484577041
  0
LINE
  5
229
100
AcDbEntity
  8
0
100
AcDbLine
 62
6
  6
CONTINUOUS
 10
28.0585835635
 20
12.6256666403
 11
28.0524303181
 21
12.6149215875
  0
LINE
  5
22A
100
AcDbEntity
  8
0
100
AcDbLine
 62
6
  6
CONTINUOUS
 10
27.8908449847
 20
13.2597666403
 11
27.8908449847
 21
13.1977666403
  0
LINE
  5
22B
100
AcDbEntity
  8
0
100
AcDbLine
 62
6
  6
CONTINUOUS
 10
28.0068449847
 20
12.8484577041
 11
28.0068449847
 21
13.1977666403
  0
LINE
  5
22C
100
AcDbEntity
  8
0
100
AcDbLine
 62
7
  6
CONTINUOUS
 10
28.1449137781
 20
11.1376473887
 11
28.1449137781
 21
10.4766473887
  0
LINE
  5
22D
100
AcDbEntity
  8
0
100
AcDbLine
 62
6
  6
CONTINUOUS
 10
28.1828588463
 20
12.1273772641
 11
28.3053166559
 21
11.3079929274
  0
LINE
  5
22E
100
AcDbEntity
  8
0
100
AcDbLine
 62
6
  6
CONTINUOUS
 10
28.6318449847
 20
13.1977666403
 11
28.6318449847
 21
12.9451455406
  0
LINE
  5
22F
100
AcDbEntity
  8
0
100
AcDbLine
 62
6
  6
CONTINUOUS
 10
29.2568449847
 20
13.1977666403
 11
29.2568449847
 21
12.8484577041
  0
LINE
  5
230
100
AcDbEntity
  8
0
100
AcDbLine
 62
6
  6
CONTINUOUS
 10
29.3728449847
 20
13.2597666403
 11
29.3728449847
 21
13.1977666403
  0
LINE
  5
231
100
AcDbEntity
  8
0
100
AcDbLine
 62
6
  6
CONTINUOUS
 10
29.0808311232
 20
12.1273772641
 11
28.9583733136
 21
11.3079929274
  0
ARC
  5
232
100
AcDbEntity
  8
0
100
AcDbCircle
 62
6
  6
CONTINUOUS
 10
4.1673449847
 20
10.8071473887
 40
0.5885
100
AcDbArc
 50
32.0877863079
 51
56.4783880966
  0
ARC
  5
233
100
AcDbEntity
  8
0
100
AcDbCircle
 62
6
  6
CONTINUOUS
 10
4.1673449847
 20
10.8071473887
 40
0.5885
100
AcDbArc
 50
123.5216119034
 51
327.91285236
  0
ARC
  5
234
100
AcDbEntity
  8
0
100
AcDbCircle
 62
6
  6
CONTINUOUS
 10
3.2238509146
 20
12.0534725586
 40
0.5
100
AcDbArc
 50
8.5
 51
40.2573604586
  0
ARC
  5
235
100
AcDbEntity
  8
0
100
AcDbCircle
 62
6
  6
CONTINUOUS
 10
5.1108390549
 20
12.0534725586
 40
0.5
100
AcDbArc
 50
139.7426395414
 51
171.5
  0
ARC
  5
236
100
AcDbEntity
  8
0
100
AcDbCircle
 62
6
  6
CONTINUOUS
 10
3.4418449847
 20
12.7057129714
 40
0.172
100
AcDbArc
 50
328.1392329178
 51
45.0
  0
ARC
  5
237
100
AcDbEntity
  8
0
100
AcDbCircle
 62
6
  6
CONTINUOUS
 10
3.7603449847
 20
12.5077666403
 40
0.203
100
AcDbArc
 50
148.1392329178
 51
220.2573604586
  0
ARC
  5
238
100
AcDbEntity
  8
0
100
AcDbCircle
 62
6
  6
CONTINUOUS
 10
3.1744810959
 20
13.6347666403
 40
0.1871361111
100
AcDbArc
 50
180.0
 51
267.8145949287
  0
ARC
  5
239
100
AcDbEntity
  8
0
100
AcDbCircle
 62
6
  6
CONTINUOUS
 10
3.3543423109
 20
13.4467666403
 40
0.187
100
AcDbArc
 50
179.6936039968
 51
270.0
  0
ARC
  5
23A
100
AcDbEntity
  8
0
100
AcDbCircle
 62
6
  6
CONTINUOUS
 10
4.5743449847
 20
12.5077666403
 40
0.203
100
AcDbArc
 50
319.7426395414
 51
31.8607670822
  0
ARC
  5
23B
100
AcDbEntity
  8
0
100
AcDbCircle
 62
6
  6
CONTINUOUS
 10
4.9126301419
 20
12.716974347
 40
0.1948217294
100
AcDbArc
 50
206.2802747147
 51
207.642825523
  0
ARC
  5
23C
100
AcDbEntity
  8
0
100
AcDbCircle
 62
6
  6
CONTINUOUS
 10
4.9125442722
 20
12.7169334213
 40
0.1947266734
100
AcDbArc
 50
207.6438805543
 51
207.7652504362
  0
ARC
  5
23D
100
AcDbEntity
  8
0
100
AcDbCircle
 62
6
  6
CONTINUOUS
 10
4.9096265385
 20
12.7155834114
 40
0.1915127454
100
AcDbArc
 50
201.4263229064
 51
206.3050212705
  0
ARC
  5
23E
100
AcDbEntity
  8
0
100
AcDbCircle
 62
7
  6
CONTINUOUS
 10
4.883770987
 20
12.7215131746
 40
0.17228627
100
AcDbArc
 50
212.2998737452
 51
213.4197918336
  0
ARC
  5
23F
100
AcDbEntity
  8
0
100
AcDbCircle
 62
6
  6
CONTINUOUS
 10
4.8928449847
 20
12.7057129714
 40
0.172
100
AcDbArc
 50
207.7351832489
 51
211.8607670822
  0
ARC
  5
240
100
AcDbEntity
  8
0
100
AcDbCircle
 62
6
  6
CONTINUOUS
 10
4.8928449847
 20
12.7057129714
 40
0.172
100
AcDbArc
 50
135.0
 51
154.4058294554
  0
ARC
  5
241
100
AcDbEntity
  8
0
100
AcDbCircle
 62
7
  6
CONTINUOUS
 10
4.8728325625
 20
12.6968580623
 40
0.1597847852
100
AcDbArc
 50
149.742713118
 51
154.9682191478
  0
ARC
  5
242
100
AcDbEntity
  8
0
100
AcDbCircle
 62
7
  6
CONTINUOUS
 10
4.8710551615
 20
12.7131614612
 40
0.1551743971
100
AcDbArc
 50
203.5426403741
 51
205.800735215
  0
ARC
  5
243
100
AcDbEntity
  8
0
100
AcDbCircle
 62
7
  6
CONTINUOUS
 10
4.8611057847
 20
12.7091577439
 40
0.1444473893
100
AcDbArc
 50
194.39191699
 51
201.2900296706
  0
ARC
  5
244
100
AcDbEntity
  8
0
100
AcDbCircle
 62
7
  6
CONTINUOUS
 10
4.8500248358
 20
12.7059519737
 40
0.1330306804
100
AcDbArc
 50
167.8505128375
 51
174.5842603992
  0
ARC
  5
245
100
AcDbEntity
  8
0
100
AcDbCircle
 62
7
  6
CONTINUOUS
 10
4.7871720853
 20
12.6887721098
 40
0.0694321405
100
AcDbArc
 50
211.9088926801
 51
212.7805856969
  0
ARC
  5
246
100
AcDbEntity
  8
0
100
AcDbCircle
 62
6
  6
CONTINUOUS
 10
5.1602088736
 20
13.6347666403
 40
0.1871361111
100
AcDbArc
 50
272.1854050713
 51
360.0
  0
ARC
  5
247
100
AcDbEntity
  8
0
100
AcDbCircle
 62
6
  6
CONTINUOUS
 10
4.9803476586
 20
13.4467666403
 40
0.187
100
AcDbArc
 50
270.0
 51
0.3063960032
  0
ARC
  5
248
100
AcDbEntity
  8
0
100
AcDbCircle
 62
6
  6
CONTINUOUS
 10
28.6318449847
 20
10.8071473887
 40
0.5885
100
AcDbArc
 50
123.5216119034
 51
147.9122136921
  0
ARC
  5
249
100
AcDbEntity
  8
0
100
AcDbCircle
 62
6
  6
CONTINUOUS
 10
28.6318449847
 20
10.8071473887
 40
0.5885
100
AcDbArc
 50
212.08714764
 51
56.4783880966
  0
ARC
  5
24A
100
AcDbEntity
  8
0
100
AcDbCircle
 62
6
  6
CONTINUOUS
 10
27.6883509146
 20
12.0534725586
 40
0.5
100
AcDbArc
 50
8.5
 51
40.2573604586
  0
ARC
  5
24B
100
AcDbEntity
  8
0
100
AcDbCircle
 62
6
  6
CONTINUOUS
 10
29.5753390549
 20
12.0534725586
 40
0.5
100
AcDbArc
 50
139.7426395414
 51
171.5
  0
ARC
  5
24C
100
AcDbEntity
  8
0
100
AcDbCircle
 62
7
  6
CONTINUOUS
 10
27.84227832
 20
12.6850496337
 40
0.2321317072
100
AcDbArc
 50
352.3460301293
 51
352.9877093865
  0
ARC
  5
24D
100
AcDbEntity
  8
0
100
AcDbCircle
 62
6
  6
CONTINUOUS
 10
28.2248449847
 20
12.5077666403
 40
0.203
100
AcDbArc
 50
148.1392329178
 51
220.2573604586
  0
ARC
  5
24E
100
AcDbEntity
  8
0
100
AcDbCircle
 62
6
  6
CONTINUOUS
 10
27.8879966757
 20
12.716268539
 40
0.1932215104
100
AcDbArc
 50
332.2225850131
 51
338.5542739146
  0
ARC
  5
24F
100
AcDbEntity
  8
0
100
AcDbCircle
 62
6
  6
CONTINUOUS
 10
27.9000289063
 20
12.7149766284
 40
0.1822118615
100
AcDbArc
 50
339.8818918648
 51
341.3508944693
  0
ARC
  5
250
100
AcDbEntity
  8
0
100
AcDbCircle
 62
6
  6
CONTINUOUS
 10
27.9063449847
 20
12.7057129714
 40
0.172
100
AcDbArc
 50
25.5941705446
 51
45.0
  0
ARC
  5
251
100
AcDbEntity
  8
0
100
AcDbCircle
 62
6
  6
CONTINUOUS
 10
27.9063449847
 20
12.7057129714
 40
0.172
100
AcDbArc
 50
328.1392329178
 51
332.2648167511
  0
ARC
  5
252
100
AcDbEntity
  8
0
100
AcDbCircle
 62
7
  6
CONTINUOUS
 10
27.928134808
 20
12.7131614612
 40
0.1551743971
100
AcDbArc
 50
334.1992647849
 51
336.4573596259
  0
ARC
  5
253
100
AcDbEntity
  8
0
100
AcDbCircle
 62
7
  6
CONTINUOUS
 10
27.9359031297
 20
12.7099671412
 40
0.1467734852
100
AcDbArc
 50
338.7247097936
 51
341.9049165903
  0
ARC
  5
254
100
AcDbEntity
  8
0
100
AcDbCircle
 62
7
  6
CONTINUOUS
 10
27.9392610861
 20
12.7088275421
 40
0.1432276573
100
AcDbArc
 50
341.9210271902
 51
342.2240430927
  0
ARC
  5
255
100
AcDbEntity
  8
0
100
AcDbCircle
 62
7
  6
CONTINUOUS
 10
27.940811547
 20
12.7083406025
 40
0.1416025589
100
AcDbArc
 50
342.2201355779
 51
345.6540496246
  0
ARC
  5
256
100
AcDbEntity
  8
0
100
AcDbCircle
 62
7
  6
CONTINUOUS
 10
27.9491651337
 20
12.7059519737
 40
0.1330306804
100
AcDbArc
 50
5.4157396007
 51
12.1494871625
  0
ARC
  5
257
100
AcDbEntity
  8
0
100
AcDbCircle
 62
7
  6
CONTINUOUS
 10
27.9764320884
 20
12.7044845675
 40
0.1061892642
100
AcDbArc
 50
352.4184303288
 51
354.0844705313
  0
ARC
  5
258
100
AcDbEntity
  8
0
100
AcDbCircle
 62
7
  6
CONTINUOUS
 10
27.9799721093
 20
12.7041690215
 40
0.1026359521
100
AcDbArc
 50
354.0560131895
 51
8.0306702396
  0
ARC
  5
259
100
AcDbEntity
  8
0
100
AcDbCircle
 62
6
  6
CONTINUOUS
 10
27.6389810959
 20
13.6347666403
 40
0.1871361111
100
AcDbArc
 50
180.0
 51
267.8145949287
  0
ARC
  5
25A
100
AcDbEntity
  8
0
100
AcDbCircle
 62
6
  6
CONTINUOUS
 10
27.8188423109
 20
13.4467666403
 40
0.187
100
AcDbArc
 50
179.6936039968
 51
270.0
  0
ARC
  5
25B
100
AcDbEntity
  8
0
100
AcDbCircle
 62
6
  6
CONTINUOUS
 10
29.0388449847
 20
12.5077666403
 40
0.203
100
AcDbArc
 50
319.7426395414
 51
31.8607670822
  0
ARC
  5
25C
100
AcDbEntity
  8
0
100
AcDbCircle
 62
7
  6
CONTINUOUS
 10
29.4133444709
 20
12.622854665
 40
1.3387457498
100
AcDbArc
 50
174.9608309669
 51
175.1929899929
  0
ARC
  5
25D
100
AcDbEntity
  8
0
100
AcDbCircle
 62
6
  6
CONTINUOUS
 10
29.3573449847
 20
12.7057129714
 40
0.172
100
AcDbArc
 50
135.0
 51
211.8607670822
  0
ARC
  5
25E
100
AcDbEntity
  8
0
100
AcDbCircle
 62
6
  6
CONTINUOUS
 10
29.6247088736
 20
13.6347666403
 40
0.1871361111
100
AcDbArc
 50
272.1854050713
 51
360.0
  0
ARC
  5
25F
100
AcDbEntity
  8
0
100
AcDbCircle
 62
6
  6
CONTINUOUS
 10
29.4448476586
 20
13.4467666403
 40
0.187
100
AcDbArc
 50
270.0
 51
0.3063960032
  0
SPLINE
  5
260
100
AcDbEntity
  8
0
100
AcDbSpline
 62
6
  6
CONTINUOUS
 70
0
 71
3
 72
9
 73
5
 74
3
 42
0.0000001
 43
0.0000001
 44
0.0000000001
 12
-0.0135820413
 22
0.0263628735
 32
0.0
 13
-0.0094810634
 23
0.0280995086
 33
0.0
 40
0.0
 40
0.0
 40
0.0
 40
0.0
 40
0.5030473492
 40
1.0
 40
1.0
 40
1.0
 40
1.0
 10
4.7381437757
 20
12.6294519224
 30
0.0
 10
4.7358663058
 20
12.6338725136
 30
0.0
 10
4.7316332049
 20
12.6428158347
 30
0.0
 10
4.7280868372
 20
12.6520557634
 30
0.0
 10
4.7265162906
 20
12.6567104718
 30
0.0
 11
4.7381437757
 21
12.6294519224
 31
0.0
 11
4.7317811878
 21
12.6429454
 31
0.0
 11
4.7265162906
 21
12.6567104718
 31
0.0
  0
LINE
  5
261
100
AcDbEntity
  8
0
100
AcDbLine
 62
7
  6
CONTINUOUS
 10
4.7406064059
 20
12.6256666403
 11
4.7399981982
 21
12.6265818953
  0
SPLINE
  5
262
100
AcDbEntity
  8
0
100
AcDbSpline
 62
7
  6
CONTINUOUS
 70
0
 71
3
 72
26
 73
22
 74
20
 42
0.0000001
 43
0.0000001
 44
0.0000000001
 12
0.0030674066
 22
0.0034763864
 32
0.0
 13
-0.0020028057
 23
-0.0041812696
 33
0.0
 40
0.0
 40
0.0
 40
0.0
 40
0.0
 40
0.258715559
 40
0.4770321566
 40
0.5704447883
 40
0.6530485061
 40
0.7246536206
 40
0.7851073082
 40
0.834278173
 40
0.8720816714
 40
0.8867309099
 40
0.8985828288
 40
0.9077364207
 40
0.9144372543
 40
0.919332236
 40
0.9239276207
 40
0.9299709721
 40
0.9383570148
 40
0.9494331227
 40
0.9633520914
 40
1.0
 40
1.0
 40
1.0
 40
1.0
 10
4.7348150304
 20
12.7773710327
 30
0.0
 10
4.735079559
 20
12.7776708312
 30
0.0
 10
4.7355702937
 20
12.7782209923
 30
0.0
 10
4.7361666046
 20
12.778870345
 30
0.0
 10
4.7365859688
 20
12.7793125189
 30
0.0
 10
4.7368528513
 20
12.7795867885
 30
0.0
 10
4.7370881177
 20
12.7798206908
 30
0.0
 10
4.7372911397
 20
12.7800136873
 30
0.0
 10
4.7374613684
 20
12.780165154
 30
0.0
 10
4.7375838068
 20
12.7802637754
 30
0.0
 10
4.7376657839
 20
12.7803200485
 30
0.0
 10
4.7377133651
 20
12.7803479587
 30
0.0
 10
4.7377527128
 20
12.7803652711
 30
0.0
 10
4.7377841233
 20
12.7803726779
 30
0.0
 10
4.737810391
 20
12.7803680267
 30
0.0
 10
4.7378258057
 20
12.7803472846
 30
0.0
 10
4.7378287569
 20
12.7803173748
 30
0.0
 10
4.7378239871
 20
12.7802781809
 30
0.0
 10
4.7378107829
 20
12.7802281677
 30
0.0
 10
4.7377790564
 20
12.7801383069
 30
0.0
 10
4.7377466958
 20
12.7800670162
 30
0.0
 10
4.7377222296
 20
12.7800159379
 30
0.0
 11
4.7348150304
 21
12.7773710327
 31
0.0
 11
4.735614185
 21
12.7782654835
 31
0.0
 11
4.7362999447
 21
12.7790099264
 31
0.0
 11
4.7365981731
 21
12.7793239598
 31
0.0
 11
4.7368655107
 21
12.7795981748
 31
0.0
 11
4.7371012815
 21
12.7798318827
 31
0.0
 11
4.7373049263
 21
12.7800244514
 31
0.0
 11
4.7374758884
 21
12.78017525
 31
0.0
 11
4.7376136108
 21
12.7802836476
 31
0.0
 11
4.7376698332
 21
12.780321749
 31
0.0
 11
4.7377175389
 21
12.7803490147
 31
0.0
 11
4.7377566909
 21
12.7803653879
 31
0.0
 11
4.7377872773
 21
12.780370828
 31
0.0
 11
4.7378092864
 21
12.7803652947
 31
0.0
 11
4.737822707
 21
12.7803487479
 31
0.0
 11
4.7378275275
 21
12.7803211476
 31
0.0
 11
4.7378237366
 21
12.7802824536
 31
0.0
 11
4.7378113227
 21
12.7802326257
 31
0.0
 11
4.7377902746
 21
12.7801716239
 31
0.0
 11
4.7377222296
 21
12.7800159379
 31
0.0
  0
SPLINE
  5
263
100
AcDbEntity
  8
0
100
AcDbSpline
 62
6
  6
CONTINUOUS
 70
0
 71
3
 72
9
 73
5
 74
3
 42
0.0000001
 43
0.0000001
 44
0.0000000001
 12
0.0051921525
 22
0.0311722906
 32
0.0
 13
0.0107961974
 23
0.029700375
 33
0.0
 40
0.0
 40
0.0
 40
0.0
 40
0.0
 40
0.4999929307
 40
1.0
 40
1.0
 40
1.0
 40
1.0
 10
4.7199738003
 20
12.733950011
 30
0.0
 10
4.7208391468
 20
12.7391453194
 30
0.0
 10
4.7230796313
 20
12.7494568031
 30
0.0
 10
4.7262564545
 20
12.7595162132
 30
0.0
 10
4.7280558461
 20
12.7644663457
 30
0.0
 11
4.7199738003
 21
12.733950011
 31
0.0
 11
4.7233136777
 21
12.7493936407
 31
0.0
 11
4.7280558461
 21
12.7644663457
 31
0.0
  0
SPLINE
  5
264
100
AcDbEntity
  8
0
100
AcDbSpline
 62
7
  6
CONTINUOUS
 70
0
 71
3
 72
14
 73
10
 74
8
 42
0.0000001
 43
0.0000001
 44
0.0000000001
 12
-0.0128892624
 22
0.0438839586
 32
0.0
 13
0.0063522256
 23
0.0452944162
 33
0.0
 40
0.0
 40
0.0
 40
0.0
 40
0.0
 40
0.2158948836
 40
0.3379076361
 40
0.4683173489
 40
0.604326553
 40
0.673115899
 40
0.7415789037
 40
1.0
 40
1.0
 40
1.0
 40
1.0
 10
4.7211914094
 20
12.673254877
 30
0.0
 10
4.7202638341
 20
12.6764129844
 30
0.0
 10
4.7190042314
 20
12.6814161765
 30
0.0
 10
4.7177345133
 20
12.6884447985
 30
0.0
 10
4.7169972333
 20
12.6943238868
 30
0.0
 10
4.7166530155
 20
12.6994261694
 30
0.0
 10
4.7165678972
 20
12.7035921076
 30
0.0
 10
4.7166249187
 20
12.7096244217
 30
0.0
 10
4.7170408113
 20
12.714605971
 30
0.0
 10
4.7175879944
 20
12.7185076485
 30
0.0
 11
4.7211914094
 21
12.673254877
 31
0.0
 11
4.7187944751
 21
12.6828340758
 31
0.0
 11
4.717805236
 21
12.688326277
 31
0.0
 11
4.7170634753
 21
12.6942446118
 31
0.0
 11
4.7166486066
 21
12.7004515071
 31
0.0
 11
4.7165835031
 21
12.7035970982
 31
0.0
 11
4.7166137203
 21
12.706728291
 31
0.0
 11
4.7175879944
 21
12.7185076485
 31
0.0
  0
LINE
  5
265
100
AcDbEntity
  8
0
100
AcDbLine
 62
7
  6
CONTINUOUS
 10
28.0614677399
 20
12.7800159379
 11
28.0633559791
 21
12.7769394036
  0
LINE
  5
266
100
AcDbEntity
  8
0
100
AcDbLine
 62
7
  6
CONTINUOUS
 10
28.0633559791
 20
12.7769394036
 11
28.0711851243
 21
12.7643569322
  0
SPLINE
  5
267
100
AcDbEntity
  8
0
100
AcDbSpline
 62
6
  6
CONTINUOUS
 70
0
 71
3
 72
9
 73
5
 74
3
 42
0.0000001
 43
0.0000001
 44
0.0000000001
 12
-0.0051921525
 22
0.0311722906
 32
0.0
 13
-0.0107961974
 23
0.029700375
 33
0.0
 40
0.0
 40
0.0
 40
0.0
 40
0.0
 40
0.4999929307
 40
1.0
 40
1.0
 40
1.0
 40
1.0
 10
28.0792161692
 20
12.733950011
 30
0.0
 10
28.0783508227
 20
12.7391453194
 30
0.0
 10
28.0761103382
 20
12.7494568031
 30
0.0
 10
28.072933515
 20
12.7595162132
 30
0.0
 10
28.0711341233
 20
12.7644663457
 30
0.0
 11
28.0792161692
 21
12.733950011
 31
0.0
 11
28.0758762918
 21
12.7493936407
 31
0.0
 11
28.0711341233
 21
12.7644663457
 31
0.0
  0
SPLINE
  5
268
100
AcDbEntity
  8
0
100
AcDbSpline
 62
7
  6
CONTINUOUS
 70
0
 71
3
 72
9
 73
5
 74
3
 42
0.0000001
 43
0.0000001
 44
0.0000000001
 12
0.0049654507
 22
0.0169058266
 32
0.0
 13
0.0023250527
 23
0.0174658754
 33
0.0
 40
0.0
 40
0.0
 40
0.0
 40
0.0
 40
0.2241786863
 40
1.0
 40
1.0
 40
1.0
 40
1.0
 10
28.0779985601
 20
12.673254877
 30
0.0
 10
28.0783696095
 20
12.6745181857
 30
0.0
 10
28.0799378741
 20
12.6801781017
 30
0.0
 10
28.0810917743
 20
12.6859574178
 30
0.0
 10
28.0816930495
 20
12.6904742173
 30
0.0
 11
28.0779985601
 21
12.673254877
 31
0.0
 11
28.0790519282
 21
12.6770618513
 31
0.0
 11
28.0816930495
 21
12.6904742173
 31
0.0
  0
SPLINE
  5
269
100
AcDbEntity
  8
0
100
AcDbSpline
 62
6
  6
CONTINUOUS
 70
0
 71
3
 72
9
 73
5
 74
3
 42
0.0000001
 43
0.0000001
 44
0.0000000001
 12
0.0077048987
 22
-0.0407823997
 32
0.0
 13
-0.002727771
 23
-0.0414141142
 33
0.0
 40
0.0
 40
0.0
 40
0.0
 40
0.0
 40
0.4992812715
 40
1.0
 40
1.0
 40
1.0
 40
1.0
 10
28.0812987356
 20
12.7348000749
 30
0.0
 10
28.0825810395
 20
12.7280127787
 30
0.0
 10
28.0843227208
 20
12.7142474582
 30
0.0
 10
28.0842941253
 20
12.7003697989
 30
0.0
 10
28.0838388433
 20
12.6934575247
 30
0.0
 11
28.0812987356
 21
12.7348000749
 31
0.0
 11
28.0838789194
 21
12.7142392412
 31
0.0
 11
28.0838388433
 21
12.6934575247
 31
0.0
  0
SPLINE
  5
26A
100
AcDbEntity
  8
0
100
AcDbSpline
 62
7
  6
CONTINUOUS
 70
0
 71
3
 72
9
 73
5
 74
3
 42
0.0000001
 43
0.0000001
 44
0.0000000001
 12
0.0132064793
 22
-0.0283610348
 32
0.0
 13
0.0067912292
 23
-0.0305391322
 33
0.0
 40
0.0
 40
0.0
 40
0.0
 40
0.0
 40
0.4724459121
 40
1.0
 40
1.0
 40
1.0
 40
1.0
 10
28.0711851243
 20
12.7643569322
 30
0.0
 10
28.0732649067
 20
12.7598905805
 30
0.0
 10
28.0772181529
 20
12.7502212372
 30
0.0
 10
28.0801044887
 20
12.7401704229
 30
0.0
 10
28.0812987356
 20
12.7348000749
 30
0.0
 11
28.0711851243
 21
12.7643569322
 31
0.0
 11
28.0767621568
 21
12.7506689508
 31
0.0
 11
28.0812987356
 21
12.7348000749
 31
0.0
  0
LINE
  5
26B
100
AcDbEntity
  8
0
100
AcDbLine
 62
7
  6
CONTINUOUS
 10
28.0589522567
 20
12.6262199886
 11
28.0586749982
 21
12.6258034492
  0
LINE
  5
26C
100
AcDbEntity
  8
0
100
AcDbLine
 62
7
  6
CONTINUOUS
 10
28.0586749982
 20
12.6258034492
 11
28.0585835635
 21
12.6256666403
  0
SPLINE
  5
26D
100
AcDbEntity
  8
0
100
AcDbSpline
 62
7
  6
CONTINUOUS
 70
0
 71
3
 72
11
 73
7
 74
5
 42
0.0000001
 43
0.0000001
 44
0.0000000001
 12
-0.0065658584
 22
-0.0137677725
 32
0.0
 13
-0.0082663322
 23
-0.0128191188
 33
0.0
 40
0.0
 40
0.0
 40
0.0
 40
0.0
 40
0.3246840657
 40
0.6014810775
 40
0.8279159318
 40
1.0
 40
1.0
 40
1.0
 40
1.0
 10
28.0777249606
 20
12.6645457916
 30
0.0
 10
28.0770143507
 20
12.6630557328
 30
0.0
 10
28.0756496911
 20
12.6603180325
 30
0.0
 10
28.0736462374
 20
12.6566151887
 30
0.0
 10
28.0719293432
 20
12.6536412553
 30
0.0
 10
28.0708671319
 20
12.6519152491
 30
0.0
 10
28.0703929639
 20
12.6511799271
 30
0.0
 11
28.0777249606
 21
12.6645457916
 31
0.0
 11
28.0755145705
 21
12.6601139354
 31
0.0
 11
28.0735057196
 21
12.6564004074
 31
0.0
 11
28.071775334
 21
12.6534112624
 31
0.0
 11
28.0703929639
 21
12.6511799271
 31
0.0
  0
SPLINE
  5
26E
100
AcDbEntity
  8
0
100
AcDbSpline
 62
7
  6
CONTINUOUS
 70
0
 71
3
 72
9
 73
5
 74
3
 42
0.0000001
 43
0.0000001
 44
0.0000000001
 12
-0.0028957649
 22
-0.029452894
 32
0.0
 13
-0.0091844175
 23
-0.0281336968
 33
0.0
 40
0.0
 40
0.0
 40
0.0
 40
0.0
 40
0.5166839579
 40
1.0
 40
1.0
 40
1.0
 40
1.0
 10
28.0838388433
 20
12.6934575247
 30
0.0
 10
28.0833401115
 20
12.6883849121
 30
0.0
 10
28.0817992196
 20
12.6786154164
 30
0.0
 10
28.0792046193
 20
12.6690782806
 30
0.0
 10
28.0777249606
 20
12.6645457916
 30
0.0
 11
28.0838388433
 21
12.6934575247
 31
0.0
 11
28.0814665029
 21
12.67835146
 31
0.0
 11
28.0777249606
 21
12.6645457916
 31
0.0
  0
LINE
  5
26F
100
AcDbEntity
  8
0
100
AcDbLine
 62
7
  6
CONTINUOUS
 10
28.0792161692
 20
12.733950011
 11
28.0793076067
 21
12.7350412393
  0
LINE
  5
270
100
AcDbEntity
  8
0
100
AcDbLine
 62
7
  6
CONTINUOUS
 10
4.7377222296
 20
12.7800159379
 11
4.7358339904
 21
12.7769394036
  0
LINE
  5
271
100
AcDbEntity
  8
0
100
AcDbLine
 62
7
  6
CONTINUOUS
 10
4.7358339904
 20
12.7769394036
 11
4.7280048452
 21
12.7643569322
  0
LINE
  5
272
100
AcDbEntity
  8
0
100
AcDbLine
 62
7
  6
CONTINUOUS
 10
4.7310219468
 20
12.6444816526
 11
4.7313496056
 21
12.6456229451
  0
SPLINE
  5
273
100
AcDbEntity
  8
0
100
AcDbSpline
 62
6
  6
CONTINUOUS
 70
0
 71
3
 72
25
 73
21
 74
19
 42
0.0000001
 43
0.0000001
 44
0.0000000001
 12
0.5731914255
 22
-0.3309322238
 32
0.0
 13
0.5731914255
 23
0.3309322238
 33
0.0
 40
0.0
 40
0.0
 40
0.0
 40
0.0
 40
0.0635300216
 40
0.126762951
 40
0.1896743899
 40
0.2522579608
 40
0.3145282996
 40
0.3765244487
 40
0.4074445793
 40
0.438324741
 40
0.5000000622
 40
0.5616753702
 40
0.592555532
 40
0.6234756541
 40
0.6854717832
 40
0.7477420881
 40
0.8103256333
 40
0.8732370498
 40
0.9364699744
 40
1.0
 40
1.0
 40
1.0
 40
1.0
 10
28.6318449847
 20
12.9451455406
 30
0.0
 10
28.6439832726
 20
12.9381374968
 30
0.0
 10
28.6684697956
 20
12.9246080727
 30
0.0
 10
28.7059661344
 20
12.9059964875
 30
0.0
 10
28.744171851
 20
12.8893916323
 30
0.0
 10
28.783090964
 20
12.8751232876
 30
0.0
 10
28.8226830876
 20
12.8635240623
 30
0.0
 10
28.8562024749
 20
12.8563640575
 30
0.0
 10
28.883215644
 20
12.8522866017
 30
0.0
 10
28.9103057027
 20
12.8493544794
 30
0.0
 10
28.9443450233
 20
12.8478601237
 30
0.0
 10
28.9783843426
 20
12.849354494
 30
0.0
 10
29.0054743969
 20
12.852286611
 30
0.0
 10
29.0324875612
 20
12.8563640588
 30
0.0
 10
29.0660069306
 20
12.8635240816
 30
0.0
 10
29.1055990394
 20
12.8751232936
 30
0.0
 10
29.144518132
 20
12.8893916422
 30
0.0
 10
29.1827238392
 20
12.9059964889
 30
0.0
 10
29.2202201734
 20
12.9246080722
 30
0.0
 10
29.2447066961
 20
12.9381374964
 30
0.0
 10
29.2568449847
 20
12.9451455406
 30
0.0
 11
28.6318449847
 21
12.9451455406
 31
0.0
 11
28.6686711023
 21
12.9248503821
 31
0.0
 11
28.7061802538
 21
12.9062863764
 31
0.0
 11
28.7443907795
 21
12.889741011
 31
0.0
 11
28.7833007327
 21
12.8755359267
 31
0.0
 11
28.8228691712
 21
12.8640044212
 31
0.0
 11
28.8630062225
 21
12.8554763468
 31
0.0
 11
28.8832427699
 21
12.8524274583
 31
0.0
 11
28.9035628409
 21
12.8502305908
 31
0.0
 11
28.9443450259
 21
12.8484577042
 31
0.0
 11
28.9851272018
 21
12.8502306025
 31
0.0
 11
29.0054472731
 21
12.8524274676
 31
0.0
 11
29.0256838153
 21
12.8554763522
 31
0.0
 11
29.0658208513
 21
12.8640044354
 31
0.0
 11
29.1053892681
 21
12.8755359349
 31
0.0
 11
29.1442992036
 21
12.8897410181
 31
0.0
 11
29.1825097161
 21
12.9062863768
 31
0.0
 11
29.220018865
 21
12.9248503807
 31
0.0
 11
29.2568449847
 21
12.9451455406
 31
0.0
  0
SPLINE
  5
274
100
AcDbEntity
  8
0
100
AcDbSpline
 62
6
  6
CONTINUOUS
 70
0
 71
3
 72
25
 73
21
 74
19
 42
0.0000001
 43
0.0000001
 44
0.0000000001
 12
0.5731914255
 22
-0.3309322238
 32
0.0
 13
0.5731914255
 23
0.3309322238
 33
0.0
 40
0.0
 40
0.0
 40
0.0
 40
0.0
 40
0.0635300216
 40
0.126762951
 40
0.1896743899
 40
0.2522579608
 40
0.3145282996
 40
0.3765244487
 40
0.4074445793
 40
0.438324741
 40
0.5000000622
 40
0.5616753702
 40
0.592555532
 40
0.6234756541
 40
0.6854717832
 40
0.7477420881
 40
0.8103256333
 40
0.8732370498
 40
0.9364699744
 40
1.0
 40
1.0
 40
1.0
 40
1.0
 10
28.0068449847
 20
12.9451455406
 30
0.0
 10
28.0189832726
 20
12.9381374968
 30
0.0
 10
28.0434697956
 20
12.9246080727
 30
0.0
 10
28.0809661344
 20
12.9059964875
 30
0.0
 10
28.119171851
 20
12.8893916323
 30
0.0
 10
28.158090964
 20
12.8751232876
 30
0.0
 10
28.1976830876
 20
12.8635240623
 30
0.0
 10
28.2312024749
 20
12.8563640575
 30
0.0
 10
28.258215644
 20
12.8522866017
 30
0.0
 10
28.2853057027
 20
12.8493544794
 30
0.0
 10
28.3193450233
 20
12.8478601237
 30
0.0
 10
28.3533843426
 20
12.849354494
 30
0.0
 10
28.3804743969
 20
12.852286611
 30
0.0
 10
28.4074875612
 20
12.8563640588
 30
0.0
 10
28.4410069306
 20
12.8635240816
 30
0.0
 10
28.4805990394
 20
12.8751232936
 30
0.0
 10
28.519518132
 20
12.8893916422
 30
0.0
 10
28.5577238392
 20
12.9059964889
 30
0.0
 10
28.5952201734
 20
12.9246080722
 30
0.0
 10
28.6197066961
 20
12.9381374964
 30
0.0
 10
28.6318449847
 20
12.9451455406
 30
0.0
 11
28.0068449847
 21
12.9451455406
 31
0.0
 11
28.0436711023
 21
12.9248503821
 31
0.0
 11
28.0811802538
 21
12.9062863764
 31
0.0
 11
28.1193907795
 21
12.889741011
 31
0.0
 11
28.1583007327
 21
12.8755359267
 31
0.0
 11
28.1978691712
 21
12.8640044212
 31
0.0
 11
28.2380062225
 21
12.8554763468
 31
0.0
 11
28.2582427699
 21
12.8524274583
 31
0.0
 11
28.2785628409
 21
12.8502305908
 31
0.0
 11
28.3193450259
 21
12.8484577042
 31
0.0
 11
28.3601272018
 21
12.8502306025
 31
0.0
 11
28.3804472731
 21
12.8524274676
 31
0.0
 11
28.4006838153
 21
12.8554763522
 31
0.0
 11
28.4408208513
 21
12.8640044354
 31
0.0
 11
28.4803892681
 21
12.8755359349
 31
0.0
 11
28.5192992036
 21
12.8897410181
 31
0.0
 11
28.5575097161
 21
12.9062863768
 31
0.0
 11
28.595018865
 21
12.9248503807
 31
0.0
 11
28.6318449847
 21
12.9451455406
 31
0.0
  0
SPLINE
  5
275
100
AcDbEntity
  8
0
100
AcDbSpline
 62
6
  6
CONTINUOUS
 70
0
 71
3
 72
25
 73
21
 74
19
 42
0.0000001
 43
0.0000001
 44
0.0000000001
 12
0.5731914255
 22
-0.3309322238
 32
0.0
 13
0.5731914255
 23
0.3309322238
 33
0.0
 40
0.0
 40
0.0
 40
0.0
 40
0.0
 40
0.0635300216
 40
0.126762951
 40
0.1896743899
 40
0.2522579608
 40
0.3145282996
 40
0.3765244487
 40
0.4074445793
 40
0.438324741
 40
0.5000000622
 40
0.5616753702
 40
0.592555532
 40
0.6234756541
 40
0.6854717832
 40
0.7477420881
 40
0.8103256333
 40
0.8732370498
 40
0.9364699744
 40
1.0
 40
1.0
 40
1.0
 40
1.0
 10
4.1673449847
 20
12.9451455406
 30
0.0
 10
4.1794832726
 20
12.9381374968
 30
0.0
 10
4.2039697956
 20
12.9246080727
 30
0.0
 10
4.2414661344
 20
12.9059964875
 30
0.0
 10
4.279671851
 20
12.8893916323
 30
0.0
 10
4.318590964
 20
12.8751232876
 30
0.0
 10
4.3581830876
 20
12.8635240623
 30
0.0
 10
4.3917024749
 20
12.8563640575
 30
0.0
 10
4.418715644
 20
12.8522866017
 30
0.0
 10
4.4458057027
 20
12.8493544794
 30
0.0
 10
4.4798450233
 20
12.8478601237
 30
0.0
 10
4.5138843426
 20
12.849354494
 30
0.0
 10
4.5409743969
 20
12.852286611
 30
0.0
 10
4.5679875612
 20
12.8563640588
 30
0.0
 10
4.6015069306
 20
12.8635240816
 30
0.0
 10
4.6410990394
 20
12.8751232936
 30
0.0
 10
4.680018132
 20
12.8893916422
 30
0.0
 10
4.7182238392
 20
12.9059964889
 30
0.0
 10
4.7557201734
 20
12.9246080722
 30
0.0
 10
4.7802066961
 20
12.9381374964
 30
0.0
 10
4.7923449847
 20
12.9451455406
 30
0.0
 11
4.1673449847
 21
12.9451455406
 31
0.0
 11
4.2041711023
 21
12.9248503821
 31
0.0
 11
4.2416802538
 21
12.9062863764
 31
0.0
 11
4.2798907795
 21
12.889741011
 31
0.0
 11
4.3188007327
 21
12.8755359267
 31
0.0
 11
4.3583691712
 21
12.8640044212
 31
0.0
 11
4.3985062225
 21
12.8554763468
 31
0.0
 11
4.4187427699
 21
12.8524274583
 31
0.0
 11
4.4390628409
 21
12.8502305908
 31
0.0
 11
4.4798450259
 21
12.8484577042
 31
0.0
 11
4.5206272018
 21
12.8502306025
 31
0.0
 11
4.5409472731
 21
12.8524274676
 31
0.0
 11
4.5611838153
 21
12.8554763522
 31
0.0
 11
4.6013208513
 21
12.8640044354
 31
0.0
 11
4.6408892681
 21
12.8755359349
 31
0.0
 11
4.6797992036
 21
12.8897410181
 31
0.0
 11
4.7180097161
 21
12.9062863768
 31
0.0
 11
4.755518865
 21
12.9248503807
 31
0.0
 11
4.7923449847
 21
12.9451455406
 31
0.0
  0
SPLINE
  5
276
100
AcDbEntity
  8
0
100
AcDbSpline
 62
6
  6
CONTINUOUS
 70
0
 71
3
 72
25
 73
21
 74
19
 42
0.0000001
 43
0.0000001
 44
0.0000000001
 12
0.5731914255
 22
-0.3309322238
 32
0.0
 13
0.5731914255
 23
0.3309322238
 33
0.0
 40
0.0
 40
0.0
 40
0.0
 40
0.0
 40
0.0635300216
 40
0.126762951
 40
0.1896743899
 40
0.2522579608
 40
0.3145282996
 40
0.3765244487
 40
0.4074445793
 40
0.438324741
 40
0.5000000622
 40
0.5616753702
 40
0.592555532
 40
0.6234756541
 40
0.6854717832
 40
0.7477420881
 40
0.8103256333
 40
0.8732370498
 40
0.9364699744
 40
1.0
 40
1.0
 40
1.0
 40
1.0
 10
3.5423449847
 20
12.9451455406
 30
0.0
 10
3.5544832726
 20
12.9381374968
 30
0.0
 10
3.5789697956
 20
12.9246080727
 30
0.0
 10
3.6164661344
 20
12.9059964875
 30
0.0
 10
3.654671851
 20
12.8893916323
 30
0.0
 10
3.693590964
 20
12.8751232876
 30
0.0
 10
3.7331830876
 20
12.8635240623
 30
0.0
 10
3.7667024749
 20
12.8563640575
 30
0.0
 10
3.793715644
 20
12.8522866017
 30
0.0
 10
3.8208057027
 20
12.8493544794
 30
0.0
 10
3.8548450233
 20
12.8478601237
 30
0.0
 10
3.8888843426
 20
12.849354494
 30
0.0
 10
3.9159743969
 20
12.852286611
 30
0.0
 10
3.9429875612
 20
12.8563640588
 30
0.0
 10
3.9765069306
 20
12.8635240816
 30
0.0
 10
4.0160990394
 20
12.8751232936
 30
0.0
 10
4.055018132
 20
12.8893916422
 30
0.0
 10
4.0932238392
 20
12.9059964889
 30
0.0
 10
4.1307201734
 20
12.9246080722
 30
0.0
 10
4.1552066961
 20
12.9381374964
 30
0.0
 10
4.1673449847
 20
12.9451455406
 30
0.0
 11
3.5423449847
 21
12.9451455406
 31
0.0
 11
3.5791711023
 21
12.9248503821
 31
0.0
 11
3.6166802538
 21
12.9062863764
 31
0.0
 11
3.6548907795
 21
12.889741011
 31
0.0
 11
3.6938007327
 21
12.8755359267
 31
0.0
 11
3.7333691712
 21
12.8640044212
 31
0.0
 11
3.7735062225
 21
12.8554763468
 31
0.0
 11
3.7937427699
 21
12.8524274583
 31
0.0
 11
3.8140628409
 21
12.8502305908
 31
0.0
 11
3.8548450259
 21
12.8484577042
 31
0.0
 11
3.8956272018
 21
12.8502306025
 31
0.0
 11
3.9159472731
 21
12.8524274676
 31
0.0
 11
3.9361838153
 21
12.8554763522
 31
0.0
 11
3.9763208513
 21
12.8640044354
 31
0.0
 11
4.0158892681
 21
12.8755359349
 31
0.0
 11
4.0547992036
 21
12.8897410181
 31
0.0
 11
4.0930097161
 21
12.9062863768
 31
0.0
 11
4.130518865
 21
12.9248503807
 31
0.0
 11
4.1673449847
 21
12.9451455406
 31
0.0
  0
ENDSEC
  0
SECTION
  2
OBJECTS
  0
DICTIONARY
  5
C
100
AcDbDictionary
280
0
281
1
  3
ACAD_GROUP
350
D
  3
ACAD_MLINESTYLE
350
17
  3
ACAD_LAYOUT
350
1A
  3
ACAD_PLOTSETTINGS
350
19
  3
ACAD_PLOTSTYLENAME
350
E
  0
DICTIONARY
  5
D
102
{ACAD_REACTORS
330
C
102
}
100
AcDbDictionary
280
0
281
1
  0
ACDBDICTIONARYWDFLT
  5
E
102
{ACAD_REACTORS
330
C
102
}
100
AcDbDictionary
281
1
  3
Normal
350
F
100
AcDbDictionaryWithDefault
340
F
  0
DICTIONARY
  5
17
102
{ACAD_REACTORS
330
C
102
}
100
AcDbDictionary
280
0
281
1
  3
Standard
350
18
  0
DICTIONARY
  5
19
102
{ACAD_REACTORS
330
C
102
}
100
AcDbDictionary
281
1
  0
DICTIONARY
  5
1A
102
{ACAD_REACTORS
330
C
102
}
100
AcDbDictionary
281
1
  3
Model
350
277
  3
Layout1
350
278
  0
ACDBPLACEHOLDER
  5
F
102
{ACAD_REACTORS
330
E
102
}
  0
MLINESTYLE
  5
18
102
{ACAD_REACTORS
330
17
102
}
100
AcDbMlineStyle
  2
STANDARD
 70
0
  3

 62
256
 51
90.0
 52
90.0
 71
2
 49
0.5
 62
256
  6
BYLAYER
 49
-0.5
 62
256
  6
BYLAYER
  0
LAYOUT
  5
277
102
{ACAD_REACTORS
330
1A
102
}
100
AcDbPlotSettings
  1

  2
none_device
  4
ISO_A1_(594.00_x_841.00_MM)
  6

 40
0.0
 41
0.0
 42
0.0
 43
0.0
 44
841.0
 45
594.0
 46
0.0
 47
0.0
 48
0.0
 49
0.0
140
0.0
141
0.0
142
1.0
143
1.0
 70
1024
 72
0
 73
0
 74
0
  7

 75
0
147
1.0
148
0.0
149
0.0
100
AcDbLayout
  1
Model
 70
0
 71
0
 10
0.0
 20
0.0
 11
33.1102362205
 21
23.3858267717
 12
0.0
 22
0.0
 32
0.0
 14
0.0
 24
0.0
 34
0.0
 15
0.0
 25
0.0
 35
0.0
146
0.0
 13
0.0
 23
0.0
 33
0.0
 16
1.0
 26
0.0
 36
0.0
 17
0.0
 27
1.0
 37
0.0
 76
0
330
203
345
0
346
0
  0
LAYOUT
  5
278
102
{ACAD_REACTORS
330
1A
102
}
100
AcDbPlotSettings
  1

  2
none_device
  4
ISO_A1_(594.00_x_841.00_MM)
  6

 40
0.0
 41
0.0
 42
0.0
 43
0.0
 44
841.0
 45
594.0
 46
0.0
 47
0.0
 48
0.0
 49
0.0
140
0.0
141
0.0
142
1.0
143
1.0
 70
0
 72
0
 73
0
 74
0
  7

 75
0
147
1.0
148
0.0
149
0.0
100
AcDbLayout
  1
Layout1
 70
0
 71
1
 10
0.0
 20
0.0
 11
33.1102362205
 21
23.3858267717
 12
0.0
 22
0.0
 32
0.0
 14
0.0
 24
0.0
 34
0.0
 15
0.0
 25
0.0
 35
0.0
146
0.0
 13
0.0
 23
0.0
 33
0.0
 16
1.0
 26
0.0
 36
0.0
 17
0.0
 27
1.0
 37
0.0
 76
0
330
204
345
0
346
0
  0
ENDSEC
  0
EOF
