999
DXF file: 13-04_web_3.dxf
999
Pro/ENGINEER 2009300 by Parametric Technology Corporation
  0
SECTION
  2
HEADER
  9
$ACADVER
  1
AC1021
  9
$DWGCODEPAGE
  3
ANSI_1252
  9
$EXTMAX
 10
11.0
 20
8.5
 30
0.0
  9
$EXTMIN
 10
0.0
 20
0.0
 30
0.0
  9
$LIMMIN
 10
0.0
 20
0.0
  9
$LIMMAX
 10
11.0
 20
8.5
  9
$VIEWCTR
 10
5.5
 20
4.25
  9
$VIEWSIZE
 40
8.5
  9
$CLAYER
  8
0
  9
$LTSCALE
 40
0.605
  9
$CELTYPE
  6
BYLAYER
  9
$DIMSCALE
 40
1.0
  9
$DIMASZ
 40
0.1
  9
$DIMEXO
 40
0.06875
  9
$DIMDLI
 40
0.418
  9
$DIMEXE
 40
0.198
  9
$DIMCEN
 40
0.099
  9
$DIMLFAC
 40
1.0
  9
$DIMBLK
  1
_FILLED
  9
$DIMTXT
 40
0.08
  9
$DIMTOL
 70
1
  9
$DIMLIM
 70
0
  9
$DIMTFAC
 40
1.0
  9
$DIMTP
 40
0.001
  9
$DIMTM
 40
0.001
  9
$PDMODE
 70
3
  9
$PDSIZE
 40
0.06
  9
$HANDSEED
  5
248
  9
$TILEMODE
 70
1
  9
$MEASUREMENT
 70
0
  9
$INSUNITS
 70
1
  0
ENDSEC
  0
SECTION
  2
CLASSES
  0
CLASS
  1
ACDBDICTIONARYWDFLT
  2
AcDbDictionaryWithDefault
  3
AutoCAD 2000
 90
0
 91
1
280
0
281
0
  0
CLASS
  1
ACDBPLACEHOLDER
  2
AcDbPlaceHolder
  3
AutoCAD 2000
 90
0
 91
1
280
0
281
0
  0
CLASS
  1
LAYOUT
  2
AcDbLayout
  3
AutoCAD 2000
 90
0
 91
0
280
0
281
0
  0
ENDSEC
  0
SECTION
  2
TABLES
  0
TABLE
  2
VPORT
  5
8
100
AcDbSymbolTable
 70
2
  0
VPORT
  5
1F4
100
AcDbSymbolTableRecord
100
AcDbViewportTableRecord
  2
*ACTIVE
 70
0
 10
0.0
 20
0.0
 11
1.0
 21
1.0
 12
5.5
 22
4.25
 13
0.0
 23
0.0
 14
1.0
 24
1.0
 15
0.0
 25
0.0
 16
0.0
 26
0.0
 36
1.0
 17
0.0
 27
0.0
 37
0.0
 40
8.5
 41
1.2941176471
 42
50.0
 43
0.0
 44
0.0
 50
0.0
 51
0.0
 71
0
 72
100
 73
1
 74
1
 75
0
 76
0
 77
0
 78
0
  0
ENDTAB
  0
TABLE
  2
LTYPE
  5
5
100
AcDbSymbolTable
 70
6
  0
LTYPE
  5
14
100
AcDbSymbolTableRecord
100
AcDbLinetypeTableRecord
  2
BYBLOCK
 70
0
  3

 72
65
 73
0
 40
0.0
  0
LTYPE
  5
15
100
AcDbSymbolTableRecord
100
AcDbLinetypeTableRecord
  2
BYLAYER
 70
0
  3

 72
65
 73
0
 40
0.0
  0
LTYPE
  5
16
100
AcDbSymbolTableRecord
100
AcDbLinetypeTableRecord
  2
CONTINUOUS
 70
64
  3
Solid line
 72
65
 73
0
 40
0.0
  0
LTYPE
  5
1F5
100
AcDbSymbolTableRecord
100
AcDbLinetypeTableRecord
  2
CENTER
 70
64
  3
____ _ ____ _ ____ _ ____ _ ____ _ ____ _ ____
 72
65
 73
4
 40
0.6
 49
0.375
 74
0
 49
-0.075
 74
0
 49
0.075
 74
0
 49
-0.075
 74
0
  0
LTYPE
  5
1F6
100
AcDbSymbolTableRecord
100
AcDbLinetypeTableRecord
  2
HIDDEN
 70
64
  3
- - - - - - - - - - - - - - - - - - - -
 72
65
 73
2
 40
0.2
 49
0.1
 74
0
 49
-0.1
 74
0
  0
LTYPE
  5
1F7
100
AcDbSymbolTableRecord
100
AcDbLinetypeTableRecord
  2
PHANTOM
 70
64
  3
_____ _ _ _____ _ _ _____ _ _ _____
 72
65
 73
6
 40
0.8
 49
0.45
 74
0
 49
-0.05
 74
0
 49
0.1
 74
0
 49
-0.05
 74
0
 49
0.1
 74
0
 49
-0.05
 74
0
  0
LTYPE
  5
1F8
100
AcDbSymbolTableRecord
100
AcDbLinetypeTableRecord
  2
DOT
 70
64
  3
. . . . . . . . . . . . . . . . . . . .
 72
65
 73
2
 40
0.2
 49
0.1
 74
0
 49
-0.1
 74
0
  0
LTYPE
  5
1F9
100
AcDbSymbolTableRecord
100
AcDbLinetypeTableRecord
  2
DASHED
 70
64
  3
- - - - - - - - - - - - - - - - - - - -
 72
65
 73
2
 40
0.2
 49
0.1
 74
0
 49
-0.1
 74
0
  0
ENDTAB
  0
TABLE
  2
LAYER
  5
2
100
AcDbSymbolTable
 70
36
  0
LAYER
  5
10
100
AcDbSymbolTableRecord
100
AcDbLayerTableRecord
  2
0
 70
0
 62
7
  6
CONTINUOUS
370
-3
390
F
  0
LAYER
  5
1FA
100
AcDbSymbolTableRecord
100
AcDbLayerTableRecord
  2
DEFAULT_1
 70
0
 62
7
  6
CENTER
370
-3
390
F
  0
LAYER
  5
1FB
100
AcDbSymbolTableRecord
100
AcDbLayerTableRecord
  2
DEFAULT_2
 70
0
 62
8
  6
HIDDEN
370
-3
390
F
  0
LAYER
  5
1FC
100
AcDbSymbolTableRecord
100
AcDbLayerTableRecord
  2
DEFAULT_3
 70
0
 62
7
  6
PHANTOM
370
-3
390
F
  0
LAYER
  5
1FD
100
AcDbSymbolTableRecord
100
AcDbLayerTableRecord
  2
DEFAULT_COORDINATE_SYSTEM
 70
0
 62
7
  6
CONTINUOUS
370
-3
390
F
  0
LAYER
  5
1FE
100
AcDbSymbolTableRecord
100
AcDbLayerTableRecord
  2
DEFAULT_DATUM_AXES
 70
0
 62
7
  6
CONTINUOUS
370
-3
390
F
  0
LAYER
  5
1FF
100
AcDbSymbolTableRecord
100
AcDbLayerTableRecord
  2
DEFAULT_DATUM_CURVES
 70
0
 62
7
  6
CONTINUOUS
370
-3
390
F
  0
LAYER
  5
200
100
AcDbSymbolTableRecord
100
AcDbLayerTableRecord
  2
DEFAULT_DATUM_PLANES
 70
0
 62
7
  6
CONTINUOUS
370
-3
390
F
  0
ENDTAB
  0
TABLE
  2
STYLE
  5
3
100
AcDbSymbolTable
 70
1
  0
STYLE
  5
11
100
AcDbSymbolTableRecord
100
AcDbTextStyleTableRecord
  2
STANDARD
 70
0
 40
0.0
 41
0.8
 50
0.0
 71
0
 42
0.2
  3
txt
  4

  0
STYLE
  5
201
100
AcDbSymbolTableRecord
100
AcDbTextStyleTableRecord
  2
TEXTSTYLE_1
 70
0
 40
0.0
 41
0.8
 50
0.0
 71
0
 42
0.2
  3
gdt
  4

  0
ENDTAB
  0
TABLE
  2
VIEW
  5
6
100
AcDbSymbolTable
 70
0
  0
ENDTAB
  0
TABLE
  2
UCS
  5
7
100
AcDbSymbolTable
 70
0
  0
ENDTAB
  0
TABLE
  2
APPID
  5
9
100
AcDbSymbolTable
 70
1
  0
APPID
  5
202
100
AcDbSymbolTableRecord
100
AcDbRegAppTableRecord
  2
ACAD
 70
0
  0
ENDTAB
  0
TABLE
  2
BLOCK_RECORD
  5
1
100
AcDbSymbolTable
 70
0
  0
BLOCK_RECORD
  5
203
100
AcDbSymbolTableRecord
100
AcDbBlockTableRecord
  2
*Model_Space
  0
BLOCK_RECORD
  5
204
100
AcDbSymbolTableRecord
100
AcDbBlockTableRecord
  2
*Paper_Space
  0
ENDTAB
  0
TABLE
  2
DIMSTYLE
  5
A
100
AcDbSymbolTable
 70
1
100
AcDbDimStyleTable
 71
0
  0
DIMSTYLE
105
205
100
AcDbSymbolTableRecord
100
AcDbDimStyleTableRecord
  2
STANDARD
 70
0
  3

  4

 40
1.0
 41
0.1
 42
0.0625
 43
0.38
 44
0.18
 45
0.0
 46
0.0
 47
0.001
 48
0.001
140
0.08
141
0.09
142
0.0
143
25.4
144
1.0
145
0.0
146
1.0
147
0.09
 71
1.0
 72
0.0
 73
1
 74
1
 75
0
 76
0
 77
0
 78
4
170
0
171
2
172
0
173
0
174
0
175
0
176
0
177
0
178
0
270
2
271
3
272
3
273
2
274
2
275
0
280
0
281
0
282
0
283
1
284
4
285
0
286
0
287
3
288
0
340
11
  0
ENDTAB
  0
ENDSEC
  0
SECTION
  2
BLOCKS
  0
BLOCK
  5
20
100
AcDbEntity
  8
0
100
AcDbBlockBegin
  2
*Model_Space
 70
0
 10
0.0
 20
0.0
 30
0.0
  3
*Model_Space
  1

  0
ENDBLK
  5
21
100
AcDbEntity
  8
0
100
AcDbBlockEnd
  0
BLOCK
  5
1C
100
AcDbEntity
  8
0
100
AcDbBlockBegin
  2
*Paper_Space
 70
0
 10
0.0
 20
0.0
 30
0.0
  3
*Paper_Space
  1

  0
ENDBLK
  5
1D
100
AcDbEntity
  8
0
100
AcDbBlockEnd
  0
ENDSEC
  0
SECTION
  2
ENTITIES
  0
LINE
  5
206
100
AcDbEntity
  8
0
100
AcDbLine
 62
7
  6
CONTINUOUS
 10
2.9845252803
 20
2.701945766
 11
2.9845252803
 21
2.324945766
  0
LINE
  5
207
100
AcDbEntity
  8
0
100
AcDbLine
 62
7
  6
CONTINUOUS
 10
2.9900252803
 20
2.325945766
 11
2.9900252803
 21
2.700945766
  0
LINE
  5
208
100
AcDbEntity
  8
0
100
AcDbLine
 62
6
  6
CONTINUOUS
 10
5.4900252803
 20
5.388445766
 11
5.4900252803
 21
5.200945766
  0
LINE
  5
209
100
AcDbEntity
  8
0
100
AcDbLine
 62
6
  6
CONTINUOUS
 10
7.7188355957
 20
6.5709401606
 11
7.6977132294
 21
6.5498177942
  0
LINE
  5
20A
100
AcDbEntity
  8
0
100
AcDbLine
 62
6
  6
CONTINUOUS
 10
5.8650252803
 20
5.3884451933
 11
5.8650252803
 21
5.200945766
  0
LINE
  5
20B
100
AcDbEntity
  8
0
100
AcDbLine
 62
9
  6
CONTINUOUS
 10
5.8650252803
 20
5.200945766
 11
5.4900252803
 21
5.200945766
  0
LINE
  5
20C
100
AcDbEntity
  8
0
100
AcDbLine
 62
6
  6
CONTINUOUS
 10
8.0681445319
 20
5.2049401606
 11
8.1301445319
 21
5.2049401606
  0
LINE
  5
20D
100
AcDbEntity
  8
0
100
AcDbLine
 62
6
  6
CONTINUOUS
 10
8.0681445319
 20
5.3209401606
 11
7.7188355957
 21
5.3209401606
  0
LINE
  5
20E
100
AcDbEntity
  8
0
100
AcDbLine
 62
7
  6
CONTINUOUS
 10
5.4890252803
 20
5.388445766
 11
5.8660226179
 21
5.3884448657
  0
LINE
  5
20F
100
AcDbEntity
  8
0
100
AcDbLine
 62
7
  6
CONTINUOUS
 10
6.1681445319
 20
6.2709401606
 11
6.1681445319
 21
5.6209401606
  0
LINE
  5
210
100
AcDbEntity
  8
0
100
AcDbLine
 62
9
  6
CONTINUOUS
 10
6.178370819
 20
5.6194118317
 11
6.178370819
 21
6.2724684894
  0
LINE
  5
211
100
AcDbEntity
  8
0
100
AcDbLine
 62
6
  6
CONTINUOUS
 10
8.0681445319
 20
5.9459401606
 11
7.8155234322
 21
5.9459401606
  0
LINE
  5
212
100
AcDbEntity
  8
0
100
AcDbLine
 62
6
  6
CONTINUOUS
 10
6.9977551557
 20
5.4969536275
 11
6.178370819
 21
5.6194114371
  0
LINE
  5
213
100
AcDbEntity
  8
0
100
AcDbLine
 62
6
  6
CONTINUOUS
 10
6.9977551557
 20
6.394926299
 11
6.178370819
 21
6.2724684894
  0
LINE
  5
214
100
AcDbEntity
  8
0
100
AcDbLine
 62
6
  6
CONTINUOUS
 10
7.6507295453
 20
5.3754658117
 11
7.6503938295
 21
5.3755629157
  0
LINE
  5
215
100
AcDbEntity
  8
0
100
AcDbLine
 62
9
  6
CONTINUOUS
 10
6.9977551557
 20
6.394926299
 11
6.9977551557
 21
5.4969540221
  0
LINE
  5
216
100
AcDbEntity
  8
0
100
AcDbLine
 62
9
  6
CONTINUOUS
 10
7.2469614614
 20
6.5078595009
 11
7.2469614614
 21
5.3840208202
  0
LINE
  5
217
100
AcDbEntity
  8
0
100
AcDbLine
 62
6
  6
CONTINUOUS
 10
7.7188355957
 20
6.5709401606
 11
8.0681445319
 21
6.5709401606
  0
LINE
  5
218
100
AcDbEntity
  8
0
100
AcDbLine
 62
6
  6
CONTINUOUS
 10
8.0681445319
 20
6.6869401606
 11
8.1301445319
 21
6.6869401606
  0
LINE
  5
219
100
AcDbEntity
  8
0
100
AcDbLine
 62
9
  6
CONTINUOUS
 10
7.4852994791
 20
6.5253548272
 11
7.4852994791
 21
5.3665254939
  0
LINE
  5
21A
100
AcDbEntity
  8
0
100
AcDbLine
 62
9
  6
CONTINUOUS
 10
7.6977132294
 20
6.5498177942
 11
7.6977132294
 21
5.3420625269
  0
LINE
  5
21B
100
AcDbEntity
  8
0
100
AcDbLine
 62
6
  6
CONTINUOUS
 10
7.7188355957
 20
5.320939766
 11
7.6977132294
 21
5.3420621323
  0
LINE
  5
21C
100
AcDbEntity
  8
0
100
AcDbLine
 62
6
  6
CONTINUOUS
 10
8.0681445319
 20
5.2049433402
 11
8.0681445319
 21
6.6869369809
  0
LINE
  5
21D
100
AcDbEntity
  8
0
100
AcDbLine
 62
9
  6
CONTINUOUS
 10
8.1301445319
 20
5.1329401085
 11
8.1301445319
 21
6.7589402127
  0
LINE
  5
21E
100
AcDbEntity
  8
0
100
AcDbLine
 62
6
  6
CONTINUOUS
 10
8.3181445319
 20
4.9459401606
 11
8.3181445319
 21
6.9459401606
  0
LINE
  5
21F
100
AcDbEntity
  8
0
100
AcDbLine
 62
6
  6
CONTINUOUS
 10
8.5051445319
 20
4.7659401606
 11
8.5051445319
 21
7.1259401606
  0
ARC
  5
220
100
AcDbEntity
  8
0
100
AcDbCircle
 62
6
  6
CONTINUOUS
 10
2.4270308858
 20
2.513445766
 40
0.5885
100
AcDbArc
 50
18.6814231474
 51
341.3185768526
  0
ARC
  5
221
100
AcDbEntity
  8
0
100
AcDbCircle
 62
6
  6
CONTINUOUS
 10
2.9900252803
 20
5.200945766
 40
2.875
100
AcDbArc
 50
270.0
 51
360.0
  0
ARC
  5
222
100
AcDbEntity
  8
0
100
AcDbCircle
 62
6
  6
CONTINUOUS
 10
2.9900252803
 20
5.200945766
 40
2.5
100
AcDbArc
 50
270.0
 51
360.0
  0
ARC
  5
223
100
AcDbEntity
  8
0
100
AcDbCircle
 62
6
  6
CONTINUOUS
 10
5.6775252803
 20
5.945939766
 40
0.5885
100
AcDbArc
 50
180.0
 51
251.3185768526
  0
ARC
  5
224
100
AcDbEntity
  8
0
100
AcDbCircle
 62
6
  6
CONTINUOUS
 10
5.6775252803
 20
5.945939766
 40
0.5885
100
AcDbArc
 50
288.6811260553
 51
326.4783880966
  0
ARC
  5
225
100
AcDbEntity
  8
0
100
AcDbCircle
 62
6
  6
CONTINUOUS
 10
6.1801445319
 20
5.6312800221
 40
0.012
100
AcDbArc
 50
180.0
 51
261.4999999884
  0
ARC
  5
226
100
AcDbEntity
  8
0
100
AcDbCircle
 62
6
  6
CONTINUOUS
 10
6.9238504502
 20
5.0024456958
 40
0.5
100
AcDbArc
 50
49.7426395414
 51
81.5
  0
ARC
  5
227
100
AcDbEntity
  8
0
100
AcDbCircle
 62
6
  6
CONTINUOUS
 10
5.6775252803
 20
5.9459401606
 40
0.5885
100
AcDbArc
 50
33.5216119034
 51
251.3185768526
  0
ARC
  5
228
100
AcDbEntity
  8
0
100
AcDbCircle
 62
6
  6
CONTINUOUS
 10
5.6775252803
 20
5.9459401606
 40
0.5885
100
AcDbArc
 50
288.6811260553
 51
326.4783880966
  0
ARC
  5
229
100
AcDbEntity
  8
0
100
AcDbCircle
 62
6
  6
CONTINUOUS
 10
6.9238504502
 20
6.8894342307
 40
0.5
100
AcDbArc
 50
278.5
 51
310.2573604586
  0
ARC
  5
22A
100
AcDbEntity
  8
0
100
AcDbCircle
 62
6
  6
CONTINUOUS
 10
6.1801445319
 20
6.260600299
 40
0.012
100
AcDbArc
 50
98.5000000116
 51
180.0
  0
ARC
  5
22B
100
AcDbEntity
  8
0
100
AcDbCircle
 62
6
  6
CONTINUOUS
 10
7.5871886291
 20
5.2009743063
 40
0.1944629645
100
AcDbArc
 50
116.6306143144
 51
117.765305349
  0
ARC
  5
22C
100
AcDbEntity
  8
0
100
AcDbCircle
 62
6
  6
CONTINUOUS
 10
7.5863858137
 20
5.2026914632
 40
0.192568128
100
AcDbArc
 50
111.4387807025
 51
116.6460993144
  0
ARC
  5
22D
100
AcDbEntity
  8
0
100
AcDbCircle
 62
6
  6
CONTINUOUS
 10
7.59377643
 20
5.2265880346
 40
0.1757671103
100
AcDbArc
 50
122.3096701721
 51
123.6497078753
  0
ARC
  5
22E
100
AcDbEntity
  8
0
100
AcDbCircle
 62
6
  6
CONTINUOUS
 10
7.576090863
 20
5.220439766
 40
0.172
100
AcDbArc
 50
45.0
 51
64.2912810359
  0
ARC
  5
22F
100
AcDbEntity
  8
0
100
AcDbCircle
 62
6
  6
CONTINUOUS
 10
7.576090863
 20
5.220439766
 40
0.172
100
AcDbArc
 50
117.7351832489
 51
121.8607670822
  0
ARC
  5
230
100
AcDbEntity
  8
0
100
AcDbCircle
 62
6
  6
CONTINUOUS
 10
7.5667770838
 20
5.2395765044
 40
0.1607727403
100
AcDbArc
 50
59.7587796275
 51
64.9521526384
  0
ARC
  5
231
100
AcDbEntity
  8
0
100
AcDbCircle
 62
6
  6
CONTINUOUS
 10
7.5835393528
 20
5.2422299838
 40
0.1551743971
100
AcDbArc
 50
113.5426403741
 51
115.800735215
  0
ARC
  5
232
100
AcDbEntity
  8
0
100
AcDbCircle
 62
6
  6
CONTINUOUS
 10
7.3781445319
 20
5.538939766
 40
0.203
100
AcDbArc
 50
229.7426395414
 51
301.8607670822
  0
ARC
  5
233
100
AcDbEntity
  8
0
100
AcDbCircle
 62
6
  6
CONTINUOUS
 10
7.5790371359
 20
5.2537341054
 40
0.1428173011
100
AcDbArc
 50
104.3532354938
 51
111.330160494
  0
ARC
  5
234
100
AcDbEntity
  8
0
100
AcDbCircle
 62
6
  6
CONTINUOUS
 10
7.5762813215
 20
5.2629674186
 40
0.1333270052
100
AcDbArc
 50
77.8566092084
 51
84.5753718988
  0
ARC
  5
235
100
AcDbEntity
  8
0
100
AcDbCircle
 62
6
  6
CONTINUOUS
 10
7.5392966357
 20
5.4993012892
 40
0.1161754058
100
AcDbArc
 50
260.9158278592
 51
261.2171545511
  0
ARC
  5
236
100
AcDbEntity
  8
0
100
AcDbCircle
 62
6
  6
CONTINUOUS
 10
7.5591500014
 20
5.32611306
 40
0.0694321405
100
AcDbArc
 50
121.90889268
 51
122.7805856972
  0
ARC
  5
237
100
AcDbEntity
  8
0
100
AcDbCircle
 62
6
  6
CONTINUOUS
 10
8.5051445319
 20
4.9530762717
 40
0.1871361111
100
AcDbArc
 50
182.1854050713
 51
270.0
  0
ARC
  5
238
100
AcDbEntity
  8
0
100
AcDbCircle
 62
6
  6
CONTINUOUS
 10
8.3171445319
 20
5.1329374867
 40
0.187
100
AcDbArc
 50
180.0
 51
270.3063960032
  0
ARC
  5
239
100
AcDbEntity
  8
0
100
AcDbCircle
 62
6
  6
CONTINUOUS
 10
7.3781445319
 20
6.3529401606
 40
0.203
100
AcDbArc
 50
58.1392329178
 51
130.2573604586
  0
ARC
  5
23A
100
AcDbEntity
  8
0
100
AcDbCircle
 62
6
  6
CONTINUOUS
 10
7.576090863
 20
6.6714401606
 40
0.172
100
AcDbArc
 50
238.1392329178
 51
315.0
  0
ARC
  5
23B
100
AcDbEntity
  8
0
100
AcDbCircle
 62
6
  6
CONTINUOUS
 10
8.5051445319
 20
6.9388040494
 40
0.1871361111
100
AcDbArc
 50
90.0
 51
177.8145949287
  0
ARC
  5
23C
100
AcDbEntity
  8
0
100
AcDbCircle
 62
6
  6
CONTINUOUS
 10
8.3171445319
 20
6.7589428344
 40
0.187
100
AcDbArc
 50
89.6936039968
 51
180.0
  0
SPLINE
  5
23D
100
AcDbEntity
  8
0
100
AcDbSpline
 62
6
  6
CONTINUOUS
 70
0
 71
3
 72
17
 73
13
 74
11
 42
0.0000001
 43
0.0000001
 44
0.0000000001
 12
0.0263687753
 22
0.0135850819
 32
0.0
 13
0.0281057992
 23
0.0094831859
 33
0.0
 40
0.0
 40
0.0
 40
0.0
 40
0.0
 40
0.1289406853
 40
0.1922571078
 40
0.2550257553
 40
0.3794248369
 40
0.4412774112
 40
0.5030385468
 40
0.6265298107
 40
0.7503211523
 40
0.8747432356
 40
1.0
 40
1.0
 40
1.0
 40
1.0
 10
7.499829814
 20
5.3751413696
 30
0.0
 10
7.50096315
 20
5.3757252595
 30
0.0
 10
7.5026605072
 20
5.376581449
 30
0.0
 10
7.5049268925
 20
5.3776868652
 30
0.0
 10
7.5071624044
 20
5.3787529279
 30
0.0
 10
7.5093989386
 20
5.3797830205
 30
0.0
 10
7.5116402115
 20
5.3807781423
 30
0.0
 10
7.513882264
 20
5.3817491408
 30
0.0
 10
7.5167031491
 20
5.3829242808
 30
0.0
 10
7.5201224275
 20
5.384272454
 30
0.0
 10
7.5235838236
 20
5.3855594771
 30
0.0
 10
7.5259148829
 20
5.3863729103
 30
0.0
 10
7.5270883634
 20
5.3867688547
 30
0.0
 11
7.499829814
 21
5.3751413696
 31
0.0
 11
7.5032449185
 21
5.3768634213
 31
0.0
 11
7.5049329648
 21
5.377686743
 31
0.0
 11
7.5066135581
 21
5.3784881142
 31
0.0
 11
7.5099653086
 21
5.3800314298
 31
0.0
 11
7.511642163
 21
5.380775944
 31
0.0
 11
7.5133232916
 21
5.3815039575
 31
0.0
 11
7.5167047964
 21
5.3829123164
 31
0.0
 11
7.5201209031
 21
5.384258999
 31
0.0
 11
7.5235803058
 21
5.3855449316
 31
0.0
 11
7.5270883634
 21
5.3867688547
 31
0.0
  0
SPLINE
  5
23E
100
AcDbEntity
  8
0
100
AcDbSpline
 62
6
  6
CONTINUOUS
 70
0
 71
3
 72
29
 73
25
 74
23
 42
0.0000001
 43
0.0000001
 44
0.0000000001
 12
0.00320816
 22
-0.0028307357
 32
0.0
 13
-0.0037018165
 23
-0.0021452062
 33
0.0
 40
0.0
 40
0.0
 40
0.0
 40
0.0
 40
0.229013795
 40
0.3330532704
 40
0.4299331091
 40
0.5195182577
 40
0.6016745976
 40
0.6762695969
 40
0.7431865584
 40
0.8023341826
 40
0.8536293572
 40
0.8970000017
 40
0.9156976175
 40
0.9323982377
 40
0.9471032184
 40
0.9598207752
 40
0.9705711748
 40
0.9794007306
 40
0.986406928
 40
0.989288114
 40
0.9918070018
 40
0.9960264404
 40
0.997978763
 40
1.0
 40
1.0
 40
1.0
 40
1.0
 10
7.6477489244
 20
5.3784701149
 30
0.0
 10
7.6479938287
 20
5.3782540224
 30
0.0
 10
7.6483486163
 20
5.3779381913
 30
0.0
 10
7.6488029915
 20
5.3775264835
 30
0.0
 10
7.6491082181
 20
5.3772463255
 30
0.0
 10
7.6493885555
 20
5.3769852185
 30
0.0
 10
7.6496436038
 20
5.3767436073
 30
0.0
 10
7.6498729848
 20
5.3765219301
 30
0.0
 10
7.6500763451
 20
5.3763205747
 30
0.0
 10
7.6502533509
 20
5.3761398646
 30
0.0
 10
7.6504036892
 20
5.3759800989
 30
0.0
 10
7.6505112929
 20
5.3758593868
 30
0.0
 10
7.6505833944
 20
5.3757732297
 30
0.0
 10
7.6506278634
 20
5.3757172865
 30
0.0
 10
7.6506654393
 20
5.3756667927
 30
0.0
 10
7.6506960954
 20
5.3756217815
 30
0.0
 10
7.6507198413
 20
5.3755822657
 30
0.0
 10
7.6507366679
 20
5.3755482402
 30
0.0
 10
7.6507455521
 20
5.3755229236
 30
0.0
 10
7.6507485808
 20
5.3755054305
 30
0.0
 10
7.6507490501
 20
5.3754917176
 30
0.0
 10
7.6507460567
 20
5.3754791394
 30
0.0
 10
7.6507388038
 20
5.3754697886
 30
0.0
 10
7.6507341954
 20
5.3754663692
 30
0.0
 10
7.6507317013
 20
5.3754649239
 30
0.0
 11
7.6477489244
 21
5.3784701149
 31
0.0
 11
7.6484804223
 21
5.3778182119
 31
0.0
 11
7.6488102256
 21
5.3775192624
 31
0.0
 11
7.649115527
 21
5.377238906
 31
0.0
 11
7.6493959228
 21
5.3769775867
 31
0.0
 11
7.6496510095
 21
5.3767357483
 31
0.0
 11
7.6498803839
 21
5.376513834
 31
0.0
 11
7.65008367
 21
5.3763122306
 31
0.0
 11
7.6502605352
 21
5.3761312364
 31
0.0
 11
7.6504106505
 21
5.3759711415
 31
0.0
 11
7.6505336869
 21
5.3758322363
 31
0.0
 11
7.6505849477
 21
5.3757708206
 31
0.0
 11
7.6506293155
 21
5.3757148112
 31
0.0
 11
7.6506667492
 21
5.3756642443
 31
0.0
 11
7.6506972075
 21
5.3756191563
 31
0.0
 11
7.6507206496
 21
5.3755795831
 31
0.0
 11
7.6507370429
 21
5.3755455483
 31
0.0
 11
7.6507463656
 21
5.375517059
 31
0.0
 11
7.650748369
 21
5.3755048958
 31
0.0
 11
7.6507485969
 21
5.3754941212
 31
0.0
 11
7.6507437157
 21
5.3754767409
 31
0.0
 11
7.6507386015
 21
5.3754701366
 31
0.0
 11
7.6507317013
 21
5.3754649239
 31
0.0
  0
SPLINE
  5
23F
100
AcDbEntity
  8
0
100
AcDbSpline
 62
6
  6
CONTINUOUS
 70
0
 71
3
 72
9
 73
5
 74
3
 42
0.0000001
 43
0.0000001
 44
0.0000000001
 12
0.0311722906
 22
-0.0051921525
 32
0.0
 13
0.029700375
 23
-0.0107961974
 33
0.0
 40
0.0
 40
0.0
 40
0.0
 40
0.0
 40
0.4999929307
 40
1.0
 40
1.0
 40
1.0
 40
1.0
 10
7.6043279026
 20
5.393311345
 30
0.0
 10
7.609523211
 20
5.3924459985
 30
0.0
 10
7.6198346947
 20
5.390205514
 30
0.0
 10
7.6298941048
 20
5.3870286908
 30
0.0
 10
7.6348442373
 20
5.3852292992
 30
0.0
 11
7.6043279026
 21
5.393311345
 31
0.0
 11
7.6197715323
 21
5.3899714676
 31
0.0
 11
7.6348442373
 21
5.3852292992
 31
0.0
  0
SPLINE
  5
240
100
AcDbEntity
  8
0
100
AcDbSpline
 62
6
  6
CONTINUOUS
 70
0
 71
3
 72
26
 73
22
 74
20
 42
0.0000001
 43
0.0000001
 44
0.0000000001
 12
0.0438938927
 22
0.0128921801
 32
0.0
 13
0.0453046696
 23
-0.0063536636
 33
0.0
 40
0.0
 40
0.0
 40
0.0
 40
0.0
 40
0.0504254038
 40
0.1032086251
 40
0.1583623527
 40
0.2159037129
 40
0.3378888514
 40
0.4021348949
 40
0.4682819175
 40
0.5358344991
 40
0.5699770338
 40
0.6042779207
 40
0.6386645406
 40
0.6730537213
 40
0.7415012315
 40
0.7753926837
 40
0.8089498641
 40
0.8421043692
 40
0.8748041882
 40
0.9386290926
 40
1.0
 40
1.0
 40
1.0
 40
1.0
 10
7.5436327686
 20
5.3920937359
 30
0.0
 10
7.5443705577
 20
5.3923104337
 30
0.0
 10
7.5458846379
 20
5.392740474
 30
0.0
 10
7.5482200735
 20
5.3933555485
 30
0.0
 10
7.5506733296
 20
5.3939474422
 30
0.0
 10
7.5541700822
 20
5.3947099555
 30
0.0
 10
7.5578300969
 20
5.3953711933
 30
0.0
 10
7.5616419762
 20
5.3959044711
 30
0.0
 10
7.5646424201
 20
5.3962383047
 30
0.0
 10
7.5671936794
 20
5.3964482114
 30
0.0
 10
7.5692639168
 20
5.3965717325
 30
0.0
 10
7.5708305567
 20
5.3966406933
 30
0.0
 10
7.5724018458
 20
5.3966851649
 30
0.0
 10
7.5744942943
 20
5.3967123573
 30
0.0
 10
7.5765795918
 20
5.396692298
 30
0.0
 10
7.5786509002
 20
5.3966254491
 30
0.0
 10
7.5801833591
 20
5.3965524724
 30
0.0
 10
7.5816963872
 20
5.396457309
 30
0.0
 10
7.5836680343
 20
5.3963042079
 30
0.0
 10
7.5860644394
 20
5.3960668518
 30
0.0
 10
7.5879587439
 20
5.3958271276
 30
0.0
 10
7.5888855401
 20
5.3956971509
 30
0.0
 11
7.5436327686
 21
5.3920937359
 31
0.0
 11
7.5458519535
 21
5.3927236839
 31
0.0
 11
7.5481871235
 21
5.3933384146
 31
0.0
 11
7.5506399522
 21
5.3939300563
 31
0.0
 11
7.5532119674
 21
5.3944906702
 31
0.0
 11
7.5587041686
 21
5.3954799093
 31
0.0
 11
7.561614976
 21
5.395886953
 31
0.0
 11
7.5646225034
 21
5.39622167
 31
0.0
 11
7.5677025304
 21
5.3964746325
 31
0.0
 11
7.5692617184
 21
5.3965675412
 31
0.0
 11
7.5708293987
 21
5.3966365387
 31
0.0
 11
7.572401886
 21
5.396681153
 31
0.0
 11
7.5739749898
 21
5.3967016422
 31
0.0
 11
7.5771061826
 21
5.396671425
 31
0.0
 11
7.5786558396
 21
5.3966213085
 31
0.0
 11
7.5801892758
 21
5.3965482663
 31
0.0
 11
7.5817030434
 21
5.3964531457
 31
0.0
 11
7.5831945097
 21
5.3963373806
 31
0.0
 11
7.5861001739
 21
5.3960497719
 31
0.0
 11
7.5888855401
 21
5.3956971509
 31
0.0
  0
LINE
  5
241
100
AcDbEntity
  8
0
100
AcDbLine
 62
6
  6
CONTINUOUS
 10
7.6503938295
 20
5.3755629157
 11
7.6348537016
 21
5.3852112772
  0
LINE
  5
242
100
AcDbEntity
  8
0
100
AcDbLine
 62
6
  6
CONTINUOUS
 10
7.4960445319
 20
5.3726787394
 11
7.4963813893
 21
5.3729038008
  0
SPLINE
  5
243
100
AcDbEntity
  8
0
100
AcDbSpline
 62
6
  6
CONTINUOUS
 70
0
 71
3
 72
41
 73
37
 74
35
 42
0.0000001
 43
0.0000001
 44
0.0000000001
 12
-0.3309623174
 22
-0.5732435492
 32
0.0
 13
0.3309623174
 23
-0.5732435492
 33
0.0
 40
0.0
 40
0.0
 40
0.0
 40
0.0
 40
0.0317982364
 40
0.0635275648
 40
0.0951820941
 40
0.1109806473
 40
0.1267597741
 40
0.1896654926
 40
0.2209974539
 40
0.2522510199
 40
0.3145156965
 40
0.3455475431
 40
0.3765178956
 40
0.3919832437
 40
0.4074368526
 40
0.4228805764
 40
0.438315937
 40
0.4691655007
 40
0.500000062
 40
0.5308346177
 40
0.5616841746
 40
0.5771195341
 40
0.5925632589
 40
0.6080168656
 40
0.6234822076
 40
0.6544525456
 40
0.6854843863
 40
0.7477490291
 40
0.7790025796
 40
0.8103345305
 40
0.8732402267
 40
0.8890193502
 40
0.9048179017
 40
0.9364724312
 40
0.9682017621
 40
1.0
 40
1.0
 40
1.0
 40
1.0
 10
7.8155234322
 20
5.9459401606
 30
0.0
 10
7.8120154262
 20
5.9398641159
 30
0.0
 10
7.8051212029
 20
5.9276587599
 30
0.0
 10
7.7951676979
 20
5.9091645176
 30
0.0
 10
7.7872283117
 20
5.8935999011
 30
0.0
 10
7.7811105581
 20
5.8810606737
 30
0.0
 10
7.7721997425
 20
5.8622141001
 30
0.0
 10
7.762518406
 20
5.839937569
 30
0.0
 10
7.7526078319
 20
5.8140792842
 30
0.0
 10
7.7435571267
 20
5.7880579634
 30
0.0
 10
7.7358233979
 20
5.7616592157
 30
0.0
 10
7.7295972944
 20
5.7349516117
 30
0.0
 10
7.7263649875
 20
5.7181622475
 30
0.0
 10
7.7241907399
 20
5.7046803238
 30
0.0
 10
7.7227701309
 20
5.6945491409
 30
0.0
 10
7.7215633749
 20
5.6843969042
 30
0.0
 10
7.7202424741
 20
5.6708403646
 30
0.0
 10
7.7191340926
 20
5.6538550584
 30
0.0
 10
7.7186863865
 20
5.6334401207
 30
0.0
 10
7.7191340812
 20
5.6130251838
 30
0.0
 10
7.7202424852
 20
5.5960398819
 30
0.0
 10
7.7215633927
 20
5.5824833446
 30
0.0
 10
7.7227701395
 20
5.5723311074
 30
0.0
 10
7.7241907429
 20
5.5621999253
 30
0.0
 10
7.7263649927
 20
5.548718007
 30
0.0
 10
7.7295973121
 20
5.5319286512
 30
0.0
 10
7.7358234098
 20
5.5052210584
 30
0.0
 10
7.7435571341
 20
5.4788223217
 30
0.0
 10
7.7526078416
 20
5.4528010157
 30
0.0
 10
7.7625184124
 20
5.4269427411
 30
0.0
 10
7.772199745
 20
5.404666217
 30
0.0
 10
7.7811105574
 20
5.3858196485
 30
0.0
 10
7.7872283103
 20
5.373280422
 30
0.0
 10
7.7951676967
 20
5.3577158053
 30
0.0
 10
7.8051212022
 20
5.3392215622
 30
0.0
 10
7.8120154261
 20
5.3270162055
 30
0.0
 10
7.8155234322
 20
5.3209401606
 30
0.0
 11
7.8155234322
 21
5.9459401606
 31
0.0
 11
7.8051765951
 21
5.927610873
 31
0.0
 11
7.7952282737
 21
5.909114043
 31
0.0
 11
7.7857127325
 21
5.89044645
 31
0.0
 11
7.7811279621
 21
5.8810476111
 31
0.0
 11
7.776664268
 21
5.8716048915
 31
0.0
 11
7.7601189026
 21
5.8333943658
 31
0.0
 11
7.7527033102
 21
5.814026052
 31
0.0
 11
7.7459138183
 21
5.7944844126
 31
0.0
 11
7.7343823128
 21
5.7549159741
 31
0.0
 11
7.729724335
 21
5.7349103401
 31
0.0
 11
7.7258542384
 21
5.7147789228
 31
0.0
 11
7.7242250604
 21
5.7046724993
 31
0.0
 11
7.7228053499
 21
5.6945423754
 31
0.0
 11
7.7215990499
 21
5.6843912175
 31
0.0
 11
7.7206084824
 21
5.6742223044
 31
0.0
 11
7.7192809599
 21
5.6538454154
 31
0.0
 11
7.7188355958
 21
5.6334401194
 31
0.0
 11
7.7192809549
 21
5.6130348269
 31
0.0
 11
7.7206084941
 21
5.5926579435
 31
0.0
 11
7.7215990652
 21
5.5824890315
 31
0.0
 11
7.7228053592
 21
5.5723378722
 31
0.0
 11
7.7242250649
 21
5.5622077492
 31
0.0
 11
7.7258542438
 21
5.55210133
 31
0.0
 11
7.7297243492
 21
5.5319699241
 31
0.0
 11
7.734382327
 21
5.511964294
 31
0.0
 11
7.7459138266
 21
5.4723958772
 31
0.0
 11
7.7527033188
 21
5.4528542487
 31
0.0
 11
7.7601189097
 21
5.4334859417
 31
0.0
 11
7.7766642684
 21
5.3952754292
 31
0.0
 11
7.7811279613
 21
5.3858327115
 31
0.0
 11
7.785712731
 21
5.3764338735
 31
0.0
 11
7.7952282723
 21
5.3577662803
 31
0.0
 11
7.8051765946
 21
5.3392694489
 31
0.0
 11
7.8155234322
 21
5.3209401606
 31
0.0
  0
SPLINE
  5
244
100
AcDbEntity
  8
0
100
AcDbSpline
 62
6
  6
CONTINUOUS
 70
0
 71
3
 72
41
 73
37
 74
35
 42
0.0000001
 43
0.0000001
 44
0.0000000001
 12
-0.3309623174
 22
-0.5732435492
 32
0.0
 13
0.3309623174
 23
-0.5732435492
 33
0.0
 40
0.0
 40
0.0
 40
0.0
 40
0.0
 40
0.0317982364
 40
0.0635275648
 40
0.0951820941
 40
0.1109806473
 40
0.1267597741
 40
0.1896654926
 40
0.2209974539
 40
0.2522510199
 40
0.3145156965
 40
0.3455475431
 40
0.3765178956
 40
0.3919832437
 40
0.4074368526
 40
0.4228805764
 40
0.438315937
 40
0.4691655007
 40
0.500000062
 40
0.5308346177
 40
0.5616841746
 40
0.5771195341
 40
0.5925632589
 40
0.6080168656
 40
0.6234822076
 40
0.6544525456
 40
0.6854843863
 40
0.7477490291
 40
0.7790025796
 40
0.8103345305
 40
0.8732402267
 40
0.8890193502
 40
0.9048179017
 40
0.9364724312
 40
0.9682017621
 40
1.0
 40
1.0
 40
1.0
 40
1.0
 10
7.8155234322
 20
6.5709401606
 30
0.0
 10
7.8120154262
 20
6.5648641159
 30
0.0
 10
7.8051212029
 20
6.5526587599
 30
0.0
 10
7.7951676979
 20
6.5341645176
 30
0.0
 10
7.7872283117
 20
6.5185999011
 30
0.0
 10
7.7811105581
 20
6.5060606737
 30
0.0
 10
7.7721997425
 20
6.4872141001
 30
0.0
 10
7.762518406
 20
6.464937569
 30
0.0
 10
7.7526078319
 20
6.4390792842
 30
0.0
 10
7.7435571267
 20
6.4130579634
 30
0.0
 10
7.7358233979
 20
6.3866592157
 30
0.0
 10
7.7295972944
 20
6.3599516117
 30
0.0
 10
7.7263649875
 20
6.3431622475
 30
0.0
 10
7.7241907399
 20
6.3296803238
 30
0.0
 10
7.7227701309
 20
6.3195491409
 30
0.0
 10
7.7215633749
 20
6.3093969042
 30
0.0
 10
7.7202424741
 20
6.2958403646
 30
0.0
 10
7.7191340926
 20
6.2788550584
 30
0.0
 10
7.7186863865
 20
6.2584401207
 30
0.0
 10
7.7191340812
 20
6.2380251838
 30
0.0
 10
7.7202424852
 20
6.2210398819
 30
0.0
 10
7.7215633927
 20
6.2074833446
 30
0.0
 10
7.7227701395
 20
6.1973311074
 30
0.0
 10
7.7241907429
 20
6.1871999253
 30
0.0
 10
7.7263649927
 20
6.173718007
 30
0.0
 10
7.7295973121
 20
6.1569286512
 30
0.0
 10
7.7358234098
 20
6.1302210584
 30
0.0
 10
7.7435571341
 20
6.1038223217
 30
0.0
 10
7.7526078416
 20
6.0778010157
 30
0.0
 10
7.7625184124
 20
6.0519427411
 30
0.0
 10
7.772199745
 20
6.029666217
 30
0.0
 10
7.7811105574
 20
6.0108196485
 30
0.0
 10
7.7872283103
 20
5.998280422
 30
0.0
 10
7.7951676967
 20
5.9827158053
 30
0.0
 10
7.8051212022
 20
5.9642215622
 30
0.0
 10
7.8120154261
 20
5.9520162055
 30
0.0
 10
7.8155234322
 20
5.9459401606
 30
0.0
 11
7.8155234322
 21
6.5709401606
 31
0.0
 11
7.8051765951
 21
6.552610873
 31
0.0
 11
7.7952282737
 21
6.534114043
 31
0.0
 11
7.7857127325
 21
6.51544645
 31
0.0
 11
7.7811279621
 21
6.5060476111
 31
0.0
 11
7.776664268
 21
6.4966048915
 31
0.0
 11
7.7601189026
 21
6.4583943658
 31
0.0
 11
7.7527033102
 21
6.439026052
 31
0.0
 11
7.7459138183
 21
6.4194844126
 31
0.0
 11
7.7343823128
 21
6.3799159741
 31
0.0
 11
7.729724335
 21
6.3599103401
 31
0.0
 11
7.7258542384
 21
6.3397789228
 31
0.0
 11
7.7242250604
 21
6.3296724993
 31
0.0
 11
7.7228053499
 21
6.3195423754
 31
0.0
 11
7.7215990499
 21
6.3093912175
 31
0.0
 11
7.7206084824
 21
6.2992223044
 31
0.0
 11
7.7192809599
 21
6.2788454154
 31
0.0
 11
7.7188355958
 21
6.2584401194
 31
0.0
 11
7.7192809549
 21
6.2380348269
 31
0.0
 11
7.7206084941
 21
6.2176579435
 31
0.0
 11
7.7215990652
 21
6.2074890315
 31
0.0
 11
7.7228053592
 21
6.1973378722
 31
0.0
 11
7.7242250649
 21
6.1872077492
 31
0.0
 11
7.7258542438
 21
6.17710133
 31
0.0
 11
7.7297243492
 21
6.1569699241
 31
0.0
 11
7.734382327
 21
6.136964294
 31
0.0
 11
7.7459138266
 21
6.0973958772
 31
0.0
 11
7.7527033188
 21
6.0778542487
 31
0.0
 11
7.7601189097
 21
6.0584859417
 31
0.0
 11
7.7766642684
 21
6.0202754292
 31
0.0
 11
7.7811279613
 21
6.0108327115
 31
0.0
 11
7.785712731
 21
6.0014338735
 31
0.0
 11
7.7952282723
 21
5.9827662803
 31
0.0
 11
7.8051765946
 21
5.9642694489
 31
0.0
 11
7.8155234322
 21
5.9459401606
 31
0.0
  0
LINE
  5
245
100
AcDbEntity
  8
0
100
AcDbLine
 62
6
  6
CONTINUOUS
 10
7.5148595442
 20
5.3822631985
 11
7.5160008367
 21
5.3819355397
  0
ENDSEC
  0
SECTION
  2
OBJECTS
  0
DICTIONARY
  5
C
100
AcDbDictionary
280
0
281
1
  3
ACAD_GROUP
350
D
  3
ACAD_MLINESTYLE
350
17
  3
ACAD_LAYOUT
350
1A
  3
ACAD_PLOTSETTINGS
350
19
  3
ACAD_PLOTSTYLENAME
350
E
  0
DICTIONARY
  5
D
102
{ACAD_REACTORS
330
C
102
}
100
AcDbDictionary
280
0
281
1
  0
ACDBDICTIONARYWDFLT
  5
E
102
{ACAD_REACTORS
330
C
102
}
100
AcDbDictionary
281
1
  3
Normal
350
F
100
AcDbDictionaryWithDefault
340
F
  0
DICTIONARY
  5
17
102
{ACAD_REACTORS
330
C
102
}
100
AcDbDictionary
280
0
281
1
  3
Standard
350
18
  0
DICTIONARY
  5
19
102
{ACAD_REACTORS
330
C
102
}
100
AcDbDictionary
281
1
  0
DICTIONARY
  5
1A
102
{ACAD_REACTORS
330
C
102
}
100
AcDbDictionary
281
1
  3
Model
350
246
  3
Layout1
350
247
  0
ACDBPLACEHOLDER
  5
F
102
{ACAD_REACTORS
330
E
102
}
  0
MLINESTYLE
  5
18
102
{ACAD_REACTORS
330
17
102
}
100
AcDbMlineStyle
  2
STANDARD
 70
0
  3

 62
256
 51
90.0
 52
90.0
 71
2
 49
0.5
 62
256
  6
BYLAYER
 49
-0.5
 62
256
  6
BYLAYER
  0
LAYOUT
  5
246
102
{ACAD_REACTORS
330
1A
102
}
100
AcDbPlotSettings
  1

  2
none_device
  4
ANSI_A_(11.00_x_8.50_Inches)
  6

 40
0.0
 41
0.0
 42
0.0
 43
0.0
 44
279.4
 45
215.9
 46
0.0
 47
0.0
 48
0.0
 49
0.0
140
0.0
141
0.0
142
1.0
143
1.0
 70
1024
 72
0
 73
0
 74
0
  7

 75
0
147
1.0
148
0.0
149
0.0
100
AcDbLayout
  1
Model
 70
0
 71
0
 10
0.0
 20
0.0
 11
11.0
 21
8.5
 12
0.0
 22
0.0
 32
0.0
 14
0.0
 24
0.0
 34
0.0
 15
0.0
 25
0.0
 35
0.0
146
0.0
 13
0.0
 23
0.0
 33
0.0
 16
1.0
 26
0.0
 36
0.0
 17
0.0
 27
1.0
 37
0.0
 76
0
330
203
345
0
346
0
  0
LAYOUT
  5
247
102
{ACAD_REACTORS
330
1A
102
}
100
AcDbPlotSettings
  1

  2
none_device
  4
ANSI_A_(11.00_x_8.50_Inches)
  6

 40
0.0
 41
0.0
 42
0.0
 43
0.0
 44
279.4
 45
215.9
 46
0.0
 47
0.0
 48
0.0
 49
0.0
140
0.0
141
0.0
142
1.0
143
1.0
 70
0
 72
0
 73
0
 74
0
  7

 75
0
147
1.0
148
0.0
149
0.0
100
AcDbLayout
  1
Layout1
 70
0
 71
1
 10
0.0
 20
0.0
 11
11.0
 21
8.5
 12
0.0
 22
0.0
 32
0.0
 14
0.0
 24
0.0
 34
0.0
 15
0.0
 25
0.0
 35
0.0
146
0.0
 13
0.0
 23
0.0
 33
0.0
 16
1.0
 26
0.0
 36
0.0
 17
0.0
 27
1.0
 37
0.0
 76
0
330
204
345
0
346
0
  0
ENDSEC
  0
EOF
