  0
SECTION
  2
HEADER
  9
$ACADVER
  1
AC1021
  9
$DWGCODEPAGE
  3
ANSI_1252
  9
$EXTMAX
 10
23.3858267717
 20
16.5354330709
 30
0.0
  9
$EXTMIN
 10
0.0
 20
0.0
 30
0.0
  9
$LIMMIN
 10
0.0
 20
0.0
  9
$LIMMAX
 10
23.3858267717
 20
16.5354330709
  9
$VIEWCTR
 10
11.6929133858
 20
8.2677165354
  9
$VIEWSIZE
 40
16.5354330709
  9
$CLAYER
  8
0
  9
$LTSCALE
 40
1.2862204724
  9
$CELTYPE
  6
BYLAYER
  9
$DIMSCALE
 40
1.0
  9
$DIMASZ
 40
0.1
  9
$DIMEXO
 40
0.1461614173
  9
$DIMDLI
 40
0.8886614173
  9
$DIMEXE
 40
0.4209448819
  9
$DIMCEN
 40
0.2104724409
  9
$DIMLFAC
 40
1.0
  9
$DIMBLK
  1
_FILLED
  9
$DIMTXT
 40
0.08
  9
$DIMTOL
 70
1
  9
$DIMLIM
 70
0
  9
$DIMTFAC
 40
1.0
  9
$DIMTP
 40
0.001
  9
$DIMTM
 40
0.001
  9
$PDMODE
 70
3
  9
$PDSIZE
 40
0.06
  9
$HANDSEED
  5
26E
  9
$TILEMODE
 70
1
  9
$MEASUREMENT
 70
0
  9
$INSUNITS
 70
1
  0
ENDSEC
  0
SECTION
  2
CLASSES
  0
CLASS
  1
ACDBDICTIONARYWDFLT
  2
AcDbDictionaryWithDefault
  3
AutoCAD 2000
 90
0
 91
1
280
0
281
0
  0
CLASS
  1
ACDBPLACEHOLDER
  2
AcDbPlaceHolder
  3
AutoCAD 2000
 90
0
 91
1
280
0
281
0
  0
CLASS
  1
LAYOUT
  2
AcDbLayout
  3
AutoCAD 2000
 90
0
 91
0
280
0
281
0
  0
ENDSEC
  0
SECTION
  2
TABLES
  0
TABLE
  2
VPORT
  5
8
100
AcDbSymbolTable
 70
2
  0
VPORT
  5
1F4
100
AcDbSymbolTableRecord
100
AcDbViewportTableRecord
  2
*ACTIVE
 70
0
 10
0.0
 20
0.0
 11
1.0
 21
1.0
 12
11.6929133858
 22
8.2677165354
 13
0.0
 23
0.0
 14
1.0
 24
1.0
 15
0.0
 25
0.0
 16
0.0
 26
0.0
 36
1.0
 17
0.0
 27
0.0
 37
0.0
 40
16.5354330709
 41
1.4142857143
 42
50.0
 43
0.0
 44
0.0
 50
0.0
 51
0.0
 71
0
 72
100
 73
1
 74
1
 75
0
 76
0
 77
0
 78
0
  0
ENDTAB
  0
TABLE
  2
LTYPE
  5
5
100
AcDbSymbolTable
 70
6
  0
LTYPE
  5
14
100
AcDbSymbolTableRecord
100
AcDbLinetypeTableRecord
  2
BYBLOCK
 70
0
  3

 72
65
 73
0
 40
0.0
  0
LTYPE
  5
15
100
AcDbSymbolTableRecord
100
AcDbLinetypeTableRecord
  2
BYLAYER
 70
0
  3

 72
65
 73
0
 40
0.0
  0
LTYPE
  5
16
100
AcDbSymbolTableRecord
100
AcDbLinetypeTableRecord
  2
CONTINUOUS
 70
64
  3
Solid line
 72
65
 73
0
 40
0.0
  0
LTYPE
  5
1F5
100
AcDbSymbolTableRecord
100
AcDbLinetypeTableRecord
  2
CENTER
 70
64
  3
____ _ ____ _ ____ _ ____ _ ____ _ ____ _ ____
 72
65
 73
4
 40
0.6
 49
0.375
 74
0
 49
-0.075
 74
0
 49
0.075
 74
0
 49
-0.075
 74
0
  0
LTYPE
  5
1F6
100
AcDbSymbolTableRecord
100
AcDbLinetypeTableRecord
  2
HIDDEN
 70
64
  3
- - - - - - - - - - - - - - - - - - - -
 72
65
 73
2
 40
0.2
 49
0.1
 74
0
 49
-0.1
 74
0
  0
LTYPE
  5
1F7
100
AcDbSymbolTableRecord
100
AcDbLinetypeTableRecord
  2
PHANTOM
 70
64
  3
_____ _ _ _____ _ _ _____ _ _ _____
 72
65
 73
6
 40
0.8
 49
0.45
 74
0
 49
-0.05
 74
0
 49
0.1
 74
0
 49
-0.05
 74
0
 49
0.1
 74
0
 49
-0.05
 74
0
  0
LTYPE
  5
1F8
100
AcDbSymbolTableRecord
100
AcDbLinetypeTableRecord
  2
DOT
 70
64
  3
. . . . . . . . . . . . . . . . . . . .
 72
65
 73
2
 40
0.2
 49
0.1
 74
0
 49
-0.1
 74
0
  0
LTYPE
  5
1F9
100
AcDbSymbolTableRecord
100
AcDbLinetypeTableRecord
  2
DASHED
 70
64
  3
- - - - - - - - - - - - - - - - - - - -
 72
65
 73
2
 40
0.2
 49
0.1
 74
0
 49
-0.1
 74
0
  0
ENDTAB
  0
TABLE
  2
LAYER
  5
2
100
AcDbSymbolTable
 70
36
  0
LAYER
  5
10
100
AcDbSymbolTableRecord
100
AcDbLayerTableRecord
  2
0
 70
0
 62
7
  6
CONTINUOUS
370
-3
390
F
  0
LAYER
  5
1FA
100
AcDbSymbolTableRecord
100
AcDbLayerTableRecord
  2
DEFAULT_1
 70
0
 62
7
  6
CENTER
370
-3
390
F
  0
LAYER
  5
1FB
100
AcDbSymbolTableRecord
100
AcDbLayerTableRecord
  2
DEFAULT_2
 70
0
 62
8
  6
HIDDEN
370
-3
390
F
  0
LAYER
  5
1FC
100
AcDbSymbolTableRecord
100
AcDbLayerTableRecord
  2
DEFAULT_3
 70
0
 62
7
  6
PHANTOM
370
-3
390
F
  0
LAYER
  5
1FD
100
AcDbSymbolTableRecord
100
AcDbLayerTableRecord
  2
DEFAULT_COORDINATE_SYSTEM
 70
0
 62
7
  6
CONTINUOUS
370
-3
390
F
  0
LAYER
  5
1FE
100
AcDbSymbolTableRecord
100
AcDbLayerTableRecord
  2
DEFAULT_DATUM_AXES
 70
0
 62
7
  6
CONTINUOUS
370
-3
390
F
  0
LAYER
  5
1FF
100
AcDbSymbolTableRecord
100
AcDbLayerTableRecord
  2
DEFAULT_DATUM_CURVES
 70
0
 62
7
  6
CONTINUOUS
370
-3
390
F
  0
LAYER
  5
200
100
AcDbSymbolTableRecord
100
AcDbLayerTableRecord
  2
DEFAULT_DATUM_PLANES
 70
0
 62
7
  6
CONTINUOUS
370
-3
390
F
  0
ENDTAB
  0
TABLE
  2
STYLE
  5
3
100
AcDbSymbolTable
 70
1
  0
STYLE
  5
11
100
AcDbSymbolTableRecord
100
AcDbTextStyleTableRecord
  2
STANDARD
 70
0
 40
0.0
 41
0.8
 50
0.0
 71
0
 42
0.2
  3
txt
  4

  0
STYLE
  5
201
100
AcDbSymbolTableRecord
100
AcDbTextStyleTableRecord
  2
TEXTSTYLE_1
 70
0
 40
0.0
 41
0.8
 50
0.0
 71
0
 42
0.2
  3
gdt
  4

  0
ENDTAB
  0
TABLE
  2
VIEW
  5
6
100
AcDbSymbolTable
 70
0
  0
ENDTAB
  0
TABLE
  2
UCS
  5
7
100
AcDbSymbolTable
 70
0
  0
ENDTAB
  0
TABLE
  2
APPID
  5
9
100
AcDbSymbolTable
 70
1
  0
APPID
  5
202
100
AcDbSymbolTableRecord
100
AcDbRegAppTableRecord
  2
ACAD
 70
0
  0
ENDTAB
  0
TABLE
  2
BLOCK_RECORD
  5
1
100
AcDbSymbolTable
 70
0
  0
BLOCK_RECORD
  5
203
100
AcDbSymbolTableRecord
100
AcDbBlockTableRecord
  2
*Model_Space
  0
BLOCK_RECORD
  5
204
100
AcDbSymbolTableRecord
100
AcDbBlockTableRecord
  2
*Paper_Space
  0
ENDTAB
  0
TABLE
  2
DIMSTYLE
  5
A
100
AcDbSymbolTable
 70
1
100
AcDbDimStyleTable
 71
0
  0
DIMSTYLE
105
205
100
AcDbSymbolTableRecord
100
AcDbDimStyleTableRecord
  2
STANDARD
 70
0
  3

  4

 40
1.0
 41
0.1
 42
0.0625
 43
0.38
 44
0.18
 45
0.0
 46
0.0
 47
0.001
 48
0.001
140
0.08
141
0.09
142
0.0
143
25.4
144
1.0
145
0.0
146
1.0
147
0.09
 71
1.0
 72
0.0
 73
1
 74
1
 75
0
 76
0
 77
0
 78
4
170
0
171
2
172
0
173
0
174
0
175
0
176
0
177
0
178
0
270
2
271
3
272
3
273
2
274
2
275
0
280
0
281
0
282
0
283
1
284
4
285
0
286
0
287
3
288
0
340
11
  0
ENDTAB
  0
ENDSEC
  0
SECTION
  2
BLOCKS
  0
BLOCK
  5
20
100
AcDbEntity
  8
0
100
AcDbBlockBegin
  2
*Model_Space
 70
0
 10
0.0
 20
0.0
 30
0.0
  3
*Model_Space
  1

  0
ENDBLK
  5
21
100
AcDbEntity
  8
0
100
AcDbBlockEnd
  0
BLOCK
  5
1C
100
AcDbEntity
  8
0
100
AcDbBlockBegin
  2
*Paper_Space
 70
0
 10
0.0
 20
0.0
 30
0.0
  3
*Paper_Space
  1

  0
ENDBLK
  5
1D
100
AcDbEntity
  8
0
100
AcDbBlockEnd
  0
ENDSEC
  0
SECTION
  2
ENTITIES
  0
LINE
  5
206
100
AcDbEntity
  8
0
100
AcDbLine
 62
6
  6
CONTINUOUS
 10
1.7755433248
 20
10.8786604198
 11
1.7755433248
 21
10.8166604198
  0
LINE
  5
207
100
AcDbEntity
  8
0
100
AcDbLine
 62
6
  6
CONTINUOUS
 10
1.7948554883
 20
10.8166604198
 11
1.7948554883
 21
10.5640393201
  0
LINE
  5
208
100
AcDbEntity
  8
0
100
AcDbLine
 62
6
  6
CONTINUOUS
 10
2.1556994065
 20
10.8166604198
 11
2.1556994065
 21
10.5640393201
  0
LINE
  5
209
100
AcDbEntity
  8
0
100
AcDbLine
 62
6
  6
CONTINUOUS
 10
2.3290433248
 20
7.8682186734
 11
2.3290433248
 21
5.7385411683
  0
LINE
  5
20A
100
AcDbEntity
  8
0
100
AcDbLine
 62
6
  6
CONTINUOUS
 10
2.7040433248
 20
7.8682186734
 11
2.7040433248
 21
5.7385411683
  0
LINE
  5
20B
100
AcDbEntity
  8
0
100
AcDbLine
 62
6
  6
CONTINUOUS
 10
2.877387243
 20
10.8166604198
 11
2.877387243
 21
10.5640393201
  0
LINE
  5
20C
100
AcDbEntity
  8
0
100
AcDbLine
 62
7
  6
CONTINUOUS
 10
3.012049127
 20
5.4930467737
 11
3.012049127
 21
4.8580467737
  0
LINE
  5
20D
100
AcDbEntity
  8
0
100
AcDbLine
 62
7
  6
CONTINUOUS
 10
3.012049127
 20
8.1085411683
 11
3.012049127
 21
8.7435411683
  0
LINE
  5
20E
100
AcDbEntity
  8
0
100
AcDbLine
 62
6
  6
CONTINUOUS
 10
2.8430716535
 20
8.9268867063
 11
2.9655294632
 21
9.7462710436
  0
LINE
  5
20F
100
AcDbEntity
  8
0
100
AcDbLine
 62
6
  6
CONTINUOUS
 10
2.190014996
 20
8.9268867063
 11
2.0675571863
 21
9.7462710436
  0
LINE
  5
210
100
AcDbEntity
  8
0
100
AcDbLine
 62
6
  6
CONTINUOUS
 10
3.2382311613
 20
10.8166604198
 11
3.2382311613
 21
10.5640393201
  0
LINE
  5
211
100
AcDbEntity
  8
0
100
AcDbLine
 62
6
  6
CONTINUOUS
 10
3.2575433248
 20
10.8786604198
 11
3.2575433248
 21
10.8166604198
  0
LINE
  5
212
100
AcDbEntity
  8
0
100
AcDbLine
 62
6
  6
CONTINUOUS
 10
3.1204209584
 20
10.4462291173
 11
3.2382311613
 21
10.5640393201
  0
LINE
  5
213
100
AcDbEntity
  8
0
100
AcDbLine
 62
6
  6
CONTINUOUS
 10
1.9126656911
 20
10.4462291173
 11
1.7948554883
 21
10.5640393201
  0
LINE
  5
214
100
AcDbEntity
  8
0
100
AcDbLine
 62
6
  6
CONTINUOUS
 10
3.0151873155
 20
4.8630467737
 11
20.5944109384
 21
4.8630467737
  0
LINE
  5
215
100
AcDbEntity
  8
0
100
AcDbLine
 62
6
  6
CONTINUOUS
 10
3.0151876527
 20
5.4880467737
 11
20.5944106012
 21
5.4880467737
  0
LINE
  5
216
100
AcDbEntity
  8
0
100
AcDbLine
 62
7
  6
CONTINUOUS
 10
2.3280433248
 20
5.7330411683
 11
2.7050433248
 21
5.7330411683
  0
LINE
  5
217
100
AcDbEntity
  8
0
100
AcDbLine
 62
7
  6
CONTINUOUS
 10
20.9045549292
 20
5.7330411683
 11
21.2815549292
 21
5.7330411683
  0
LINE
  5
218
100
AcDbEntity
  8
0
100
AcDbLine
 62
7
  6
CONTINUOUS
 10
21.2805549292
 20
5.7385411683
 11
20.9055549292
 21
5.7385411683
  0
LINE
  5
219
100
AcDbEntity
  8
0
100
AcDbLine
 62
7
  6
CONTINUOUS
 10
2.7040433248
 20
5.7385411683
 11
2.3290433248
 21
5.7385411683
  0
LINE
  5
21A
100
AcDbEntity
  8
0
100
AcDbLine
 62
6
  6
CONTINUOUS
 10
3.0151454407
 20
8.1135411683
 11
20.5944528132
 21
8.1135411683
  0
LINE
  5
21B
100
AcDbEntity
  8
0
100
AcDbLine
 62
6
  6
CONTINUOUS
 10
3.0151426196
 20
8.7385411683
 11
20.5944556343
 21
8.7385411683
  0
LINE
  5
21C
100
AcDbEntity
  8
0
100
AcDbLine
 62
7
  6
CONTINUOUS
 10
2.1915433248
 20
8.9166604198
 11
2.8415433248
 21
8.9166604198
  0
LINE
  5
21D
100
AcDbEntity
  8
0
100
AcDbLine
 62
7
  6
CONTINUOUS
 10
20.7680549292
 20
8.9166604198
 11
21.4180549292
 21
8.9166604198
  0
LINE
  5
21E
100
AcDbEntity
  8
0
100
AcDbLine
 62
9
  6
CONTINUOUS
 10
21.4195832579
 20
8.9268867063
 11
20.7665266004
 21
8.9268867063
  0
LINE
  5
21F
100
AcDbEntity
  8
0
100
AcDbLine
 62
9
  6
CONTINUOUS
 10
2.8430716535
 20
8.9268867063
 11
2.190014996
 21
8.9268867063
  0
LINE
  5
220
100
AcDbEntity
  8
0
100
AcDbLine
 62
9
  6
CONTINUOUS
 10
2.0675571863
 20
9.7462710436
 11
2.9655294632
 21
9.7462710436
  0
LINE
  5
221
100
AcDbEntity
  8
0
100
AcDbLine
 62
9
  6
CONTINUOUS
 10
20.6440687907
 20
9.7462710436
 11
21.5420410676
 21
9.7462710436
  0
LINE
  5
222
100
AcDbEntity
  8
0
100
AcDbLine
 62
9
  6
CONTINUOUS
 10
1.9546239845
 20
9.9954773493
 11
3.0784626651
 21
9.9954773493
  0
LINE
  5
223
100
AcDbEntity
  8
0
100
AcDbLine
 62
9
  6
CONTINUOUS
 10
20.5311355888
 20
9.9954773493
 11
21.6549742695
 21
9.9954773493
  0
LINE
  5
224
100
AcDbEntity
  8
0
100
AcDbLine
 62
9
  6
CONTINUOUS
 10
1.9371286581
 20
10.2338153671
 11
3.0959579914
 21
10.2338153671
  0
LINE
  5
225
100
AcDbEntity
  8
0
100
AcDbLine
 62
9
  6
CONTINUOUS
 10
20.5136402625
 20
10.2338153671
 11
21.6724695958
 21
10.2338153671
  0
LINE
  5
226
100
AcDbEntity
  8
0
100
AcDbLine
 62
9
  6
CONTINUOUS
 10
1.9126656911
 20
10.4462291173
 11
3.1204209584
 21
10.4462291173
  0
LINE
  5
227
100
AcDbEntity
  8
0
100
AcDbLine
 62
9
  6
CONTINUOUS
 10
20.4891772955
 20
10.4462291173
 11
21.6969325628
 21
10.4462291173
  0
LINE
  5
228
100
AcDbEntity
  8
0
100
AcDbLine
 62
6
  6
CONTINUOUS
 10
1.7755433248
 20
10.8166604198
 11
3.2575433248
 21
10.8166604198
  0
LINE
  5
229
100
AcDbEntity
  8
0
100
AcDbLine
 62
6
  6
CONTINUOUS
 10
20.3520549292
 20
10.8166604198
 11
21.8340549292
 21
10.8166604198
  0
LINE
  5
22A
100
AcDbEntity
  8
0
100
AcDbLine
 62
9
  6
CONTINUOUS
 10
1.703540651
 20
10.8786604198
 11
3.3295459986
 21
10.8786604198
  0
LINE
  5
22B
100
AcDbEntity
  8
0
100
AcDbLine
 62
9
  6
CONTINUOUS
 10
20.2800522553
 20
10.8786604198
 11
21.906057603
 21
10.8786604198
  0
LINE
  5
22C
100
AcDbEntity
  8
0
100
AcDbLine
 62
6
  6
CONTINUOUS
 10
1.5165433248
 20
11.0666604198
 11
3.5165433248
 21
11.0666604198
  0
LINE
  5
22D
100
AcDbEntity
  8
0
100
AcDbLine
 62
6
  6
CONTINUOUS
 10
20.0930549292
 20
11.0666604198
 11
22.0930549292
 21
11.0666604198
  0
LINE
  5
22E
100
AcDbEntity
  8
0
100
AcDbLine
 62
6
  6
CONTINUOUS
 10
1.3365433248
 20
11.2536604198
 11
3.6965433248
 21
11.2536604198
  0
LINE
  5
22F
100
AcDbEntity
  8
0
100
AcDbLine
 62
6
  6
CONTINUOUS
 10
19.9130549292
 20
11.2536604198
 11
22.2730549292
 21
11.2536604198
  0
LINE
  5
230
100
AcDbEntity
  8
0
100
AcDbLine
 62
6
  6
CONTINUOUS
 10
21.6969325628
 20
10.4462291173
 11
21.8147427656
 21
10.5640393201
  0
LINE
  5
231
100
AcDbEntity
  8
0
100
AcDbLine
 62
6
  6
CONTINUOUS
 10
20.4891772955
 20
10.4462291173
 11
20.3713670927
 21
10.5640393201
  0
LINE
  5
232
100
AcDbEntity
  8
0
100
AcDbLine
 62
6
  6
CONTINUOUS
 10
20.3520549292
 20
10.8786604198
 11
20.3520549292
 21
10.8166604198
  0
LINE
  5
233
100
AcDbEntity
  8
0
100
AcDbLine
 62
6
  6
CONTINUOUS
 10
20.3713670927
 20
10.8166604198
 11
20.3713670927
 21
10.5640393201
  0
LINE
  5
234
100
AcDbEntity
  8
0
100
AcDbLine
 62
7
  6
CONTINUOUS
 10
20.597549127
 20
8.7435411683
 11
20.597549127
 21
8.1085411683
  0
LINE
  5
235
100
AcDbEntity
  8
0
100
AcDbLine
 62
7
  6
CONTINUOUS
 10
20.597549127
 20
5.4930467737
 11
20.597549127
 21
4.8580467737
  0
LINE
  5
236
100
AcDbEntity
  8
0
100
AcDbLine
 62
6
  6
CONTINUOUS
 10
20.7322110109
 20
10.8166604198
 11
20.7322110109
 21
10.5640393201
  0
LINE
  5
237
100
AcDbEntity
  8
0
100
AcDbLine
 62
6
  6
CONTINUOUS
 10
20.9055549292
 20
7.8682186734
 11
20.9055549292
 21
5.7385411683
  0
LINE
  5
238
100
AcDbEntity
  8
0
100
AcDbLine
 62
6
  6
CONTINUOUS
 10
21.2805549292
 20
7.8682186734
 11
21.2805549292
 21
5.7385411683
  0
LINE
  5
239
100
AcDbEntity
  8
0
100
AcDbLine
 62
6
  6
CONTINUOUS
 10
21.4195832579
 20
8.9268867063
 11
21.5420410676
 21
9.7462710436
  0
LINE
  5
23A
100
AcDbEntity
  8
0
100
AcDbLine
 62
6
  6
CONTINUOUS
 10
20.7665266004
 20
8.9268867063
 11
20.6440687907
 21
9.7462710436
  0
LINE
  5
23B
100
AcDbEntity
  8
0
100
AcDbLine
 62
6
  6
CONTINUOUS
 10
21.4538988474
 20
10.8166604198
 11
21.4538988474
 21
10.5640393201
  0
LINE
  5
23C
100
AcDbEntity
  8
0
100
AcDbLine
 62
6
  6
CONTINUOUS
 10
21.8147427656
 20
10.8166604198
 11
21.8147427656
 21
10.5640393201
  0
LINE
  5
23D
100
AcDbEntity
  8
0
100
AcDbLine
 62
6
  6
CONTINUOUS
 10
21.8340549292
 20
10.8786604198
 11
21.8340549292
 21
10.8166604198
  0
ARC
  5
23E
100
AcDbEntity
  8
0
100
AcDbCircle
 62
6
  6
CONTINUOUS
 10
2.5165433248
 20
5.1755467737
 40
0.5885
100
AcDbArc
 50
108.6814231474
 51
327.3499123151
  0
ARC
  5
23F
100
AcDbEntity
  8
0
100
AcDbCircle
 62
6
  6
CONTINUOUS
 10
2.5165433248
 20
5.1755467737
 40
0.5885
100
AcDbArc
 50
327.3566783787
 51
327.9246625632
  0
ARC
  5
240
100
AcDbEntity
  8
0
100
AcDbCircle
 62
6
  6
CONTINUOUS
 10
2.5165433248
 20
5.1755467737
 40
0.5885
100
AcDbArc
 50
32.0753201456
 51
32.6432909156
  0
ARC
  5
241
100
AcDbEntity
  8
0
100
AcDbCircle
 62
6
  6
CONTINUOUS
 10
2.5165433248
 20
5.1755467737
 40
0.5885
100
AcDbArc
 50
32.6500876946
 51
71.3185768526
  0
ARC
  5
242
100
AcDbEntity
  8
0
100
AcDbCircle
 62
6
  6
CONTINUOUS
 10
2.5165433248
 20
8.4260411683
 40
0.5885
100
AcDbArc
 50
32.07766677
 51
32.6450020363
  0
ARC
  5
243
100
AcDbEntity
  8
0
100
AcDbCircle
 62
6
  6
CONTINUOUS
 10
2.5165433248
 20
8.4260411683
 40
0.5885
100
AcDbArc
 50
32.6501104823
 51
56.4783880966
  0
ARC
  5
244
100
AcDbEntity
  8
0
100
AcDbCircle
 62
6
  6
CONTINUOUS
 10
2.5165433248
 20
8.4260411683
 40
0.5885
100
AcDbArc
 50
123.5216119034
 51
327.9224895588
  0
ARC
  5
245
100
AcDbEntity
  8
0
100
AcDbCircle
 62
6
  6
CONTINUOUS
 10
1.5730492546
 20
9.6723663381
 40
0.5
100
AcDbArc
 50
8.5
 51
40.2573604586
  0
ARC
  5
246
100
AcDbEntity
  8
0
100
AcDbCircle
 62
6
  6
CONTINUOUS
 10
3.4600373949
 20
9.6723663381
 40
0.5
100
AcDbArc
 50
139.7426395414
 51
171.5
  0
ARC
  5
247
100
AcDbEntity
  8
0
100
AcDbCircle
 62
6
  6
CONTINUOUS
 10
2.1095433248
 20
10.1266604198
 40
0.203
100
AcDbArc
 50
148.1392329178
 51
220.2573604586
  0
ARC
  5
248
100
AcDbEntity
  8
0
100
AcDbCircle
 62
6
  6
CONTINUOUS
 10
2.9235433248
 20
10.1266604198
 40
0.203
100
AcDbArc
 50
319.7426395414
 51
31.8607670822
  0
ARC
  5
249
100
AcDbEntity
  8
0
100
AcDbCircle
 62
6
  6
CONTINUOUS
 10
1.5236794359
 20
11.2536604198
 40
0.1871361111
100
AcDbArc
 50
180.0
 51
267.8145949287
  0
ARC
  5
24A
100
AcDbEntity
  8
0
100
AcDbCircle
 62
6
  6
CONTINUOUS
 10
3.5094072137
 20
11.2536604198
 40
0.1871361111
100
AcDbArc
 50
272.1854050713
 51
360.0
  0
ARC
  5
24B
100
AcDbEntity
  8
0
100
AcDbCircle
 62
6
  6
CONTINUOUS
 10
1.703540651
 20
11.0656604198
 40
0.187
100
AcDbArc
 50
179.6936039968
 51
270.0
  0
ARC
  5
24C
100
AcDbEntity
  8
0
100
AcDbCircle
 62
6
  6
CONTINUOUS
 10
3.3295459986
 20
11.0656604198
 40
0.187
100
AcDbArc
 50
270.0
 51
0.3063960032
  0
ARC
  5
24D
100
AcDbEntity
  8
0
100
AcDbCircle
 62
6
  6
CONTINUOUS
 10
1.7910433248
 20
10.3246067509
 40
0.172
100
AcDbArc
 50
328.1392329178
 51
45.0
  0
ARC
  5
24E
100
AcDbEntity
  8
0
100
AcDbCircle
 62
6
  6
CONTINUOUS
 10
3.2420433248
 20
10.3246067509
 40
0.172
100
AcDbArc
 50
135.0
 51
211.8607670822
  0
ARC
  5
24F
100
AcDbEntity
  8
0
100
AcDbCircle
 62
6
  6
CONTINUOUS
 10
2.8312034633
 20
8.9286604198
 40
0.012
100
AcDbArc
 50
269.9999819713
 51
351.4999970517
  0
ARC
  5
250
100
AcDbEntity
  8
0
100
AcDbCircle
 62
6
  6
CONTINUOUS
 10
2.2018831863
 20
8.9286604198
 40
0.012
100
AcDbArc
 50
188.5000029483
 51
270.0000180287
  0
ARC
  5
251
100
AcDbEntity
  8
0
100
AcDbCircle
 62
6
  6
CONTINUOUS
 10
21.0930549292
 20
5.1755467737
 40
0.5885
100
AcDbArc
 50
212.6500876849
 51
71.3185768526
  0
ARC
  5
252
100
AcDbEntity
  8
0
100
AcDbCircle
 62
6
  6
CONTINUOUS
 10
21.0930549292
 20
5.1755467737
 40
0.5885
100
AcDbArc
 50
212.0753374368
 51
212.6433216213
  0
ARC
  5
253
100
AcDbEntity
  8
0
100
AcDbCircle
 62
6
  6
CONTINUOUS
 10
21.0930549292
 20
5.1755467737
 40
0.5885
100
AcDbArc
 50
147.3567090844
 51
147.9246798544
  0
ARC
  5
254
100
AcDbEntity
  8
0
100
AcDbCircle
 62
6
  6
CONTINUOUS
 10
21.0930549292
 20
5.1755467737
 40
0.5885
100
AcDbArc
 50
108.6814231474
 51
147.3499123054
  0
ARC
  5
255
100
AcDbEntity
  8
0
100
AcDbCircle
 62
6
  6
CONTINUOUS
 10
21.0930549292
 20
8.4260411683
 40
0.5885
100
AcDbArc
 50
212.0775104412
 51
56.4783880966
  0
ARC
  5
256
100
AcDbEntity
  8
0
100
AcDbCircle
 62
6
  6
CONTINUOUS
 10
21.0930549292
 20
8.4260411683
 40
0.5885
100
AcDbArc
 50
147.3549979637
 51
147.92233323
  0
ARC
  5
257
100
AcDbEntity
  8
0
100
AcDbCircle
 62
6
  6
CONTINUOUS
 10
21.0930549292
 20
8.4260411683
 40
0.5885
100
AcDbArc
 50
123.5216119034
 51
147.3498895177
  0
ARC
  5
258
100
AcDbEntity
  8
0
100
AcDbCircle
 62
6
  6
CONTINUOUS
 10
20.149560859
 20
9.6723663381
 40
0.5
100
AcDbArc
 50
8.5
 51
40.2573604586
  0
ARC
  5
259
100
AcDbEntity
  8
0
100
AcDbCircle
 62
6
  6
CONTINUOUS
 10
22.0365489993
 20
9.6723663381
 40
0.5
100
AcDbArc
 50
139.7426395414
 51
171.5
  0
ARC
  5
25A
100
AcDbEntity
  8
0
100
AcDbCircle
 62
6
  6
CONTINUOUS
 10
20.6860549292
 20
10.1266604198
 40
0.203
100
AcDbArc
 50
148.1392329178
 51
220.2573604586
  0
ARC
  5
25B
100
AcDbEntity
  8
0
100
AcDbCircle
 62
6
  6
CONTINUOUS
 10
21.5000549292
 20
10.1266604198
 40
0.203
100
AcDbArc
 50
319.7426395414
 51
31.8607670822
  0
ARC
  5
25C
100
AcDbEntity
  8
0
100
AcDbCircle
 62
6
  6
CONTINUOUS
 10
20.1001910403
 20
11.2536604198
 40
0.1871361111
100
AcDbArc
 50
180.0
 51
267.8145949287
  0
ARC
  5
25D
100
AcDbEntity
  8
0
100
AcDbCircle
 62
6
  6
CONTINUOUS
 10
22.085918818
 20
11.2536604198
 40
0.1871361111
100
AcDbArc
 50
272.1854050713
 51
360.0
  0
ARC
  5
25E
100
AcDbEntity
  8
0
100
AcDbCircle
 62
6
  6
CONTINUOUS
 10
20.2800522553
 20
11.0656604198
 40
0.187
100
AcDbArc
 50
179.6936039968
 51
270.0
  0
ARC
  5
25F
100
AcDbEntity
  8
0
100
AcDbCircle
 62
6
  6
CONTINUOUS
 10
21.906057603
 20
11.0656604198
 40
0.187
100
AcDbArc
 50
270.0
 51
0.3063960032
  0
ARC
  5
260
100
AcDbEntity
  8
0
100
AcDbCircle
 62
6
  6
CONTINUOUS
 10
20.3675549292
 20
10.3246067509
 40
0.172
100
AcDbArc
 50
328.1392329178
 51
45.0
  0
ARC
  5
261
100
AcDbEntity
  8
0
100
AcDbCircle
 62
6
  6
CONTINUOUS
 10
21.8185549292
 20
10.3246067509
 40
0.172
100
AcDbArc
 50
135.0
 51
211.8607670822
  0
ARC
  5
262
100
AcDbEntity
  8
0
100
AcDbCircle
 62
6
  6
CONTINUOUS
 10
21.4077150676
 20
8.9286604198
 40
0.012
100
AcDbArc
 50
269.9999819713
 51
351.4999970517
  0
ARC
  5
263
100
AcDbEntity
  8
0
100
AcDbCircle
 62
6
  6
CONTINUOUS
 10
20.7783947907
 20
8.9286604198
 40
0.012
100
AcDbArc
 50
188.5000029483
 51
270.0000180287
  0
SPLINE
  5
264
100
AcDbEntity
  8
0
100
AcDbSpline
 62
6
  6
CONTINUOUS
 70
0
 71
3
 72
41
 73
37
 74
35
 42
0.0000001
 43
0.0000001
 44
0.0000000001
 12
0.2970307075
 22
-0.2970307075
 32
0.0
 13
0.2970307075
 23
0.2970307075
 33
0.0
 40
0.0
 40
0.0
 40
0.0
 40
0.0
 40
0.0352330273
 40
0.0699776062
 40
0.104203859
 40
0.1378880388
 40
0.1710087543
 40
0.2035454458
 40
0.2354874356
 40
0.2668343313
 40
0.2975908968
 40
0.3277753618
 40
0.3574234615
 40
0.3865862536
 40
0.415331425
 40
0.4295759637
 40
0.4437499732
 40
0.4719343461
 40
0.500000056
 40
0.5280657605
 40
0.5562501302
 40
0.5704241398
 40
0.5846686774
 40
0.6134138397
 40
0.6425766234
 40
0.6722247181
 40
0.7024091693
 40
0.7331657161
 40
0.7645125992
 40
0.7964545793
 40
0.8289912581
 40
0.8621119621
 40
0.8957961362
 40
0.9300223893
 40
0.964766971
 40
1.0
 40
1.0
 40
1.0
 40
1.0
 10
20.3713670927
 20
10.5640393201
 30
0.0
 10
20.374855523
 20
10.5605508898
 30
0.0
 10
20.3818592396
 20
10.5536970042
 30
0.0
 10
20.3925315995
 20
10.5437453265
 30
0.0
 10
20.4033032511
 20
10.5342250618
 30
0.0
 10
20.414175513
 20
10.5251706797
 30
0.0
 10
20.4251492337
 20
10.5166185068
 30
0.0
 10
20.4362258252
 20
10.5086086338
 30
0.0
 10
20.4474052995
 20
10.5011818572
 30
0.0
 10
20.4586863542
 20
10.4943799382
 30
0.0
 10
20.4700653923
 20
10.4882444515
 30
0.0
 10
20.4815375136
 20
10.4828178448
 30
0.0
 10
20.4930972128
 20
10.4781441212
 30
0.0
 10
20.5047333747
 20
10.4742582504
 30
0.0
 10
20.5145150874
 20
10.4716966975
 30
0.0
 10
20.5223561766
 20
10.4700816882
 30
0.0
 10
20.5301726193
 20
10.4687619102
 30
0.0
 10
20.5399804839
 20
10.4676512677
 30
0.0
 10
20.5517890746
 20
10.4672019107
 30
0.0
 10
20.5635976661
 20
10.4676512564
 30
0.0
 10
20.5734055273
 20
10.4687619213
 30
0.0
 10
20.581221968
 20
10.4700817059
 30
0.0
 10
20.5890630582
 20
10.4716967025
 30
0.0
 10
20.5988447695
 20
10.474258253
 30
0.0
 10
20.6104809232
 20
10.4781441386
 30
0.0
 10
20.6220406191
 20
10.482817859
 30
0.0
 10
20.6335127377
 20
10.4882444594
 30
0.0
 10
20.6448917682
 20
10.4943799471
 30
0.0
 10
20.656172816
 20
10.5011818665
 30
0.0
 10
20.6673522858
 20
10.5086086408
 30
0.0
 10
20.6784288736
 20
10.5166185108
 30
0.0
 10
20.6894025914
 20
10.5251706805
 30
0.0
 10
20.7002748518
 20
10.5342250608
 30
0.0
 10
20.711046503
 20
10.5437453253
 30
0.0
 10
20.7217188634
 20
10.5536970036
 30
0.0
 10
20.7287225804
 20
10.5605508896
 30
0.0
 10
20.7322110109
 20
10.5640393201
 30
0.0
 11
20.3713670927
 21
10.5640393201
 31
0.0
 11
20.3819495118
 21
10.553692483
 31
0.0
 11
20.3926286616
 21
10.5437441616
 31
0.0
 11
20.4034064014
 21
10.5342286204
 31
0.0
 11
20.4142845803
 21
10.5251801559
 31
0.0
 11
20.4252643025
 21
10.5166353883
 31
0.0
 11
20.4363454376
 21
10.5086347905
 31
0.0
 11
20.4475277388
 21
10.5012191982
 31
0.0
 11
20.4588101095
 21
10.4944297062
 31
0.0
 11
20.4701877734
 21
10.4883085329
 31
0.0
 11
20.4816549581
 21
10.4828982007
 31
0.0
 11
20.4932052163
 21
10.4782402229
 31
0.0
 11
20.5048280955
 21
10.4743701263
 31
0.0
 11
20.5165116716
 21
10.4713212378
 31
0.0
 11
20.5223724454
 21
10.4701149378
 31
0.0
 11
20.5282434701
 21
10.4691243703
 31
0.0
 11
20.5400080724
 21
10.4677968478
 31
0.0
 11
20.5517890756
 21
10.4673514837
 31
0.0
 11
20.5635700767
 21
10.4677968428
 31
0.0
 11
20.5753346758
 21
10.4691243821
 31
0.0
 11
20.5812056999
 21
10.4701149531
 31
0.0
 11
20.5870664744
 21
10.4713212471
 31
0.0
 11
20.5987500475
 21
10.4743701317
 31
0.0
 11
20.6103729201
 21
10.4782402371
 31
0.0
 11
20.621923176
 21
10.4828982149
 31
0.0
 11
20.6333903566
 21
10.4883085424
 31
0.0
 11
20.6447680121
 21
10.4944297145
 31
0.0
 11
20.6560503766
 21
10.5012192067
 31
0.0
 11
20.6672326739
 21
10.5086347976
 31
0.0
 11
20.6783138047
 21
10.5166353921
 31
0.0
 11
20.6892935236
 21
10.5251801563
 31
0.0
 11
20.7001717008
 21
10.5342286189
 31
0.0
 11
20.7109494407
 21
10.5437441602
 31
0.0
 11
20.7216285913
 21
10.5536924825
 31
0.0
 11
20.7322110109
 21
10.5640393201
 31
0.0
  0
SPLINE
  5
265
100
AcDbEntity
  8
0
100
AcDbSpline
 62
6
  6
CONTINUOUS
 70
0
 71
3
 72
41
 73
37
 74
35
 42
0.0000001
 43
0.0000001
 44
0.0000000001
 12
0.2970307075
 22
-0.2970307075
 32
0.0
 13
0.2970307075
 23
0.2970307075
 33
0.0
 40
0.0
 40
0.0
 40
0.0
 40
0.0
 40
0.0352330273
 40
0.0699776062
 40
0.104203859
 40
0.1378880388
 40
0.1710087543
 40
0.2035454458
 40
0.2354874356
 40
0.2668343313
 40
0.2975908968
 40
0.3277753618
 40
0.3574234615
 40
0.3865862536
 40
0.415331425
 40
0.4295759637
 40
0.4437499732
 40
0.4719343461
 40
0.500000056
 40
0.5280657605
 40
0.5562501302
 40
0.5704241398
 40
0.5846686774
 40
0.6134138397
 40
0.6425766234
 40
0.6722247181
 40
0.7024091693
 40
0.7331657161
 40
0.7645125992
 40
0.7964545793
 40
0.8289912581
 40
0.8621119621
 40
0.8957961362
 40
0.9300223893
 40
0.964766971
 40
1.0
 40
1.0
 40
1.0
 40
1.0
 10
21.4538988474
 20
10.5640393201
 30
0.0
 10
21.4573872777
 20
10.5605508898
 30
0.0
 10
21.4643909943
 20
10.5536970042
 30
0.0
 10
21.4750633543
 20
10.5437453265
 30
0.0
 10
21.4858350059
 20
10.5342250618
 30
0.0
 10
21.4967072678
 20
10.5251706797
 30
0.0
 10
21.5076809885
 20
10.5166185068
 30
0.0
 10
21.5187575799
 20
10.5086086338
 30
0.0
 10
21.5299370542
 20
10.5011818572
 30
0.0
 10
21.5412181089
 20
10.4943799382
 30
0.0
 10
21.5525971471
 20
10.4882444515
 30
0.0
 10
21.5640692683
 20
10.4828178448
 30
0.0
 10
21.5756289675
 20
10.4781441212
 30
0.0
 10
21.5872651295
 20
10.4742582504
 30
0.0
 10
21.5970468422
 20
10.4716966975
 30
0.0
 10
21.6048879313
 20
10.4700816882
 30
0.0
 10
21.612704374
 20
10.4687619102
 30
0.0
 10
21.6225122386
 20
10.4676512677
 30
0.0
 10
21.6343208293
 20
10.4672019107
 30
0.0
 10
21.6461294209
 20
10.4676512564
 30
0.0
 10
21.655937282
 20
10.4687619213
 30
0.0
 10
21.6637537227
 20
10.4700817059
 30
0.0
 10
21.671594813
 20
10.4716967025
 30
0.0
 10
21.6813765243
 20
10.474258253
 30
0.0
 10
21.6930126779
 20
10.4781441386
 30
0.0
 10
21.7045723739
 20
10.482817859
 30
0.0
 10
21.7160444924
 20
10.4882444594
 30
0.0
 10
21.7274235229
 20
10.4943799471
 30
0.0
 10
21.7387045707
 20
10.5011818665
 30
0.0
 10
21.7498840406
 20
10.5086086408
 30
0.0
 10
21.7609606283
 20
10.5166185108
 30
0.0
 10
21.7719343461
 20
10.5251706805
 30
0.0
 10
21.7828066065
 20
10.5342250608
 30
0.0
 10
21.7935782578
 20
10.5437453253
 30
0.0
 10
21.8042506181
 20
10.5536970036
 30
0.0
 10
21.8112543351
 20
10.5605508896
 30
0.0
 10
21.8147427656
 20
10.5640393201
 30
0.0
 11
21.4538988474
 21
10.5640393201
 31
0.0
 11
21.4644812665
 21
10.553692483
 31
0.0
 11
21.4751604163
 21
10.5437441616
 31
0.0
 11
21.4859381561
 21
10.5342286204
 31
0.0
 11
21.496816335
 21
10.5251801559
 31
0.0
 11
21.5077960572
 21
10.5166353883
 31
0.0
 11
21.5188771923
 21
10.5086347905
 31
0.0
 11
21.5300594935
 21
10.5012191982
 31
0.0
 11
21.5413418643
 21
10.4944297062
 31
0.0
 11
21.5527195282
 21
10.4883085329
 31
0.0
 11
21.5641867128
 21
10.4828982007
 31
0.0
 11
21.5757369711
 21
10.4782402229
 31
0.0
 11
21.5873598503
 21
10.4743701263
 31
0.0
 11
21.5990434263
 21
10.4713212378
 31
0.0
 11
21.6049042001
 21
10.4701149378
 31
0.0
 11
21.6107752248
 21
10.4691243703
 31
0.0
 11
21.6225398271
 21
10.4677968478
 31
0.0
 11
21.6343208303
 21
10.4673514837
 31
0.0
 11
21.6461018314
 21
10.4677968428
 31
0.0
 11
21.6578664305
 21
10.4691243821
 31
0.0
 11
21.6637374546
 21
10.4701149531
 31
0.0
 11
21.6695982291
 21
10.4713212471
 31
0.0
 11
21.6812818023
 21
10.4743701317
 31
0.0
 11
21.6929046749
 21
10.4782402371
 31
0.0
 11
21.7044549308
 21
10.4828982149
 31
0.0
 11
21.7159221113
 21
10.4883085424
 31
0.0
 11
21.7272997669
 21
10.4944297145
 31
0.0
 11
21.7385821313
 21
10.5012192067
 31
0.0
 11
21.7497644286
 21
10.5086347976
 31
0.0
 11
21.7608455595
 21
10.5166353921
 31
0.0
 11
21.7718252783
 21
10.5251801563
 31
0.0
 11
21.7827034556
 21
10.5342286189
 31
0.0
 11
21.7934811955
 21
10.5437441602
 31
0.0
 11
21.8041603461
 21
10.5536924825
 31
0.0
 11
21.8147427656
 21
10.5640393201
 31
0.0
  0
SPLINE
  5
266
100
AcDbEntity
  8
0
100
AcDbSpline
 62
6
  6
CONTINUOUS
 70
0
 71
3
 72
21
 73
17
 74
15
 42
0.0000001
 43
0.0000001
 44
0.0000000001
 12
0.3770148321
 22
0.0
 32
0.0
 13
0.3372123173
 23
0.1686061586
 33
0.0
 40
0.0
 40
0.0
 40
0.0
 40
0.0
 40
0.0624929002
 40
0.1250073457
 40
0.1875257012
 40
0.2500345414
 40
0.3125393255
 40
0.3750424385
 40
0.4375427702
 40
0.5000450446
 40
0.5625475337
 40
0.625044012
 40
0.7500293248
 40
0.8125275149
 40
0.8750240738
 40
1.0
 40
1.0
 40
1.0
 40
1.0
 10
21.0930549292
 20
10.4673514837
 30
0.0
 10
21.1009085126
 20
10.4673514837
 30
0.0
 10
21.1166199661
 20
10.4676500667
 30
0.0
 10
21.1401542393
 20
10.4689797162
 30
0.0
 10
21.1636255424
 20
10.4711785078
 30
0.0
 10
21.186999283
 20
10.4742332627
 30
0.0
 10
21.2102486543
 20
10.4781091396
 30
0.0
 10
21.2333515045
 20
10.4827727051
 30
0.0
 10
21.2562885262
 20
10.4881904197
 30
0.0
 10
21.2790454543
 20
10.4943186674
 30
0.0
 10
21.3016111694
 20
10.5011149475
 30
0.0
 10
21.3314309982
 20
10.5110113694
 30
0.0
 10
21.3608484824
 20
10.5220791479
 30
0.0
 10
21.3898538059
 20
10.5341509821
 30
0.0
 10
21.4185913094
 20
10.5468448408
 30
0.0
 10
21.4398510402
 20
10.5570154165
 30
0.0
 10
21.4538988474
 20
10.5640393201
 30
0.0
 11
21.0930549292
 21
10.4673514837
 31
0.0
 11
21.1166114686
 21
10.4677969097
 31
0.0
 11
21.1401429204
 21
10.4691245235
 31
0.0
 11
21.1636106711
 21
10.4713213272
 31
0.0
 11
21.1869793752
 21
10.4743702354
 31
0.0
 11
21.210224616
 21
10.4782404909
 31
0.0
 11
21.2333242595
 21
10.4828984814
 31
0.0
 11
21.2562582868
 21
10.4883087843
 31
0.0
 11
21.2790136364
 21
10.4944300232
 31
0.0
 11
21.3015786753
 21
10.5012195992
 31
0.0
 11
21.323943416
 21
10.5086351839
 31
0.0
 11
21.3680645462
 21
10.5251804055
 31
0.0
 11
21.3898206504
 21
10.5342288785
 31
0.0
 11
21.4113759276
 21
10.5437443384
 31
0.0
 11
21.4538988474
 21
10.5640393201
 31
0.0
  0
SPLINE
  5
267
100
AcDbEntity
  8
0
100
AcDbSpline
 62
6
  6
CONTINUOUS
 70
0
 71
3
 72
20
 73
16
 74
14
 42
0.0000001
 43
0.0000001
 44
0.0000000001
 12
0.3372072242
 22
-0.1686036121
 32
0.0
 13
0.3770091379
 23
0.0
 33
0.0
 40
0.0
 40
0.0
 40
0.0
 40
0.0
 40
0.1249782643
 40
0.1874760894
 40
0.249975501
 40
0.3749634398
 40
0.4374608299
 40
0.4999642122
 40
0.6249537553
 40
0.6874576048
 40
0.7499631278
 40
0.812472471
 40
0.8749911804
 40
0.9375062307
 40
1.0
 40
1.0
 40
1.0
 40
1.0
 10
20.7322110109
 20
10.5640393201
 30
0.0
 10
20.7462588688
 20
10.5570153912
 30
0.0
 10
20.7675186762
 20
10.546844746
 30
0.0
 10
20.7962562918
 20
10.5341508282
 30
0.0
 10
20.8252618313
 20
10.5220790082
 30
0.0
 10
20.8546792743
 20
10.5110112225
 30
0.0
 10
20.8844995311
 20
10.5011146534
 30
0.0
 10
20.9145839018
 20
10.4920539393
 30
0.0
 10
20.9450608457
 20
10.4843264901
 30
0.0
 10
20.9758616444
 20
10.4781090058
 30
0.0
 10
20.9991111412
 20
10.474233223
 30
0.0
 10
21.0224846657
 20
10.4711784762
 30
0.0
 10
21.0459558045
 20
10.4689796006
 30
0.0
 10
21.069489953
 20
10.467650033
 30
0.0
 10
21.0852013551
 20
10.4673514837
 30
0.0
 10
21.0930549292
 20
10.4673514837
 30
0.0
 11
20.7322110109
 21
10.5640393201
 31
0.0
 11
20.7747340713
 21
10.5437442387
 31
0.0
 11
20.7962894612
 21
10.5342287333
 31
0.0
 11
20.8180456808
 21
10.5251802651
 31
0.0
 11
20.8621670779
 21
10.5086349626
 31
0.0
 11
20.884531805
 21
10.5012193751
 31
0.0
 11
20.907096838
 21
10.4944298466
 31
0.0
 11
20.9527862867
 21
10.4828983245
 31
0.0
 11
20.9758858523
 21
10.4782403434
 31
0.0
 11
20.9991310293
 21
10.4743701759
 31
0.0
 11
21.022499567
 21
10.4713212777
 31
0.0
 11
21.0459670909
 21
10.4691244383
 31
0.0
 11
21.0694984172
 21
10.4677968725
 31
0.0
 11
21.0930549292
 21
10.4673514837
 31
0.0
  0
SPLINE
  5
268
100
AcDbEntity
  8
0
100
AcDbSpline
 62
6
  6
CONTINUOUS
 70
0
 71
3
 72
41
 73
37
 74
35
 42
0.0000001
 43
0.0000001
 44
0.0000000001
 12
0.2970307075
 22
-0.2970307075
 32
0.0
 13
0.2970307075
 23
0.2970307075
 33
0.0
 40
0.0
 40
0.0
 40
0.0
 40
0.0
 40
0.0352330273
 40
0.0699776062
 40
0.104203859
 40
0.1378880388
 40
0.1710087543
 40
0.2035454458
 40
0.2354874356
 40
0.2668343313
 40
0.2975908968
 40
0.3277753618
 40
0.3574234615
 40
0.3865862536
 40
0.415331425
 40
0.4295759637
 40
0.4437499732
 40
0.4719343461
 40
0.500000056
 40
0.5280657605
 40
0.5562501302
 40
0.5704241398
 40
0.5846686774
 40
0.6134138397
 40
0.6425766234
 40
0.6722247181
 40
0.7024091693
 40
0.7331657161
 40
0.7645125992
 40
0.7964545793
 40
0.8289912581
 40
0.8621119621
 40
0.8957961362
 40
0.9300223893
 40
0.964766971
 40
1.0
 40
1.0
 40
1.0
 40
1.0
 10
2.877387243
 20
10.5640393201
 30
0.0
 10
2.8808756734
 20
10.5605508898
 30
0.0
 10
2.8878793899
 20
10.5536970042
 30
0.0
 10
2.8985517499
 20
10.5437453265
 30
0.0
 10
2.9093234015
 20
10.5342250618
 30
0.0
 10
2.9201956634
 20
10.5251706797
 30
0.0
 10
2.9311693841
 20
10.5166185068
 30
0.0
 10
2.9422459755
 20
10.5086086338
 30
0.0
 10
2.9534254498
 20
10.5011818572
 30
0.0
 10
2.9647065045
 20
10.4943799382
 30
0.0
 10
2.9760855427
 20
10.4882444515
 30
0.0
 10
2.9875576639
 20
10.4828178448
 30
0.0
 10
2.9991173631
 20
10.4781441212
 30
0.0
 10
3.0107535251
 20
10.4742582504
 30
0.0
 10
3.0205352378
 20
10.4716966975
 30
0.0
 10
3.028376327
 20
10.4700816882
 30
0.0
 10
3.0361927696
 20
10.4687619102
 30
0.0
 10
3.0460006342
 20
10.4676512677
 30
0.0
 10
3.057809225
 20
10.4672019107
 30
0.0
 10
3.0696178165
 20
10.4676512564
 30
0.0
 10
3.0794256777
 20
10.4687619213
 30
0.0
 10
3.0872421184
 20
10.4700817059
 30
0.0
 10
3.0950832086
 20
10.4716967025
 30
0.0
 10
3.1048649199
 20
10.474258253
 30
0.0
 10
3.1165010735
 20
10.4781441386
 30
0.0
 10
3.1280607695
 20
10.482817859
 30
0.0
 10
3.1395328881
 20
10.4882444594
 30
0.0
 10
3.1509119186
 20
10.4943799471
 30
0.0
 10
3.1621929663
 20
10.5011818665
 30
0.0
 10
3.1733724362
 20
10.5086086408
 30
0.0
 10
3.1844490239
 20
10.5166185108
 30
0.0
 10
3.1954227418
 20
10.5251706805
 30
0.0
 10
3.2062950021
 20
10.5342250608
 30
0.0
 10
3.2170666534
 20
10.5437453253
 30
0.0
 10
3.2277390137
 20
10.5536970036
 30
0.0
 10
3.2347427308
 20
10.5605508896
 30
0.0
 10
3.2382311613
 20
10.5640393201
 30
0.0
 11
2.877387243
 21
10.5640393201
 31
0.0
 11
2.8879696621
 21
10.553692483
 31
0.0
 11
2.8986488119
 21
10.5437441616
 31
0.0
 11
2.9094265517
 21
10.5342286204
 31
0.0
 11
2.9203047306
 21
10.5251801559
 31
0.0
 11
2.9312844529
 21
10.5166353883
 31
0.0
 11
2.9423655879
 21
10.5086347905
 31
0.0
 11
2.9535478891
 21
10.5012191982
 31
0.0
 11
2.9648302599
 21
10.4944297062
 31
0.0
 11
2.9762079238
 21
10.4883085329
 31
0.0
 11
2.9876751085
 21
10.4828982007
 31
0.0
 11
2.9992253667
 21
10.4782402229
 31
0.0
 11
3.0108482459
 21
10.4743701263
 31
0.0
 11
3.0225318219
 21
10.4713212378
 31
0.0
 11
3.0283925957
 21
10.4701149378
 31
0.0
 11
3.0342636204
 21
10.4691243703
 31
0.0
 11
3.0460282227
 21
10.4677968478
 31
0.0
 11
3.0578092259
 21
10.4673514837
 31
0.0
 11
3.069590227
 21
10.4677968428
 31
0.0
 11
3.0813548261
 21
10.4691243821
 31
0.0
 11
3.0872258502
 21
10.4701149531
 31
0.0
 11
3.0930866248
 21
10.4713212471
 31
0.0
 11
3.1047701979
 21
10.4743701317
 31
0.0
 11
3.1163930705
 21
10.4782402371
 31
0.0
 11
3.1279433264
 21
10.4828982149
 31
0.0
 11
3.1394105069
 21
10.4883085424
 31
0.0
 11
3.1507881625
 21
10.4944297145
 31
0.0
 11
3.162070527
 21
10.5012192067
 31
0.0
 11
3.1732528242
 21
10.5086347976
 31
0.0
 11
3.1843339551
 21
10.5166353921
 31
0.0
 11
3.1953136739
 21
10.5251801563
 31
0.0
 11
3.2061918512
 21
10.5342286189
 31
0.0
 11
3.2169695911
 21
10.5437441602
 31
0.0
 11
3.2276487417
 21
10.5536924825
 31
0.0
 11
3.2382311613
 21
10.5640393201
 31
0.0
  0
SPLINE
  5
269
100
AcDbEntity
  8
0
100
AcDbSpline
 62
6
  6
CONTINUOUS
 70
0
 71
3
 72
21
 73
17
 74
15
 42
0.0000001
 43
0.0000001
 44
0.0000000001
 12
0.3770148321
 22
0.0
 32
0.0
 13
0.3372123173
 23
0.1686061586
 33
0.0
 40
0.0
 40
0.0
 40
0.0
 40
0.0
 40
0.0624929002
 40
0.1250073457
 40
0.1875257012
 40
0.2500345414
 40
0.3125393255
 40
0.3750424385
 40
0.4375427702
 40
0.5000450446
 40
0.5625475337
 40
0.625044012
 40
0.7500293248
 40
0.8125275149
 40
0.8750240738
 40
1.0
 40
1.0
 40
1.0
 40
1.0
 10
2.5165433248
 20
10.4673514837
 30
0.0
 10
2.5243969082
 20
10.4673514837
 30
0.0
 10
2.5401083617
 20
10.4676500667
 30
0.0
 10
2.5636426349
 20
10.4689797162
 30
0.0
 10
2.587113938
 20
10.4711785078
 30
0.0
 10
2.6104876786
 20
10.4742332627
 30
0.0
 10
2.6337370499
 20
10.4781091396
 30
0.0
 10
2.6568399001
 20
10.4827727051
 30
0.0
 10
2.6797769218
 20
10.4881904197
 30
0.0
 10
2.7025338499
 20
10.4943186674
 30
0.0
 10
2.725099565
 20
10.5011149475
 30
0.0
 10
2.7549193938
 20
10.5110113694
 30
0.0
 10
2.784336878
 20
10.5220791479
 30
0.0
 10
2.8133422015
 20
10.5341509821
 30
0.0
 10
2.8420797051
 20
10.5468448408
 30
0.0
 10
2.8633394358
 20
10.5570154165
 30
0.0
 10
2.877387243
 20
10.5640393201
 30
0.0
 11
2.5165433248
 21
10.4673514837
 31
0.0
 11
2.5400998642
 21
10.4677969097
 31
0.0
 11
2.563631316
 21
10.4691245235
 31
0.0
 11
2.5870990668
 21
10.4713213272
 31
0.0
 11
2.6104677708
 21
10.4743702354
 31
0.0
 11
2.6337130117
 21
10.4782404909
 31
0.0
 11
2.6568126551
 21
10.4828984814
 31
0.0
 11
2.6797466824
 21
10.4883087843
 31
0.0
 11
2.7025020321
 21
10.4944300232
 31
0.0
 11
2.7250670709
 21
10.5012195992
 31
0.0
 11
2.7474318116
 21
10.5086351839
 31
0.0
 11
2.7915529418
 21
10.5251804055
 31
0.0
 11
2.813309046
 21
10.5342288785
 31
0.0
 11
2.8348643232
 21
10.5437443384
 31
0.0
 11
2.877387243
 21
10.5640393201
 31
0.0
  0
SPLINE
  5
26A
100
AcDbEntity
  8
0
100
AcDbSpline
 62
6
  6
CONTINUOUS
 70
0
 71
3
 72
20
 73
16
 74
14
 42
0.0000001
 43
0.0000001
 44
0.0000000001
 12
0.3372072242
 22
-0.1686036121
 32
0.0
 13
0.3770091379
 23
0.0
 33
0.0
 40
0.0
 40
0.0
 40
0.0
 40
0.0
 40
0.1249782643
 40
0.1874760894
 40
0.249975501
 40
0.3749634398
 40
0.4374608299
 40
0.4999642122
 40
0.6249537553
 40
0.6874576048
 40
0.7499631278
 40
0.812472471
 40
0.8749911804
 40
0.9375062307
 40
1.0
 40
1.0
 40
1.0
 40
1.0
 10
2.1556994065
 20
10.5640393201
 30
0.0
 10
2.1697472644
 20
10.5570153912
 30
0.0
 10
2.1910070719
 20
10.546844746
 30
0.0
 10
2.2197446874
 20
10.5341508282
 30
0.0
 10
2.2487502269
 20
10.5220790082
 30
0.0
 10
2.2781676699
 20
10.5110112225
 30
0.0
 10
2.3079879268
 20
10.5011146534
 30
0.0
 10
2.3380722974
 20
10.4920539393
 30
0.0
 10
2.3685492413
 20
10.4843264901
 30
0.0
 10
2.3993500401
 20
10.4781090058
 30
0.0
 10
2.4225995368
 20
10.474233223
 30
0.0
 10
2.4459730614
 20
10.4711784762
 30
0.0
 10
2.4694442001
 20
10.4689796006
 30
0.0
 10
2.4929783487
 20
10.467650033
 30
0.0
 10
2.5086897508
 20
10.4673514837
 30
0.0
 10
2.5165433248
 20
10.4673514837
 30
0.0
 11
2.1556994065
 21
10.5640393201
 31
0.0
 11
2.1982224669
 21
10.5437442387
 31
0.0
 11
2.2197778569
 21
10.5342287333
 31
0.0
 11
2.2415340765
 21
10.5251802651
 31
0.0
 11
2.2856554736
 21
10.5086349626
 31
0.0
 11
2.3080202006
 21
10.5012193751
 31
0.0
 11
2.3305852337
 21
10.4944298466
 31
0.0
 11
2.3762746824
 21
10.4828983245
 31
0.0
 11
2.3993742479
 21
10.4782403434
 31
0.0
 11
2.422619425
 21
10.4743701759
 31
0.0
 11
2.4459879626
 21
10.4713212777
 31
0.0
 11
2.4694554865
 21
10.4691244383
 31
0.0
 11
2.4929868129
 21
10.4677968725
 31
0.0
 11
2.5165433248
 21
10.4673514837
 31
0.0
  0
SPLINE
  5
26B
100
AcDbEntity
  8
0
100
AcDbSpline
 62
6
  6
CONTINUOUS
 70
0
 71
3
 72
41
 73
37
 74
35
 42
0.0000001
 43
0.0000001
 44
0.0000000001
 12
0.2970307075
 22
-0.2970307075
 32
0.0
 13
0.2970307075
 23
0.2970307075
 33
0.0
 40
0.0
 40
0.0
 40
0.0
 40
0.0
 40
0.0352330273
 40
0.0699776062
 40
0.104203859
 40
0.1378880388
 40
0.1710087543
 40
0.2035454458
 40
0.2354874356
 40
0.2668343313
 40
0.2975908968
 40
0.3277753618
 40
0.3574234615
 40
0.3865862536
 40
0.415331425
 40
0.4295759637
 40
0.4437499732
 40
0.4719343461
 40
0.500000056
 40
0.5280657605
 40
0.5562501302
 40
0.5704241398
 40
0.5846686774
 40
0.6134138397
 40
0.6425766234
 40
0.6722247181
 40
0.7024091693
 40
0.7331657161
 40
0.7645125992
 40
0.7964545793
 40
0.8289912581
 40
0.8621119621
 40
0.8957961362
 40
0.9300223893
 40
0.964766971
 40
1.0
 40
1.0
 40
1.0
 40
1.0
 10
1.7948554883
 20
10.5640393201
 30
0.0
 10
1.7983439186
 20
10.5605508898
 30
0.0
 10
1.8053476352
 20
10.5536970042
 30
0.0
 10
1.8160199952
 20
10.5437453265
 30
0.0
 10
1.8267916468
 20
10.5342250618
 30
0.0
 10
1.8376639087
 20
10.5251706797
 30
0.0
 10
1.8486376294
 20
10.5166185068
 30
0.0
 10
1.8597142208
 20
10.5086086338
 30
0.0
 10
1.8708936951
 20
10.5011818572
 30
0.0
 10
1.8821747498
 20
10.4943799382
 30
0.0
 10
1.893553788
 20
10.4882444515
 30
0.0
 10
1.9050259092
 20
10.4828178448
 30
0.0
 10
1.9165856084
 20
10.4781441212
 30
0.0
 10
1.9282217704
 20
10.4742582504
 30
0.0
 10
1.9380034831
 20
10.4716966975
 30
0.0
 10
1.9458445722
 20
10.4700816882
 30
0.0
 10
1.9536610149
 20
10.4687619102
 30
0.0
 10
1.9634688795
 20
10.4676512677
 30
0.0
 10
1.9752774702
 20
10.4672019107
 30
0.0
 10
1.9870860618
 20
10.4676512564
 30
0.0
 10
1.9968939229
 20
10.4687619213
 30
0.0
 10
2.0047103636
 20
10.4700817059
 30
0.0
 10
2.0125514539
 20
10.4716967025
 30
0.0
 10
2.0223331651
 20
10.474258253
 30
0.0
 10
2.0339693188
 20
10.4781441386
 30
0.0
 10
2.0455290148
 20
10.482817859
 30
0.0
 10
2.0570011333
 20
10.4882444594
 30
0.0
 10
2.0683801638
 20
10.4943799471
 30
0.0
 10
2.0796612116
 20
10.5011818665
 30
0.0
 10
2.0908406815
 20
10.5086086408
 30
0.0
 10
2.1019172692
 20
10.5166185108
 30
0.0
 10
2.112890987
 20
10.5251706805
 30
0.0
 10
2.1237632474
 20
10.5342250608
 30
0.0
 10
2.1345348987
 20
10.5437453253
 30
0.0
 10
2.145207259
 20
10.5536970036
 30
0.0
 10
2.152210976
 20
10.5605508896
 30
0.0
 10
2.1556994065
 20
10.5640393201
 30
0.0
 11
1.7948554883
 21
10.5640393201
 31
0.0
 11
1.8054379074
 21
10.553692483
 31
0.0
 11
1.8161170572
 21
10.5437441616
 31
0.0
 11
1.826894797
 21
10.5342286204
 31
0.0
 11
1.8377729759
 21
10.5251801559
 31
0.0
 11
1.8487526981
 21
10.5166353883
 31
0.0
 11
1.8598338332
 21
10.5086347905
 31
0.0
 11
1.8710161344
 21
10.5012191982
 31
0.0
 11
1.8822985052
 21
10.4944297062
 31
0.0
 11
1.893676169
 21
10.4883085329
 31
0.0
 11
1.9051433537
 21
10.4828982007
 31
0.0
 11
1.916693612
 21
10.4782402229
 31
0.0
 11
1.9283164912
 21
10.4743701263
 31
0.0
 11
1.9400000672
 21
10.4713212378
 31
0.0
 11
1.945860841
 21
10.4701149378
 31
0.0
 11
1.9517318657
 21
10.4691243703
 31
0.0
 11
1.963496468
 21
10.4677968478
 31
0.0
 11
1.9752774712
 21
10.4673514837
 31
0.0
 11
1.9870584723
 21
10.4677968428
 31
0.0
 11
1.9988230714
 21
10.4691243821
 31
0.0
 11
2.0046940955
 21
10.4701149531
 31
0.0
 11
2.01055487
 21
10.4713212471
 31
0.0
 11
2.0222384432
 21
10.4743701317
 31
0.0
 11
2.0338613158
 21
10.4782402371
 31
0.0
 11
2.0454115717
 21
10.4828982149
 31
0.0
 11
2.0568787522
 21
10.4883085424
 31
0.0
 11
2.0682564078
 21
10.4944297145
 31
0.0
 11
2.0795387722
 21
10.5012192067
 31
0.0
 11
2.0907210695
 21
10.5086347976
 31
0.0
 11
2.1018022004
 21
10.5166353921
 31
0.0
 11
2.1127819192
 21
10.5251801563
 31
0.0
 11
2.1236600965
 21
10.5342286189
 31
0.0
 11
2.1344378364
 21
10.5437441602
 31
0.0
 11
2.145116987
 21
10.5536924825
 31
0.0
 11
2.1556994065
 21
10.5640393201
 31
0.0
  0
ENDSEC
  0
SECTION
  2
OBJECTS
  0
DICTIONARY
  5
C
100
AcDbDictionary
280
0
281
1
  3
ACAD_GROUP
350
D
  3
ACAD_MLINESTYLE
350
17
  3
ACAD_LAYOUT
350
1A
  3
ACAD_PLOTSETTINGS
350
19
  3
ACAD_PLOTSTYLENAME
350
E
  0
DICTIONARY
  5
D
102
{ACAD_REACTORS
330
C
102
}
100
AcDbDictionary
280
0
281
1
  0
ACDBDICTIONARYWDFLT
  5
E
102
{ACAD_REACTORS
330
C
102
}
100
AcDbDictionary
281
1
  3
Normal
350
F
100
AcDbDictionaryWithDefault
340
F
  0
DICTIONARY
  5
17
102
{ACAD_REACTORS
330
C
102
}
100
AcDbDictionary
280
0
281
1
  3
Standard
350
18
  0
DICTIONARY
  5
19
102
{ACAD_REACTORS
330
C
102
}
100
AcDbDictionary
281
1
  0
DICTIONARY
  5
1A
102
{ACAD_REACTORS
330
C
102
}
100
AcDbDictionary
281
1
  3
Model
350
26C
  3
Layout1
350
26D
  0
ACDBPLACEHOLDER
  5
F
102
{ACAD_REACTORS
330
E
102
}
  0
MLINESTYLE
  5
18
102
{ACAD_REACTORS
330
17
102
}
100
AcDbMlineStyle
  2
STANDARD
 70
0
  3

 62
256
 51
90.0
 52
90.0
 71
2
 49
0.5
 62
256
  6
BYLAYER
 49
-0.5
 62
256
  6
BYLAYER
  0
LAYOUT
  5
26C
102
{ACAD_REACTORS
330
1A
102
}
100
AcDbPlotSettings
  1

  2
none_device
  4
ISO_A2_(594.00_x_420.00_MM)
  6

 40
0.0
 41
0.0
 42
0.0
 43
0.0
 44
594.0
 45
420.0
 46
0.0
 47
0.0
 48
0.0
 49
0.0
140
0.0
141
0.0
142
1.0
143
1.0
 70
1024
 72
0
 73
0
 74
0
  7

 75
0
147
1.0
148
0.0
149
0.0
100
AcDbLayout
  1
Model
 70
0
 71
0
 10
0.0
 20
0.0
 11
23.3858267717
 21
16.5354330709
 12
0.0
 22
0.0
 32
0.0
 14
0.0
 24
0.0
 34
0.0
 15
0.0
 25
0.0
 35
0.0
146
0.0
 13
0.0
 23
0.0
 33
0.0
 16
1.0
 26
0.0
 36
0.0
 17
0.0
 27
1.0
 37
0.0
 76
0
330
203
345
0
346
0
  0
LAYOUT
  5
26D
102
{ACAD_REACTORS
330
1A
102
}
100
AcDbPlotSettings
  1

  2
none_device
  4
ISO_A2_(594.00_x_420.00_MM)
  6

 40
0.0
 41
0.0
 42
0.0
 43
0.0
 44
594.0
 45
420.0
 46
0.0
 47
0.0
 48
0.0
 49
0.0
140
0.0
141
0.0
142
1.0
143
1.0
 70
0
 72
0
 73
0
 74
0
  7

 75
0
147
1.0
148
0.0
149
0.0
100
AcDbLayout
  1
Layout1
 70
0
 71
1
 10
0.0
 20
0.0
 11
23.3858267717
 21
16.5354330709
 12
0.0
 22
0.0
 32
0.0
 14
0.0
 24
0.0
 34
0.0
 15
0.0
 25
0.0
 35
0.0
146
0.0
 13
0.0
 23
0.0
 33
0.0
 16
1.0
 26
0.0
 36
0.0
 17
0.0
 27
1.0
 37
0.0
 76
0
330
204
345
0
346
0
  0
ENDSEC
  0
EOF
