  0
SECTION
  2
HEADER
  9
$ACADVER
  1
AC1021
  9
$DWGCODEPAGE
  3
ANSI_1252
  9
$EXTMAX
 10
16.5354330709
 20
11.6929133858
 30
0.0
  9
$EXTMIN
 10
0.0
 20
0.0
 30
0.0
  9
$LIMMIN
 10
0.0
 20
0.0
  9
$LIMMAX
 10
16.5354330709
 20
11.6929133858
  9
$VIEWCTR
 10
8.2677165354
 20
5.8464566929
  9
$VIEWSIZE
 40
11.6929133858
  9
$CLAYER
  8
0
  9
$LTSCALE
 40
0.9094488189
  9
$CELTYPE
  6
BYLAYER
  9
$DIMSCALE
 40
1.0
  9
$DIMASZ
 40
0.1
  9
$DIMEXO
 40
0.1033464567
  9
$DIMDLI
 40
0.6283464567
  9
$DIMEXE
 40
0.2976377953
  9
$DIMCEN
 40
0.1488188976
  9
$DIMLFAC
 40
1.0
  9
$DIMBLK
  1
_FILLED
  9
$DIMTXT
 40
0.08
  9
$DIMTOL
 70
1
  9
$DIMLIM
 70
0
  9
$DIMTFAC
 40
1.0
  9
$DIMTP
 40
0.001
  9
$DIMTM
 40
0.001
  9
$PDMODE
 70
3
  9
$PDSIZE
 40
0.06
  9
$HANDSEED
  5
23C
  9
$TILEMODE
 70
1
  9
$MEASUREMENT
 70
0
  9
$INSUNITS
 70
1
  0
ENDSEC
  0
SECTION
  2
CLASSES
  0
CLASS
  1
ACDBDICTIONARYWDFLT
  2
AcDbDictionaryWithDefault
  3
AutoCAD 2000
 90
0
 91
1
280
0
281
0
  0
CLASS
  1
ACDBPLACEHOLDER
  2
AcDbPlaceHolder
  3
AutoCAD 2000
 90
0
 91
1
280
0
281
0
  0
CLASS
  1
LAYOUT
  2
AcDbLayout
  3
AutoCAD 2000
 90
0
 91
0
280
0
281
0
  0
ENDSEC
  0
SECTION
  2
TABLES
  0
TABLE
  2
VPORT
  5
8
100
AcDbSymbolTable
 70
2
  0
VPORT
  5
1F4
100
AcDbSymbolTableRecord
100
AcDbViewportTableRecord
  2
*ACTIVE
 70
0
 10
0.0
 20
0.0
 11
1.0
 21
1.0
 12
8.2677165354
 22
5.8464566929
 13
0.0
 23
0.0
 14
1.0
 24
1.0
 15
0.0
 25
0.0
 16
0.0
 26
0.0
 36
1.0
 17
0.0
 27
0.0
 37
0.0
 40
11.6929133858
 41
1.4141414141
 42
50.0
 43
0.0
 44
0.0
 50
0.0
 51
0.0
 71
0
 72
100
 73
1
 74
1
 75
0
 76
0
 77
0
 78
0
  0
ENDTAB
  0
TABLE
  2
LTYPE
  5
5
100
AcDbSymbolTable
 70
6
  0
LTYPE
  5
14
100
AcDbSymbolTableRecord
100
AcDbLinetypeTableRecord
  2
BYBLOCK
 70
0
  3

 72
65
 73
0
 40
0.0
  0
LTYPE
  5
15
100
AcDbSymbolTableRecord
100
AcDbLinetypeTableRecord
  2
BYLAYER
 70
0
  3

 72
65
 73
0
 40
0.0
  0
LTYPE
  5
16
100
AcDbSymbolTableRecord
100
AcDbLinetypeTableRecord
  2
CONTINUOUS
 70
64
  3
Solid line
 72
65
 73
0
 40
0.0
  0
LTYPE
  5
1F5
100
AcDbSymbolTableRecord
100
AcDbLinetypeTableRecord
  2
CENTER
 70
64
  3
____ _ ____ _ ____ _ ____ _ ____ _ ____ _ ____
 72
65
 73
4
 40
0.6
 49
0.375
 74
0
 49
-0.075
 74
0
 49
0.075
 74
0
 49
-0.075
 74
0
  0
LTYPE
  5
1F6
100
AcDbSymbolTableRecord
100
AcDbLinetypeTableRecord
  2
HIDDEN
 70
64
  3
- - - - - - - - - - - - - - - - - - - -
 72
65
 73
2
 40
0.2
 49
0.1
 74
0
 49
-0.1
 74
0
  0
LTYPE
  5
1F7
100
AcDbSymbolTableRecord
100
AcDbLinetypeTableRecord
  2
PHANTOM
 70
64
  3
_____ _ _ _____ _ _ _____ _ _ _____
 72
65
 73
6
 40
0.8
 49
0.45
 74
0
 49
-0.05
 74
0
 49
0.1
 74
0
 49
-0.05
 74
0
 49
0.1
 74
0
 49
-0.05
 74
0
  0
LTYPE
  5
1F8
100
AcDbSymbolTableRecord
100
AcDbLinetypeTableRecord
  2
DOT
 70
64
  3
. . . . . . . . . . . . . . . . . . . .
 72
65
 73
2
 40
0.2
 49
0.1
 74
0
 49
-0.1
 74
0
  0
LTYPE
  5
1F9
100
AcDbSymbolTableRecord
100
AcDbLinetypeTableRecord
  2
DASHED
 70
64
  3
- - - - - - - - - - - - - - - - - - - -
 72
65
 73
2
 40
0.2
 49
0.1
 74
0
 49
-0.1
 74
0
  0
ENDTAB
  0
TABLE
  2
LAYER
  5
2
100
AcDbSymbolTable
 70
36
  0
LAYER
  5
10
100
AcDbSymbolTableRecord
100
AcDbLayerTableRecord
  2
0
 70
0
 62
7
  6
CONTINUOUS
370
-3
390
F
  0
LAYER
  5
1FA
100
AcDbSymbolTableRecord
100
AcDbLayerTableRecord
  2
DEFAULT_1
 70
0
 62
7
  6
CENTER
370
-3
390
F
  0
LAYER
  5
1FB
100
AcDbSymbolTableRecord
100
AcDbLayerTableRecord
  2
DEFAULT_2
 70
0
 62
8
  6
HIDDEN
370
-3
390
F
  0
LAYER
  5
1FC
100
AcDbSymbolTableRecord
100
AcDbLayerTableRecord
  2
DEFAULT_3
 70
0
 62
7
  6
PHANTOM
370
-3
390
F
  0
LAYER
  5
1FD
100
AcDbSymbolTableRecord
100
AcDbLayerTableRecord
  2
DEFAULT_COORDINATE_SYSTEM
 70
0
 62
7
  6
CONTINUOUS
370
-3
390
F
  0
LAYER
  5
1FE
100
AcDbSymbolTableRecord
100
AcDbLayerTableRecord
  2
DEFAULT_DATUM_AXES
 70
0
 62
7
  6
CONTINUOUS
370
-3
390
F
  0
LAYER
  5
1FF
100
AcDbSymbolTableRecord
100
AcDbLayerTableRecord
  2
DEFAULT_DATUM_CURVES
 70
0
 62
7
  6
CONTINUOUS
370
-3
390
F
  0
LAYER
  5
200
100
AcDbSymbolTableRecord
100
AcDbLayerTableRecord
  2
DEFAULT_DATUM_PLANES
 70
0
 62
7
  6
CONTINUOUS
370
-3
390
F
  0
ENDTAB
  0
TABLE
  2
STYLE
  5
3
100
AcDbSymbolTable
 70
1
  0
STYLE
  5
11
100
AcDbSymbolTableRecord
100
AcDbTextStyleTableRecord
  2
STANDARD
 70
0
 40
0.0
 41
0.8
 50
0.0
 71
0
 42
0.2
  3
txt
  4

  0
STYLE
  5
201
100
AcDbSymbolTableRecord
100
AcDbTextStyleTableRecord
  2
TEXTSTYLE_1
 70
0
 40
0.0
 41
0.8
 50
0.0
 71
0
 42
0.2
  3
gdt
  4

  0
ENDTAB
  0
TABLE
  2
VIEW
  5
6
100
AcDbSymbolTable
 70
0
  0
ENDTAB
  0
TABLE
  2
UCS
  5
7
100
AcDbSymbolTable
 70
0
  0
ENDTAB
  0
TABLE
  2
APPID
  5
9
100
AcDbSymbolTable
 70
1
  0
APPID
  5
202
100
AcDbSymbolTableRecord
100
AcDbRegAppTableRecord
  2
ACAD
 70
0
  0
ENDTAB
  0
TABLE
  2
BLOCK_RECORD
  5
1
100
AcDbSymbolTable
 70
0
  0
BLOCK_RECORD
  5
203
100
AcDbSymbolTableRecord
100
AcDbBlockTableRecord
  2
*Model_Space
  0
BLOCK_RECORD
  5
204
100
AcDbSymbolTableRecord
100
AcDbBlockTableRecord
  2
*Paper_Space
  0
ENDTAB
  0
TABLE
  2
DIMSTYLE
  5
A
100
AcDbSymbolTable
 70
1
100
AcDbDimStyleTable
 71
0
  0
DIMSTYLE
105
205
100
AcDbSymbolTableRecord
100
AcDbDimStyleTableRecord
  2
STANDARD
 70
0
  3

  4

 40
1.0
 41
0.1
 42
0.0625
 43
0.38
 44
0.18
 45
0.0
 46
0.0
 47
0.001
 48
0.001
140
0.08
141
0.09
142
0.0
143
25.4
144
1.0
145
0.0
146
1.0
147
0.09
 71
1.0
 72
0.0
 73
1
 74
1
 75
0
 76
0
 77
0
 78
4
170
0
171
2
172
0
173
0
174
0
175
0
176
0
177
0
178
0
270
2
271
3
272
3
273
2
274
2
275
0
280
0
281
0
282
0
283
1
284
4
285
0
286
0
287
3
288
0
340
11
  0
ENDTAB
  0
ENDSEC
  0
SECTION
  2
BLOCKS
  0
BLOCK
  5
20
100
AcDbEntity
  8
0
100
AcDbBlockBegin
  2
*Model_Space
 70
0
 10
0.0
 20
0.0
 30
0.0
  3
*Model_Space
  1

  0
ENDBLK
  5
21
100
AcDbEntity
  8
0
100
AcDbBlockEnd
  0
BLOCK
  5
1C
100
AcDbEntity
  8
0
100
AcDbBlockBegin
  2
*Paper_Space
 70
0
 10
0.0
 20
0.0
 30
0.0
  3
*Paper_Space
  1

  0
ENDBLK
  5
1D
100
AcDbEntity
  8
0
100
AcDbBlockEnd
  0
ENDSEC
  0
SECTION
  2
ENTITIES
  0
LINE
  5
206
100
AcDbEntity
  8
0
100
AcDbLine
 62
6
  6
CONTINUOUS
 10
9.008344893
 20
9.2349783559
 11
8.9872225267
 21
9.2138559895
  0
LINE
  5
207
100
AcDbEntity
  8
0
100
AcDbLine
 62
6
  6
CONTINUOUS
 10
6.8173679944
 20
8.6099783559
 11
6.8173679944
 21
1.9850237628
  0
LINE
  5
208
100
AcDbEntity
  8
0
100
AcDbLine
 62
6
  6
CONTINUOUS
 10
7.1923679944
 20
8.6099783559
 11
7.1923679944
 21
1.9850237628
  0
LINE
  5
209
100
AcDbEntity
  8
0
100
AcDbLine
 62
6
  6
CONTINUOUS
 10
7.4960868865
 20
8.9349783559
 11
7.4960868865
 21
8.2849783559
  0
LINE
  5
20A
100
AcDbEntity
  8
0
100
AcDbLine
 62
9
  6
CONTINUOUS
 10
7.1923679944
 20
5.2974783559
 11
6.8173679944
 21
5.2974783559
  0
LINE
  5
20B
100
AcDbEntity
  8
0
100
AcDbLine
 62
9
  6
CONTINUOUS
 10
8.3375598752
 20
9.0607373367
 11
8.3375598752
 21
8.1592193751
  0
LINE
  5
20C
100
AcDbEntity
  8
0
100
AcDbLine
 62
9
  6
CONTINUOUS
 10
8.5712168459
 20
9.1610298256
 11
8.5712168459
 21
8.0589268861
  0
LINE
  5
20D
100
AcDbEntity
  8
0
100
AcDbLine
 62
9
  6
CONTINUOUS
 10
8.7878500721
 20
9.1820543559
 11
8.7878500721
 21
8.0379023559
  0
LINE
  5
20E
100
AcDbEntity
  8
0
100
AcDbLine
 62
9
  6
CONTINUOUS
 10
8.9872225267
 20
9.2138559895
 11
8.9872225267
 21
8.0061007222
  0
LINE
  5
20F
100
AcDbEntity
  8
0
100
AcDbLine
 62
6
  6
CONTINUOUS
 10
9.3960868865
 20
7.8689815356
 11
9.3960868865
 21
9.3509751762
  0
LINE
  5
210
100
AcDbEntity
  8
0
100
AcDbLine
 62
9
  6
CONTINUOUS
 10
9.4580868865
 20
7.7969783038
 11
9.4580868865
 21
9.422978408
  0
LINE
  5
211
100
AcDbEntity
  8
0
100
AcDbLine
 62
6
  6
CONTINUOUS
 10
9.6460868865
 20
7.6099783559
 11
9.6460868865
 21
9.6099783559
  0
LINE
  5
212
100
AcDbEntity
  8
0
100
AcDbLine
 62
6
  6
CONTINUOUS
 10
9.8330868865
 20
7.4299783559
 11
9.8330868865
 21
9.7899783559
  0
LINE
  5
213
100
AcDbEntity
  8
0
100
AcDbLine
 62
6
  6
CONTINUOUS
 10
7.868331424
 20
8.229346037
 11
7.8680754906
 21
8.2294806366
  0
LINE
  5
214
100
AcDbEntity
  8
0
100
AcDbLine
 62
6
  6
CONTINUOUS
 10
9.3960868865
 20
7.8689783559
 11
9.4580868865
 21
7.8689783559
  0
LINE
  5
215
100
AcDbEntity
  8
0
100
AcDbLine
 62
6
  6
CONTINUOUS
 10
9.3960868865
 20
7.9849783559
 11
9.008344893
 21
7.9849783559
  0
LINE
  5
216
100
AcDbEntity
  8
0
100
AcDbLine
 62
6
  6
CONTINUOUS
 10
8.9872225267
 20
8.0061007222
 11
9.008344893
 21
7.9849783559
  0
LINE
  5
217
100
AcDbEntity
  8
0
100
AcDbLine
 62
6
  6
CONTINUOUS
 10
8.3375598752
 20
8.1592193751
 11
8.0310868865
 21
8.2050220702
  0
LINE
  5
218
100
AcDbEntity
  8
0
100
AcDbLine
 62
6
  6
CONTINUOUS
 10
7.8680738981
 20
8.2293845245
 11
7.4960868865
 21
8.2849783559
  0
LINE
  5
219
100
AcDbEntity
  8
0
100
AcDbLine
 62
6
  6
CONTINUOUS
 10
9.3960868865
 20
8.6099783559
 11
9.1050327295
 21
8.6099783559
  0
LINE
  5
21A
100
AcDbEntity
  8
0
100
AcDbLine
 62
6
  6
CONTINUOUS
 10
8.3375598752
 20
9.0607373367
 11
7.4960868865
 21
8.9349783559
  0
LINE
  5
21B
100
AcDbEntity
  8
0
100
AcDbLine
 62
6
  6
CONTINUOUS
 10
9.008344893
 20
9.2349783559
 11
9.3960868865
 21
9.2349783559
  0
LINE
  5
21C
100
AcDbEntity
  8
0
100
AcDbLine
 62
6
  6
CONTINUOUS
 10
9.3960868865
 20
9.3509783559
 11
9.4580868865
 21
9.3509783559
  0
ARC
  5
21D
100
AcDbEntity
  8
0
100
AcDbCircle
 62
6
  6
CONTINUOUS
 10
7.0048679944
 20
1.9849783559
 40
0.1875
100
AcDbArc
 50
180.0
 51
360.0
  0
ARC
  5
21E
100
AcDbEntity
  8
0
100
AcDbCircle
 62
6
  6
CONTINUOUS
 10
7.0048679811
 20
6.41199116
 40
0.3125000132
100
AcDbArc
 50
306.8729411105
 51
53.123488454
  0
ARC
  5
21F
100
AcDbEntity
  8
0
100
AcDbCircle
 62
6
  6
CONTINUOUS
 10
7.0048679977
 20
6.4119911646
 40
0.3125000034
100
AcDbArc
 50
126.8763929443
 51
233.1270185128
  0
ARC
  5
220
100
AcDbEntity
  8
0
100
AcDbCircle
 62
6
  6
CONTINUOUS
 10
7.0048679944
 20
8.6099783559
 40
0.589
100
AcDbArc
 50
33.4893985991
 51
251.428367054
  0
ARC
  5
221
100
AcDbEntity
  8
0
100
AcDbCircle
 62
6
  6
CONTINUOUS
 10
7.0048679944
 20
8.6099783559
 40
0.589
100
AcDbArc
 50
288.5633518035
 51
326.5106014009
  0
ARC
  5
222
100
AcDbEntity
  8
0
100
AcDbCircle
 62
7
  6
CONTINUOUS
 10
7.0048679944
 20
8.6099783559
 40
0.193
100
AcDbArc
 50
346.7655687938
 51
193.2344312062
  0
ARC
  5
223
100
AcDbEntity
  8
0
100
AcDbCircle
 62
9
  6
CONTINUOUS
 10
7.0048679944
 20
8.6099783559
 40
0.1875
100
AcDbArc
 50
0.0
 51
180.0
  0
ARC
  5
224
100
AcDbEntity
  8
0
100
AcDbCircle
 62
6
  6
CONTINUOUS
 10
7.8496440036
 20
7.7001209222
 40
0.5365135605
100
AcDbArc
 50
70.2334310251
 51
71.0310625021
  0
ARC
  5
225
100
AcDbEntity
  8
0
100
AcDbCircle
 62
6
  6
CONTINUOUS
 10
8.2636551696
 20
7.6647114434
 40
0.5
100
AcDbArc
 50
52.0391161445
 51
81.5
  0
ARC
  5
226
100
AcDbEntity
  8
0
100
AcDbCircle
 62
6
  6
CONTINUOUS
 10
7.8011045535
 20
7.7541618401
 40
0.4959492623
100
AcDbArc
 50
69.1300722107
 51
71.8812644861
  0
ARC
  5
227
100
AcDbEntity
  8
0
100
AcDbCircle
 62
6
  6
CONTINUOUS
 10
7.8771083183
 20
7.7836648833
 40
0.4454345764
100
AcDbArc
 50
75.4969902168
 51
76.9371454946
  0
ARC
  5
228
100
AcDbEntity
  8
0
100
AcDbCircle
 62
6
  6
CONTINUOUS
 10
7.8875472061
 20
7.8449253156
 40
0.3865806242
100
AcDbArc
 50
79.9004284556
 51
86.6028729428
  0
ARC
  5
229
100
AcDbEntity
  8
0
100
AcDbCircle
 62
6
  6
CONTINUOUS
 10
8.2636551696
 20
9.5552452683
 40
0.5
100
AcDbArc
 50
278.5
 51
307.9608838555
  0
ARC
  5
22A
100
AcDbEntity
  8
0
100
AcDbCircle
 62
6
  6
CONTINUOUS
 10
8.6960868865
 20
8.2189783559
 40
0.203
100
AcDbArc
 50
232.0391161445
 51
296.8743480767
  0
ARC
  5
22B
100
AcDbEntity
  8
0
100
AcDbCircle
 62
6
  6
CONTINUOUS
 10
8.8656001603
 20
7.8844783559
 40
0.172
100
AcDbArc
 50
45.0
 51
116.8743480767
  0
ARC
  5
22C
100
AcDbEntity
  8
0
100
AcDbCircle
 62
6
  6
CONTINUOUS
 10
8.6960868865
 20
9.0009783559
 40
0.203
100
AcDbArc
 50
63.1256519233
 51
127.9608838555
  0
ARC
  5
22D
100
AcDbEntity
  8
0
100
AcDbCircle
 62
6
  6
CONTINUOUS
 10
8.8656001603
 20
9.3354783559
 40
0.172
100
AcDbArc
 50
243.1256519233
 51
315.0
  0
ARC
  5
22E
100
AcDbEntity
  8
0
100
AcDbCircle
 62
6
  6
CONTINUOUS
 10
9.8330868865
 20
7.617114467
 40
0.1871361111
100
AcDbArc
 50
182.1854050713
 51
270.0
  0
ARC
  5
22F
100
AcDbEntity
  8
0
100
AcDbCircle
 62
6
  6
CONTINUOUS
 10
9.6450868865
 20
7.7969756821
 40
0.187
100
AcDbArc
 50
180.0
 51
270.3063960032
  0
ARC
  5
230
100
AcDbEntity
  8
0
100
AcDbCircle
 62
6
  6
CONTINUOUS
 10
9.8330868865
 20
9.6028422448
 40
0.1871361111
100
AcDbArc
 50
90.0
 51
177.8145949287
  0
ARC
  5
231
100
AcDbEntity
  8
0
100
AcDbCircle
 62
6
  6
CONTINUOUS
 10
9.6450868865
 20
9.4229810297
 40
0.187
100
AcDbArc
 50
89.6936039968
 51
180.0
  0
SPLINE
  5
232
100
AcDbEntity
  8
0
100
AcDbSpline
 62
6
  6
CONTINUOUS
 70
0
 71
3
 72
12
 73
8
 74
6
 42
0.0000001
 43
0.0000001
 44
0.0000000001
 12
0.0355579912
 22
-0.0065252335
 32
0.0
 13
0.0352205786
 23
-0.0081523163
 33
0.0
 40
0.0
 40
0.0
 40
0.0
 40
0.0
 40
0.2733361786
 40
0.4057121858
 40
0.5344079996
 40
0.7784729979
 40
1.0
 40
1.0
 40
1.0
 40
1.0
 10
7.9886588829
 20
8.2149054581
 30
0.0
 10
7.9918986447
 20
8.2143109307
 30
0.0
 10
7.996700758
 20
8.213391722
 30
0.0
 10
8.0030130405
 20
8.2121157389
 30
0.0
 10
8.0089717349
 20
8.2108714052
 30
0.0
 10
8.015969274
 20
8.2093469816
 30
0.0
 10
8.021439901
 20
8.2081010195
 30
0.0
 10
8.0240406708
 20
8.2074990334
 30
0.0
 11
7.9886588829
 21
8.2149054581
 31
0.0
 11
7.998364682
 21
8.2130498885
 31
0.0
 11
8.0030554676
 21
8.2121018706
 31
0.0
 11
8.0076098602
 21
8.2111510793
 31
0.0
 11
8.0162314742
 21
8.2092749733
 31
0.0
 11
8.0240406708
 21
8.2074990334
 31
0.0
  0
SPLINE
  5
233
100
AcDbEntity
  8
0
100
AcDbSpline
 62
6
  6
CONTINUOUS
 70
0
 71
3
 72
38
 73
34
 74
32
 42
0.0000001
 43
0.0000001
 44
0.0000000001
 12
-0.0988807717
 22
0.0170593994
 32
0.0
 13
-0.0992394018
 23
0.014831428
 33
0.0
 40
0.0
 40
0.0
 40
0.0
 40
0.0
 40
0.085621688
 40
0.1714330736
 40
0.2142241961
 40
0.256839422
 40
0.3412169822
 40
0.3828096691
 40
0.4238908748
 40
0.4643747577
 40
0.5041697878
 40
0.5431795215
 40
0.5813070375
 40
0.6184551117
 40
0.6545252855
 40
0.7230130643
 40
0.7552179547
 40
0.7859207449
 40
0.8150140002
 40
0.8423899227
 40
0.8679403862
 40
0.891557021
 40
0.9131364968
 40
0.9325864238
 40
0.949815776
 40
0.9647336381
 40
0.977258471
 40
0.9826070944
 40
0.9873391159
 40
0.9914491711
 40
0.994932175
 40
0.9977835786
 40
1.0
 40
1.0
 40
1.0
 40
1.0
 10
7.9682126615
 20
8.2211374659
 30
0.0
 10
7.9653905486
 20
8.2216243508
 30
0.0
 10
7.9597326293
 20
8.2225565834
 30
0.0
 10
7.9526455933
 20
8.2236140183
 30
0.0
 10
7.9469720067
 20
8.2243929499
 30
0.0
 10
7.9413399438
 20
8.2251203562
 30
0.0
 10
7.9357391879
 20
8.2257759092
 30
0.0
 10
7.9301823817
 20
8.2263602257
 30
0.0
 10
7.9260824062
 20
8.2267590394
 30
0.0
 10
7.9220393089
 20
8.2271201974
 30
0.0
 10
7.9180625951
 20
8.2274444148
 30
0.0
 10
7.9141621788
 20
8.2277331836
 30
0.0
 10
7.9103481128
 20
8.2279877945
 30
0.0
 10
7.9066304895
 20
8.2282096129
 30
0.0
 10
7.9018973582
 20
8.2284590131
 30
0.0
 10
7.8973271168
 20
8.2286556606
 30
0.0
 10
7.8929348723
 20
8.2288062076
 30
0.0
 10
7.8898589727
 20
8.2288952284
 30
0.0
 10
7.8869441515
 20
8.2289654492
 30
0.0
 10
7.8842013608
 20
8.2290200117
 30
0.0
 10
7.8816415518
 20
8.2290619784
 30
0.0
 10
7.8792754987
 20
8.2290944423
 30
0.0
 10
7.877113426
 20
8.2291204227
 30
0.0
 10
7.8751649615
 20
8.2291426465
 30
0.0
 10
7.8734393108
 20
8.2291638326
 30
0.0
 10
7.8719453287
 20
8.2291866936
 30
0.0
 10
7.8708487892
 20
8.229210321
 30
0.0
 10
7.8700930381
 20
8.229233102
 30
0.0
 10
7.8696187277
 20
8.2292509367
 30
0.0
 10
7.8692069493
 20
8.2292705736
 30
0.0
 10
7.8688582538
 20
8.2292921196
 30
0.0
 10
7.8685732145
 20
8.2293157091
 30
0.0
 10
7.8684047428
 20
8.2293350794
 30
0.0
 10
7.868331424
 20
8.229346037
 30
0.0
 11
7.9682126615
 21
8.2211374659
 31
0.0
 11
7.9597355258
 21
8.2225340945
 31
0.0
 11
7.951219271
 21
8.2238042264
 31
0.0
 11
7.9469654219
 21
8.2243880674
 31
0.0
 11
7.9427245652
 21
8.224935774
 31
0.0
 11
7.9343154136
 21
8.2259201973
 31
0.0
 11
7.9301648155
 21
8.2263565829
 31
0.0
 11
7.9260620153
 21
8.2267555461
 31
0.0
 11
7.9220159102
 21
8.2271169802
 31
0.0
 11
7.918036028
 21
8.2274415577
 31
0.0
 11
7.9141324161
 21
8.2277305943
 31
0.0
 11
7.9103151378
 21
8.2279854249
 31
0.0
 11
7.9065942562
 21
8.2282073843
 31
0.0
 11
7.9029799388
 21
8.2283979505
 31
0.0
 11
7.8961141571
 21
8.228694223
 31
0.0
 11
7.8928845669
 21
8.2288049915
 31
0.0
 11
7.8898050936
 21
8.2288942309
 31
0.0
 11
7.8868866821
 21
8.2289647295
 31
0.0
 11
7.8841402867
 21
8.2290195699
 31
0.0
 11
7.8815768618
 21
8.2290618516
 31
0.0
 11
7.8792073589
 21
8.2290946738
 31
0.0
 11
7.8770422011
 21
8.2291210468
 31
0.0
 11
7.8750906976
 21
8.2291437941
 31
0.0
 11
7.8733620163
 21
8.2291657157
 31
0.0
 11
7.8718653254
 21
8.2291896114
 31
0.0
 11
7.870608885
 21
8.2292180127
 31
0.0
 11
7.8700724469
 21
8.2292344301
 31
0.0
 11
7.8695979751
 21
8.2292525705
 31
0.0
 11
7.8691860533
 21
8.2292726175
 31
0.0
 11
7.868837265
 21
8.2292947551
 31
0.0
 11
7.8685521941
 21
8.229319167
 31
0.0
 11
7.868331424
 21
8.229346037
 31
0.0
  0
SPLINE
  5
234
100
AcDbEntity
  8
0
100
AcDbSpline
 62
6
  6
CONTINUOUS
 70
0
 71
3
 72
32
 73
28
 74
26
 42
0.0000001
 43
0.0000001
 44
0.0000000001
 12
0.0366985366
 22
0.0212942542
 32
0.0
 13
0.0424179341
 23
-0.0009729922
 33
0.0
 40
0.0
 40
0.0
 40
0.0
 40
0.0
 40
0.0006136051
 40
0.0013555113
 40
0.0032348732
 40
0.0056512483
 40
0.0086094761
 40
0.0121115687
 40
0.0161582244
 40
0.0258818641
 40
0.037753885
 40
0.0517360293
 40
0.0677888594
 40
0.0858723572
 40
0.1059461843
 40
0.127969814
 40
0.1518994512
 40
0.1776820832
 40
0.2345875593
 40
0.2982494722
 40
0.3682324013
 40
0.4441124217
 40
0.5254742617
 40
0.6119041012
 40
0.7029885374
 40
0.798310789
 40
1.0
 40
1.0
 40
1.0
 40
1.0
 10
7.8680897689
 20
8.2294790857
 30
0.0
 10
7.8680972751
 20
8.2294834411
 30
0.0
 10
7.8681144559
 20
8.2294920265
 30
0.0
 10
7.868156822
 20
8.2295093557
 30
0.0
 10
7.8682248582
 20
8.22953083
 30
0.0
 10
7.868324292
 20
8.2295561605
 30
0.0
 10
7.8684470667
 20
8.2295825089
 30
0.0
 10
7.8685931379
 20
8.2296098628
 30
0.0
 10
7.868834098
 20
8.2296500996
 30
0.0
 10
7.8691931349
 20
8.2297015239
 30
0.0
 10
7.8696924918
 20
8.229763547
 30
0.0
 10
7.870281632
 20
8.2298284785
 30
0.0
 10
7.8709588371
 20
8.2298958748
 30
0.0
 10
7.8717223947
 20
8.2299652608
 30
0.0
 10
7.8725705809
 20
8.2300361973
 30
0.0
 10
7.8735016257
 20
8.2301082468
 30
0.0
 10
7.8745135849
 20
8.2301809544
 30
0.0
 10
7.8760181447
 20
8.2302813189
 30
0.0
 10
7.878084384
 20
8.2304037848
 30
0.0
 10
7.8807759516
 20
8.2305395735
 30
0.0
 10
7.8837366973
 20
8.2306638249
 30
0.0
 10
7.8869485658
 20
8.2307718333
 30
0.0
 10
7.890393762
 20
8.2308589326
 30
0.0
 10
7.8940545818
 20
8.2309204676
 30
0.0
 10
7.8979132435
 20
8.2309517831
 30
0.0
 10
7.90340214
 20
8.2309486
 30
0.0
 10
7.9076026753
 20
8.2308898783
 30
0.0
 10
7.9104544219
 20
8.2308244643
 30
0.0
 11
7.8680897689
 21
8.2294790857
 31
0.0
 11
7.8681129469
 21
8.2294909426
 31
0.0
 11
7.868142011
 21
8.2295030326
 31
0.0
 11
7.8682177716
 21
8.2295279071
 31
0.0
 11
7.8683169988
 21
8.2295536995
 31
0.0
 11
7.8684396408
 21
8.2295804004
 31
0.0
 11
7.8685856457
 21
8.2296080002
 31
0.0
 11
7.8687549615
 21
8.2296364894
 31
0.0
 11
7.8691632022
 21
8.2296960677
 31
0.0
 11
7.8696629983
 21
8.2297588114
 31
0.0
 11
7.8702526221
 21
8.2298243017
 31
0.0
 11
7.8709303444
 21
8.2298921195
 31
0.0
 11
7.871694436
 21
8.2299618458
 31
0.0
 11
7.8725431677
 21
8.2300330614
 31
0.0
 11
7.8734748102
 21
8.2301053472
 31
0.0
 11
7.8744875027
 21
8.2301782447
 31
0.0
 11
7.8755790022
 21
8.230251181
 31
0.0
 11
7.8779891749
 21
8.2303947955
 31
0.0
 11
7.8806868334
 21
8.2305314422
 31
0.0
 11
7.8836535161
 21
8.2306563766
 31
0.0
 11
7.8868712065
 21
8.2307649107
 31
0.0
 11
7.8903222067
 21
8.2308523969
 31
0.0
 11
7.8939888257
 21
8.2309141884
 31
0.0
 11
7.8978533262
 21
8.2309458233
 31
0.0
 11
7.9018977622
 21
8.2309436749
 31
0.0
 11
7.9104544219
 21
8.2308244643
 31
0.0
  0
SPLINE
  5
235
100
AcDbEntity
  8
0
100
AcDbSpline
 62
6
  6
CONTINUOUS
 70
0
 71
3
 72
45
 73
41
 74
39
 42
0.0000001
 43
0.0000001
 44
0.0000000001
 12
-0.3309714909
 22
-0.573259438
 32
0.0
 13
0.3309714909
 23
-0.573259438
 33
0.0
 40
0.0
 40
0.0
 40
0.0
 40
0.0
 40
0.0317953487
 40
0.0635227243
 40
0.1267465766
 40
0.1582434108
 40
0.1896577814
 40
0.2209883663
 40
0.2522390628
 40
0.2834141371
 40
0.3145139115
 40
0.3455436998
 40
0.3610364239
 40
0.3765154328
 40
0.4074340926
 40
0.4228777482
 40
0.4383124741
 40
0.4537401845
 40
0.4691628898
 40
0.4845823004
 40
0.5000000669
 40
0.5154178341
 40
0.5308372464
 40
0.5462599538
 40
0.5616876641
 40
0.5771223854
 40
0.592566034
 40
0.6234846803
 40
0.6389636853
 40
0.6544564086
 40
0.6854861829
 40
0.7165859317
 40
0.7477609825
 40
0.7790116635
 40
0.810342231
 40
0.8417565844
 40
0.8732534049
 40
0.9364772612
 40
0.9682046464
 40
1.0
 40
1.0
 40
1.0
 40
1.0
 10
9.1050327295
 20
9.2349783559
 30
0.0
 10
9.1015249449
 20
9.2289026946
 30
0.0
 10
9.0946308679
 20
9.2166978916
 30
0.0
 10
9.0813761013
 20
9.1920707857
 30
0.0
 10
9.0689661962
 20
9.1670680992
 30
0.0
 10
9.0575505126
 20
9.1416827023
 30
0.0
 10
9.0495418446
 20
9.1224894522
 30
0.0
 10
9.0421177244
 20
9.1031204808
 30
0.0
 10
9.0353204903
 20
9.0835781339
 30
0.0
 10
9.0291922974
 20
9.0638686124
 30
0.0
 10
9.0237734
 20
9.044002621
 30
0.0
 10
9.0198812257
 20
9.0273188999
 30
0.0
 10
9.0171651708
 20
9.0139099064
 30
0.0
 10
9.0147208337
 20
9.0004737713
 30
0.0
 10
9.0126852883
 20
8.9869766847
 30
0.0
 10
9.0110736968
 20
8.9734361108
 30
0.0
 10
9.0100805821
 20
8.9632663383
 30
0.0
 10
9.0093061917
 20
8.9530822462
 30
0.0
 10
9.0087532501
 20
8.9428870952
 30
0.0
 10
9.008421446
 20
8.9326845569
 30
0.0
 10
9.0083108584
 20
8.9224783114
 30
0.0
 10
9.0084214571
 20
8.9122720657
 30
0.0
 10
9.0087532675
 20
8.9020695266
 30
0.0
 10
9.0093062043
 20
8.8918743746
 30
0.0
 10
9.0100805798
 20
8.8816902819
 30
0.0
 10
9.0110736945
 20
8.871520512
 30
0.0
 10
9.0126852926
 20
8.8579799443
 30
0.0
 10
9.0147208506
 20
8.8444828651
 30
0.0
 10
9.0171651929
 20
8.8310467351
 30
0.0
 10
9.0198812386
 20
8.817637744
 30
0.0
 10
9.0237734063
 20
8.8009540304
 30
0.0
 10
9.0291923056
 20
8.7810880538
 30
0.0
 10
9.0353205016
 20
8.7613785482
 30
0.0
 10
9.0421177334
 20
8.7418362138
 30
0.0
 10
9.0495418502
 20
8.7224672529
 30
0.0
 10
9.0575505133
 20
8.7032740123
 30
0.0
 10
9.0689661908
 20
8.6778886192
 30
0.0
 10
9.0813760959
 20
8.6528859327
 30
0.0
 10
9.0946308655
 20
8.6282588238
 30
0.0
 10
9.1015249443
 20
8.6160540181
 30
0.0
 10
9.1050327295
 20
8.6099783559
 30
0.0
 11
9.1050327295
 21
9.2349783559
 31
0.0
 11
9.0946863917
 21
9.2166503115
 31
0.0
 11
9.0847381224
 21
9.1981542604
 31
0.0
 11
9.0661747881
 21
9.1606459398
 31
0.0
 11
9.0576301521
 21
9.1416281977
 31
0.0
 11
9.049629036
 21
9.1224345974
 31
0.0
 11
9.0422131295
 21
9.1030667639
 31
0.0
 11
9.0354241211
 21
9.0835263603
 31
0.0
 11
9.029303581
 21
9.0638187854
 31
0.0
 11
9.0238928625
 21
9.0439562845
 31
0.0
 11
9.0192332956
 21
9.0239518349
 31
0.0
 11
9.0171979844
 21
9.0139005321
 31
0.0
 11
9.015364591
 21
9.0038196731
 31
0.0
 11
9.0123168905
 21
8.9835814756
 31
0.0
 11
9.0111092421
 21
8.9734302382
 31
0.0
 11
9.010116834
 21
8.9632616421
 31
0.0
 11
9.0093429899
 21
8.9530787391
 31
0.0
 11
9.0087900576
 21
8.9428847724
 31
0.0
 11
9.0084583023
 21
8.9326833948
 31
0.0
 11
9.0083477214
 21
8.9224783116
 31
0.0
 11
9.0084583126
 21
8.912273228
 31
0.0
 11
9.0087900732
 21
8.9020718494
 31
0.0
 11
9.0093430009
 21
8.8918778811
 31
0.0
 11
9.0101168343
 21
8.8816949773
 31
0.0
 11
9.0111092407
 21
8.8715263842
 31
0.0
 11
9.0123168937
 21
8.8613751519
 31
0.0
 11
9.0153646084
 21
8.8411369656
 31
0.0
 11
9.0171980046
 21
8.8310561097
 31
0.0
 11
9.0192333116
 21
8.8210048067
 31
0.0
 11
9.0238928713
 21
8.8010003648
 31
0.0
 11
9.0293035893
 21
8.7811378813
 31
0.0
 11
9.0354241308
 21
8.7614303233
 31
0.0
 11
9.0422131385
 21
8.7418899302
 31
0.0
 11
9.0496290414
 21
8.7225221077
 31
0.0
 11
9.0576301521
 21
8.7033285175
 31
0.0
 11
9.0661747822
 21
8.6843107827
 31
0.0
 11
9.0847381168
 21
8.6468024593
 31
0.0
 11
9.0946863898
 21
8.6283064029
 31
0.0
 11
9.1050327295
 21
8.6099783559
 31
0.0
  0
SPLINE
  5
236
100
AcDbEntity
  8
0
100
AcDbSpline
 62
9
  6
CONTINUOUS
 70
0
 71
3
 72
40
 73
36
 74
34
 42
0.0000001
 43
0.0000001
 44
0.0000000001
 12
-0.2884991792
 22
0.0
 32
0.0
 13
0.0
 23
-0.2884991792
 33
0.0
 40
0.0
 40
0.0
 40
0.0
 40
0.0
 40
0.0636344188
 40
0.0955168731
 40
0.1274093597
 40
0.1592911594
 40
0.1911423957
 40
0.207051896
 40
0.2229476786
 40
0.2546954956
 40
0.2863877692
 40
0.3180236732
 40
0.349602234
 40
0.3811228404
 40
0.4125857535
 40
0.4439915947
 40
0.475339108
 40
0.506626244
 40
0.5378509405
 40
0.569011683
 40
0.6001080709
 40
0.6311415052
 40
0.6621153866
 40
0.6930329227
 40
0.7238969278
 40
0.754710359
 40
0.7854768579
 40
0.8008452163
 40
0.8162038096
 40
0.8468925644
 40
0.8775517737
 40
0.9081868128
 40
0.9388027988
 40
0.9694051254
 40
1.0
 40
1.0
 40
1.0
 40
1.0
 10
7.0048679944
 20
8.7808003362
 30
0.0
 10
6.9987485018
 20
8.7808003362
 30
0.0
 10
6.9895553997
 20
8.7803617808
 30
0.0
 10
6.9773850639
 20
8.7789202363
 30
0.0
 10
6.9683069078
 20
8.7774115939
 30
0.0
 10
6.9593128649
 20
8.7754797086
 30
0.0
 10
6.9519058986
 20
8.7735190002
 30
0.0
 10
6.9460474722
 20
8.7717415754
 30
0.0
 10
6.9402427995
 20
8.7698272903
 30
0.0
 10
6.9330845524
 20
8.7671785047
 30
0.0
 10
6.924667671
 20
8.7635987559
 30
0.0
 10
6.9164456599
 20
8.7596286871
 30
0.0
 10
6.908437358
 20
8.7552779811
 30
0.0
 10
6.900661406
 20
8.7505563365
 30
0.0
 10
6.8931367469
 20
8.7454732314
 30
0.0
 10
6.8858820261
 20
8.7400394941
 30
0.0
 10
6.8789128393
 20
8.734270586
 30
0.0
 10
6.8722452091
 20
8.728181426
 30
0.0
 10
6.8658950823
 20
8.7217870956
 30
0.0
 10
6.8598784895
 20
8.7151025928
 30
0.0
 10
6.8542112795
 20
8.7081430225
 30
0.0
 10
6.848910003
 20
8.700923061
 30
0.0
 10
6.8439859321
 20
8.6934613884
 30
0.0
 10
6.8394488377
 20
8.6857772177
 30
0.0
 10
6.8353087667
 20
8.6778894342
 30
0.0
 10
6.8315757504
 20
8.6698171481
 30
0.0
 10
6.8288113244
 20
8.6629493551
 30
0.0
 10
6.82681389
 20
8.6573827093
 30
0.0
 10
6.8249617683
 20
8.6517739173
 30
0.0
 10
6.8229176464
 20
8.6446825883
 30
0.0
 10
6.8209022989
 20
8.6360657308
 30
0.0
 10
6.8193285396
 20
8.6273644118
 30
0.0
 10
6.8181999054
 20
8.6185997127
 30
0.0
 10
6.8175198984
 20
8.6097929283
 30
0.0
 10
6.8173679944
 20
8.6039067029
 30
0.0
 10
6.8173679944
 20
8.6009645041
 30
0.0
 11
7.0048679944
 21
8.7808003362
 31
0.0
 11
6.986530112
 21
8.7799309854
 31
0.0
 11
6.9773958732
 21
8.7788493086
 31
0.0
 11
6.9683194283
 21
8.7773407526
 31
0.0
 11
6.9593267712
 21
8.7754086584
 31
0.0
 11
6.9504438962
 21
8.7730563672
 31
0.0
 11
6.946051749
 21
8.771723693
 31
0.0
 11
6.9416965374
 21
8.7702874491
 31
0.0
 11
6.9331065372
 21
8.7671088973
 31
0.0
 11
6.9246927422
 21
8.7635303406
 31
0.0
 11
6.9164739222
 21
8.7595614755
 31
0.0
 11
6.9084688467
 21
8.7552119983
 31
0.0
 11
6.9006962853
 21
8.7504916057
 31
0.0
 11
6.893175004
 21
8.7454100012
 31
0.0
 11
6.8859229955
 21
8.7399784168
 31
0.0
 11
6.878956527
 21
8.7342114937
 31
0.0
 11
6.8722916324
 21
8.7281243345
 31
0.0
 11
6.8659443455
 21
8.7217320418
 31
0.0
 11
6.8599307
 21
8.7150497184
 31
0.0
 11
6.8542667299
 21
8.7080924667
 31
0.0
 11
6.8489679567
 21
8.7008757247
 31
0.0
 11
6.8440461165
 21
8.6934174071
 31
0.0
 11
6.8395112485
 21
8.6857365392
 31
0.0
 11
6.835373384
 21
8.6778521515
 31
0.0
 11
6.8316425544
 21
8.6697832742
 31
0.0
 11
6.8283287909
 21
8.6615489379
 31
0.0
 11
6.8268314437
 21
8.6573756696
 31
0.0
 11
6.8254420552
 21
8.653168195
 31
0.0
 11
6.8229896049
 21
8.6446609541
 31
0.0
 11
6.8209751843
 21
8.6360482364
 31
0.0
 11
6.8194023033
 21
8.6273511371
 31
0.0
 11
6.8182744715
 21
8.6185907518
 31
0.0
 11
6.8175951986
 21
8.6097881756
 31
0.0
 11
6.8173679944
 21
8.6009645041
 31
0.0
  0
SPLINE
  5
237
100
AcDbEntity
  8
0
100
AcDbSpline
 62
6
  6
CONTINUOUS
 70
0
 71
3
 72
14
 73
10
 74
8
 42
0.0000001
 43
0.0000001
 44
0.0000000001
 12
-0.0438598906
 22
0.003209868
 32
0.0
 13
-0.0437602184
 23
0.0043630885
 33
0.0
 40
0.0
 40
0.0
 40
0.0
 40
0.0
 40
0.2735565219
 40
0.4070051144
 40
0.5368309111
 40
0.6619913923
 40
0.781519401
 40
0.8944940621
 40
1.0
 40
1.0
 40
1.0
 40
1.0
 10
7.9437219957
 20
8.2273388691
 30
0.0
 10
7.9397226094
 20
8.2276315625
 30
0.0
 10
7.9337722968
 20
8.2280682911
 30
0.0
 10
7.9259252093
 20
8.2286610299
 30
0.0
 10
7.9202481944
 20
8.2291017603
 30
0.0
 10
7.914775869
 20
8.2295424138
 30
0.0
 10
7.9095513803
 20
8.2299828809
 30
0.0
 10
7.9046160531
 20
8.2304229825
 30
0.0
 10
7.9014277937
 20
8.230727348
 30
0.0
 10
7.8998888061
 20
8.2308807919
 30
0.0
 11
7.9437219957
 21
8.2273388691
 31
0.0
 11
7.9317243807
 21
8.2282243519
 31
0.0
 11
7.9258724108
 21
8.2286670922
 31
0.0
 11
7.9201802289
 21
8.2291098279
 31
0.0
 11
7.9146938569
 21
8.2295525566
 31
0.0
 11
7.9094560285
 21
8.2299952854
 31
0.0
 11
7.9045074867
 21
8.2304380266
 31
0.0
 11
7.8998888061
 21
8.2308807919
 31
0.0
  0
SPLINE
  5
238
100
AcDbEntity
  8
0
100
AcDbSpline
 62
6
  6
CONTINUOUS
 70
0
 71
3
 72
45
 73
41
 74
39
 42
0.0000001
 43
0.0000001
 44
0.0000000001
 12
-0.3309714909
 22
-0.573259438
 32
0.0
 13
0.3309714909
 23
-0.573259438
 33
0.0
 40
0.0
 40
0.0
 40
0.0
 40
0.0
 40
0.0317953487
 40
0.0635227243
 40
0.1267465766
 40
0.1582434108
 40
0.1896577814
 40
0.2209883663
 40
0.2522390628
 40
0.2834141371
 40
0.3145139115
 40
0.3455436998
 40
0.3610364239
 40
0.3765154328
 40
0.4074340926
 40
0.4228777482
 40
0.4383124741
 40
0.4537401845
 40
0.4691628898
 40
0.4845823004
 40
0.5000000669
 40
0.5154178341
 40
0.5308372464
 40
0.5462599538
 40
0.5616876641
 40
0.5771223854
 40
0.592566034
 40
0.6234846803
 40
0.6389636853
 40
0.6544564086
 40
0.6854861829
 40
0.7165859317
 40
0.7477609825
 40
0.7790116635
 40
0.810342231
 40
0.8417565844
 40
0.8732534049
 40
0.9364772612
 40
0.9682046464
 40
1.0
 40
1.0
 40
1.0
 40
1.0
 10
9.1050327295
 20
8.6099783559
 30
0.0
 10
9.1015249449
 20
8.6039026946
 30
0.0
 10
9.0946308679
 20
8.5916978916
 30
0.0
 10
9.0813761013
 20
8.5670707857
 30
0.0
 10
9.0689661962
 20
8.5420680992
 30
0.0
 10
9.0575505126
 20
8.5166827023
 30
0.0
 10
9.0495418446
 20
8.4974894522
 30
0.0
 10
9.0421177244
 20
8.4781204808
 30
0.0
 10
9.0353204903
 20
8.4585781339
 30
0.0
 10
9.0291922974
 20
8.4388686124
 30
0.0
 10
9.0237734
 20
8.419002621
 30
0.0
 10
9.0198812257
 20
8.4023188999
 30
0.0
 10
9.0171651708
 20
8.3889099064
 30
0.0
 10
9.0147208337
 20
8.3754737713
 30
0.0
 10
9.0126852883
 20
8.3619766847
 30
0.0
 10
9.0110736968
 20
8.3484361108
 30
0.0
 10
9.0100805821
 20
8.3382663383
 30
0.0
 10
9.0093061917
 20
8.3280822462
 30
0.0
 10
9.0087532501
 20
8.3178870952
 30
0.0
 10
9.008421446
 20
8.3076845569
 30
0.0
 10
9.0083108584
 20
8.2974783114
 30
0.0
 10
9.0084214571
 20
8.2872720657
 30
0.0
 10
9.0087532675
 20
8.2770695266
 30
0.0
 10
9.0093062043
 20
8.2668743746
 30
0.0
 10
9.0100805798
 20
8.2566902819
 30
0.0
 10
9.0110736945
 20
8.246520512
 30
0.0
 10
9.0126852926
 20
8.2329799443
 30
0.0
 10
9.0147208506
 20
8.2194828651
 30
0.0
 10
9.0171651929
 20
8.2060467351
 30
0.0
 10
9.0198812386
 20
8.192637744
 30
0.0
 10
9.0237734063
 20
8.1759540304
 30
0.0
 10
9.0291923056
 20
8.1560880538
 30
0.0
 10
9.0353205016
 20
8.1363785482
 30
0.0
 10
9.0421177334
 20
8.1168362138
 30
0.0
 10
9.0495418502
 20
8.0974672529
 30
0.0
 10
9.0575505133
 20
8.0782740123
 30
0.0
 10
9.0689661908
 20
8.0528886192
 30
0.0
 10
9.0813760959
 20
8.0278859327
 30
0.0
 10
9.0946308655
 20
8.0032588238
 30
0.0
 10
9.1015249443
 20
7.9910540181
 30
0.0
 10
9.1050327295
 20
7.9849783559
 30
0.0
 11
9.1050327295
 21
8.6099783559
 31
0.0
 11
9.0946863917
 21
8.5916503115
 31
0.0
 11
9.0847381224
 21
8.5731542604
 31
0.0
 11
9.0661747881
 21
8.5356459398
 31
0.0
 11
9.0576301521
 21
8.5166281977
 31
0.0
 11
9.049629036
 21
8.4974345974
 31
0.0
 11
9.0422131295
 21
8.4780667639
 31
0.0
 11
9.0354241211
 21
8.4585263603
 31
0.0
 11
9.029303581
 21
8.4388187854
 31
0.0
 11
9.0238928625
 21
8.4189562845
 31
0.0
 11
9.0192332956
 21
8.3989518349
 31
0.0
 11
9.0171979844
 21
8.3889005321
 31
0.0
 11
9.015364591
 21
8.3788196731
 31
0.0
 11
9.0123168905
 21
8.3585814756
 31
0.0
 11
9.0111092421
 21
8.3484302382
 31
0.0
 11
9.010116834
 21
8.3382616421
 31
0.0
 11
9.0093429899
 21
8.3280787391
 31
0.0
 11
9.0087900576
 21
8.3178847724
 31
0.0
 11
9.0084583023
 21
8.3076833948
 31
0.0
 11
9.0083477214
 21
8.2974783116
 31
0.0
 11
9.0084583126
 21
8.287273228
 31
0.0
 11
9.0087900732
 21
8.2770718494
 31
0.0
 11
9.0093430009
 21
8.2668778811
 31
0.0
 11
9.0101168343
 21
8.2566949773
 31
0.0
 11
9.0111092407
 21
8.2465263842
 31
0.0
 11
9.0123168937
 21
8.2363751519
 31
0.0
 11
9.0153646084
 21
8.2161369656
 31
0.0
 11
9.0171980046
 21
8.2060561097
 31
0.0
 11
9.0192333116
 21
8.1960048067
 31
0.0
 11
9.0238928713
 21
8.1760003648
 31
0.0
 11
9.0293035893
 21
8.1561378813
 31
0.0
 11
9.0354241308
 21
8.1364303233
 31
0.0
 11
9.0422131385
 21
8.1168899302
 31
0.0
 11
9.0496290414
 21
8.0975221077
 31
0.0
 11
9.0576301521
 21
8.0783285175
 31
0.0
 11
9.0661747822
 21
8.0593107827
 31
0.0
 11
9.0847381168
 21
8.0218024593
 31
0.0
 11
9.0946863898
 21
8.0033064029
 31
0.0
 11
9.1050327295
 21
7.9849783559
 31
0.0
  0
SPLINE
  5
239
100
AcDbEntity
  8
0
100
AcDbSpline
 62
9
  6
CONTINUOUS
 70
0
 71
3
 72
40
 73
36
 74
34
 42
0.0000001
 43
0.0000001
 44
0.0000000001
 12
0.0
 22
0.2884991792
 32
0.0
 13
-0.2884991792
 23
-0.0
 33
0.0
 40
0.0
 40
0.0
 40
0.0
 40
0.0
 40
0.0305948746
 40
0.0611972012
 40
0.0918131872
 40
0.1224482263
 40
0.1531074356
 40
0.1837961904
 40
0.1991547837
 40
0.2145231421
 40
0.245289641
 40
0.2761030722
 40
0.3069670773
 40
0.3378846134
 40
0.3688584948
 40
0.3998919291
 40
0.430988317
 40
0.4621490595
 40
0.493373756
 40
0.524660892
 40
0.5560084053
 40
0.5874142465
 40
0.6188771596
 40
0.650397766
 40
0.6819763268
 40
0.7136122308
 40
0.7453045044
 40
0.7770523214
 40
0.792948104
 40
0.8088576043
 40
0.8407088406
 40
0.8725906403
 40
0.9044831269
 40
0.9363655812
 40
1.0
 40
1.0
 40
1.0
 40
1.0
 10
7.1923679944
 20
8.6009645041
 30
0.0
 10
7.1923679944
 20
8.6039067029
 30
0.0
 10
7.1922160903
 20
8.6097929283
 30
0.0
 10
7.1915360833
 20
8.6185997127
 30
0.0
 10
7.1904074491
 20
8.6273644118
 30
0.0
 10
7.1888336898
 20
8.6360657308
 30
0.0
 10
7.1868183423
 20
8.6446825883
 30
0.0
 10
7.1847742204
 20
8.6517739173
 30
0.0
 10
7.1829220987
 20
8.6573827093
 30
0.0
 10
7.1809246643
 20
8.6629493551
 30
0.0
 10
7.1781602383
 20
8.6698171481
 30
0.0
 10
7.174427222
 20
8.6778894342
 30
0.0
 10
7.170287151
 20
8.6857772177
 30
0.0
 10
7.1657500566
 20
8.6934613884
 30
0.0
 10
7.1608259857
 20
8.700923061
 30
0.0
 10
7.1555247092
 20
8.7081430225
 30
0.0
 10
7.1498574992
 20
8.7151025928
 30
0.0
 10
7.1438409064
 20
8.7217870956
 30
0.0
 10
7.1374907796
 20
8.728181426
 30
0.0
 10
7.1308231494
 20
8.734270586
 30
0.0
 10
7.1238539626
 20
8.7400394941
 30
0.0
 10
7.1165992418
 20
8.7454732314
 30
0.0
 10
7.1090745827
 20
8.7505563365
 30
0.0
 10
7.1012986307
 20
8.7552779811
 30
0.0
 10
7.0932903288
 20
8.7596286871
 30
0.0
 10
7.0850683177
 20
8.7635987559
 30
0.0
 10
7.0766514363
 20
8.7671785047
 30
0.0
 10
7.0694931892
 20
8.7698272903
 30
0.0
 10
7.0636885165
 20
8.7717415754
 30
0.0
 10
7.0578300901
 20
8.7735190002
 30
0.0
 10
7.0504231238
 20
8.7754797086
 30
0.0
 10
7.0414290809
 20
8.7774115939
 30
0.0
 10
7.0323509248
 20
8.7789202363
 30
0.0
 10
7.020180589
 20
8.7803617808
 30
0.0
 10
7.0109874869
 20
8.7808003362
 30
0.0
 10
7.0048679944
 20
8.7808003362
 30
0.0
 11
7.1923679944
 21
8.6009645041
 31
0.0
 11
7.1921407901
 21
8.6097881756
 31
0.0
 11
7.1914615172
 21
8.6185907518
 31
0.0
 11
7.1903336854
 21
8.6273511371
 31
0.0
 11
7.1887608044
 21
8.6360482364
 31
0.0
 11
7.1867463838
 21
8.6446609541
 31
0.0
 11
7.1842939335
 21
8.653168195
 31
0.0
 11
7.182904545
 21
8.6573756696
 31
0.0
 11
7.1814071978
 21
8.6615489379
 31
0.0
 11
7.1780934343
 21
8.6697832742
 31
0.0
 11
7.1743626047
 21
8.6778521515
 31
0.0
 11
7.1702247402
 21
8.6857365392
 31
0.0
 11
7.1656898722
 21
8.6934174071
 31
0.0
 11
7.160768032
 21
8.7008757247
 31
0.0
 11
7.1554692588
 21
8.7080924667
 31
0.0
 11
7.1498052887
 21
8.7150497184
 31
0.0
 11
7.1437916432
 21
8.7217320418
 31
0.0
 11
7.1374443563
 21
8.7281243345
 31
0.0
 11
7.1307794617
 21
8.7342114937
 31
0.0
 11
7.1238129932
 21
8.7399784168
 31
0.0
 11
7.1165609847
 21
8.7454100012
 31
0.0
 11
7.1090397034
 21
8.7504916057
 31
0.0
 11
7.101267142
 21
8.7552119983
 31
0.0
 11
7.0932620665
 21
8.7595614755
 31
0.0
 11
7.0850432465
 21
8.7635303406
 31
0.0
 11
7.0766294515
 21
8.7671088973
 31
0.0
 11
7.0680394513
 21
8.7702874491
 31
0.0
 11
7.0636842397
 21
8.771723693
 31
0.0
 11
7.0592920925
 21
8.7730563672
 31
0.0
 11
7.0504092175
 21
8.7754086584
 31
0.0
 11
7.0414165605
 21
8.7773407526
 31
0.0
 11
7.0323401155
 21
8.7788493086
 31
0.0
 11
7.0232058767
 21
8.7799309854
 31
0.0
 11
7.0048679944
 21
8.7808003362
 31
0.0
  0
ENDSEC
  0
SECTION
  2
OBJECTS
  0
DICTIONARY
  5
C
100
AcDbDictionary
280
0
281
1
  3
ACAD_GROUP
350
D
  3
ACAD_MLINESTYLE
350
17
  3
ACAD_LAYOUT
350
1A
  3
ACAD_PLOTSETTINGS
350
19
  3
ACAD_PLOTSTYLENAME
350
E
  0
DICTIONARY
  5
D
102
{ACAD_REACTORS
330
C
102
}
100
AcDbDictionary
280
0
281
1
  0
ACDBDICTIONARYWDFLT
  5
E
102
{ACAD_REACTORS
330
C
102
}
100
AcDbDictionary
281
1
  3
Normal
350
F
100
AcDbDictionaryWithDefault
340
F
  0
DICTIONARY
  5
17
102
{ACAD_REACTORS
330
C
102
}
100
AcDbDictionary
280
0
281
1
  3
Standard
350
18
  0
DICTIONARY
  5
19
102
{ACAD_REACTORS
330
C
102
}
100
AcDbDictionary
281
1
  0
DICTIONARY
  5
1A
102
{ACAD_REACTORS
330
C
102
}
100
AcDbDictionary
281
1
  3
Model
350
23A
  3
Layout1
350
23B
  0
ACDBPLACEHOLDER
  5
F
102
{ACAD_REACTORS
330
E
102
}
  0
MLINESTYLE
  5
18
102
{ACAD_REACTORS
330
17
102
}
100
AcDbMlineStyle
  2
STANDARD
 70
0
  3

 62
256
 51
90.0
 52
90.0
 71
2
 49
0.5
 62
256
  6
BYLAYER
 49
-0.5
 62
256
  6
BYLAYER
  0
LAYOUT
  5
23A
102
{ACAD_REACTORS
330
1A
102
}
100
AcDbPlotSettings
  1

  2
none_device
  4
ISO_A3_(420.00_x_297.00_MM)
  6

 40
0.0
 41
0.0
 42
0.0
 43
0.0
 44
420.0
 45
297.0
 46
0.0
 47
0.0
 48
0.0
 49
0.0
140
0.0
141
0.0
142
1.0
143
1.0
 70
1024
 72
0
 73
0
 74
0
  7

 75
0
147
1.0
148
0.0
149
0.0
100
AcDbLayout
  1
Model
 70
0
 71
0
 10
0.0
 20
0.0
 11
16.5354330709
 21
11.6929133858
 12
0.0
 22
0.0
 32
0.0
 14
0.0
 24
0.0
 34
0.0
 15
0.0
 25
0.0
 35
0.0
146
0.0
 13
0.0
 23
0.0
 33
0.0
 16
1.0
 26
0.0
 36
0.0
 17
0.0
 27
1.0
 37
0.0
 76
0
330
203
345
0
346
0
  0
LAYOUT
  5
23B
102
{ACAD_REACTORS
330
1A
102
}
100
AcDbPlotSettings
  1

  2
none_device
  4
ISO_A3_(420.00_x_297.00_MM)
  6

 40
0.0
 41
0.0
 42
0.0
 43
0.0
 44
420.0
 45
297.0
 46
0.0
 47
0.0
 48
0.0
 49
0.0
140
0.0
141
0.0
142
1.0
143
1.0
 70
0
 72
0
 73
0
 74
0
  7

 75
0
147
1.0
148
0.0
149
0.0
100
AcDbLayout
  1
Layout1
 70
0
 71
1
 10
0.0
 20
0.0
 11
16.5354330709
 21
11.6929133858
 12
0.0
 22
0.0
 32
0.0
 14
0.0
 24
0.0
 34
0.0
 15
0.0
 25
0.0
 35
0.0
146
0.0
 13
0.0
 23
0.0
 33
0.0
 16
1.0
 26
0.0
 36
0.0
 17
0.0
 27
1.0
 37
0.0
 76
0
330
204
345
0
346
0
  0
ENDSEC
  0
EOF
