  0
SECTION
  2
HEADER
  9
$ACADVER
  1
AC1021
  9
$DWGCODEPAGE
  3
ANSI_1252
  9
$EXTMAX
 10
16.5354330709
 20
11.6929133858
 30
0.0
  9
$EXTMIN
 10
0.0
 20
0.0
 30
0.0
  9
$LIMMIN
 10
0.0
 20
0.0
  9
$LIMMAX
 10
16.5354330709
 20
11.6929133858
  9
$VIEWCTR
 10
8.2677165354
 20
5.8464566929
  9
$VIEWSIZE
 40
11.6929133858
  9
$CLAYER
  8
0
  9
$LTSCALE
 40
0.9094488189
  9
$CELTYPE
  6
BYLAYER
  9
$DIMSCALE
 40
1.0
  9
$DIMASZ
 40
0.1
  9
$DIMEXO
 40
0.1033464567
  9
$DIMDLI
 40
0.6283464567
  9
$DIMEXE
 40
0.2976377953
  9
$DIMCEN
 40
0.1488188976
  9
$DIMLFAC
 40
1.0
  9
$DIMBLK
  1
_FILLED
  9
$DIMTXT
 40
0.08
  9
$DIMTOL
 70
1
  9
$DIMLIM
 70
0
  9
$DIMTFAC
 40
1.0
  9
$DIMTP
 40
0.001
  9
$DIMTM
 40
0.001
  9
$PDMODE
 70
3
  9
$PDSIZE
 40
0.06
  9
$HANDSEED
  5
236
  9
$TILEMODE
 70
1
  9
$MEASUREMENT
 70
0
  9
$INSUNITS
 70
1
  0
ENDSEC
  0
SECTION
  2
CLASSES
  0
CLASS
  1
ACDBDICTIONARYWDFLT
  2
AcDbDictionaryWithDefault
  3
AutoCAD 2000
 90
0
 91
1
280
0
281
0
  0
CLASS
  1
ACDBPLACEHOLDER
  2
AcDbPlaceHolder
  3
AutoCAD 2000
 90
0
 91
1
280
0
281
0
  0
CLASS
  1
LAYOUT
  2
AcDbLayout
  3
AutoCAD 2000
 90
0
 91
0
280
0
281
0
  0
ENDSEC
  0
SECTION
  2
TABLES
  0
TABLE
  2
VPORT
  5
8
100
AcDbSymbolTable
 70
2
  0
VPORT
  5
1F4
100
AcDbSymbolTableRecord
100
AcDbViewportTableRecord
  2
*ACTIVE
 70
0
 10
0.0
 20
0.0
 11
1.0
 21
1.0
 12
8.2677165354
 22
5.8464566929
 13
0.0
 23
0.0
 14
1.0
 24
1.0
 15
0.0
 25
0.0
 16
0.0
 26
0.0
 36
1.0
 17
0.0
 27
0.0
 37
0.0
 40
11.6929133858
 41
1.4141414141
 42
50.0
 43
0.0
 44
0.0
 50
0.0
 51
0.0
 71
0
 72
100
 73
1
 74
1
 75
0
 76
0
 77
0
 78
0
  0
ENDTAB
  0
TABLE
  2
LTYPE
  5
5
100
AcDbSymbolTable
 70
6
  0
LTYPE
  5
14
100
AcDbSymbolTableRecord
100
AcDbLinetypeTableRecord
  2
BYBLOCK
 70
0
  3

 72
65
 73
0
 40
0.0
  0
LTYPE
  5
15
100
AcDbSymbolTableRecord
100
AcDbLinetypeTableRecord
  2
BYLAYER
 70
0
  3

 72
65
 73
0
 40
0.0
  0
LTYPE
  5
16
100
AcDbSymbolTableRecord
100
AcDbLinetypeTableRecord
  2
CONTINUOUS
 70
64
  3
Solid line
 72
65
 73
0
 40
0.0
  0
LTYPE
  5
1F5
100
AcDbSymbolTableRecord
100
AcDbLinetypeTableRecord
  2
CENTER
 70
64
  3
____ _ ____ _ ____ _ ____ _ ____ _ ____ _ ____
 72
65
 73
4
 40
0.6
 49
0.375
 74
0
 49
-0.075
 74
0
 49
0.075
 74
0
 49
-0.075
 74
0
  0
LTYPE
  5
1F6
100
AcDbSymbolTableRecord
100
AcDbLinetypeTableRecord
  2
HIDDEN
 70
64
  3
- - - - - - - - - - - - - - - - - - - -
 72
65
 73
2
 40
0.2
 49
0.1
 74
0
 49
-0.1
 74
0
  0
LTYPE
  5
1F7
100
AcDbSymbolTableRecord
100
AcDbLinetypeTableRecord
  2
PHANTOM
 70
64
  3
_____ _ _ _____ _ _ _____ _ _ _____
 72
65
 73
6
 40
0.8
 49
0.45
 74
0
 49
-0.05
 74
0
 49
0.1
 74
0
 49
-0.05
 74
0
 49
0.1
 74
0
 49
-0.05
 74
0
  0
LTYPE
  5
1F8
100
AcDbSymbolTableRecord
100
AcDbLinetypeTableRecord
  2
DOT
 70
64
  3
. . . . . . . . . . . . . . . . . . . .
 72
65
 73
2
 40
0.2
 49
0.1
 74
0
 49
-0.1
 74
0
  0
LTYPE
  5
1F9
100
AcDbSymbolTableRecord
100
AcDbLinetypeTableRecord
  2
DASHED
 70
64
  3
- - - - - - - - - - - - - - - - - - - -
 72
65
 73
2
 40
0.2
 49
0.1
 74
0
 49
-0.1
 74
0
  0
ENDTAB
  0
TABLE
  2
LAYER
  5
2
100
AcDbSymbolTable
 70
36
  0
LAYER
  5
10
100
AcDbSymbolTableRecord
100
AcDbLayerTableRecord
  2
0
 70
0
 62
7
  6
CONTINUOUS
370
-3
390
F
  0
LAYER
  5
1FA
100
AcDbSymbolTableRecord
100
AcDbLayerTableRecord
  2
DEFAULT_1
 70
0
 62
7
  6
CENTER
370
-3
390
F
  0
LAYER
  5
1FB
100
AcDbSymbolTableRecord
100
AcDbLayerTableRecord
  2
DEFAULT_2
 70
0
 62
8
  6
HIDDEN
370
-3
390
F
  0
LAYER
  5
1FC
100
AcDbSymbolTableRecord
100
AcDbLayerTableRecord
  2
DEFAULT_3
 70
0
 62
7
  6
PHANTOM
370
-3
390
F
  0
LAYER
  5
1FD
100
AcDbSymbolTableRecord
100
AcDbLayerTableRecord
  2
DEFAULT_COORDINATE_SYSTEM
 70
0
 62
7
  6
CONTINUOUS
370
-3
390
F
  0
LAYER
  5
1FE
100
AcDbSymbolTableRecord
100
AcDbLayerTableRecord
  2
DEFAULT_DATUM_AXES
 70
0
 62
7
  6
CONTINUOUS
370
-3
390
F
  0
LAYER
  5
1FF
100
AcDbSymbolTableRecord
100
AcDbLayerTableRecord
  2
DEFAULT_DATUM_CURVES
 70
0
 62
7
  6
CONTINUOUS
370
-3
390
F
  0
LAYER
  5
200
100
AcDbSymbolTableRecord
100
AcDbLayerTableRecord
  2
DEFAULT_DATUM_PLANES
 70
0
 62
7
  6
CONTINUOUS
370
-3
390
F
  0
ENDTAB
  0
TABLE
  2
STYLE
  5
3
100
AcDbSymbolTable
 70
1
  0
STYLE
  5
11
100
AcDbSymbolTableRecord
100
AcDbTextStyleTableRecord
  2
STANDARD
 70
0
 40
0.0
 41
0.8
 50
0.0
 71
0
 42
0.2
  3
txt
  4

  0
STYLE
  5
201
100
AcDbSymbolTableRecord
100
AcDbTextStyleTableRecord
  2
TEXTSTYLE_1
 70
0
 40
0.0
 41
0.8
 50
0.0
 71
0
 42
0.2
  3
gdt
  4

  0
ENDTAB
  0
TABLE
  2
VIEW
  5
6
100
AcDbSymbolTable
 70
0
  0
ENDTAB
  0
TABLE
  2
UCS
  5
7
100
AcDbSymbolTable
 70
0
  0
ENDTAB
  0
TABLE
  2
APPID
  5
9
100
AcDbSymbolTable
 70
1
  0
APPID
  5
202
100
AcDbSymbolTableRecord
100
AcDbRegAppTableRecord
  2
ACAD
 70
0
  0
ENDTAB
  0
TABLE
  2
BLOCK_RECORD
  5
1
100
AcDbSymbolTable
 70
0
  0
BLOCK_RECORD
  5
203
100
AcDbSymbolTableRecord
100
AcDbBlockTableRecord
  2
*Model_Space
  0
BLOCK_RECORD
  5
204
100
AcDbSymbolTableRecord
100
AcDbBlockTableRecord
  2
*Paper_Space
  0
ENDTAB
  0
TABLE
  2
DIMSTYLE
  5
A
100
AcDbSymbolTable
 70
1
100
AcDbDimStyleTable
 71
0
  0
DIMSTYLE
105
205
100
AcDbSymbolTableRecord
100
AcDbDimStyleTableRecord
  2
STANDARD
 70
0
  3

  4

 40
1.0
 41
0.1
 42
0.0625
 43
0.38
 44
0.18
 45
0.0
 46
0.0
 47
0.001
 48
0.001
140
0.08
141
0.09
142
0.0
143
25.4
144
1.0
145
0.0
146
1.0
147
0.09
 71
1.0
 72
0.0
 73
1
 74
1
 75
0
 76
0
 77
0
 78
4
170
0
171
2
172
0
173
0
174
0
175
0
176
0
177
0
178
0
270
2
271
3
272
3
273
2
274
2
275
0
280
0
281
0
282
0
283
1
284
4
285
0
286
0
287
3
288
0
340
11
  0
ENDTAB
  0
ENDSEC
  0
SECTION
  2
BLOCKS
  0
BLOCK
  5
20
100
AcDbEntity
  8
0
100
AcDbBlockBegin
  2
*Model_Space
 70
0
 10
0.0
 20
0.0
 30
0.0
  3
*Model_Space
  1

  0
ENDBLK
  5
21
100
AcDbEntity
  8
0
100
AcDbBlockEnd
  0
BLOCK
  5
1C
100
AcDbEntity
  8
0
100
AcDbBlockBegin
  2
*Paper_Space
 70
0
 10
0.0
 20
0.0
 30
0.0
  3
*Paper_Space
  1

  0
ENDBLK
  5
1D
100
AcDbEntity
  8
0
100
AcDbBlockEnd
  0
ENDSEC
  0
SECTION
  2
ENTITIES
  0
LINE
  5
206
100
AcDbEntity
  8
0
100
AcDbLine
 62
6
  6
CONTINUOUS
 10
7.6145888152
 20
5.0475485728
 11
5.2920536693
 21
5.0475485728
  0
LINE
  5
207
100
AcDbEntity
  8
0
100
AcDbLine
 62
6
  6
CONTINUOUS
 10
8.7311227687
 20
5.0475485728
 11
11.485355792
 21
5.0475485728
  0
LINE
  5
208
100
AcDbEntity
  8
0
100
AcDbLine
 62
6
  6
CONTINUOUS
 10
7.614528808
 20
5.4225485728
 11
5.2920584642
 21
5.4225485728
  0
LINE
  5
209
100
AcDbEntity
  8
0
100
AcDbLine
 62
6
  6
CONTINUOUS
 10
8.7311827759
 20
5.4225485728
 11
11.485355792
 21
5.4225485728
  0
LINE
  5
20A
100
AcDbEntity
  8
0
100
AcDbLine
 62
6
  6
CONTINUOUS
 10
7.431855792
 20
7.6882674649
 11
7.431855792
 21
7.6262674649
  0
LINE
  5
20B
100
AcDbEntity
  8
0
100
AcDbLine
 62
6
  6
CONTINUOUS
 10
7.4511679555
 20
7.6262674649
 11
7.4511679555
 21
7.335213308
  0
LINE
  5
20C
100
AcDbEntity
  8
0
100
AcDbLine
 62
6
  6
CONTINUOUS
 10
7.847855792
 20
5.7262674649
 11
8.497855792
 21
5.7262674649
  0
LINE
  5
20D
100
AcDbEntity
  8
0
100
AcDbLine
 62
6
  6
CONTINUOUS
 10
7.8120118737
 20
7.6262674649
 11
7.8120118737
 21
7.335213308
  0
LINE
  5
20E
100
AcDbEntity
  8
0
100
AcDbLine
 62
6
  6
CONTINUOUS
 10
7.847855792
 20
5.7262674649
 11
7.7220968112
 21
6.5677404536
  0
LINE
  5
20F
100
AcDbEntity
  8
0
100
AcDbLine
 62
6
  6
CONTINUOUS
 10
8.7767334256
 20
7.2174031051
 11
8.8945436285
 21
7.335213308
  0
LINE
  5
210
100
AcDbEntity
  8
0
100
AcDbLine
 62
9
  6
CONTINUOUS
 10
7.7220968112
 20
6.5677404536
 11
8.6236147727
 21
6.5677404536
  0
LINE
  5
211
100
AcDbEntity
  8
0
100
AcDbLine
 62
6
  6
CONTINUOUS
 10
7.5689781583
 20
7.2174031051
 11
7.4511679555
 21
7.335213308
  0
LINE
  5
212
100
AcDbEntity
  8
0
100
AcDbLine
 62
6
  6
CONTINUOUS
 10
8.5336997102
 20
7.6262674649
 11
8.5336997102
 21
7.335213308
  0
LINE
  5
213
100
AcDbEntity
  8
0
100
AcDbLine
 62
6
  6
CONTINUOUS
 10
8.497855792
 20
5.7262674649
 11
8.6236147727
 21
6.5677404536
  0
LINE
  5
214
100
AcDbEntity
  8
0
100
AcDbLine
 62
9
  6
CONTINUOUS
 10
7.6218043222
 20
6.8013974244
 11
8.7239072617
 21
6.8013974244
  0
LINE
  5
215
100
AcDbEntity
  8
0
100
AcDbLine
 62
7
  6
CONTINUOUS
 10
8.7293375976
 20
5.0420485728
 11
8.7293375976
 21
5.4280485728
  0
LINE
  5
216
100
AcDbEntity
  8
0
100
AcDbLine
 62
6
  6
CONTINUOUS
 10
8.8945436285
 20
7.6262674649
 11
8.8945436285
 21
7.335213308
  0
LINE
  5
217
100
AcDbEntity
  8
0
100
AcDbLine
 62
6
  6
CONTINUOUS
 10
8.913855792
 20
7.6882674649
 11
8.913855792
 21
7.6262674649
  0
LINE
  5
218
100
AcDbEntity
  8
0
100
AcDbLine
 62
9
  6
CONTINUOUS
 10
8.953355792
 20
5.4225485728
 11
8.953355792
 21
5.0475485728
  0
LINE
  5
219
100
AcDbEntity
  8
0
100
AcDbLine
 62
9
  6
CONTINUOUS
 10
7.600779792
 20
7.0180306505
 11
8.744931792
 21
7.0180306505
  0
LINE
  5
21A
100
AcDbEntity
  8
0
100
AcDbLine
 62
9
  6
CONTINUOUS
 10
7.5689781583
 20
7.2174031051
 11
8.7767334256
 21
7.2174031051
  0
LINE
  5
21B
100
AcDbEntity
  8
0
100
AcDbLine
 62
6
  6
CONTINUOUS
 10
7.431855792
 20
7.6262674649
 11
8.913855792
 21
7.6262674649
  0
LINE
  5
21C
100
AcDbEntity
  8
0
100
AcDbLine
 62
9
  6
CONTINUOUS
 10
7.3598531181
 20
7.6882674649
 11
8.9858584658
 21
7.6882674649
  0
LINE
  5
21D
100
AcDbEntity
  8
0
100
AcDbLine
 62
6
  6
CONTINUOUS
 10
7.172855792
 20
7.8762674649
 11
9.172855792
 21
7.8762674649
  0
LINE
  5
21E
100
AcDbEntity
  8
0
100
AcDbLine
 62
6
  6
CONTINUOUS
 10
6.992855792
 20
8.0632674649
 11
9.352855792
 21
8.0632674649
  0
ARC
  5
21F
100
AcDbEntity
  8
0
100
AcDbCircle
 62
6
  6
CONTINUOUS
 10
7.2275888795
 20
6.4938357481
 40
0.5
100
AcDbArc
 50
8.5
 51
37.9608838555
  0
CIRCLE
  5
220
100
AcDbEntity
  8
0
100
AcDbCircle
 62
6
  6
CONTINUOUS
 10
5.0421362515
 20
5.2350485728
 40
0.3125
  0
ARC
  5
221
100
AcDbEntity
  8
0
100
AcDbCircle
 62
6
  6
CONTINUOUS
 10
4.860355792
 20
5.2350485728
 40
0.1875
100
AcDbArc
 50
115.5752681109
 51
244.4089420029
  0
ARC
  5
222
100
AcDbEntity
  8
0
100
AcDbCircle
 62
6
  6
CONTINUOUS
 10
7.781855792
 20
6.9262674649
 40
0.203
100
AcDbArc
 50
153.1256519233
 51
217.9608838555
  0
ARC
  5
223
100
AcDbEntity
  8
0
100
AcDbCircle
 62
6
  6
CONTINUOUS
 10
7.1799919031
 20
8.0632674649
 40
0.1871361111
100
AcDbArc
 50
180.0
 51
267.8145949287
  0
ARC
  5
224
100
AcDbEntity
  8
0
100
AcDbCircle
 62
6
  6
CONTINUOUS
 10
7.3598531181
 20
7.8752674649
 40
0.187
100
AcDbArc
 50
179.6936039968
 51
270.0
  0
ARC
  5
225
100
AcDbEntity
  8
0
100
AcDbCircle
 62
6
  6
CONTINUOUS
 10
7.447355792
 20
7.0957807388
 40
0.172
100
AcDbArc
 50
333.1256519233
 51
45.0
  0
ARC
  5
226
100
AcDbEntity
  8
0
100
AcDbCircle
 62
6
  6
CONTINUOUS
 10
8.172855792
 20
5.2350485728
 40
0.589
100
AcDbArc
 50
123.4893985991
 51
341.4347992744
  0
ARC
  5
227
100
AcDbEntity
  8
0
100
AcDbCircle
 62
6
  6
CONTINUOUS
 10
8.172855792
 20
5.2350485728
 40
0.589
100
AcDbArc
 50
18.5633518035
 51
56.5106014009
  0
ARC
  5
228
100
AcDbEntity
  8
0
100
AcDbCircle
 62
6
  6
CONTINUOUS
 10
9.1181227044
 20
6.4938357481
 40
0.5
100
AcDbArc
 50
142.0391161445
 51
171.5
  0
ARC
  5
229
100
AcDbEntity
  8
0
100
AcDbCircle
 62
9
  6
CONTINUOUS
 10
11.485355792
 20
5.2350485728
 40
0.1875
100
AcDbArc
 50
270.0
 51
90.0
  0
ARC
  5
22A
100
AcDbEntity
  8
0
100
AcDbCircle
 62
6
  6
CONTINUOUS
 10
8.563855792
 20
6.9262674649
 40
0.203
100
AcDbArc
 50
322.0391161445
 51
26.8743480767
  0
ARC
  5
22B
100
AcDbEntity
  8
0
100
AcDbCircle
 62
6
  6
CONTINUOUS
 10
9.1657196809
 20
8.0632674649
 40
0.1871361111
100
AcDbArc
 50
272.1854050713
 51
360.0
  0
ARC
  5
22C
100
AcDbEntity
  8
0
100
AcDbCircle
 62
6
  6
CONTINUOUS
 10
8.9858584658
 20
7.8752674649
 40
0.187
100
AcDbArc
 50
270.0
 51
0.3063960032
  0
ARC
  5
22D
100
AcDbEntity
  8
0
100
AcDbCircle
 62
6
  6
CONTINUOUS
 10
8.898355792
 20
7.0957807388
 40
0.172
100
AcDbArc
 50
135.0
 51
206.8743480767
  0
SPLINE
  5
22E
100
AcDbEntity
  8
0
100
AcDbSpline
 62
9
  6
CONTINUOUS
 70
0
 71
3
 72
51
 73
47
 74
45
 42
0.0000001
 43
0.0000001
 44
0.0000000001
 12
0.0
 22
-0.2039913657
 32
0.0
 13
-0.2039913657
 23
0.0
 33
0.0
 40
0.0
 40
0.0
 40
0.0
 40
0.0
 40
0.0449630267
 40
0.0899063675
 40
0.1347112657
 40
0.1792589927
 40
0.2234309952
 40
0.2671090523
 40
0.3101766865
 40
0.3525365268
 40
0.3941058534
 40
0.4348027755
 40
0.4745460503
 40
0.5132553041
 40
0.5508513154
 40
0.5872595538
 40
0.6224142145
 40
0.6562520966
 40
0.6887121119
 40
0.719735935
 40
0.7492688596
 40
0.7772630966
 40
0.790675011
 40
0.8036938582
 40
0.8163182802
 40
0.8285474349
 40
0.8403810773
 40
0.8518196549
 40
0.8628644203
 40
0.873517564
 40
0.8837823707
 40
0.8936634041
 40
0.9031667231
 40
0.9123003689
 40
0.9210760294
 40
0.9295081356
 40
0.9376133247
 40
0.9454107151
 40
0.9529221863
 40
0.9601726407
 40
0.9671902158
 40
0.9740064119
 40
0.9806560905
 40
0.9871773015
 40
0.993610908
 40
1.0
 40
1.0
 40
1.0
 40
1.0
 10
9.0688190009
 20
5.2350485728
 30
0.0
 10
9.0688190009
 20
5.2319912164
 30
0.0
 10
9.0687760228
 20
5.2258777572
 30
0.0
 10
9.0685840162
 20
5.2167195105
 30
0.0
 10
9.0682654121
 20
5.2075930296
 30
0.0
 10
9.0678212073
 20
5.1985243097
 30
0.0
 10
9.0672523765
 20
5.1895393166
 30
0.0
 10
9.0665599916
 20
5.1806639277
 30
0.0
 10
9.0657446381
 20
5.1719227204
 30
0.0
 10
9.0648084265
 20
5.1633378407
 30
0.0
 10
9.0637545377
 20
5.154929034
 30
0.0
 10
9.0625858018
 20
5.1467150688
 30
0.0
 10
9.0613051112
 20
5.1387146775
 30
0.0
 10
9.0599153739
 20
5.1309465803
 30
0.0
 10
9.058419359
 20
5.123429288
 30
0.0
 10
9.0568200622
 20
5.1161805647
 30
0.0
 10
9.0551222519
 20
5.1092169843
 30
0.0
 10
9.0533303936
 20
5.1025545658
 30
0.0
 10
9.0514490016
 20
5.0962092338
 30
0.0
 10
9.0494825428
 20
5.0901968673
 30
0.0
 10
9.0474355578
 20
5.0845332119
 30
0.0
 10
9.0456409907
 20
5.0800545333
 30
0.0
 10
9.0441651638
 20
5.0766605684
 30
0.0
 10
9.0430570326
 20
5.0742469579
 30
0.0
 10
9.0419325128
 20
5.0719300065
 30
0.0
 10
9.0407922949
 20
5.069710951
 30
0.0
 10
9.0396370774
 20
5.0675910337
 30
0.0
 10
9.0384675546
 20
5.0655714933
 30
0.0
 10
9.0372844183
 20
5.0636535672
 30
0.0
 10
9.0360883564
 20
5.0618384917
 30
0.0
 10
9.0348800535
 20
5.0601275
 30
0.0
 10
9.0336601836
 20
5.0585218291
 30
0.0
 10
9.0324294192
 20
5.0570226878
 30
0.0
 10
9.0311882819
 20
5.0556312502
 30
0.0
 10
9.0299375748
 20
5.0543482166
 30
0.0
 10
9.0286780806
 20
5.0531740501
 30
0.0
 10
9.0274105127
 20
5.0521092062
 30
0.0
 10
9.026135584
 20
5.0511541497
 30
0.0
 10
9.0248540022
 20
5.0503093674
 30
0.0
 10
9.0235664782
 20
5.0495753709
 30
0.0
 10
9.0222737355
 20
5.0489526999
 30
0.0
 10
9.0209765182
 20
5.0484419219
 30
0.0
 10
9.0196756206
 20
5.0480436254
 30
0.0
 10
9.01837184
 20
5.0477584066
 30
0.0
 10
9.0170661964
 20
5.0475868491
 30
0.0
 10
9.0161938186
 20
5.0475485728
 30
0.0
 10
9.0157593787
 20
5.0475485728
 30
0.0
 11
9.0688190009
 21
5.2350485728
 31
0.0
 11
9.0687547123
 21
5.2258767289
 31
0.0
 11
9.0685625035
 21
5.2167106905
 31
0.0
 11
9.0682433604
 21
5.2075764517
 31
0.0
 11
9.0677982689
 21
5.1985000067
 31
0.0
 11
9.0672282146
 21
5.1895073496
 31
0.0
 11
9.0665341834
 21
5.1806244747
 31
0.0
 11
9.0657172285
 21
5.1718771158
 31
0.0
 11
9.0647794134
 21
5.1632871156
 31
0.0
 11
9.063723579
 21
5.1548733207
 31
0.0
 11
9.0625525861
 21
5.1466545006
 31
0.0
 11
9.0612692956
 21
5.1386494251
 31
0.0
 11
9.0598765684
 21
5.1308768637
 31
0.0
 11
9.0583772676
 21
5.1233555825
 31
0.0
 11
9.056774707
 21
5.1161035739
 31
0.0
 11
9.0550732065
 21
5.1091371055
 31
0.0
 11
9.053277222
 21
5.1024722108
 31
0.0
 11
9.0513912094
 21
5.0961249239
 31
0.0
 11
9.0494196248
 21
5.0901112785
 31
0.0
 11
9.0473669241
 21
5.0844473084
 31
0.0
 11
9.0452376621
 21
5.0791485352
 31
0.0
 11
9.044145952
 21
5.0766398705
 31
0.0
 11
9.0430371245
 21
5.0742266949
 31
0.0
 11
9.0419118814
 21
5.0719102625
 31
0.0
 11
9.0407709245
 21
5.0696918269
 31
0.0
 11
9.0396149559
 21
5.0675726423
 31
0.0
 11
9.0384446771
 21
5.0655539625
 31
0.0
 11
9.0372607903
 21
5.0636370414
 31
0.0
 11
9.0360639971
 21
5.0618231328
 31
0.0
 11
9.0348549995
 21
5.0601134909
 31
0.0
 11
9.0336344992
 21
5.0585093693
 31
0.0
 11
9.0324031982
 21
5.0570120222
 31
0.0
 11
9.0311618048
 21
5.0556226337
 31
0.0
 11
9.0299110754
 21
5.0543418741
 31
0.0
 11
9.0286517879
 21
5.0531701833
 31
0.0
 11
9.0273847202
 21
5.052108
 31
0.0
 11
9.0261106505
 21
5.0511557628
 31
0.0
 11
9.0248303567
 21
5.0503139105
 31
0.0
 11
9.0235446168
 21
5.0495828817
 31
0.0
 11
9.0222542089
 21
5.0489631153
 31
0.0
 11
9.0209599109
 21
5.0484550499
 31
0.0
 11
9.0196625009
 21
5.0480591242
 31
0.0
 11
9.0183627569
 21
5.047775777
 31
0.0
 11
9.0170614568
 21
5.047605447
 31
0.0
 11
9.0157593787
 21
5.0475485728
 31
0.0
  0
SPLINE
  5
22F
100
AcDbEntity
  8
0
100
AcDbSpline
 62
9
  6
CONTINUOUS
 70
0
 71
3
 72
51
 73
47
 74
45
 42
0.0000001
 43
0.0000001
 44
0.0000000001
 12
0.2039913657
 22
0.0
 32
0.0
 13
-0.0
 23
-0.2039913657
 33
0.0
 40
0.0
 40
0.0
 40
0.0
 40
0.0
 40
0.006389092
 40
0.0128226985
 40
0.0193439095
 40
0.0259935881
 40
0.0328097842
 40
0.0398273593
 40
0.0470778137
 40
0.0545892849
 40
0.0623866753
 40
0.0704918644
 40
0.0789239706
 40
0.0876996311
 40
0.0968332769
 40
0.1063365959
 40
0.1162176293
 40
0.126482436
 40
0.1371355797
 40
0.1481803451
 40
0.1596189227
 40
0.1714525651
 40
0.1836817198
 40
0.1963061418
 40
0.209324989
 40
0.2227369034
 40
0.2507311404
 40
0.280264065
 40
0.3112878881
 40
0.3437479034
 40
0.3775857855
 40
0.4127404462
 40
0.4491486846
 40
0.4867446959
 40
0.5254539497
 40
0.5651972245
 40
0.6058941466
 40
0.6474634732
 40
0.6898233135
 40
0.7328909477
 40
0.7765690048
 40
0.8207410073
 40
0.8652887343
 40
0.9100936325
 40
0.9550369733
 40
1.0
 40
1.0
 40
1.0
 40
1.0
 10
9.0157593787
 20
5.4225485728
 30
0.0
 10
9.0161938186
 20
5.4225485728
 30
0.0
 10
9.0170661964
 20
5.4225102965
 30
0.0
 10
9.01837184
 20
5.4223387389
 30
0.0
 10
9.0196756206
 20
5.4220535202
 30
0.0
 10
9.0209765182
 20
5.4216552237
 30
0.0
 10
9.0222737355
 20
5.4211444457
 30
0.0
 10
9.0235664782
 20
5.4205217747
 30
0.0
 10
9.0248540022
 20
5.4197877782
 30
0.0
 10
9.026135584
 20
5.4189429959
 30
0.0
 10
9.0274105127
 20
5.4179879394
 30
0.0
 10
9.0286780806
 20
5.4169230955
 30
0.0
 10
9.0299375748
 20
5.415748929
 30
0.0
 10
9.0311882819
 20
5.4144658954
 30
0.0
 10
9.0324294192
 20
5.4130744578
 30
0.0
 10
9.0336601836
 20
5.4115753165
 30
0.0
 10
9.0348800535
 20
5.4099696456
 30
0.0
 10
9.0360883564
 20
5.4082586539
 30
0.0
 10
9.0372844183
 20
5.4064435783
 30
0.0
 10
9.0384675546
 20
5.4045256523
 30
0.0
 10
9.0396370774
 20
5.4025061119
 30
0.0
 10
9.0407922949
 20
5.4003861946
 30
0.0
 10
9.0419325128
 20
5.3981671391
 30
0.0
 10
9.0430570326
 20
5.3958501877
 30
0.0
 10
9.0441651638
 20
5.3934365772
 30
0.0
 10
9.0456409907
 20
5.3900426123
 30
0.0
 10
9.0474355578
 20
5.3855639337
 30
0.0
 10
9.0494825428
 20
5.3799002783
 30
0.0
 10
9.0514490016
 20
5.3738879118
 30
0.0
 10
9.0533303936
 20
5.3675425798
 30
0.0
 10
9.0551222519
 20
5.3608801613
 30
0.0
 10
9.0568200622
 20
5.3539165809
 30
0.0
 10
9.058419359
 20
5.3466678576
 30
0.0
 10
9.0599153739
 20
5.3391505653
 30
0.0
 10
9.0613051112
 20
5.3313824681
 30
0.0
 10
9.0625858018
 20
5.3233820768
 30
0.0
 10
9.0637545377
 20
5.3151681116
 30
0.0
 10
9.0648084265
 20
5.3067593049
 30
0.0
 10
9.0657446381
 20
5.2981744252
 30
0.0
 10
9.0665599916
 20
5.2894332179
 30
0.0
 10
9.0672523765
 20
5.280557829
 30
0.0
 10
9.0678212073
 20
5.2715728359
 30
0.0
 10
9.0682654121
 20
5.262504116
 30
0.0
 10
9.0685840162
 20
5.2533776351
 30
0.0
 10
9.0687760228
 20
5.2442193884
 30
0.0
 10
9.0688190009
 20
5.2381059292
 30
0.0
 10
9.0688190009
 20
5.2350485728
 30
0.0
 11
9.0157593787
 21
5.4225485728
 31
0.0
 11
9.0170614568
 21
5.4224916986
 31
0.0
 11
9.0183627569
 21
5.4223213686
 31
0.0
 11
9.0196625009
 21
5.4220380213
 31
0.0
 11
9.0209599109
 21
5.4216420957
 31
0.0
 11
9.0222542089
 21
5.4211340303
 31
0.0
 11
9.0235446168
 21
5.4205142639
 31
0.0
 11
9.0248303567
 21
5.4197832351
 31
0.0
 11
9.0261106505
 21
5.4189413828
 31
0.0
 11
9.0273847202
 21
5.4179891456
 31
0.0
 11
9.0286517879
 21
5.4169269623
 31
0.0
 11
9.0299110754
 21
5.4157552714
 31
0.0
 11
9.0311618048
 21
5.4144745119
 31
0.0
 11
9.0324031982
 21
5.4130851234
 31
0.0
 11
9.0336344992
 21
5.4115877763
 31
0.0
 11
9.0348549995
 21
5.4099836547
 31
0.0
 11
9.0360639971
 21
5.4082740127
 31
0.0
 11
9.0372607903
 21
5.4064601042
 31
0.0
 11
9.0384446771
 21
5.4045431831
 31
0.0
 11
9.0396149559
 21
5.4025245033
 31
0.0
 11
9.0407709245
 21
5.4004053187
 31
0.0
 11
9.0419118814
 21
5.3981868831
 31
0.0
 11
9.0430371245
 21
5.3958704507
 31
0.0
 11
9.044145952
 21
5.3934572751
 31
0.0
 11
9.0452376621
 21
5.3909486104
 31
0.0
 11
9.0473669241
 21
5.3856498372
 31
0.0
 11
9.0494196248
 21
5.3799858671
 31
0.0
 11
9.0513912094
 21
5.3739722217
 31
0.0
 11
9.053277222
 21
5.3676249347
 31
0.0
 11
9.0550732065
 21
5.3609600401
 31
0.0
 11
9.056774707
 21
5.3539935716
 31
0.0
 11
9.0583772676
 21
5.3467415631
 31
0.0
 11
9.0598765684
 21
5.3392202819
 31
0.0
 11
9.0612692956
 21
5.3314477205
 31
0.0
 11
9.0625525861
 21
5.323442645
 31
0.0
 11
9.063723579
 21
5.3152238249
 31
0.0
 11
9.0647794134
 21
5.30681003
 31
0.0
 11
9.0657172285
 21
5.2982200297
 31
0.0
 11
9.0665341834
 21
5.2894726709
 31
0.0
 11
9.0672282146
 21
5.280589796
 31
0.0
 11
9.0677982689
 21
5.2715971389
 31
0.0
 11
9.0682433604
 21
5.2625206939
 31
0.0
 11
9.0685625035
 21
5.2533864551
 31
0.0
 11
9.0687547123
 21
5.2442204167
 31
0.0
 11
9.0688190009
 21
5.2350485728
 31
0.0
  0
SPLINE
  5
230
100
AcDbEntity
  8
0
100
AcDbSpline
 62
6
  6
CONTINUOUS
 70
0
 71
3
 72
47
 73
43
 74
41
 42
0.0000001
 43
0.0000001
 44
0.0000000001
 12
0.2970385258
 22
-0.2970385258
 32
0.0
 13
0.2970385258
 23
0.2970385258
 33
0.0
 40
0.0
 40
0.0
 40
0.0
 40
0.0
 40
0.0352300472
 40
0.0699728439
 40
0.1041975537
 40
0.137879597
 40
0.1709995795
 40
0.2035367066
 40
0.2354777189
 40
0.2668217407
 40
0.2975778512
 40
0.3277628519
 40
0.3574100766
 40
0.3720495562
 40
0.3865757948
 40
0.4153216901
 40
0.4295666084
 40
0.4437405449
 40
0.457856594
 40
0.4719288265
 40
0.4859717744
 40
0.5000000608
 40
0.514028348
 40
0.528071298
 40
0.5421435318
 40
0.5562595785
 40
0.5704335104
 40
0.584678424
 40
0.6134243129
 40
0.6279505495
 40
0.6425900261
 40
0.6722372345
 40
0.7024222129
 40
0.7331783048
 40
0.7645223132
 40
0.7964633082
 40
0.8290004166
 40
0.8621203825
 40
0.8958024214
 40
0.930027139
 40
0.964769947
 40
1.0
 40
1.0
 40
1.0
 40
1.0
 10
7.4511679555
 20
7.335213308
 30
0.0
 10
7.4546561826
 20
7.3317250809
 30
0.0
 10
7.4616595196
 20
7.324871394
 30
0.0
 10
7.4723313105
 20
7.314919839
 30
0.0
 10
7.4831025286
 20
7.3053996602
 30
0.0
 10
7.4939748998
 20
7.2963457868
 30
0.0
 10
7.5049488135
 20
7.28779383
 30
0.0
 10
7.5160253667
 20
7.2797836069
 30
0.0
 10
7.5272044466
 20
7.2723564561
 30
0.0
 10
7.5384852309
 20
7.2655545827
 30
0.0
 10
7.5498648378
 20
7.2594201152
 30
0.0
 10
7.561337047
 20
7.2539937617
 30
0.0
 10
7.5710100493
 20
7.250080014
 30
0.0
 10
7.5787819023
 20
7.2473524007
 30
0.0
 10
7.5865168485
 20
7.2449141657
 30
0.0
 10
7.5943156139
 20
7.242873732
 30
0.0
 10
7.6021564379
 20
7.2412567045
 30
0.0
 10
7.6080302654
 20
7.240262749
 30
0.0
 10
7.613912542
 20
7.239487675
 30
0.0
 10
7.6198014161
 20
7.2389342191
 30
0.0
 10
7.6256945957
 20
7.2386021054
 30
0.0
 10
7.6315899404
 20
7.2384914136
 30
0.0
 10
7.6374852851
 20
7.2386021165
 30
0.0
 10
7.6433784648
 20
7.2389342366
 30
0.0
 10
7.6492673393
 20
7.2394876876
 30
0.0
 10
7.6551496171
 20
7.2402627468
 30
0.0
 10
7.6610234431
 20
7.2412567023
 30
0.0
 10
7.6688642635
 20
7.2428737365
 30
0.0
 10
7.6766630238
 20
7.2449141826
 30
0.0
 10
7.6843979666
 20
7.2473524225
 30
0.0
 10
7.6921698195
 20
7.250080027
 30
0.0
 10
7.7018428182
 20
7.2539937686
 30
0.0
 10
7.7133150179
 20
7.2594201236
 30
0.0
 10
7.7246946148
 20
7.2655545936
 30
0.0
 10
7.7359753922
 20
7.272356465
 30
0.0
 10
7.7471544661
 20
7.2797836123
 30
0.0
 10
7.7582310137
 20
7.2877938304
 30
0.0
 10
7.7692049247
 20
7.2963457818
 30
0.0
 10
7.7800772952
 20
7.3053996532
 30
0.0
 10
7.7908485145
 20
7.3149198337
 30
0.0
 10
7.8015203075
 20
7.3248713916
 30
0.0
 10
7.8085236461
 20
7.3317250803
 30
0.0
 10
7.8120118737
 20
7.335213308
 30
0.0
 11
7.4511679555
 21
7.335213308
 31
0.0
 11
7.4617496568
 21
7.3248669702
 31
0.0
 11
7.4724283569
 21
7.3149187008
 31
0.0
 11
7.4832058164
 21
7.3054032497
 31
0.0
 11
7.4940837959
 21
7.2963553665
 31
0.0
 11
7.5050636944
 21
7.2878107305
 31
0.0
 11
7.5161451247
 21
7.2798096145
 31
0.0
 11
7.5273271486
 21
7.2723937079
 31
0.0
 11
7.5386088059
 21
7.2656046995
 31
0.0
 11
7.5499869796
 21
7.2594841594
 31
0.0
 11
7.5614545998
 21
7.254073441
 31
0.0
 11
7.5730041742
 21
7.249413874
 31
0.0
 11
7.5788072965
 21
7.2473785628
 31
0.0
 11
7.5846274832
 21
7.2455451694
 31
0.0
 11
7.596312012
 21
7.242497469
 31
0.0
 11
7.6021728317
 21
7.2412898206
 31
0.0
 11
7.6080436733
 21
7.2402974125
 31
0.0
 11
7.6139227751
 21
7.2395235684
 31
0.0
 11
7.6198082645
 21
7.2389706361
 31
0.0
 11
7.6256980326
 21
7.2386388807
 31
0.0
 11
7.6315899402
 21
7.2385282999
 31
0.0
 11
7.6374818479
 21
7.238638891
 31
0.0
 11
7.6433716166
 21
7.2389706517
 31
0.0
 11
7.649257107
 21
7.2395235794
 31
0.0
 11
7.6551362092
 21
7.2402974128
 31
0.0
 11
7.6610070492
 21
7.2412898192
 31
0.0
 11
7.6668678659
 21
7.2424974721
 31
0.0
 11
7.6785523882
 21
7.2455451868
 31
0.0
 11
7.6843725731
 21
7.247378583
 31
0.0
 11
7.6901756956
 21
7.24941389
 31
0.0
 11
7.7017252655
 21
7.2540734497
 31
0.0
 11
7.7131928756
 21
7.2594841677
 31
0.0
 11
7.7245710396
 21
7.2656047093
 31
0.0
 11
7.7358526908
 21
7.2723937169
 31
0.0
 11
7.7470347083
 21
7.2798096198
 31
0.0
 11
7.7581161328
 21
7.2878107305
 31
0.0
 11
7.7690960271
 21
7.2963553607
 31
0.0
 11
7.7799740059
 21
7.3054032418
 31
0.0
 11
7.7907514677
 21
7.3149186952
 31
0.0
 11
7.8014301709
 21
7.3248669682
 31
0.0
 11
7.8120118737
 21
7.335213308
 31
0.0
  0
SPLINE
  5
231
100
AcDbEntity
  8
0
100
AcDbSpline
 62
6
  6
CONTINUOUS
 70
0
 71
3
 72
47
 73
43
 74
41
 42
0.0000001
 43
0.0000001
 44
0.0000000001
 12
0.2970385258
 22
-0.2970385258
 32
0.0
 13
0.2970385258
 23
0.2970385258
 33
0.0
 40
0.0
 40
0.0
 40
0.0
 40
0.0
 40
0.0352300472
 40
0.0699728439
 40
0.1041975537
 40
0.137879597
 40
0.1709995795
 40
0.2035367066
 40
0.2354777189
 40
0.2668217407
 40
0.2975778512
 40
0.3277628519
 40
0.3574100766
 40
0.3720495562
 40
0.3865757948
 40
0.4153216901
 40
0.4295666084
 40
0.4437405449
 40
0.457856594
 40
0.4719288265
 40
0.4859717744
 40
0.5000000608
 40
0.514028348
 40
0.528071298
 40
0.5421435318
 40
0.5562595785
 40
0.5704335104
 40
0.584678424
 40
0.6134243129
 40
0.6279505495
 40
0.6425900261
 40
0.6722372345
 40
0.7024222129
 40
0.7331783048
 40
0.7645223132
 40
0.7964633082
 40
0.8290004166
 40
0.8621203825
 40
0.8958024214
 40
0.930027139
 40
0.964769947
 40
1.0
 40
1.0
 40
1.0
 40
1.0
 10
8.5336997102
 20
7.335213308
 30
0.0
 10
8.5371879373
 20
7.3317250809
 30
0.0
 10
8.5441912743
 20
7.324871394
 30
0.0
 10
8.5548630653
 20
7.314919839
 30
0.0
 10
8.5656342833
 20
7.3053996602
 30
0.0
 10
8.5765066545
 20
7.2963457868
 30
0.0
 10
8.5874805683
 20
7.28779383
 30
0.0
 10
8.5985571214
 20
7.2797836069
 30
0.0
 10
8.6097362013
 20
7.2723564561
 30
0.0
 10
8.6210169856
 20
7.2655545827
 30
0.0
 10
8.6323965926
 20
7.2594201152
 30
0.0
 10
8.6438688018
 20
7.2539937617
 30
0.0
 10
8.653541804
 20
7.250080014
 30
0.0
 10
8.6613136571
 20
7.2473524007
 30
0.0
 10
8.6690486032
 20
7.2449141657
 30
0.0
 10
8.6768473686
 20
7.242873732
 30
0.0
 10
8.6846881927
 20
7.2412567045
 30
0.0
 10
8.6905620201
 20
7.240262749
 30
0.0
 10
8.6964442967
 20
7.239487675
 30
0.0
 10
8.7023331708
 20
7.2389342191
 30
0.0
 10
8.7082263504
 20
7.2386021054
 30
0.0
 10
8.7141216951
 20
7.2384914136
 30
0.0
 10
8.7200170398
 20
7.2386021165
 30
0.0
 10
8.7259102196
 20
7.2389342366
 30
0.0
 10
8.731799094
 20
7.2394876876
 30
0.0
 10
8.7376813719
 20
7.2402627468
 30
0.0
 10
8.7435551978
 20
7.2412567023
 30
0.0
 10
8.7513960183
 20
7.2428737365
 30
0.0
 10
8.7591947785
 20
7.2449141826
 30
0.0
 10
8.7669297213
 20
7.2473524225
 30
0.0
 10
8.7747015742
 20
7.250080027
 30
0.0
 10
8.7843745729
 20
7.2539937686
 30
0.0
 10
8.7958467726
 20
7.2594201236
 30
0.0
 10
8.8072263695
 20
7.2655545936
 30
0.0
 10
8.818507147
 20
7.272356465
 30
0.0
 10
8.8296862208
 20
7.2797836123
 30
0.0
 10
8.8407627685
 20
7.2877938304
 30
0.0
 10
8.8517366794
 20
7.2963457818
 30
0.0
 10
8.86260905
 20
7.3053996532
 30
0.0
 10
8.8733802692
 20
7.3149198337
 30
0.0
 10
8.8840520623
 20
7.3248713916
 30
0.0
 10
8.8910554008
 20
7.3317250803
 30
0.0
 10
8.8945436285
 20
7.335213308
 30
0.0
 11
8.5336997102
 21
7.335213308
 31
0.0
 11
8.5442814115
 21
7.3248669702
 31
0.0
 11
8.5549601117
 21
7.3149187008
 31
0.0
 11
8.5657375712
 21
7.3054032497
 31
0.0
 11
8.5766155506
 21
7.2963553665
 31
0.0
 11
8.5875954492
 21
7.2878107305
 31
0.0
 11
8.5986768795
 21
7.2798096145
 31
0.0
 11
8.6098589034
 21
7.2723937079
 31
0.0
 11
8.6211405606
 21
7.2656046995
 31
0.0
 11
8.6325187343
 21
7.2594841594
 31
0.0
 11
8.6439863545
 21
7.254073441
 31
0.0
 11
8.6555359289
 21
7.249413874
 31
0.0
 11
8.6613390513
 21
7.2473785628
 31
0.0
 11
8.667159238
 21
7.2455451694
 31
0.0
 11
8.6788437667
 21
7.242497469
 31
0.0
 11
8.6847045864
 21
7.2412898206
 31
0.0
 11
8.690575428
 21
7.2402974125
 31
0.0
 11
8.6964545299
 21
7.2395235684
 31
0.0
 11
8.7023400193
 21
7.2389706361
 31
0.0
 11
8.7082297874
 21
7.2386388807
 31
0.0
 11
8.7141216949
 21
7.2385282999
 31
0.0
 11
8.7200136027
 21
7.238638891
 31
0.0
 11
8.7259033713
 21
7.2389706517
 31
0.0
 11
8.7317888617
 21
7.2395235794
 31
0.0
 11
8.7376679639
 21
7.2402974128
 31
0.0
 11
8.7435388039
 21
7.2412898192
 31
0.0
 11
8.7493996206
 21
7.2424974721
 31
0.0
 11
8.7610841429
 21
7.2455451868
 31
0.0
 11
8.7669043278
 21
7.247378583
 31
0.0
 11
8.7727074503
 21
7.24941389
 31
0.0
 11
8.7842570202
 21
7.2540734497
 31
0.0
 11
8.7957246304
 21
7.2594841677
 31
0.0
 11
8.8071027943
 21
7.2656047093
 31
0.0
 11
8.8183844455
 21
7.2723937169
 31
0.0
 11
8.8295664631
 21
7.2798096198
 31
0.0
 11
8.8406478875
 21
7.2878107305
 31
0.0
 11
8.8516277818
 21
7.2963553607
 31
0.0
 11
8.8625057606
 21
7.3054032418
 31
0.0
 11
8.8732832224
 21
7.3149186952
 31
0.0
 11
8.8839619256
 21
7.3248669682
 31
0.0
 11
8.8945436285
 21
7.335213308
 31
0.0
  0
SPLINE
  5
232
100
AcDbEntity
  8
0
100
AcDbSpline
 62
6
  6
CONTINUOUS
 70
0
 71
3
 72
22
 73
18
 74
16
 42
0.0000001
 43
0.0000001
 44
0.0000000001
 12
0.3770184106
 22
0.0
 32
0.0
 13
0.337215518
 23
0.168607759
 33
0.0
 40
0.0
 40
0.0
 40
0.0
 40
0.0
 40
0.0624923109
 40
0.1250061953
 40
0.1875240193
 40
0.2500323172
 40
0.3125365359
 40
0.3750390832
 40
0.4375388234
 40
0.5000404929
 40
0.5625424206
 40
0.6250383517
 40
0.6875337498
 40
0.7500319556
 40
0.8125295304
 40
0.8750254111
 40
1.0
 40
1.0
 40
1.0
 40
1.0
 10
8.172855792
 20
7.2385254715
 30
0.0
 10
8.1807093759
 20
7.2385254715
 30
0.0
 10
8.196420834
 20
7.238824058
 30
0.0
 10
8.2199551189
 20
7.240153716
 30
0.0
 10
8.2434264409
 20
7.2423524992
 30
0.0
 10
8.2668001998
 20
7.2454072538
 30
0.0
 10
8.2900495814
 20
7.2492831466
 30
0.0
 10
8.3131524415
 20
7.2539467106
 30
0.0
 10
8.3360894579
 20
7.2593644179
 30
0.0
 10
8.3588464178
 20
7.2654926903
 30
0.0
 10
8.3814120207
 20
7.2722889259
 30
0.0
 10
8.40377815
 20
7.2797117027
 30
0.0
 10
8.4259408151
 20
7.2877192131
 30
0.0
 10
8.4478992297
 20
7.2962705318
 30
0.0
 10
8.4696548822
 20
7.305325062
 30
0.0
 10
8.4983921257
 20
7.3180188284
 30
0.0
 10
8.51965192
 20
7.3281894129
 30
0.0
 10
8.5336997102
 20
7.335213308
 30
0.0
 11
8.172855792
 21
7.2385254715
 31
0.0
 11
8.1964123328
 21
7.2389709014
 31
0.0
 11
8.2199437965
 21
7.2402985201
 31
0.0
 11
8.243411571
 21
7.2424953201
 31
0.0
 11
8.2667802943
 21
7.2455442297
 31
0.0
 11
8.2900255441
 21
7.2494144952
 31
0.0
 11
8.3131251979
 21
7.2540724868
 31
0.0
 11
8.3360592263
 21
7.2594827882
 31
0.0
 11
8.3588145698
 21
7.2656040328
 31
0.0
 11
8.3813796188
 21
7.2723936167
 31
0.0
 11
8.403744377
 21
7.2798092035
 31
0.0
 11
8.4259064107
 21
7.2878097118
 31
0.0
 11
8.4478654998
 21
7.2963544272
 31
0.0
 11
8.4696215909
 21
7.30540291
 31
0.0
 11
8.4911768384
 21
7.3149183581
 31
0.0
 11
8.5336997102
 21
7.335213308
 31
0.0
  0
SPLINE
  5
233
100
AcDbEntity
  8
0
100
AcDbSpline
 62
6
  6
CONTINUOUS
 70
0
 71
3
 72
22
 73
18
 74
16
 42
0.0000001
 43
0.0000001
 44
0.0000000001
 12
0.3372107516
 22
-0.1686053758
 32
0.0
 13
0.3770130817
 23
0.0
 33
0.0
 40
0.0
 40
0.0
 40
0.0
 40
0.0
 40
0.1249768316
 40
0.1874739342
 40
0.2187234167
 40
0.2499736512
 40
0.3124731606
 40
0.37496979
 40
0.4374665674
 40
0.4999693276
 40
0.6249575616
 40
0.6874607749
 40
0.7499656619
 40
0.8124743804
 40
0.8749924701
 40
0.9375068834
 40
1.0
 40
1.0
 40
1.0
 40
1.0
 10
7.8120118737
 20
7.335213308
 30
0.0
 10
7.8260597175
 20
7.3281893861
 30
0.0
 10
7.8473195443
 20
7.3180187789
 30
0.0
 10
7.8724645401
 20
7.3069116974
 30
0.0
 10
7.8869347376
 20
7.3007977643
 30
0.0
 10
7.9014723089
 20
7.2948452047
 30
0.0
 10
7.9197713686
 20
7.2877190308
 30
0.0
 10
7.9419339807
 20
7.2797115054
 30
0.0
 10
7.9643004402
 20
7.2722886201
 30
0.0
 10
7.9943846603
 20
7.2632279655
 30
0.0
 10
8.0248616765
 20
7.2555004811
 30
0.0
 10
8.0556624693
 20
7.2492830059
 30
0.0
 10
8.0789119749
 20
7.2454072127
 30
0.0
 10
8.1022855092
 20
7.2423524658
 30
0.0
 10
8.1257566587
 20
7.2401535948
 30
0.0
 10
8.1492908134
 20
7.2388240227
 30
0.0
 10
8.1650022178
 20
7.2385254715
 30
0.0
 10
8.172855792
 20
7.2385254715
 30
0.0
 11
7.8120118737
 21
7.335213308
 31
0.0
 11
7.8545348943
 21
7.3149182528
 31
0.0
 11
7.8760902603
 21
7.3054027572
 31
0.0
 11
7.8869430373
 21
7.300817987
 31
0.0
 11
7.8978464719
 21
7.29635428
 31
0.0
 11
7.9198057178
 21
7.2878095307
 31
0.0
 11
7.9419678726
 21
7.2798089715
 31
0.0
 11
7.9643326153
 21
7.2723933822
 31
0.0
 11
7.9868976592
 21
7.2656038481
 31
0.0
 11
8.0325871062
 21
7.2540723222
 31
0.0
 11
8.0556866785
 21
7.2494143407
 31
0.0
 11
8.0789318614
 21
7.2455441675
 31
0.0
 11
8.10230041
 21
7.2424952681
 31
0.0
 11
8.1257679471
 21
7.2402984308
 31
0.0
 11
8.1492992797
 21
7.2389708624
 31
0.0
 11
8.172855792
 21
7.2385254715
 31
0.0
  0
ENDSEC
  0
SECTION
  2
OBJECTS
  0
DICTIONARY
  5
C
100
AcDbDictionary
280
0
281
1
  3
ACAD_GROUP
350
D
  3
ACAD_MLINESTYLE
350
17
  3
ACAD_LAYOUT
350
1A
  3
ACAD_PLOTSETTINGS
350
19
  3
ACAD_PLOTSTYLENAME
350
E
  0
DICTIONARY
  5
D
102
{ACAD_REACTORS
330
C
102
}
100
AcDbDictionary
280
0
281
1
  0
ACDBDICTIONARYWDFLT
  5
E
102
{ACAD_REACTORS
330
C
102
}
100
AcDbDictionary
281
1
  3
Normal
350
F
100
AcDbDictionaryWithDefault
340
F
  0
DICTIONARY
  5
17
102
{ACAD_REACTORS
330
C
102
}
100
AcDbDictionary
280
0
281
1
  3
Standard
350
18
  0
DICTIONARY
  5
19
102
{ACAD_REACTORS
330
C
102
}
100
AcDbDictionary
281
1
  0
DICTIONARY
  5
1A
102
{ACAD_REACTORS
330
C
102
}
100
AcDbDictionary
281
1
  3
Model
350
234
  3
Layout1
350
235
  0
ACDBPLACEHOLDER
  5
F
102
{ACAD_REACTORS
330
E
102
}
  0
MLINESTYLE
  5
18
102
{ACAD_REACTORS
330
17
102
}
100
AcDbMlineStyle
  2
STANDARD
 70
0
  3

 62
256
 51
90.0
 52
90.0
 71
2
 49
0.5
 62
256
  6
BYLAYER
 49
-0.5
 62
256
  6
BYLAYER
  0
LAYOUT
  5
234
102
{ACAD_REACTORS
330
1A
102
}
100
AcDbPlotSettings
  1

  2
none_device
  4
ISO_A3_(420.00_x_297.00_MM)
  6

 40
0.0
 41
0.0
 42
0.0
 43
0.0
 44
420.0
 45
297.0
 46
0.0
 47
0.0
 48
0.0
 49
0.0
140
0.0
141
0.0
142
1.0
143
1.0
 70
1024
 72
0
 73
0
 74
0
  7

 75
0
147
1.0
148
0.0
149
0.0
100
AcDbLayout
  1
Model
 70
0
 71
0
 10
0.0
 20
0.0
 11
16.5354330709
 21
11.6929133858
 12
0.0
 22
0.0
 32
0.0
 14
0.0
 24
0.0
 34
0.0
 15
0.0
 25
0.0
 35
0.0
146
0.0
 13
0.0
 23
0.0
 33
0.0
 16
1.0
 26
0.0
 36
0.0
 17
0.0
 27
1.0
 37
0.0
 76
0
330
203
345
0
346
0
  0
LAYOUT
  5
235
102
{ACAD_REACTORS
330
1A
102
}
100
AcDbPlotSettings
  1

  2
none_device
  4
ISO_A3_(420.00_x_297.00_MM)
  6

 40
0.0
 41
0.0
 42
0.0
 43
0.0
 44
420.0
 45
297.0
 46
0.0
 47
0.0
 48
0.0
 49
0.0
140
0.0
141
0.0
142
1.0
143
1.0
 70
0
 72
0
 73
0
 74
0
  7

 75
0
147
1.0
148
0.0
149
0.0
100
AcDbLayout
  1
Layout1
 70
0
 71
1
 10
0.0
 20
0.0
 11
16.5354330709
 21
11.6929133858
 12
0.0
 22
0.0
 32
0.0
 14
0.0
 24
0.0
 34
0.0
 15
0.0
 25
0.0
 35
0.0
146
0.0
 13
0.0
 23
0.0
 33
0.0
 16
1.0
 26
0.0
 36
0.0
 17
0.0
 27
1.0
 37
0.0
 76
0
330
204
345
0
346
0
  0
ENDSEC
  0
EOF
