  0
SECTION
  2
HEADER
  9
$ACADVER
  1
AC1021
  9
$DWGCODEPAGE
  3
ANSI_1252
  9
$EXTMAX
 10
11.6929133858
 20
8.2677165354
 30
0.0
  9
$EXTMIN
 10
0.0
 20
0.0
 30
0.0
  9
$LIMMIN
 10
0.0
 20
0.0
  9
$LIMMAX
 10
11.6929133858
 20
8.2677165354
  9
$VIEWCTR
 10
5.8464566929
 20
4.1338582677
  9
$VIEWSIZE
 40
8.2677165354
  9
$CLAYER
  8
0
  9
$LTSCALE
 40
0.6431102362
  9
$CELTYPE
  6
BYLAYER
  9
$DIMSCALE
 40
1.0
  9
$DIMASZ
 40
0.1
  9
$DIMEXO
 40
0.0730807087
  9
$DIMDLI
 40
0.4443307087
  9
$DIMEXE
 40
0.2104724409
  9
$DIMCEN
 40
0.1052362205
  9
$DIMLFAC
 40
1.0
  9
$DIMBLK
  1
_FILLED
  9
$DIMTXT
 40
0.08
  9
$DIMTOL
 70
1
  9
$DIMLIM
 70
0
  9
$DIMTFAC
 40
1.0
  9
$DIMTP
 40
0.001
  9
$DIMTM
 40
0.001
  9
$PDMODE
 70
3
  9
$PDSIZE
 40
0.06
  9
$HANDSEED
  5
23E
  9
$TILEMODE
 70
1
  9
$MEASUREMENT
 70
0
  9
$INSUNITS
 70
1
  0
ENDSEC
  0
SECTION
  2
CLASSES
  0
CLASS
  1
ACDBDICTIONARYWDFLT
  2
AcDbDictionaryWithDefault
  3
AutoCAD 2000
 90
0
 91
1
280
0
281
0
  0
CLASS
  1
ACDBPLACEHOLDER
  2
AcDbPlaceHolder
  3
AutoCAD 2000
 90
0
 91
1
280
0
281
0
  0
CLASS
  1
LAYOUT
  2
AcDbLayout
  3
AutoCAD 2000
 90
0
 91
0
280
0
281
0
  0
ENDSEC
  0
SECTION
  2
TABLES
  0
TABLE
  2
VPORT
  5
8
100
AcDbSymbolTable
 70
2
  0
VPORT
  5
1F4
100
AcDbSymbolTableRecord
100
AcDbViewportTableRecord
  2
*ACTIVE
 70
0
 10
0.0
 20
0.0
 11
1.0
 21
1.0
 12
5.8464566929
 22
4.1338582677
 13
0.0
 23
0.0
 14
1.0
 24
1.0
 15
0.0
 25
0.0
 16
0.0
 26
0.0
 36
1.0
 17
0.0
 27
0.0
 37
0.0
 40
8.2677165354
 41
1.4142857143
 42
50.0
 43
0.0
 44
0.0
 50
0.0
 51
0.0
 71
0
 72
100
 73
1
 74
1
 75
0
 76
0
 77
0
 78
0
  0
ENDTAB
  0
TABLE
  2
LTYPE
  5
5
100
AcDbSymbolTable
 70
6
  0
LTYPE
  5
14
100
AcDbSymbolTableRecord
100
AcDbLinetypeTableRecord
  2
BYBLOCK
 70
0
  3

 72
65
 73
0
 40
0.0
  0
LTYPE
  5
15
100
AcDbSymbolTableRecord
100
AcDbLinetypeTableRecord
  2
BYLAYER
 70
0
  3

 72
65
 73
0
 40
0.0
  0
LTYPE
  5
16
100
AcDbSymbolTableRecord
100
AcDbLinetypeTableRecord
  2
CONTINUOUS
 70
64
  3
Solid line
 72
65
 73
0
 40
0.0
  0
LTYPE
  5
1F5
100
AcDbSymbolTableRecord
100
AcDbLinetypeTableRecord
  2
CENTER
 70
64
  3
____ _ ____ _ ____ _ ____ _ ____ _ ____ _ ____
 72
65
 73
4
 40
0.6
 49
0.375
 74
0
 49
-0.075
 74
0
 49
0.075
 74
0
 49
-0.075
 74
0
  0
LTYPE
  5
1F6
100
AcDbSymbolTableRecord
100
AcDbLinetypeTableRecord
  2
HIDDEN
 70
64
  3
- - - - - - - - - - - - - - - - - - - -
 72
65
 73
2
 40
0.2
 49
0.1
 74
0
 49
-0.1
 74
0
  0
LTYPE
  5
1F7
100
AcDbSymbolTableRecord
100
AcDbLinetypeTableRecord
  2
PHANTOM
 70
64
  3
_____ _ _ _____ _ _ _____ _ _ _____
 72
65
 73
6
 40
0.8
 49
0.45
 74
0
 49
-0.05
 74
0
 49
0.1
 74
0
 49
-0.05
 74
0
 49
0.1
 74
0
 49
-0.05
 74
0
  0
LTYPE
  5
1F8
100
AcDbSymbolTableRecord
100
AcDbLinetypeTableRecord
  2
DOT
 70
64
  3
. . . . . . . . . . . . . . . . . . . .
 72
65
 73
2
 40
0.2
 49
0.1
 74
0
 49
-0.1
 74
0
  0
LTYPE
  5
1F9
100
AcDbSymbolTableRecord
100
AcDbLinetypeTableRecord
  2
DASHED
 70
64
  3
- - - - - - - - - - - - - - - - - - - -
 72
65
 73
2
 40
0.2
 49
0.1
 74
0
 49
-0.1
 74
0
  0
ENDTAB
  0
TABLE
  2
LAYER
  5
2
100
AcDbSymbolTable
 70
36
  0
LAYER
  5
10
100
AcDbSymbolTableRecord
100
AcDbLayerTableRecord
  2
0
 70
0
 62
7
  6
CONTINUOUS
370
-3
390
F
  0
LAYER
  5
1FA
100
AcDbSymbolTableRecord
100
AcDbLayerTableRecord
  2
DEFAULT_1
 70
0
 62
7
  6
CENTER
370
-3
390
F
  0
LAYER
  5
1FB
100
AcDbSymbolTableRecord
100
AcDbLayerTableRecord
  2
DEFAULT_2
 70
0
 62
8
  6
HIDDEN
370
-3
390
F
  0
LAYER
  5
1FC
100
AcDbSymbolTableRecord
100
AcDbLayerTableRecord
  2
DEFAULT_3
 70
0
 62
7
  6
PHANTOM
370
-3
390
F
  0
LAYER
  5
1FD
100
AcDbSymbolTableRecord
100
AcDbLayerTableRecord
  2
DEFAULT_COORDINATE_SYSTEM
 70
0
 62
7
  6
CONTINUOUS
370
-3
390
F
  0
LAYER
  5
1FE
100
AcDbSymbolTableRecord
100
AcDbLayerTableRecord
  2
DEFAULT_DATUM_AXES
 70
0
 62
7
  6
CONTINUOUS
370
-3
390
F
  0
LAYER
  5
1FF
100
AcDbSymbolTableRecord
100
AcDbLayerTableRecord
  2
DEFAULT_DATUM_CURVES
 70
0
 62
7
  6
CONTINUOUS
370
-3
390
F
  0
LAYER
  5
200
100
AcDbSymbolTableRecord
100
AcDbLayerTableRecord
  2
DEFAULT_DATUM_PLANES
 70
0
 62
7
  6
CONTINUOUS
370
-3
390
F
  0
ENDTAB
  0
TABLE
  2
STYLE
  5
3
100
AcDbSymbolTable
 70
1
  0
STYLE
  5
11
100
AcDbSymbolTableRecord
100
AcDbTextStyleTableRecord
  2
STANDARD
 70
0
 40
0.0
 41
0.8
 50
0.0
 71
0
 42
0.2
  3
txt
  4

  0
STYLE
  5
201
100
AcDbSymbolTableRecord
100
AcDbTextStyleTableRecord
  2
TEXTSTYLE_1
 70
0
 40
0.0
 41
0.8
 50
0.0
 71
0
 42
0.2
  3
gdt
  4

  0
ENDTAB
  0
TABLE
  2
VIEW
  5
6
100
AcDbSymbolTable
 70
0
  0
ENDTAB
  0
TABLE
  2
UCS
  5
7
100
AcDbSymbolTable
 70
0
  0
ENDTAB
  0
TABLE
  2
APPID
  5
9
100
AcDbSymbolTable
 70
1
  0
APPID
  5
202
100
AcDbSymbolTableRecord
100
AcDbRegAppTableRecord
  2
ACAD
 70
0
  0
ENDTAB
  0
TABLE
  2
BLOCK_RECORD
  5
1
100
AcDbSymbolTable
 70
0
  0
BLOCK_RECORD
  5
203
100
AcDbSymbolTableRecord
100
AcDbBlockTableRecord
  2
*Model_Space
  0
BLOCK_RECORD
  5
204
100
AcDbSymbolTableRecord
100
AcDbBlockTableRecord
  2
*Paper_Space
  0
ENDTAB
  0
TABLE
  2
DIMSTYLE
  5
A
100
AcDbSymbolTable
 70
1
100
AcDbDimStyleTable
 71
0
  0
DIMSTYLE
105
205
100
AcDbSymbolTableRecord
100
AcDbDimStyleTableRecord
  2
STANDARD
 70
0
  3

  4

 40
1.0
 41
0.1
 42
0.0625
 43
0.38
 44
0.18
 45
0.0
 46
0.0
 47
0.001
 48
0.001
140
0.08
141
0.09
142
0.0
143
25.4
144
1.0
145
0.0
146
1.0
147
0.09
 71
1.0
 72
0.0
 73
1
 74
1
 75
0
 76
0
 77
0
 78
4
170
0
171
2
172
0
173
0
174
0
175
0
176
0
177
0
178
0
270
2
271
3
272
3
273
2
274
2
275
0
280
0
281
0
282
0
283
1
284
4
285
0
286
0
287
3
288
0
340
11
  0
ENDTAB
  0
ENDSEC
  0
SECTION
  2
BLOCKS
  0
BLOCK
  5
20
100
AcDbEntity
  8
0
100
AcDbBlockBegin
  2
*Model_Space
 70
0
 10
0.0
 20
0.0
 30
0.0
  3
*Model_Space
  1

  0
ENDBLK
  5
21
100
AcDbEntity
  8
0
100
AcDbBlockEnd
  0
BLOCK
  5
1C
100
AcDbEntity
  8
0
100
AcDbBlockBegin
  2
*Paper_Space
 70
0
 10
0.0
 20
0.0
 30
0.0
  3
*Paper_Space
  1

  0
ENDBLK
  5
1D
100
AcDbEntity
  8
0
100
AcDbBlockEnd
  0
ENDSEC
  0
SECTION
  2
ENTITIES
  0
LINE
  5
206
100
AcDbEntity
  8
0
100
AcDbLine
 62
6
  6
CONTINUOUS
 10
7.0207920251
 20
3.4191683054
 11
7.0827920251
 21
3.4191683054
  0
LINE
  5
207
100
AcDbEntity
  8
0
100
AcDbLine
 62
7
  6
CONTINUOUS
 10
5.1207920251
 20
4.4851683054
 11
5.1207920251
 21
3.8351683054
  0
LINE
  5
208
100
AcDbEntity
  8
0
100
AcDbLine
 62
9
  6
CONTINUOUS
 10
5.1310183122
 20
3.8336399766
 11
5.1310183122
 21
4.4866966343
  0
LINE
  5
209
100
AcDbEntity
  8
0
100
AcDbLine
 62
6
  6
CONTINUOUS
 10
7.0207920251
 20
3.5351683054
 11
6.671483089
 21
3.5351683054
  0
LINE
  5
20A
100
AcDbEntity
  8
0
100
AcDbLine
 62
6
  6
CONTINUOUS
 10
5.950402649
 20
3.711182167
 11
5.1310183122
 21
3.8336399766
  0
LINE
  5
20B
100
AcDbEntity
  8
0
100
AcDbLine
 62
6
  6
CONTINUOUS
 10
7.0207920251
 20
4.1601683054
 11
6.7681709255
 21
4.1601683054
  0
LINE
  5
20C
100
AcDbEntity
  8
0
100
AcDbLine
 62
9
  6
CONTINUOUS
 10
5.950402649
 20
3.711182167
 11
5.950402649
 21
4.6091544439
  0
LINE
  5
20D
100
AcDbEntity
  8
0
100
AcDbLine
 62
6
  6
CONTINUOUS
 10
6.671483089
 20
4.7851683054
 11
6.6503607226
 21
4.7640459391
  0
LINE
  5
20E
100
AcDbEntity
  8
0
100
AcDbLine
 62
6
  6
CONTINUOUS
 10
6.671483089
 20
3.5351683054
 11
6.6503607226
 21
3.5562906718
  0
LINE
  5
20F
100
AcDbEntity
  8
0
100
AcDbLine
 62
6
  6
CONTINUOUS
 10
5.950402649
 20
4.6091544439
 11
5.1310183122
 21
4.4866966343
  0
LINE
  5
210
100
AcDbEntity
  8
0
100
AcDbLine
 62
9
  6
CONTINUOUS
 10
6.1996089546
 20
3.5982489651
 11
6.1996089546
 21
4.7220876457
  0
LINE
  5
211
100
AcDbEntity
  8
0
100
AcDbLine
 62
9
  6
CONTINUOUS
 10
6.4379469724
 20
3.5807536387
 11
6.4379469724
 21
4.7395829721
  0
LINE
  5
212
100
AcDbEntity
  8
0
100
AcDbLine
 62
6
  6
CONTINUOUS
 10
6.671483089
 20
4.7851683054
 11
7.0207920251
 21
4.7851683054
  0
LINE
  5
213
100
AcDbEntity
  8
0
100
AcDbLine
 62
6
  6
CONTINUOUS
 10
7.0207920251
 20
4.9011683054
 11
7.0827920251
 21
4.9011683054
  0
LINE
  5
214
100
AcDbEntity
  8
0
100
AcDbLine
 62
9
  6
CONTINUOUS
 10
6.6503607226
 20
3.5562906718
 11
6.6503607226
 21
4.7640459391
  0
LINE
  5
215
100
AcDbEntity
  8
0
100
AcDbLine
 62
6
  6
CONTINUOUS
 10
7.0207920251
 20
3.4191714851
 11
7.0207920251
 21
4.9011651257
  0
LINE
  5
216
100
AcDbEntity
  8
0
100
AcDbLine
 62
9
  6
CONTINUOUS
 10
7.0827920251
 20
3.3471682533
 11
7.0827920251
 21
4.9731683575
  0
LINE
  5
217
100
AcDbEntity
  8
0
100
AcDbLine
 62
6
  6
CONTINUOUS
 10
7.2707920251
 20
3.1601683054
 11
7.2707920251
 21
5.1601683054
  0
LINE
  5
218
100
AcDbEntity
  8
0
100
AcDbLine
 62
6
  6
CONTINUOUS
 10
7.4577920251
 20
2.9801683054
 11
7.4577920251
 21
5.3401683054
  0
ARC
  5
219
100
AcDbEntity
  8
0
100
AcDbCircle
 62
6
  6
CONTINUOUS
 10
5.8764979434
 20
3.2166742353
 40
0.5
100
AcDbArc
 50
49.7426395414
 51
81.5
  0
ARC
  5
21A
100
AcDbEntity
  8
0
100
AcDbCircle
 62
6
  6
CONTINUOUS
 10
4.629573133
 20
4.1601683054
 40
0.589
100
AcDbArc
 50
33.4893985991
 51
326.5106014009
  0
ARC
  5
21B
100
AcDbEntity
  8
0
100
AcDbCircle
 62
6
  6
CONTINUOUS
 10
5.8764979434
 20
5.1036623756
 40
0.5
100
AcDbArc
 50
278.5
 51
310.2573604586
  0
ARC
  5
21C
100
AcDbEntity
  8
0
100
AcDbCircle
 62
6
  6
CONTINUOUS
 10
5.1327920251
 20
4.4748284439
 40
0.012
100
AcDbArc
 50
98.5000000116
 51
180.0
  0
ARC
  5
21D
100
AcDbEntity
  8
0
100
AcDbCircle
 62
6
  6
CONTINUOUS
 10
5.1327920251
 20
3.8455081669
 40
0.012
100
AcDbArc
 50
180.0
 51
261.4999999884
  0
ARC
  5
21E
100
AcDbEntity
  8
0
100
AcDbCircle
 62
6
  6
CONTINUOUS
 10
6.3012045745
 20
1.5978922045
 40
3.1217836219
100
AcDbArc
 50
85.4116110196
 51
85.5847535279
  0
ARC
  5
21F
100
AcDbEntity
  8
0
100
AcDbCircle
 62
6
  6
CONTINUOUS
 10
6.4417609648
 20
3.3309149227
 40
1.3866768819
100
AcDbArc
 50
84.9646067901
 51
85.2339873415
  0
ARC
  5
220
100
AcDbEntity
  8
0
100
AcDbCircle
 62
6
  6
CONTINUOUS
 10
7.4577920251
 20
3.1673044165
 40
0.1871361111
100
AcDbArc
 50
182.1854050713
 51
270.0
  0
ARC
  5
221
100
AcDbEntity
  8
0
100
AcDbCircle
 62
6
  6
CONTINUOUS
 10
7.2697920251
 20
3.3471656316
 40
0.187
100
AcDbArc
 50
180.0
 51
270.3063960032
  0
ARC
  5
222
100
AcDbEntity
  8
0
100
AcDbCircle
 62
6
  6
CONTINUOUS
 10
6.5287383562
 20
3.4346683054
 40
0.172
100
AcDbArc
 50
45.0
 51
121.8607670822
  0
ARC
  5
223
100
AcDbEntity
  8
0
100
AcDbCircle
 62
6
  6
CONTINUOUS
 10
6.3307920251
 20
3.7531683054
 40
0.203
100
AcDbArc
 50
229.7426395414
 51
301.8607670822
  0
ARC
  5
224
100
AcDbEntity
  8
0
100
AcDbCircle
 62
6
  6
CONTINUOUS
 10
6.3307920251
 20
4.5671683054
 40
0.203
100
AcDbArc
 50
58.1392329178
 51
130.2573604586
  0
ARC
  5
225
100
AcDbEntity
  8
0
100
AcDbCircle
 62
6
  6
CONTINUOUS
 10
6.5615408906
 20
5.4429431542
 40
0.7318439705
100
AcDbArc
 50
264.1800574959
 51
264.8839751763
  0
ARC
  5
226
100
AcDbEntity
  8
0
100
AcDbCircle
 62
6
  6
CONTINUOUS
 10
6.5386530076
 20
5.2152667129
 40
0.503020303
100
AcDbArc
 50
263.9846841932
 51
264.1439421275
  0
ARC
  5
227
100
AcDbEntity
  8
0
100
AcDbCircle
 62
6
  6
CONTINUOUS
 10
6.5080750185
 20
4.9497349703
 40
0.2321317073
100
AcDbArc
 50
262.3460301294
 51
262.9877093864
  0
ARC
  5
228
100
AcDbEntity
  8
0
100
AcDbCircle
 62
6
  6
CONTINUOUS
 10
6.5394075331
 20
4.9042613236
 40
0.193490925
100
AcDbArc
 50
242.2265903617
 51
248.549455228
  0
ARC
  5
229
100
AcDbEntity
  8
0
100
AcDbCircle
 62
6
  6
CONTINUOUS
 10
6.5380020133
 20
4.8919843838
 40
0.1822118615
100
AcDbArc
 50
249.8818918648
 51
251.3508944692
  0
ARC
  5
22A
100
AcDbEntity
  8
0
100
AcDbCircle
 62
6
  6
CONTINUOUS
 10
6.5287383562
 20
4.8856683054
 40
0.172
100
AcDbArc
 50
295.5941705446
 51
315.0
  0
ARC
  5
22B
100
AcDbEntity
  8
0
100
AcDbCircle
 62
6
  6
CONTINUOUS
 10
6.5287383562
 20
4.8856683054
 40
0.172
100
AcDbArc
 50
238.1392329178
 51
242.2648167511
  0
ARC
  5
22C
100
AcDbEntity
  8
0
100
AcDbCircle
 62
6
  6
CONTINUOUS
 10
6.5361868461
 20
4.8638784822
 40
0.1551743971
100
AcDbArc
 50
244.199264785
 51
246.4573596258
  0
ARC
  5
22D
100
AcDbEntity
  8
0
100
AcDbCircle
 62
6
  6
CONTINUOUS
 10
6.5316846291
 20
4.8523743606
 40
0.1428173011
100
AcDbArc
 50
248.6698395066
 51
255.6467645068
  0
ARC
  5
22E
100
AcDbEntity
  8
0
100
AcDbCircle
 62
6
  6
CONTINUOUS
 10
6.5289288148
 20
4.8431410473
 40
0.1333270052
100
AcDbArc
 50
275.424628101
 51
282.1433907911
  0
ARC
  5
22F
100
AcDbEntity
  8
0
100
AcDbCircle
 62
6
  6
CONTINUOUS
 10
7.4577920251
 20
5.1530321943
 40
0.1871361111
100
AcDbArc
 50
90.0
 51
177.8145949287
  0
ARC
  5
230
100
AcDbEntity
  8
0
100
AcDbCircle
 62
6
  6
CONTINUOUS
 10
7.2697920251
 20
4.9731709792
 40
0.187
100
AcDbArc
 50
89.6936039968
 51
180.0
  0
SPLINE
  5
231
100
AcDbEntity
  8
0
100
AcDbSpline
 62
6
  6
CONTINUOUS
 70
0
 71
3
 72
9
 73
5
 74
3
 42
0.0000001
 43
0.0000001
 44
0.0000000001
 12
0.0310545138
 22
0.0051725353
 32
0.0
 13
0.0295951226
 23
0.0107362316
 33
0.0
 40
0.0
 40
0.0
 40
0.0
 40
0.0
 40
0.4999917933
 40
1.0
 40
1.0
 40
1.0
 40
1.0
 10
6.5569753959
 20
4.712797121
 30
0.0
 10
6.5621510632
 20
4.713659196
 30
0.0
 10
6.5724238702
 20
4.7158892843
 30
0.0
 10
6.5824467876
 20
4.7190489701
 30
0.0
 10
6.587379389
 20
4.7208383714
 30
0.0
 11
6.5569753959
 21
4.712797121
 31
0.0
 11
6.5723612312
 21
4.7161216395
 31
0.0
 11
6.587379389
 21
4.7208383714
 31
0.0
  0
SPLINE
  5
232
100
AcDbEntity
  8
0
100
AcDbSpline
 62
6
  6
CONTINUOUS
 70
0
 71
3
 72
25
 73
21
 74
19
 42
0.0000001
 43
0.0000001
 44
0.0000000001
 12
0.0438938145
 22
-0.0128921572
 32
0.0
 13
0.0453045889
 23
0.0063536523
 33
0.0
 40
0.0
 40
0.0
 40
0.0
 40
0.0
 40
0.0504254936
 40
0.1032088089
 40
0.1583626347
 40
0.2159040974
 40
0.3378894531
 40
0.402135611
 40
0.4682827514
 40
0.5358354533
 40
0.5699780488
 40
0.6042789968
 40
0.638665678
 40
0.6730549199
 40
0.7415025519
 40
0.7753940645
 40
0.8089513047
 40
0.8748039653
 40
0.9386289833
 40
1.0
 40
1.0
 40
1.0
 40
1.0
 10
6.4962802618
 20
4.7140147301
 30
0.0
 10
6.4970180509
 20
4.7137980323
 30
0.0
 10
6.4985321312
 20
4.7133679919
 30
0.0
 10
6.5008675668
 20
4.7127529175
 30
0.0
 10
6.5033208228
 20
4.7121610238
 30
0.0
 10
6.5068175754
 20
4.7113985105
 30
0.0
 10
6.5104775901
 20
4.7107372727
 30
0.0
 10
6.5142894694
 20
4.7102039948
 30
0.0
 10
6.5172899133
 20
4.7098701613
 30
0.0
 10
6.5198411727
 20
4.7096602546
 30
0.0
 10
6.52191141
 20
4.7095367334
 30
0.0
 10
6.5234780499
 20
4.7094677727
 30
0.0
 10
6.525049339
 20
4.7094233011
 30
0.0
 10
6.5271417878
 20
4.7093961085
 30
0.0
 10
6.5292270837
 20
4.7094161691
 30
0.0
 10
6.5312983956
 20
4.709483015
 30
0.0
 10
6.5333289206
 20
4.7095797226
 30
0.0
 10
6.5358124004
 20
4.7097544444
 30
0.0
 10
6.5387119227
 20
4.7100416079
 30
0.0
 10
6.5406062371
 20
4.7102813384
 30
0.0
 10
6.5415330334
 20
4.7104113151
 30
0.0
 11
6.4962802618
 21
4.7140147301
 31
0.0
 11
6.4984994467
 21
4.7133847821
 31
0.0
 11
6.5008346168
 21
4.7127700514
 31
0.0
 11
6.5032874455
 21
4.7121784097
 31
0.0
 11
6.5058594606
 21
4.7116177958
 31
0.0
 11
6.5113516618
 21
4.7106285566
 31
0.0
 11
6.5142624692
 21
4.710221513
 31
0.0
 11
6.5172699966
 21
4.709886796
 31
0.0
 11
6.5203500236
 21
4.7096338335
 31
0.0
 11
6.5219092116
 21
4.7095409247
 31
0.0
 11
6.5234768919
 21
4.7094719272
 31
0.0
 11
6.5250493792
 21
4.7094273129
 31
0.0
 11
6.526622483
 21
4.7094068238
 31
0.0
 11
6.5297536759
 21
4.709437041
 31
0.0
 11
6.5313033328
 21
4.7094871574
 31
0.0
 11
6.532836769
 21
4.7095601997
 31
0.0
 11
6.5358420029
 21
4.7097710854
 31
0.0
 11
6.5387476671
 21
4.710058694
 31
0.0
 11
6.5415330334
 21
4.7104113151
 31
0.0
  0
SPLINE
  5
233
100
AcDbEntity
  8
0
100
AcDbSpline
 62
6
  6
CONTINUOUS
 70
0
 71
3
 72
14
 73
10
 74
8
 42
0.0000001
 43
0.0000001
 44
0.0000000001
 12
-0.040806642
 22
-0.0077094787
 32
0.0
 13
-0.041438732
 23
0.0027293925
 33
0.0
 40
0.0
 40
0.0
 40
0.0
 40
0.0
 40
0.2494344781
 40
0.3742983716
 40
0.4992589776
 40
0.624319879
 40
0.7494841677
 40
0.874725968
 40
1.0
 40
1.0
 40
1.0
 40
1.0
 10
6.5578254597
 20
4.7107145545
 30
0.0
 10
6.5544325986
 20
4.7100735513
 30
0.0
 10
6.5493101673
 20
4.7092660276
 30
0.0
 10
6.542439616
 20
4.7085106796
 30
0.0
 10
6.5372649303
 20
4.7081068394
 30
0.0
 10
6.5320759538
 20
4.7078674148
 30
0.0
 10
6.5268780296
 20
4.7077943432
 30
0.0
 10
6.5216775479
 20
4.7078876909
 30
0.0
 10
6.5182133085
 20
4.7080604729
 30
0.0
 10
6.5164829095
 20
4.7081744469
 30
0.0
 11
6.5578254597
 21
4.7107145545
 31
0.0
 11
6.5475927207
 21
4.7091044057
 31
0.0
 11
6.5424383332
 21
4.7085380171
 31
0.0
 11
6.5372646261
 21
4.7081343707
 31
0.0
 11
6.5320765415
 21
4.7078952037
 31
0.0
 11
6.5268791681
 21
4.7078220793
 31
0.0
 11
6.5216788969
 21
4.7079153094
 31
0.0
 11
6.5164829095
 21
4.7081744469
 31
0.0
  0
SPLINE
  5
234
100
AcDbEntity
  8
0
100
AcDbSpline
 62
6
  6
CONTINUOUS
 70
0
 71
3
 72
12
 73
8
 74
6
 42
0.0000001
 43
0.0000001
 44
0.0000000001
 12
-0.0283723336
 22
-0.0132117407
 32
0.0
 13
-0.0305512988
 23
-0.0067939348
 33
0.0
 40
0.0
 40
0.0
 40
0.0
 40
0.0
 40
0.22818417
 40
0.4724019651
 40
0.5998875953
 40
0.7305419032
 40
1.0
 40
1.0
 40
1.0
 40
1.0
 10
6.587382317
 20
4.7208281659
 30
0.0
 10
6.5852242779
 20
4.7198232625
 30
0.0
 10
6.5807078819
 20
4.7178457035
 30
0.0
 10
6.574855432
 20
4.7156201274
 30
0.0
 10
6.569884759
 20
4.7139570104
 30
0.0
 10
6.5646171685
 20
4.7123589194
 30
0.0
 10
6.560569558
 20
4.7113247814
 30
0.0
 10
6.5578254597
 20
4.7107145545
 30
0.0
 11
6.587382317
 21
4.7208281659
 31
0.0
 11
6.5808396325
 21
4.7179653086
 31
0.0
 11
6.5736943357
 21
4.7152511333
 31
0.0
 11
6.5699104828
 21
4.7139852322
 31
0.0
 11
6.5659973638
 21
4.7127983142
 31
0.0
 11
6.5578254597
 21
4.7107145545
 31
0.0
  0
LINE
  5
235
100
AcDbEntity
  8
0
100
AcDbLine
 62
6
  6
CONTINUOUS
 10
6.4492453735
 20
4.7330610334
 11
6.4486920251
 21
4.7334297266
  0
SPLINE
  5
236
100
AcDbEntity
  8
0
100
AcDbSpline
 62
6
  6
CONTINUOUS
 70
0
 71
3
 72
14
 73
10
 74
8
 42
0.0000001
 43
0.0000001
 44
0.0000000001
 12
-0.0137680417
 22
0.0065659868
 32
0.0
 13
-0.0128193695
 23
0.0082664939
 33
0.0
 40
0.0
 40
0.0
 40
0.0
 40
0.0
 40
0.3246777158
 40
0.469192293
 40
0.6014775022
 40
0.7212161498
 40
0.8279135956
 40
0.9210247505
 40
1.0
 40
1.0
 40
1.0
 40
1.0
 10
6.4875711764
 20
4.7142883296
 30
0.0
 10
6.4860811176
 20
4.7149989394
 30
0.0
 10
6.4839454968
 20
4.7160635984
 30
0.0
 10
6.4812448888
 20
4.7174988577
 30
0.0
 10
6.4794792653
 20
4.7184725041
 30
0.0
 10
6.4778943815
 20
4.7193753045
 30
0.0
 10
6.4764939958
 20
4.7201992606
 30
0.0
 10
6.4752829778
 20
4.7209360318
 30
0.0
 10
6.4745427829
 20
4.7214027101
 30
0.0
 10
6.4742053119
 20
4.7216203262
 30
0.0
 11
6.4875711764
 21
4.7142883296
 31
0.0
 11
6.4831393202
 21
4.7164987197
 31
0.0
 11
6.4811927987
 21
4.7175332564
 31
0.0
 11
6.4794257922
 21
4.7185075706
 31
0.0
 11
6.4778390266
 21
4.7194120381
 31
0.0
 11
6.4764366473
 21
4.7202379562
 31
0.0
 11
6.4752237203
 21
4.7209768704
 31
0.0
 11
6.4742053119
 21
4.7216203262
 31
0.0
  0
SPLINE
  5
237
100
AcDbEntity
  8
0
100
AcDbSpline
 62
6
  6
CONTINUOUS
 70
0
 71
3
 72
13
 73
9
 74
7
 42
0.0000001
 43
0.0000001
 44
0.0000000001
 12
-0.0294653685
 22
0.0028969914
 32
0.0
 13
-0.0281456125
 23
0.0091883074
 33
0.0
 40
0.0
 40
0.0
 40
0.0
 40
0.0
 40
0.1313396583
 40
0.2614445456
 40
0.3900122664
 40
0.5167297545
 40
0.7635041172
 40
1.0
 40
1.0
 40
1.0
 40
1.0
 10
6.5164829095
 20
4.7081744469
 30
0.0
 10
6.5151929191
 20
4.7083012768
 30
0.0
 10
6.5126287024
 20
4.7085923758
 30
0.0
 10
6.5088180211
 20
4.7091383101
 30
0.0
 10
6.5050693827
 20
4.7097849484
 30
0.0
 10
6.5002115708
 20
4.7107638182
 30
0.0
 10
6.4943609973
 20
4.7121949552
 30
0.0
 10
6.4897899503
 20
4.7135639973
 30
0.0
 10
6.4875711764
 20
4.7142883296
 30
0.0
 11
6.5164829095
 21
4.7081744469
 31
0.0
 11
6.512619047
 21
4.7086126448
 31
0.0
 11
6.5088058684
 21
4.7091586599
 31
0.0
 11
6.5050546944
 21
4.7098056537
 31
0.0
 11
6.5013768449
 21
4.7105467873
 31
0.0
 11
6.494279138
 21
4.7122803997
 31
0.0
 11
6.4875711764
 21
4.7142883296
 31
0.0
  0
LINE
  5
238
100
AcDbEntity
  8
0
100
AcDbLine
 62
6
  6
CONTINUOUS
 10
6.6030413227
 20
4.7305455503
 11
6.5875011948
 21
4.7208971888
  0
LINE
  5
239
100
AcDbEntity
  8
0
100
AcDbLine
 62
6
  6
CONTINUOUS
 10
6.5875011948
 20
4.7208971888
 11
6.587382317
 21
4.7208281659
  0
SPLINE
  5
23A
100
AcDbEntity
  8
0
100
AcDbSpline
 62
6
  6
CONTINUOUS
 70
0
 71
3
 72
40
 73
36
 74
34
 42
0.0000001
 43
0.0000001
 44
0.0000000001
 12
-0.3309617753
 22
-0.5732426102
 32
0.0
 13
0.3309617753
 23
-0.5732426102
 33
0.0
 40
0.0
 40
0.0
 40
0.0
 40
0.0
 40
0.0317982885
 40
0.0635276689
 40
0.09518225
 40
0.1109808291
 40
0.1267599817
 40
0.1896658033
 40
0.2209978159
 40
0.2522514331
 40
0.3145162117
 40
0.3455481091
 40
0.3765185124
 40
0.3919838858
 40
0.40743752
 40
0.4228812692
 40
0.438316655
 40
0.4691662692
 40
0.5000008811
 40
0.5308354872
 40
0.5616850947
 40
0.5771204795
 40
0.5925642296
 40
0.6234815908
 40
0.6544519796
 40
0.6854838711
 40
0.7477486159
 40
0.7790022176
 40
0.8103342198
 40
0.873240019
 40
0.8890191684
 40
0.9048177458
 40
0.9364723271
 40
0.96820171
 40
1.0
 40
1.0
 40
1.0
 40
1.0
 10
6.7681709255
 20
4.1601683054
 30
0.0
 10
6.7646629195
 20
4.1540922608
 30
0.0
 10
6.7577686961
 20
4.1418869048
 30
0.0
 10
6.7478151911
 20
4.1233926624
 30
0.0
 10
6.7398758049
 20
4.1078280459
 30
0.0
 10
6.7337580513
 20
4.0952888186
 30
0.0
 10
6.7248472358
 20
4.0764422449
 30
0.0
 10
6.7151658992
 20
4.0541657138
 30
0.0
 10
6.7052553251
 20
4.0283074291
 30
0.0
 10
6.69620462
 20
4.0022861082
 30
0.0
 10
6.6884708911
 20
3.9758873605
 30
0.0
 10
6.6822447876
 20
3.9491797566
 30
0.0
 10
6.6790124807
 20
3.9323903923
 30
0.0
 10
6.6768382331
 20
3.9189084687
 30
0.0
 10
6.6754176241
 20
3.9087772858
 30
0.0
 10
6.6742108681
 20
3.898625049
 30
0.0
 10
6.6728899674
 20
3.8850685095
 30
0.0
 10
6.6717815858
 20
3.8680832029
 30
0.0
 10
6.6713338797
 20
3.8476682668
 30
0.0
 10
6.6717815747
 20
3.8272533242
 30
0.0
 10
6.6728899775
 20
3.8102680401
 30
0.0
 10
6.6742108876
 20
3.7967114663
 30
0.0
 10
6.6758203797
 20
3.7831710321
 30
0.0
 10
6.6783678558
 20
3.7662944792
 30
0.0
 10
6.6822447788
 20
3.7461569387
 30
0.0
 10
6.6884709186
 20
3.7194491195
 30
0.0
 10
6.6962046248
 20
3.69305048
 30
0.0
 10
6.7052553353
 20
3.667029158
 30
0.0
 10
6.7151659054
 20
3.6411708875
 30
0.0
 10
6.7248472383
 20
3.6188943617
 30
0.0
 10
6.7337580506
 20
3.6000477934
 30
0.0
 10
6.7398758035
 20
3.5875085669
 30
0.0
 10
6.7478151899
 20
3.5719439502
 30
0.0
 10
6.7577686955
 20
3.5534497071
 30
0.0
 10
6.7646629193
 20
3.5412443503
 30
0.0
 10
6.7681709255
 20
3.5351683054
 30
0.0
 11
6.7681709255
 21
4.1601683054
 31
0.0
 11
6.7578240883
 21
4.1418390179
 31
0.0
 11
6.747875767
 21
4.1233421879
 31
0.0
 11
6.7383602258
 21
4.1046745949
 31
0.0
 11
6.7337754554
 21
4.0952757559
 31
0.0
 11
6.7293117612
 21
4.0858330364
 31
0.0
 11
6.7127663958
 21
4.0476225106
 31
0.0
 11
6.7053508035
 21
4.0282541968
 31
0.0
 11
6.6985613115
 21
4.0087125574
 31
0.0
 11
6.687029806
 21
3.969144119
 31
0.0
 11
6.6823718283
 21
3.9491384849
 31
0.0
 11
6.6785017317
 21
3.9290070676
 31
0.0
 11
6.6768725537
 21
3.9189006441
 31
0.0
 11
6.6754528432
 21
3.9087705203
 31
0.0
 11
6.6742465431
 21
3.8986193623
 31
0.0
 11
6.6732559756
 21
3.8884504493
 31
0.0
 11
6.6719284531
 21
3.8680735603
 31
0.0
 11
6.671483089
 21
3.8476682642
 31
0.0
 11
6.6719284481
 21
3.8272629718
 31
0.0
 11
6.6732559874
 21
3.8068860884
 31
0.0
 11
6.6742465585
 21
3.7967171764
 31
0.0
 11
6.6754528525
 21
3.7865660171
 31
0.0
 11
6.6785017371
 21
3.7663294748
 31
0.0
 11
6.6823718424
 21
3.746198069
 31
0.0
 11
6.6870298203
 21
3.7261924389
 31
0.0
 11
6.6985613198
 21
3.6866240221
 31
0.0
 11
6.705350812
 21
3.6670823936
 31
0.0
 11
6.712766403
 21
3.6477140866
 31
0.0
 11
6.7293117616
 21
3.6095035741
 31
0.0
 11
6.7337754545
 21
3.6000608564
 31
0.0
 11
6.7383602243
 21
3.5906620183
 31
0.0
 11
6.7478757655
 21
3.5719944252
 31
0.0
 11
6.7578240878
 21
3.5534975938
 31
0.0
 11
6.7681709255
 21
3.5351683054
 31
0.0
  0
SPLINE
  5
23B
100
AcDbEntity
  8
0
100
AcDbSpline
 62
6
  6
CONTINUOUS
 70
0
 71
3
 72
40
 73
36
 74
34
 42
0.0000001
 43
0.0000001
 44
0.0000000001
 12
-0.3309617753
 22
-0.5732426102
 32
0.0
 13
0.3309617753
 23
-0.5732426102
 33
0.0
 40
0.0
 40
0.0
 40
0.0
 40
0.0
 40
0.0317982885
 40
0.0635276689
 40
0.09518225
 40
0.1109808291
 40
0.1267599817
 40
0.1896658033
 40
0.2209978159
 40
0.2522514331
 40
0.3145162117
 40
0.3455481091
 40
0.3765185124
 40
0.3919838858
 40
0.40743752
 40
0.4228812692
 40
0.438316655
 40
0.4691662692
 40
0.5000008811
 40
0.5308354872
 40
0.5616850947
 40
0.5771204795
 40
0.5925642296
 40
0.6234815908
 40
0.6544519796
 40
0.6854838711
 40
0.7477486159
 40
0.7790022176
 40
0.8103342198
 40
0.873240019
 40
0.8890191684
 40
0.9048177458
 40
0.9364723271
 40
0.96820171
 40
1.0
 40
1.0
 40
1.0
 40
1.0
 10
6.7681709255
 20
4.7851683054
 30
0.0
 10
6.7646629195
 20
4.7790922608
 30
0.0
 10
6.7577686961
 20
4.7668869048
 30
0.0
 10
6.7478151911
 20
4.7483926624
 30
0.0
 10
6.7398758049
 20
4.7328280459
 30
0.0
 10
6.7337580513
 20
4.7202888186
 30
0.0
 10
6.7248472358
 20
4.7014422449
 30
0.0
 10
6.7151658992
 20
4.6791657138
 30
0.0
 10
6.7052553251
 20
4.6533074291
 30
0.0
 10
6.69620462
 20
4.6272861082
 30
0.0
 10
6.6884708911
 20
4.6008873605
 30
0.0
 10
6.6822447876
 20
4.5741797566
 30
0.0
 10
6.6790124807
 20
4.5573903923
 30
0.0
 10
6.6768382331
 20
4.5439084687
 30
0.0
 10
6.6754176241
 20
4.5337772858
 30
0.0
 10
6.6742108681
 20
4.523625049
 30
0.0
 10
6.6728899674
 20
4.5100685095
 30
0.0
 10
6.6717815858
 20
4.4930832029
 30
0.0
 10
6.6713338797
 20
4.4726682668
 30
0.0
 10
6.6717815747
 20
4.4522533242
 30
0.0
 10
6.6728899775
 20
4.4352680401
 30
0.0
 10
6.6742108876
 20
4.4217114663
 30
0.0
 10
6.6758203797
 20
4.4081710321
 30
0.0
 10
6.6783678558
 20
4.3912944792
 30
0.0
 10
6.6822447788
 20
4.3711569387
 30
0.0
 10
6.6884709186
 20
4.3444491195
 30
0.0
 10
6.6962046248
 20
4.31805048
 30
0.0
 10
6.7052553353
 20
4.292029158
 30
0.0
 10
6.7151659054
 20
4.2661708875
 30
0.0
 10
6.7248472383
 20
4.2438943617
 30
0.0
 10
6.7337580506
 20
4.2250477934
 30
0.0
 10
6.7398758035
 20
4.2125085669
 30
0.0
 10
6.7478151899
 20
4.1969439502
 30
0.0
 10
6.7577686955
 20
4.1784497071
 30
0.0
 10
6.7646629193
 20
4.1662443503
 30
0.0
 10
6.7681709255
 20
4.1601683054
 30
0.0
 11
6.7681709255
 21
4.7851683054
 31
0.0
 11
6.7578240883
 21
4.7668390179
 31
0.0
 11
6.747875767
 21
4.7483421879
 31
0.0
 11
6.7383602258
 21
4.7296745949
 31
0.0
 11
6.7337754554
 21
4.7202757559
 31
0.0
 11
6.7293117612
 21
4.7108330364
 31
0.0
 11
6.7127663958
 21
4.6726225106
 31
0.0
 11
6.7053508035
 21
4.6532541968
 31
0.0
 11
6.6985613115
 21
4.6337125574
 31
0.0
 11
6.687029806
 21
4.594144119
 31
0.0
 11
6.6823718283
 21
4.5741384849
 31
0.0
 11
6.6785017317
 21
4.5540070676
 31
0.0
 11
6.6768725537
 21
4.5439006441
 31
0.0
 11
6.6754528432
 21
4.5337705203
 31
0.0
 11
6.6742465431
 21
4.5236193623
 31
0.0
 11
6.6732559756
 21
4.5134504493
 31
0.0
 11
6.6719284531
 21
4.4930735603
 31
0.0
 11
6.671483089
 21
4.4726682642
 31
0.0
 11
6.6719284481
 21
4.4522629718
 31
0.0
 11
6.6732559874
 21
4.4318860884
 31
0.0
 11
6.6742465585
 21
4.4217171764
 31
0.0
 11
6.6754528525
 21
4.4115660171
 31
0.0
 11
6.6785017371
 21
4.3913294748
 31
0.0
 11
6.6823718424
 21
4.371198069
 31
0.0
 11
6.6870298203
 21
4.3511924389
 31
0.0
 11
6.6985613198
 21
4.3116240221
 31
0.0
 11
6.705350812
 21
4.2920823936
 31
0.0
 11
6.712766403
 21
4.2727140866
 31
0.0
 11
6.7293117616
 21
4.2345035741
 31
0.0
 11
6.7337754545
 21
4.2250608564
 31
0.0
 11
6.7383602243
 21
4.2156620183
 31
0.0
 11
6.7478757655
 21
4.1969944252
 31
0.0
 11
6.7578240878
 21
4.1784975938
 31
0.0
 11
6.7681709255
 21
4.1601683054
 31
0.0
  0
ENDSEC
  0
SECTION
  2
OBJECTS
  0
DICTIONARY
  5
C
100
AcDbDictionary
280
0
281
1
  3
ACAD_GROUP
350
D
  3
ACAD_MLINESTYLE
350
17
  3
ACAD_LAYOUT
350
1A
  3
ACAD_PLOTSETTINGS
350
19
  3
ACAD_PLOTSTYLENAME
350
E
  0
DICTIONARY
  5
D
102
{ACAD_REACTORS
330
C
102
}
100
AcDbDictionary
280
0
281
1
  0
ACDBDICTIONARYWDFLT
  5
E
102
{ACAD_REACTORS
330
C
102
}
100
AcDbDictionary
281
1
  3
Normal
350
F
100
AcDbDictionaryWithDefault
340
F
  0
DICTIONARY
  5
17
102
{ACAD_REACTORS
330
C
102
}
100
AcDbDictionary
280
0
281
1
  3
Standard
350
18
  0
DICTIONARY
  5
19
102
{ACAD_REACTORS
330
C
102
}
100
AcDbDictionary
281
1
  0
DICTIONARY
  5
1A
102
{ACAD_REACTORS
330
C
102
}
100
AcDbDictionary
281
1
  3
Model
350
23C
  3
Layout1
350
23D
  0
ACDBPLACEHOLDER
  5
F
102
{ACAD_REACTORS
330
E
102
}
  0
MLINESTYLE
  5
18
102
{ACAD_REACTORS
330
17
102
}
100
AcDbMlineStyle
  2
STANDARD
 70
0
  3

 62
256
 51
90.0
 52
90.0
 71
2
 49
0.5
 62
256
  6
BYLAYER
 49
-0.5
 62
256
  6
BYLAYER
  0
LAYOUT
  5
23C
102
{ACAD_REACTORS
330
1A
102
}
100
AcDbPlotSettings
  1

  2
none_device
  4
ISO_A4_(297.00_x_210.00_MM)
  6

 40
0.0
 41
0.0
 42
0.0
 43
0.0
 44
297.0
 45
210.0
 46
0.0
 47
0.0
 48
0.0
 49
0.0
140
0.0
141
0.0
142
1.0
143
1.0
 70
1024
 72
0
 73
0
 74
0
  7

 75
0
147
1.0
148
0.0
149
0.0
100
AcDbLayout
  1
Model
 70
0
 71
0
 10
0.0
 20
0.0
 11
11.6929133858
 21
8.2677165354
 12
0.0
 22
0.0
 32
0.0
 14
0.0
 24
0.0
 34
0.0
 15
0.0
 25
0.0
 35
0.0
146
0.0
 13
0.0
 23
0.0
 33
0.0
 16
1.0
 26
0.0
 36
0.0
 17
0.0
 27
1.0
 37
0.0
 76
0
330
203
345
0
346
0
  0
LAYOUT
  5
23D
102
{ACAD_REACTORS
330
1A
102
}
100
AcDbPlotSettings
  1

  2
none_device
  4
ISO_A4_(297.00_x_210.00_MM)
  6

 40
0.0
 41
0.0
 42
0.0
 43
0.0
 44
297.0
 45
210.0
 46
0.0
 47
0.0
 48
0.0
 49
0.0
140
0.0
141
0.0
142
1.0
143
1.0
 70
0
 72
0
 73
0
 74
0
  7

 75
0
147
1.0
148
0.0
149
0.0
100
AcDbLayout
  1
Layout1
 70
0
 71
1
 10
0.0
 20
0.0
 11
11.6929133858
 21
8.2677165354
 12
0.0
 22
0.0
 32
0.0
 14
0.0
 24
0.0
 34
0.0
 15
0.0
 25
0.0
 35
0.0
146
0.0
 13
0.0
 23
0.0
 33
0.0
 16
1.0
 26
0.0
 36
0.0
 17
0.0
 27
1.0
 37
0.0
 76
0
330
204
345
0
346
0
  0
ENDSEC
  0
EOF
