  0
SECTION
  2
HEADER
  9
$ACADVER
  1
AC1021
  9
$DWGCODEPAGE
  3
ANSI_1252
  9
$EXTMAX
 10
11.6929133858
 20
8.2677165354
 30
0.0
  9
$EXTMIN
 10
0.0
 20
0.0
 30
0.0
  9
$LIMMIN
 10
0.0
 20
0.0
  9
$LIMMAX
 10
11.6929133858
 20
8.2677165354
  9
$VIEWCTR
 10
5.8464566929
 20
4.1338582677
  9
$VIEWSIZE
 40
8.2677165354
  9
$CLAYER
  8
0
  9
$LTSCALE
 40
0.6431102362
  9
$CELTYPE
  6
BYLAYER
  9
$DIMSCALE
 40
1.0
  9
$DIMASZ
 40
0.1
  9
$DIMEXO
 40
0.0730807087
  9
$DIMDLI
 40
0.4443307087
  9
$DIMEXE
 40
0.2104724409
  9
$DIMCEN
 40
0.1052362205
  9
$DIMLFAC
 40
1.0
  9
$DIMBLK
  1
_FILLED
  9
$DIMTXT
 40
0.08
  9
$DIMTOL
 70
1
  9
$DIMLIM
 70
0
  9
$DIMTFAC
 40
1.0
  9
$DIMTP
 40
0.001
  9
$DIMTM
 40
0.001
  9
$PDMODE
 70
3
  9
$PDSIZE
 40
0.06
  9
$HANDSEED
  5
23F
  9
$TILEMODE
 70
1
  9
$MEASUREMENT
 70
0
  9
$INSUNITS
 70
1
  0
ENDSEC
  0
SECTION
  2
CLASSES
  0
CLASS
  1
ACDBDICTIONARYWDFLT
  2
AcDbDictionaryWithDefault
  3
AutoCAD 2000
 90
0
 91
1
280
0
281
0
  0
CLASS
  1
ACDBPLACEHOLDER
  2
AcDbPlaceHolder
  3
AutoCAD 2000
 90
0
 91
1
280
0
281
0
  0
CLASS
  1
LAYOUT
  2
AcDbLayout
  3
AutoCAD 2000
 90
0
 91
0
280
0
281
0
  0
ENDSEC
  0
SECTION
  2
TABLES
  0
TABLE
  2
VPORT
  5
8
100
AcDbSymbolTable
 70
2
  0
VPORT
  5
1F4
100
AcDbSymbolTableRecord
100
AcDbViewportTableRecord
  2
*ACTIVE
 70
0
 10
0.0
 20
0.0
 11
1.0
 21
1.0
 12
5.8464566929
 22
4.1338582677
 13
0.0
 23
0.0
 14
1.0
 24
1.0
 15
0.0
 25
0.0
 16
0.0
 26
0.0
 36
1.0
 17
0.0
 27
0.0
 37
0.0
 40
8.2677165354
 41
1.4142857143
 42
50.0
 43
0.0
 44
0.0
 50
0.0
 51
0.0
 71
0
 72
100
 73
1
 74
1
 75
0
 76
0
 77
0
 78
0
  0
ENDTAB
  0
TABLE
  2
LTYPE
  5
5
100
AcDbSymbolTable
 70
6
  0
LTYPE
  5
14
100
AcDbSymbolTableRecord
100
AcDbLinetypeTableRecord
  2
BYBLOCK
 70
0
  3

 72
65
 73
0
 40
0.0
  0
LTYPE
  5
15
100
AcDbSymbolTableRecord
100
AcDbLinetypeTableRecord
  2
BYLAYER
 70
0
  3

 72
65
 73
0
 40
0.0
  0
LTYPE
  5
16
100
AcDbSymbolTableRecord
100
AcDbLinetypeTableRecord
  2
CONTINUOUS
 70
64
  3
Solid line
 72
65
 73
0
 40
0.0
  0
LTYPE
  5
1F5
100
AcDbSymbolTableRecord
100
AcDbLinetypeTableRecord
  2
CENTER
 70
64
  3
____ _ ____ _ ____ _ ____ _ ____ _ ____ _ ____
 72
65
 73
4
 40
0.6
 49
0.375
 74
0
 49
-0.075
 74
0
 49
0.075
 74
0
 49
-0.075
 74
0
  0
LTYPE
  5
1F6
100
AcDbSymbolTableRecord
100
AcDbLinetypeTableRecord
  2
HIDDEN
 70
64
  3
- - - - - - - - - - - - - - - - - - - -
 72
65
 73
2
 40
0.2
 49
0.1
 74
0
 49
-0.1
 74
0
  0
LTYPE
  5
1F7
100
AcDbSymbolTableRecord
100
AcDbLinetypeTableRecord
  2
PHANTOM
 70
64
  3
_____ _ _ _____ _ _ _____ _ _ _____
 72
65
 73
6
 40
0.8
 49
0.45
 74
0
 49
-0.05
 74
0
 49
0.1
 74
0
 49
-0.05
 74
0
 49
0.1
 74
0
 49
-0.05
 74
0
  0
LTYPE
  5
1F8
100
AcDbSymbolTableRecord
100
AcDbLinetypeTableRecord
  2
DOT
 70
64
  3
. . . . . . . . . . . . . . . . . . . .
 72
65
 73
2
 40
0.2
 49
0.1
 74
0
 49
-0.1
 74
0
  0
LTYPE
  5
1F9
100
AcDbSymbolTableRecord
100
AcDbLinetypeTableRecord
  2
DASHED
 70
64
  3
- - - - - - - - - - - - - - - - - - - -
 72
65
 73
2
 40
0.2
 49
0.1
 74
0
 49
-0.1
 74
0
  0
ENDTAB
  0
TABLE
  2
LAYER
  5
2
100
AcDbSymbolTable
 70
36
  0
LAYER
  5
10
100
AcDbSymbolTableRecord
100
AcDbLayerTableRecord
  2
0
 70
0
 62
7
  6
CONTINUOUS
370
-3
390
F
  0
LAYER
  5
1FA
100
AcDbSymbolTableRecord
100
AcDbLayerTableRecord
  2
DEFAULT_1
 70
0
 62
7
  6
CENTER
370
-3
390
F
  0
LAYER
  5
1FB
100
AcDbSymbolTableRecord
100
AcDbLayerTableRecord
  2
DEFAULT_2
 70
0
 62
8
  6
HIDDEN
370
-3
390
F
  0
LAYER
  5
1FC
100
AcDbSymbolTableRecord
100
AcDbLayerTableRecord
  2
DEFAULT_3
 70
0
 62
7
  6
PHANTOM
370
-3
390
F
  0
LAYER
  5
1FD
100
AcDbSymbolTableRecord
100
AcDbLayerTableRecord
  2
DEFAULT_COORDINATE_SYSTEM
 70
0
 62
7
  6
CONTINUOUS
370
-3
390
F
  0
LAYER
  5
1FE
100
AcDbSymbolTableRecord
100
AcDbLayerTableRecord
  2
DEFAULT_DATUM_AXES
 70
0
 62
7
  6
CONTINUOUS
370
-3
390
F
  0
LAYER
  5
1FF
100
AcDbSymbolTableRecord
100
AcDbLayerTableRecord
  2
DEFAULT_DATUM_CURVES
 70
0
 62
7
  6
CONTINUOUS
370
-3
390
F
  0
LAYER
  5
200
100
AcDbSymbolTableRecord
100
AcDbLayerTableRecord
  2
DEFAULT_DATUM_PLANES
 70
0
 62
7
  6
CONTINUOUS
370
-3
390
F
  0
ENDTAB
  0
TABLE
  2
STYLE
  5
3
100
AcDbSymbolTable
 70
1
  0
STYLE
  5
11
100
AcDbSymbolTableRecord
100
AcDbTextStyleTableRecord
  2
STANDARD
 70
0
 40
0.0
 41
0.8
 50
0.0
 71
0
 42
0.2
  3
txt
  4

  0
STYLE
  5
201
100
AcDbSymbolTableRecord
100
AcDbTextStyleTableRecord
  2
TEXTSTYLE_1
 70
0
 40
0.0
 41
0.8
 50
0.0
 71
0
 42
0.2
  3
gdt
  4

  0
ENDTAB
  0
TABLE
  2
VIEW
  5
6
100
AcDbSymbolTable
 70
0
  0
ENDTAB
  0
TABLE
  2
UCS
  5
7
100
AcDbSymbolTable
 70
0
  0
ENDTAB
  0
TABLE
  2
APPID
  5
9
100
AcDbSymbolTable
 70
1
  0
APPID
  5
202
100
AcDbSymbolTableRecord
100
AcDbRegAppTableRecord
  2
ACAD
 70
0
  0
ENDTAB
  0
TABLE
  2
BLOCK_RECORD
  5
1
100
AcDbSymbolTable
 70
0
  0
BLOCK_RECORD
  5
203
100
AcDbSymbolTableRecord
100
AcDbBlockTableRecord
  2
*Model_Space
  0
BLOCK_RECORD
  5
204
100
AcDbSymbolTableRecord
100
AcDbBlockTableRecord
  2
*Paper_Space
  0
ENDTAB
  0
TABLE
  2
DIMSTYLE
  5
A
100
AcDbSymbolTable
 70
1
100
AcDbDimStyleTable
 71
0
  0
DIMSTYLE
105
205
100
AcDbSymbolTableRecord
100
AcDbDimStyleTableRecord
  2
STANDARD
 70
0
  3

  4

 40
1.0
 41
0.1
 42
0.0625
 43
0.38
 44
0.18
 45
0.0
 46
0.0
 47
0.001
 48
0.001
140
0.08
141
0.09
142
0.0
143
25.4
144
1.0
145
0.0
146
1.0
147
0.09
 71
1.0
 72
0.0
 73
1
 74
1
 75
0
 76
0
 77
0
 78
4
170
0
171
2
172
0
173
0
174
0
175
0
176
0
177
0
178
0
270
2
271
3
272
3
273
2
274
2
275
0
280
0
281
0
282
0
283
1
284
4
285
0
286
0
287
3
288
0
340
11
  0
ENDTAB
  0
ENDSEC
  0
SECTION
  2
BLOCKS
  0
BLOCK
  5
20
100
AcDbEntity
  8
0
100
AcDbBlockBegin
  2
*Model_Space
 70
0
 10
0.0
 20
0.0
 30
0.0
  3
*Model_Space
  1

  0
ENDBLK
  5
21
100
AcDbEntity
  8
0
100
AcDbBlockEnd
  0
BLOCK
  5
1C
100
AcDbEntity
  8
0
100
AcDbBlockBegin
  2
*Paper_Space
 70
0
 10
0.0
 20
0.0
 30
0.0
  3
*Paper_Space
  1

  0
ENDBLK
  5
1D
100
AcDbEntity
  8
0
100
AcDbBlockEnd
  0
ENDSEC
  0
SECTION
  2
ENTITIES
  0
LINE
  5
206
100
AcDbEntity
  8
0
100
AcDbLine
 62
9
  6
CONTINUOUS
 10
4.5050461664
 20
3.1818184606
 11
4.5050461664
 21
3.4318184606
  0
LINE
  5
207
100
AcDbEntity
  8
0
100
AcDbLine
 62
6
  6
CONTINUOUS
 10
5.3055929178
 20
3.1818184606
 11
4.2214697621
 21
3.1818184606
  0
LINE
  5
208
100
AcDbEntity
  8
0
100
AcDbLine
 62
6
  6
CONTINUOUS
 10
6.4566674149
 20
3.1818184606
 11
7.5407905707
 21
3.1818184606
  0
LINE
  5
209
100
AcDbEntity
  8
0
100
AcDbLine
 62
6
  6
CONTINUOUS
 10
5.3056484801
 20
3.4318184606
 11
4.2214697621
 21
3.4318184606
  0
LINE
  5
20A
100
AcDbEntity
  8
0
100
AcDbLine
 62
6
  6
CONTINUOUS
 10
6.4566118527
 20
3.4318184606
 11
7.5407905707
 21
3.4318184606
  0
LINE
  5
20B
100
AcDbEntity
  8
0
100
AcDbLine
 62
6
  6
CONTINUOUS
 10
5.1401301664
 20
5.7600373528
 11
5.1401301664
 21
5.6980373528
  0
LINE
  5
20C
100
AcDbEntity
  8
0
100
AcDbLine
 62
6
  6
CONTINUOUS
 10
5.1594423299
 20
5.6980373528
 11
5.1594423299
 21
5.4069831958
  0
LINE
  5
20D
100
AcDbEntity
  8
0
100
AcDbLine
 62
7
  6
CONTINUOUS
 10
5.3080464029
 20
3.4428184606
 11
5.3080464029
 21
3.1708184606
  0
LINE
  5
20E
100
AcDbEntity
  8
0
100
AcDbLine
 62
6
  6
CONTINUOUS
 10
5.5561301664
 20
3.7980373528
 11
6.2061301664
 21
3.7980373528
  0
LINE
  5
20F
100
AcDbEntity
  8
0
100
AcDbLine
 62
6
  6
CONTINUOUS
 10
5.5202862481
 20
5.6980373528
 11
5.5202862481
 21
5.4069831958
  0
LINE
  5
210
100
AcDbEntity
  8
0
100
AcDbLine
 62
6
  6
CONTINUOUS
 10
5.5561301664
 20
3.7980373528
 11
5.4303711856
 21
4.6395103415
  0
LINE
  5
211
100
AcDbEntity
  8
0
100
AcDbLine
 62
6
  6
CONTINUOUS
 10
6.4850078
 20
5.289172993
 11
6.6028180029
 21
5.4069831958
  0
LINE
  5
212
100
AcDbEntity
  8
0
100
AcDbLine
 62
6
  6
CONTINUOUS
 10
5.2772525327
 20
5.289172993
 11
5.1594423299
 21
5.4069831958
  0
LINE
  5
213
100
AcDbEntity
  8
0
100
AcDbLine
 62
6
  6
CONTINUOUS
 10
6.2419740846
 20
5.6980373528
 11
6.2419740846
 21
5.4069831958
  0
LINE
  5
214
100
AcDbEntity
  8
0
100
AcDbLine
 62
9
  6
CONTINUOUS
 10
5.4303711856
 20
4.6395103415
 11
6.3318891472
 21
4.6395103415
  0
LINE
  5
215
100
AcDbEntity
  8
0
100
AcDbLine
 62
6
  6
CONTINUOUS
 10
6.2061301664
 20
3.7980373528
 11
6.3318891472
 21
4.6395103415
  0
LINE
  5
216
100
AcDbEntity
  8
0
100
AcDbLine
 62
9
  6
CONTINUOUS
 10
5.3300786966
 20
4.8731673122
 11
6.4321816361
 21
4.8731673122
  0
LINE
  5
217
100
AcDbEntity
  8
0
100
AcDbLine
 62
7
  6
CONTINUOUS
 10
6.4542139299
 20
3.4428184606
 11
6.4542139299
 21
3.1708184606
  0
LINE
  5
218
100
AcDbEntity
  8
0
100
AcDbLine
 62
6
  6
CONTINUOUS
 10
6.6028180029
 20
5.6980373528
 11
6.6028180029
 21
5.4069831958
  0
LINE
  5
219
100
AcDbEntity
  8
0
100
AcDbLine
 62
6
  6
CONTINUOUS
 10
6.6221301664
 20
5.7600373528
 11
6.6221301664
 21
5.6980373528
  0
LINE
  5
21A
100
AcDbEntity
  8
0
100
AcDbLine
 62
9
  6
CONTINUOUS
 10
5.3090541664
 20
5.0898005383
 11
6.4532061664
 21
5.0898005383
  0
LINE
  5
21B
100
AcDbEntity
  8
0
100
AcDbLine
 62
9
  6
CONTINUOUS
 10
5.2772525327
 20
5.289172993
 11
6.4850078
 21
5.289172993
  0
LINE
  5
21C
100
AcDbEntity
  8
0
100
AcDbLine
 62
6
  6
CONTINUOUS
 10
5.1401301664
 20
5.6980373528
 11
6.6221301664
 21
5.6980373528
  0
LINE
  5
21D
100
AcDbEntity
  8
0
100
AcDbLine
 62
9
  6
CONTINUOUS
 10
7.2572141664
 20
3.4318184606
 11
7.2572141664
 21
3.1818184606
  0
LINE
  5
21E
100
AcDbEntity
  8
0
100
AcDbLine
 62
9
  6
CONTINUOUS
 10
5.0681274926
 20
5.7600373528
 11
6.6941328402
 21
5.7600373528
  0
LINE
  5
21F
100
AcDbEntity
  8
0
100
AcDbLine
 62
6
  6
CONTINUOUS
 10
4.8811301664
 20
5.9480373528
 11
6.8811301664
 21
5.9480373528
  0
LINE
  5
220
100
AcDbEntity
  8
0
100
AcDbLine
 62
6
  6
CONTINUOUS
 10
4.7011301664
 20
6.1350373528
 11
7.0611301664
 21
6.1350373528
  0
ARC
  5
221
100
AcDbEntity
  8
0
100
AcDbCircle
 62
6
  6
CONTINUOUS
 10
4.9358632539
 20
4.5656056359
 40
0.5
100
AcDbArc
 50
8.5
 51
37.9608838555
  0
CIRCLE
  5
222
100
AcDbEntity
  8
0
100
AcDbCircle
 62
6
  6
CONTINUOUS
 10
4.0050461664
 20
3.3068184606
 40
0.25
  0
ARC
  5
223
100
AcDbEntity
  8
0
100
AcDbCircle
 62
6
  6
CONTINUOUS
 10
5.8811301248
 20
4.2480371592
 40
0.0820999363
100
AcDbArc
 50
89.9999709976
 51
112.3935040025
  0
ARC
  5
224
100
AcDbEntity
  8
0
100
AcDbCircle
 62
6
  6
CONTINUOUS
 10
5.8811251752
 20
4.2480365282
 40
0.082094748
100
AcDbArc
 50
175.4728817579
 51
209.3608713052
  0
ARC
  5
225
100
AcDbEntity
  8
0
100
AcDbCircle
 62
6
  6
CONTINUOUS
 10
5.4901301664
 20
4.9980373528
 40
0.203
100
AcDbArc
 50
153.1256519233
 51
217.9608838555
  0
ARC
  5
226
100
AcDbEntity
  8
0
100
AcDbCircle
 62
6
  6
CONTINUOUS
 10
4.8882662775
 20
6.1350373528
 40
0.1871361111
100
AcDbArc
 50
180.0
 51
267.8145949287
  0
ARC
  5
227
100
AcDbEntity
  8
0
100
AcDbCircle
 62
6
  6
CONTINUOUS
 10
5.0681274926
 20
5.9470373528
 40
0.187
100
AcDbArc
 50
179.6936039968
 51
270.0
  0
ARC
  5
228
100
AcDbEntity
  8
0
100
AcDbCircle
 62
6
  6
CONTINUOUS
 10
5.1556301664
 20
5.1675506266
 40
0.172
100
AcDbArc
 50
333.1256519233
 51
45.0
  0
ARC
  5
229
100
AcDbEntity
  8
0
100
AcDbCircle
 62
6
  6
CONTINUOUS
 10
5.8811301664
 20
3.3068184606
 40
0.589
100
AcDbArc
 50
12.2548788041
 51
56.5106014009
  0
ARC
  5
22A
100
AcDbEntity
  8
0
100
AcDbCircle
 62
6
  6
CONTINUOUS
 10
5.8811301664
 20
3.3068184606
 40
0.589
100
AcDbArc
 50
192.2537190585
 51
347.7462809415
  0
ARC
  5
22B
100
AcDbEntity
  8
0
100
AcDbCircle
 62
6
  6
CONTINUOUS
 10
5.8811301664
 20
3.3068184606
 40
0.589
100
AcDbArc
 50
123.4893985991
 51
167.7451211959
  0
ARC
  5
22C
100
AcDbEntity
  8
0
100
AcDbCircle
 62
6
  6
CONTINUOUS
 10
6.8263970788
 20
4.5656056359
 40
0.5
100
AcDbArc
 50
142.0391161445
 51
171.5
  0
CIRCLE
  5
22D
100
AcDbEntity
  8
0
100
AcDbCircle
 62
6
  6
CONTINUOUS
 10
7.7572141664
 20
3.3068184606
 40
0.25
  0
ARC
  5
22E
100
AcDbEntity
  8
0
100
AcDbCircle
 62
6
  6
CONTINUOUS
 10
5.8811377094
 20
4.2480526398
 40
0.0820826233
100
AcDbArc
 50
44.2068356002
 51
90.0052650629
  0
CIRCLE
  5
22F
100
AcDbEntity
  8
0
100
AcDbCircle
 62
6
  6
CONTINUOUS
 10
5.8811301664
 20
4.2480373528
 40
0.0651
  0
CIRCLE
  5
230
100
AcDbEntity
  8
0
100
AcDbCircle
 62
6
  6
CONTINUOUS
 10
5.8811301664
 20
4.2480373528
 40
0.062
  0
ARC
  5
231
100
AcDbEntity
  8
0
100
AcDbCircle
 62
6
  6
CONTINUOUS
 10
6.2721301664
 20
4.9980373528
 40
0.203
100
AcDbArc
 50
322.0391161445
 51
26.8743480767
  0
ARC
  5
232
100
AcDbEntity
  8
0
100
AcDbCircle
 62
6
  6
CONTINUOUS
 10
6.8739940553
 20
6.1350373528
 40
0.1871361111
100
AcDbArc
 50
272.1854050713
 51
360.0
  0
ARC
  5
233
100
AcDbEntity
  8
0
100
AcDbCircle
 62
6
  6
CONTINUOUS
 10
6.6941328402
 20
5.9470373528
 40
0.187
100
AcDbArc
 50
270.0
 51
0.3063960032
  0
ARC
  5
234
100
AcDbEntity
  8
0
100
AcDbCircle
 62
6
  6
CONTINUOUS
 10
6.6066301664
 20
5.1675506266
 40
0.172
100
AcDbArc
 50
135.0
 51
206.8743480767
  0
SPLINE
  5
235
100
AcDbEntity
  8
0
100
AcDbSpline
 62
6
  6
CONTINUOUS
 70
0
 71
3
 72
11
 73
7
 74
5
 42
0.0000001
 43
0.0000001
 44
0.0000000001
 12
0.0196609411
 22
0.0272001886
 32
0.0
 13
0.0276859792
 23
0.0189707517
 33
0.0
 40
0.0
 40
0.0
 40
0.0
 40
0.0
 40
0.2491305444
 40
0.498848442
 40
0.7491527223
 40
1.0
 40
1.0
 40
1.0
 40
1.0
 10
5.7992862153
 20
4.25451637
 30
0.0
 10
5.8009189289
 20
4.2567751693
 30
0.0
 10
5.804393086
 20
4.261153643
 30
0.0
 10
5.8101583323
 20
4.2672500628
 30
0.0
 10
5.816430932
 20
4.2728518019
 30
0.0
 10
5.8209214129
 20
4.2762222506
 30
0.0
 10
5.823236397
 20
4.2778085044
 30
0.0
 11
5.7992862153
 21
4.25451637
 31
0.0
 11
5.8044799871
 21
4.2610689333
 31
0.0
 11
5.8102358922
 21
4.2671608087
 31
0.0
 11
5.8165022239
 21
4.2727558727
 31
0.0
 11
5.823236397
 21
4.2778085044
 31
0.0
  0
SPLINE
  5
236
100
AcDbEntity
  8
0
100
AcDbSpline
 62
6
  6
CONTINUOUS
 70
0
 71
3
 72
15
 73
11
 74
9
 42
0.0000001
 43
0.0000001
 44
0.0000000001
 12
0.0095226404
 22
0.039663266
 32
0.0
 13
0.029129848
 23
0.0285535865
 33
0.0
 40
0.0
 40
0.0
 40
0.0
 40
0.0
 40
0.1249251021
 40
0.2498845778
 40
0.374807977
 40
0.4996745726
 40
0.6245679935
 40
0.7496143817
 40
0.874794978
 40
1.0
 40
1.0
 40
1.0
 40
1.0
 10
5.8303135069
 20
4.2887273653
 30
0.0
 10
5.8307100459
 20
4.2903790112
 30
0.0
 10
5.8316123367
 20
4.2936576501
 30
0.0
 10
5.8332858755
 20
4.2984749285
 30
0.0
 10
5.8352737918
 20
4.3031706586
 30
0.0
 10
5.8375713692
 20
4.3077220067
 30
0.0
 10
5.8401774084
 20
4.3121062238
 30
0.0
 10
5.8430886624
 20
4.3162995676
 30
0.0
 10
5.8462997681
 20
4.3202734441
 30
0.0
 10
5.8486370564
 20
4.3227544019
 30
0.0
 10
5.8498527909
 20
4.323946086
 30
0.0
 11
5.8303135069
 21
4.2887273653
 31
0.0
 11
5.8316655624
 21
4.2936404642
 31
0.0
 11
5.833338502
 21
4.2984552496
 31
0.0
 11
5.8353257854
 21
4.3031474336
 31
0.0
 11
5.8376224555
 21
4.3076935952
 31
0.0
 11
5.84022676
 21
4.312072068
 31
0.0
 11
5.8431371278
 21
4.3162609578
 31
0.0
 11
5.8463484787
 21
4.3202308622
 31
0.0
 11
5.8498527909
 21
4.323946086
 31
0.0
  0
SPLINE
  5
237
100
AcDbEntity
  8
0
100
AcDbSpline
 62
6
  6
CONTINUOUS
 70
0
 71
3
 72
26
 73
22
 74
20
 42
0.0000001
 43
0.0000001
 44
0.0000000001
 12
-0.0830496383
 22
-0.007532199
 32
0.0
 13
-0.0494769168
 23
0.0671268288
 33
0.0
 40
0.0
 40
0.0
 40
0.0
 40
0.0
 40
0.0624517462
 40
0.124984673
 40
0.187533629
 40
0.250050406
 40
0.3125493
 40
0.3438007009
 40
0.3750500461
 40
0.43753462
 40
0.5000247173
 40
0.5312757062
 40
0.5625250258
 40
0.5937696642
 40
0.6250115415
 40
0.6874948366
 40
0.7499985772
 40
0.8125191512
 40
0.8750444343
 40
0.9375515611
 40
1.0
 40
1.0
 40
1.0
 40
1.0
 10
5.8811301664
 20
4.1725855679
 30
0.0
 10
5.8794013014
 20
4.1724287682
 30
0.0
 10
5.8759282744
 20
4.1722440584
 30
0.0
 10
5.8707121212
 20
4.1723497952
 30
0.0
 10
5.8655153561
 20
4.1728351021
 30
0.0
 10
5.8603689913
 20
4.1736975097
 30
0.0
 10
5.8561431278
 20
4.1747192221
 30
0.0
 10
5.8528126103
 20
4.1757114744
 30
0.0
 10
5.8495187506
 20
4.1768181893
 30
0.0
 10
5.8454757732
 20
4.1784127829
 30
0.0
 10
5.8415480904
 20
4.1802728788
 30
0.0
 10
5.8384835125
 20
4.181910809
 30
0.0
 10
5.836225386
 20
4.1832121547
 30
0.0
 10
5.8340097637
 20
4.1845841085
 30
0.0
 10
5.8311143661
 20
4.186504247
 30
0.0
 10
5.8276069173
 20
4.189069713
 30
0.0
 10
5.823587545
 20
4.1923925005
 30
0.0
 10
5.8197653182
 20
4.1959418995
 30
0.0
 10
5.8161469296
 20
4.1996987633
 30
0.0
 10
5.8127374075
 20
4.2036431074
 30
0.0
 10
5.8106050764
 20
4.206387196
 30
0.0
 10
5.8095751576
 20
4.2077845179
 30
0.0
 11
5.8811301664
 21
4.1725855679
 31
0.0
 11
5.8759296917
 21
4.1723078905
 31
0.0
 11
5.8707160994
 21
4.1724130337
 31
0.0
 11
5.8655227133
 21
4.1728980939
 31
0.0
 11
5.8603808573
 21
4.1737582519
 31
0.0
 11
5.8553147127
 21
4.1749818484
 31
0.0
 11
5.8528170909
 21
4.1757258155
 31
0.0
 11
5.8503468675
 21
4.1765556975
 31
0.0
 11
5.8454989804
 21
4.1784658164
 31
0.0
 11
5.8407886404
 21
4.180694731
 31
0.0
 11
5.8384901989
 21
4.1819229772
 31
0.0
 11
5.8362323221
 21
4.1832240112
 31
0.0
 11
5.8340170115
 21
4.1845955292
 31
0.0
 11
5.8318456696
 21
4.1860352294
 31
0.0
 11
5.8276390789
 21
4.1891099728
 31
0.0
 11
5.8236209023
 21
4.192429834
 31
0.0
 11
5.819799399
 21
4.1959763775
 31
0.0
 11
5.816181181
 21
4.1997306351
 31
0.0
 11
5.8127714
 21
4.2036731672
 31
0.0
 11
5.8095751576
 21
4.2077845179
 31
0.0
  0
SPLINE
  5
238
100
AcDbEntity
  8
0
100
AcDbSpline
 62
6
  6
CONTINUOUS
 70
0
 71
3
 72
51
 73
47
 74
45
 42
0.0000001
 43
0.0000001
 44
0.0000000001
 12
0.2970429621
 22
-0.2970429621
 32
0.0
 13
0.2970429621
 23
0.2970429621
 33
0.0
 40
0.0
 40
0.0
 40
0.0
 40
0.0
 40
0.0352295211
 40
0.0699717989
 40
0.1041959975
 40
0.1378775378
 40
0.1709970257
 40
0.2035336668
 40
0.2354742021
 40
0.2668177557
 40
0.2975734069
 40
0.3277579568
 40
0.3426473426
 40
0.357408054
 40
0.372047315
 40
0.3865733367
 40
0.4009951984
 40
0.4153229547
 40
0.4295676603
 40
0.4437413851
 40
0.4578572234
 40
0.4719292457
 40
0.4859719839
 40
0.5000000607
 40
0.5140281385
 40
0.5280708788
 40
0.5421429023
 40
0.5562587383
 40
0.5704324585
 40
0.5846771593
 40
0.5990049118
 40
0.6134267709
 40
0.6279527905
 40
0.6425920485
 40
0.6573527533
 40
0.6722421295
 40
0.7024266572
 40
0.7331822897
 40
0.76452583
 40
0.796466348
 40
0.8290029704
 40
0.8621224417
 40
0.8958039776
 40
0.930028184
 40
0.9647704731
 40
1.0
 40
1.0
 40
1.0
 40
1.0
 10
6.2419740846
 20
5.4069831958
 30
0.0
 10
6.2454623117
 20
5.4034949687
 30
0.0
 10
6.2524656487
 20
5.3966412819
 30
0.0
 10
6.2631374397
 20
5.3866897268
 30
0.0
 10
6.2739086576
 20
5.3771695481
 30
0.0
 10
6.2847810292
 20
5.3681156745
 30
0.0
 10
6.2957549416
 20
5.3595637183
 30
0.0
 10
6.3068314996
 20
5.351553493
 30
0.0
 10
6.3180105619
 20
5.3441263502
 30
0.0
 10
6.3292914102
 20
5.3373244477
 30
0.0
 10
6.3406707851
 20
5.3311900856
 30
0.0
 10
6.3502747781
 20
5.3266474115
 30
0.0
 10
6.3579973779
 20
5.3233950457
 30
0.0
 10
6.3637832432
 20
5.3211595364
 30
0.0
 10
6.36958799
 20
5.319122294
 30
0.0
 10
6.3754100723
 20
5.3172870765
 30
0.0
 10
6.3812477019
 20
5.3156571338
 30
0.0
 10
6.3870991371
 20
5.3142358455
 30
0.0
 10
6.392962619
 20
5.3130265743
 30
0.0
 10
6.3988363807
 20
5.3120326416
 30
0.0
 10
6.4047186748
 20
5.3112575616
 30
0.0
 10
6.4106075442
 20
5.3107041073
 30
0.0
 10
6.4165007251
 20
5.3103719932
 30
0.0
 10
6.4223960695
 20
5.3102613015
 30
0.0
 10
6.428291414
 20
5.3103720042
 30
0.0
 10
6.434184595
 20
5.3107041248
 30
0.0
 10
6.4400734648
 20
5.3112575742
 30
0.0
 10
6.4459557601
 20
5.3120326394
 30
0.0
 10
6.4518295203
 20
5.3130265721
 30
0.0
 10
6.4576929993
 20
5.3142358482
 30
0.0
 10
6.463544431
 20
5.3156571446
 30
0.0
 10
6.4693820574
 20
5.3172870945
 30
0.0
 10
6.4752041373
 20
5.3191223158
 30
0.0
 10
6.4810088845
 20
5.3211595519
 30
0.0
 10
6.4867947489
 20
5.3233950562
 30
0.0
 10
6.4945173441
 20
5.326647419
 30
0.0
 10
6.504121329
 20
5.3311900939
 30
0.0
 10
6.5155006938
 20
5.3373244587
 30
0.0
 10
6.5267815352
 20
5.3441263591
 30
0.0
 10
6.5379605914
 20
5.3515534985
 30
0.0
 10
6.5490371439
 20
5.3595637187
 30
0.0
 10
6.5600110535
 20
5.3681156696
 30
0.0
 10
6.5708834245
 20
5.3771695411
 30
0.0
 10
6.5816546436
 20
5.3866897215
 30
0.0
 10
6.5923264367
 20
5.3966412795
 30
0.0
 10
6.5993297752
 20
5.4034949681
 30
0.0
 10
6.6028180029
 20
5.4069831958
 30
0.0
 11
6.2419740846
 21
5.4069831958
 31
0.0
 11
6.252555786
 21
5.396636858
 31
0.0
 11
6.2632344861
 21
5.3866885887
 31
0.0
 11
6.2740119456
 21
5.3771731375
 31
0.0
 11
6.2848899251
 21
5.3681252544
 31
0.0
 11
6.2958698236
 21
5.3595806183
 31
0.0
 11
6.3069512539
 21
5.3515795023
 31
0.0
 11
6.3181332778
 21
5.3441635958
 31
0.0
 11
6.3294149351
 21
5.3373745874
 31
0.0
 11
6.3407931087
 21
5.3312540473
 31
0.0
 11
6.352260729
 21
5.3258433288
 31
0.0
 11
6.3580257402
 21
5.3234170683
 31
0.0
 11
6.3638103033
 21
5.3211837619
 31
0.0
 11
6.3696134257
 21
5.3191484507
 31
0.0
 11
6.3754336124
 21
5.3173150573
 31
0.0
 11
6.3812691046
 21
5.3156869162
 31
0.0
 11
6.3871181411
 21
5.3142673568
 31
0.0
 11
6.3929789608
 21
5.3130597084
 31
0.0
 11
6.3988498025
 21
5.3120673003
 31
0.0
 11
6.4047289043
 21
5.3112934562
 31
0.0
 11
6.4106143937
 21
5.3107405239
 31
0.0
 11
6.4165041618
 21
5.3104087686
 31
0.0
 11
6.4223960693
 21
5.3102981877
 31
0.0
 11
6.4282879771
 21
5.3104087789
 31
0.0
 11
6.4341777458
 21
5.3107405395
 31
0.0
 11
6.4400632361
 21
5.3112934672
 31
0.0
 11
6.4459423383
 21
5.3120673006
 31
0.0
 11
6.4518131783
 21
5.313059707
 31
0.0
 11
6.457673995
 21
5.31426736
 31
0.0
 11
6.4635230281
 21
5.3156869268
 31
0.0
 11
6.4693585173
 21
5.3173150746
 31
0.0
 11
6.4751787022
 21
5.3191484709
 31
0.0
 11
6.4809818247
 21
5.3211837779
 31
0.0
 11
6.4867663867
 21
5.3234170795
 31
0.0
 11
6.4925313946
 21
5.3258433375
 31
0.0
 11
6.5039990048
 21
5.3312540555
 31
0.0
 11
6.5153771687
 21
5.3373745971
 31
0.0
 11
6.5266588199
 21
5.3441636047
 31
0.0
 11
6.5378408375
 21
5.3515795077
 31
0.0
 11
6.5489222619
 21
5.3595806184
 31
0.0
 11
6.5599021562
 21
5.3681252485
 31
0.0
 11
6.570780135
 21
5.3771731296
 31
0.0
 11
6.5815575968
 21
5.3866885831
 31
0.0
 11
6.5922363
 21
5.3966368561
 31
0.0
 11
6.6028180029
 21
5.4069831958
 31
0.0
  0
SPLINE
  5
239
100
AcDbEntity
  8
0
100
AcDbSpline
 62
6
  6
CONTINUOUS
 70
0
 71
3
 72
23
 73
19
 74
17
 42
0.0000001
 43
0.0000001
 44
0.0000000001
 12
0.377018776
 22
0.0
 32
0.0
 13
0.3372158448
 23
0.1686079224
 33
0.0
 40
0.0
 40
0.0
 40
0.0
 40
0.0
 40
0.0624922504
 40
0.1250060741
 40
0.1875238375
 40
0.2500320748
 40
0.312536233
 40
0.3750387197
 40
0.4375383993
 40
0.5000400082
 40
0.5625418754
 40
0.6250377459
 40
0.6875330835
 40
0.7500312287
 40
0.7812808478
 40
0.8125297121
 40
0.8750255323
 40
1.0
 40
1.0
 40
1.0
 40
1.0
 10
5.8811301664
 20
5.3102953593
 30
0.0
 10
5.8889837503
 20
5.3102953593
 30
0.0
 10
5.9046952084
 20
5.3105939459
 30
0.0
 10
5.9282294933
 20
5.3119236038
 30
0.0
 10
5.9517008153
 20
5.314122387
 30
0.0
 10
5.9750745742
 20
5.3171771416
 30
0.0
 10
5.9983239558
 20
5.3210530344
 30
0.0
 10
6.021426816
 20
5.3257165984
 30
0.0
 10
6.0443638321
 20
5.3311343057
 30
0.0
 10
6.0671207931
 20
5.3372625782
 30
0.0
 10
6.0896863919
 20
5.3440588134
 30
0.0
 10
6.1120525366
 20
5.3514815916
 30
0.0
 10
6.134215144
 20
5.3594890972
 30
0.0
 10
6.152514073
 20
5.3666152385
 30
0.0
 10
6.1670515461
 20
5.3725678094
 30
0.0
 10
6.1815216593
 20
5.3786817373
 30
0.0
 10
6.2066665453
 20
5.3897887682
 30
0.0
 10
6.2279262944
 20
5.3999593007
 30
0.0
 10
6.2419740846
 20
5.4069831958
 30
0.0
 11
5.8811301664
 21
5.3102953593
 31
0.0
 11
5.9046867072
 21
5.3107407892
 31
0.0
 11
5.9282181709
 21
5.3120684079
 31
0.0
 11
5.9516859454
 21
5.314265208
 31
0.0
 11
5.9750546687
 21
5.3173141176
 31
0.0
 11
5.9982999185
 21
5.321184383
 31
0.0
 11
6.0213995724
 21
5.3258423746
 31
0.0
 11
6.0443336007
 21
5.3312526761
 31
0.0
 11
6.0670889442
 21
5.3373739207
 31
0.0
 11
6.0896539932
 21
5.3441635045
 31
0.0
 11
6.1120187515
 21
5.3515790913
 31
0.0
 11
6.1341807852
 21
5.3595795996
 31
0.0
 11
6.1561398742
 21
5.3681243151
 31
0.0
 11
6.1670432473
 21
5.3725880297
 31
0.0
 11
6.1778959653
 21
5.3771727979
 31
0.0
 11
6.1994512128
 21
5.3866882459
 31
0.0
 11
6.2419740846
 21
5.4069831958
 31
0.0
  0
SPLINE
  5
23A
100
AcDbEntity
  8
0
100
AcDbSpline
 62
6
  6
CONTINUOUS
 70
0
 71
3
 72
24
 73
20
 74
18
 42
0.0000001
 43
0.0000001
 44
0.0000000001
 12
0.3372167412
 22
-0.1686083706
 32
0.0
 13
0.3770197782
 23
-0.0
 33
0.0
 40
0.0
 40
0.0
 40
0.0
 40
0.0
 40
0.1249746118
 40
0.1874706044
 40
0.2187195318
 40
0.2499692112
 40
0.3124676106
 40
0.37496313
 40
0.4374587973
 40
0.4999604474
 40
0.5624620663
 40
0.6249615808
 40
0.687463684
 40
0.7499674608
 40
0.8124750691
 40
0.8437341103
 40
0.8749946904
 40
0.9375079934
 40
1.0
 40
1.0
 40
1.0
 40
1.0
 10
5.5202862481
 20
5.4069831958
 30
0.0
 10
5.5343340919
 20
5.3999592739
 30
0.0
 10
5.5555939186
 20
5.3897886667
 30
0.0
 10
5.5807389148
 20
5.3786815852
 30
0.0
 10
5.5952091116
 20
5.3725676522
 30
0.0
 10
5.6097466854
 20
5.366615092
 30
0.0
 10
5.6280457262
 20
5.359488923
 30
0.0
 10
5.6502084166
 20
5.3514813773
 30
0.0
 10
5.6725745856
 20
5.3440585673
 30
0.0
 10
5.695140211
 20
5.337262381
 30
0.0
 10
5.7178972104
 20
5.3311341838
 30
0.0
 10
5.7408342021
 20
5.3257164387
 30
0.0
 10
5.7639370387
 20
5.3210528533
 30
0.0
 10
5.7871862028
 20
5.3171771092
 30
0.0
 10
5.806664196
 20
5.3146315365
 30
0.0
 10
5.8222949877
 20
5.3130228983
 30
0.0
 10
5.8379534523
 20
5.3117019295
 30
0.0
 10
5.8575652885
 20
5.3105938883
 30
0.0
 10
5.8732765922
 20
5.3102953593
 30
0.0
 10
5.8811301664
 20
5.3102953593
 30
0.0
 11
5.5202862481
 21
5.4069831958
 31
0.0
 11
5.5628092687
 21
5.3866881406
 31
0.0
 11
5.5843646347
 21
5.3771726451
 31
0.0
 11
5.5952174117
 21
5.3725878748
 31
0.0
 11
5.6061208463
 21
5.3681241679
 31
0.0
 11
5.6280800922
 21
5.3595794185
 31
0.0
 11
5.650242247
 21
5.3515788593
 31
0.0
 11
5.6726069897
 21
5.34416327
 31
0.0
 11
5.6951720336
 21
5.337373736
 31
0.0
 11
5.7179274561
 21
5.3312525292
 31
0.0
 11
5.7408614806
 21
5.32584221
 31
0.0
 11
5.7639610529
 21
5.3211842286
 31
0.0
 11
5.7872062358
 21
5.3173140554
 31
0.0
 11
5.8105747845
 21
5.314265156
 31
0.0
 11
5.8222981655
 21
5.313058886
 31
0.0
 11
5.8340423215
 21
5.3120683186
 31
0.0
 11
5.8575736541
 21
5.3107407503
 31
0.0
 11
5.8811301664
 21
5.3102953593
 31
0.0
  0
SPLINE
  5
23B
100
AcDbEntity
  8
0
100
AcDbSpline
 62
6
  6
CONTINUOUS
 70
0
 71
3
 72
51
 73
47
 74
45
 42
0.0000001
 43
0.0000001
 44
0.0000000001
 12
0.2970429621
 22
-0.2970429621
 32
0.0
 13
0.2970429621
 23
0.2970429621
 33
0.0
 40
0.0
 40
0.0
 40
0.0
 40
0.0
 40
0.0352295211
 40
0.0699717989
 40
0.1041959975
 40
0.1378775378
 40
0.1709970257
 40
0.2035336668
 40
0.2354742021
 40
0.2668177557
 40
0.2975734069
 40
0.3277579568
 40
0.3426473426
 40
0.357408054
 40
0.372047315
 40
0.3865733367
 40
0.4009951984
 40
0.4153229547
 40
0.4295676603
 40
0.4437413851
 40
0.4578572234
 40
0.4719292457
 40
0.4859719839
 40
0.5000000607
 40
0.5140281385
 40
0.5280708788
 40
0.5421429023
 40
0.5562587383
 40
0.5704324585
 40
0.5846771593
 40
0.5990049118
 40
0.6134267709
 40
0.6279527905
 40
0.6425920485
 40
0.6573527533
 40
0.6722421295
 40
0.7024266572
 40
0.7331822897
 40
0.76452583
 40
0.796466348
 40
0.8290029704
 40
0.8621224417
 40
0.8958039776
 40
0.930028184
 40
0.9647704731
 40
1.0
 40
1.0
 40
1.0
 40
1.0
 10
5.1594423299
 20
5.4069831958
 30
0.0
 10
5.162930557
 20
5.4034949687
 30
0.0
 10
5.169933894
 20
5.3966412819
 30
0.0
 10
5.180605685
 20
5.3866897268
 30
0.0
 10
5.1913769029
 20
5.3771695481
 30
0.0
 10
5.2022492745
 20
5.3681156745
 30
0.0
 10
5.2132231869
 20
5.3595637183
 30
0.0
 10
5.2242997449
 20
5.351553493
 30
0.0
 10
5.2354788072
 20
5.3441263502
 30
0.0
 10
5.2467596555
 20
5.3373244477
 30
0.0
 10
5.2581390303
 20
5.3311900856
 30
0.0
 10
5.2677430234
 20
5.3266474115
 30
0.0
 10
5.2754656231
 20
5.3233950457
 30
0.0
 10
5.2812514884
 20
5.3211595364
 30
0.0
 10
5.2870562352
 20
5.319122294
 30
0.0
 10
5.2928783175
 20
5.3172870765
 30
0.0
 10
5.2987159472
 20
5.3156571338
 30
0.0
 10
5.3045673824
 20
5.3142358455
 30
0.0
 10
5.3104308643
 20
5.3130265743
 30
0.0
 10
5.316304626
 20
5.3120326416
 30
0.0
 10
5.3221869201
 20
5.3112575616
 30
0.0
 10
5.3280757895
 20
5.3107041073
 30
0.0
 10
5.3339689704
 20
5.3103719932
 30
0.0
 10
5.3398643148
 20
5.3102613015
 30
0.0
 10
5.3457596593
 20
5.3103720042
 30
0.0
 10
5.3516528402
 20
5.3107041248
 30
0.0
 10
5.35754171
 20
5.3112575742
 30
0.0
 10
5.3634240054
 20
5.3120326394
 30
0.0
 10
5.3692977655
 20
5.3130265721
 30
0.0
 10
5.3751612446
 20
5.3142358482
 30
0.0
 10
5.3810126762
 20
5.3156571446
 30
0.0
 10
5.3868503026
 20
5.3172870945
 30
0.0
 10
5.3926723825
 20
5.3191223158
 30
0.0
 10
5.3984771297
 20
5.3211595519
 30
0.0
 10
5.4042629941
 20
5.3233950562
 30
0.0
 10
5.4119855893
 20
5.326647419
 30
0.0
 10
5.4215895743
 20
5.3311900939
 30
0.0
 10
5.432968939
 20
5.3373244587
 30
0.0
 10
5.4442497805
 20
5.3441263591
 30
0.0
 10
5.4554288367
 20
5.3515534985
 30
0.0
 10
5.4665053892
 20
5.3595637187
 30
0.0
 10
5.4774792988
 20
5.3681156696
 30
0.0
 10
5.4883516697
 20
5.3771695411
 30
0.0
 10
5.4991228889
 20
5.3866897215
 30
0.0
 10
5.509794682
 20
5.3966412795
 30
0.0
 10
5.5167980205
 20
5.4034949681
 30
0.0
 10
5.5202862481
 20
5.4069831958
 30
0.0
 11
5.1594423299
 21
5.4069831958
 31
0.0
 11
5.1700240312
 21
5.396636858
 31
0.0
 11
5.1807027314
 21
5.3866885887
 31
0.0
 11
5.1914801909
 21
5.3771731375
 31
0.0
 11
5.2023581703
 21
5.3681252544
 31
0.0
 11
5.2133380689
 21
5.3595806183
 31
0.0
 11
5.2244194992
 21
5.3515795023
 31
0.0
 11
5.235601523
 21
5.3441635958
 31
0.0
 11
5.2468831803
 21
5.3373745874
 31
0.0
 11
5.258261354
 21
5.3312540473
 31
0.0
 11
5.2697289742
 21
5.3258433288
 31
0.0
 11
5.2754939854
 21
5.3234170683
 31
0.0
 11
5.2812785486
 21
5.3211837619
 31
0.0
 11
5.287081671
 21
5.3191484507
 31
0.0
 11
5.2929018576
 21
5.3173150573
 31
0.0
 11
5.2987373498
 21
5.3156869162
 31
0.0
 11
5.3045863864
 21
5.3142673568
 31
0.0
 11
5.3104472061
 21
5.3130597084
 31
0.0
 11
5.3163180477
 21
5.3120673003
 31
0.0
 11
5.3221971495
 21
5.3112934562
 31
0.0
 11
5.3280826389
 21
5.3107405239
 31
0.0
 11
5.3339724071
 21
5.3104087686
 31
0.0
 11
5.3398643146
 21
5.3102981877
 31
0.0
 11
5.3457562224
 21
5.3104087789
 31
0.0
 11
5.351645991
 21
5.3107405395
 31
0.0
 11
5.3575314814
 21
5.3112934672
 31
0.0
 11
5.3634105836
 21
5.3120673006
 31
0.0
 11
5.3692814236
 21
5.313059707
 31
0.0
 11
5.3751422403
 21
5.31426736
 31
0.0
 11
5.3809912734
 21
5.3156869268
 31
0.0
 11
5.3868267626
 21
5.3173150746
 31
0.0
 11
5.3926469475
 21
5.3191484709
 31
0.0
 11
5.39845007
 21
5.3211837779
 31
0.0
 11
5.404234632
 21
5.3234170795
 31
0.0
 11
5.4099996399
 21
5.3258433375
 31
0.0
 11
5.42146725
 21
5.3312540555
 31
0.0
 11
5.432845414
 21
5.3373745971
 31
0.0
 11
5.4441270652
 21
5.3441636047
 31
0.0
 11
5.4553090827
 21
5.3515795077
 31
0.0
 11
5.4663905072
 21
5.3595806184
 31
0.0
 11
5.4773704015
 21
5.3681252485
 31
0.0
 11
5.4882483803
 21
5.3771731296
 31
0.0
 11
5.4990258421
 21
5.3866885831
 31
0.0
 11
5.5097045453
 21
5.3966368561
 31
0.0
 11
5.5202862481
 21
5.4069831958
 31
0.0
  0
SPLINE
  5
23C
100
AcDbEntity
  8
0
100
AcDbSpline
 62
6
  6
CONTINUOUS
 70
0
 71
3
 72
43
 73
39
 74
37
 42
0.0000001
 43
0.0000001
 44
0.0000000001
 12
0.0844114142
 22
-0.1488391551
 32
0.0
 13
-0.1704098391
 23
-0.0154553452
 33
0.0
 40
0.0
 40
0.0
 40
0.0
 40
0.0
 40
0.0307640778
 40
0.06157712
 40
0.0924340914
 40
0.123323003
 40
0.1542299668
 40
0.185159339
 40
0.2161218094
 40
0.2471271611
 40
0.2781843502
 40
0.3092936465
 40
0.3404493401
 40
0.3716481442
 40
0.4028903338
 40
0.43417515
 40
0.4654935176
 40
0.496838908
 40
0.5282102435
 40
0.5596090712
 40
0.5910261293
 40
0.6224535301
 40
0.6538908565
 40
0.685341756
 40
0.7167973795
 40
0.7482507694
 40
0.7639793038
 40
0.7797090058
 40
0.8111679328
 40
0.8426305927
 40
0.8583669753
 40
0.8741067883
 40
0.8898522744
 40
0.905604393
 40
0.9213592565
 40
0.9371121032
 40
0.9685872792
 40
1.0
 40
1.0
 40
1.0
 40
1.0
 10
5.9399777246
 20
4.3052857143
 30
0.0
 10
5.9408433377
 20
4.3037594145
 30
0.0
 10
5.9424836878
 20
4.3006510709
 30
0.0
 10
5.9446668374
 20
4.2958491348
 30
0.0
 10
5.946573758
 20
4.2909232605
 30
0.0
 10
5.9482031413
 20
4.2858932964
 30
0.0
 10
5.9495542454
 20
4.2807773342
 30
0.0
 10
5.9506247311
 20
4.27559113
 30
0.0
 10
5.9514126807
 20
4.2703488935
 30
0.0
 10
5.9519162989
 20
4.2650644338
 30
0.0
 10
5.9521338475
 20
4.2597521058
 30
0.0
 10
5.9520632461
 20
4.2544271912
 30
0.0
 10
5.9517018975
 20
4.2491059391
 30
0.0
 10
5.9510472673
 20
4.243805056
 30
0.0
 10
5.9500967038
 20
4.2385416003
 30
0.0
 10
5.9488484154
 20
4.233333622
 30
0.0
 10
5.9473030264
 20
4.2281997272
 30
0.0
 10
5.9454609363
 20
4.2231593065
 30
0.0
 10
5.9433227112
 20
4.2182320524
 30
0.0
 10
5.9408895518
 20
4.2134388571
 30
0.0
 10
5.9381664927
 20
4.2088003891
 30
0.0
 10
5.9351588937
 20
4.2043383323
 30
0.0
 10
5.9318723754
 20
4.2000748724
 30
0.0
 10
5.9283137122
 20
4.196033399
 30
0.0
 10
5.9244949924
 20
4.1922354116
 30
0.0
 10
5.9211059637
 20
4.1892916618
 30
0.0
 10
5.9182782377
 20
4.187081668
 30
0.0
 10
5.9153745728
 20
4.1849718795
 30
0.0
 10
5.9116073649
 20
4.1825288987
 30
0.0
 10
5.9076743632
 20
4.1803617262
 30
0.0
 10
5.9044395183
 20
4.1788037223
 30
0.0
 10
5.9019708606
 20
4.1777251278
 30
0.0
 10
5.899462782
 20
4.1767392538
 30
0.0
 10
5.8969184499
 20
4.175848512
 30
0.0
 10
5.8943420072
 20
4.1750539137
 30
0.0
 10
5.8908711876
 20
4.17412476
 30
0.0
 10
5.8864755534
 20
4.1732100309
 30
0.0
 10
5.882914512
 20
4.1727473994
 30
0.0
 10
5.8811301664
 20
4.1725855679
 30
0.0
 11
5.9399777246
 21
4.3052857143
 31
0.0
 11
5.9424359588
 21
4.3006309341
 31
0.0
 11
5.9446193636
 21
4.2958318807
 31
0.0
 11
5.9465265865
 21
4.2909084682
 31
0.0
 11
5.9481562748
 21
4.2858806111
 31
0.0
 11
5.9495070269
 21
4.2807675532
 31
0.0
 11
5.9505771516
 21
4.2755845719
 31
0.0
 11
5.9513648509
 21
4.2703454909
 31
0.0
 11
5.9518683273
 21
4.2650641321
 31
0.0
 11
5.9520857602
 21
4.2597544093
 31
0.0
 11
5.9520149477
 21
4.2544317915
 31
0.0
 11
5.9516533708
 21
4.2491130397
 31
0.0
 11
5.9509985011
 21
4.2438149544
 31
0.0
 11
5.9500478136
 21
4.2385543393
 31
0.0
 11
5.9487996495
 21
4.2333487653
 31
0.0
 11
5.947254321
 21
4.2282175499
 31
0.0
 11
5.9454124131
 21
4.2231802525
 31
0.0
 11
5.9432745108
 21
4.2182564322
 31
0.0
 11
5.9408419854
 21
4.2134660276
 31
0.0
 11
5.9381195768
 21
4.2088306013
 31
0.0
 11
5.9351129274
 21
4.2043721513
 31
0.0
 11
5.9318276798
 21
4.2001126757
 31
0.0
 11
5.9282706552
 21
4.1960742909
 31
0.0
 11
5.924453582
 21
4.1922796065
 31
0.0
 11
5.9203894653
 21
4.1887513607
 31
0.0
 11
5.9182688297
 21
4.1870942579
 31
0.0
 11
5.916091326
 21
4.1855122852
 31
0.0
 11
5.9115744553
 21
4.1825842071
 31
0.0
 11
5.9068587649
 21
4.1799871119
 31
0.0
 11
5.9044327601
 21
4.1788188587
 31
0.0
 11
5.9019647278
 21
4.177740762
 31
0.0
 11
5.8994572284
 21
4.1767552912
 31
0.0
 11
5.8969133128
 21
4.1758646082
 31
0.0
 11
5.894337243
 21
4.1750701156
 31
0.0
 11
5.8917334641
 21
4.1743731007
 31
0.0
 11
5.886460561
 21
4.1732766541
 31
0.0
 11
5.8811301664
 21
4.1725855679
 31
0.0
  0
ENDSEC
  0
SECTION
  2
OBJECTS
  0
DICTIONARY
  5
C
100
AcDbDictionary
280
0
281
1
  3
ACAD_GROUP
350
D
  3
ACAD_MLINESTYLE
350
17
  3
ACAD_LAYOUT
350
1A
  3
ACAD_PLOTSETTINGS
350
19
  3
ACAD_PLOTSTYLENAME
350
E
  0
DICTIONARY
  5
D
102
{ACAD_REACTORS
330
C
102
}
100
AcDbDictionary
280
0
281
1
  0
ACDBDICTIONARYWDFLT
  5
E
102
{ACAD_REACTORS
330
C
102
}
100
AcDbDictionary
281
1
  3
Normal
350
F
100
AcDbDictionaryWithDefault
340
F
  0
DICTIONARY
  5
17
102
{ACAD_REACTORS
330
C
102
}
100
AcDbDictionary
280
0
281
1
  3
Standard
350
18
  0
DICTIONARY
  5
19
102
{ACAD_REACTORS
330
C
102
}
100
AcDbDictionary
281
1
  0
DICTIONARY
  5
1A
102
{ACAD_REACTORS
330
C
102
}
100
AcDbDictionary
281
1
  3
Model
350
23D
  3
Layout1
350
23E
  0
ACDBPLACEHOLDER
  5
F
102
{ACAD_REACTORS
330
E
102
}
  0
MLINESTYLE
  5
18
102
{ACAD_REACTORS
330
17
102
}
100
AcDbMlineStyle
  2
STANDARD
 70
0
  3

 62
256
 51
90.0
 52
90.0
 71
2
 49
0.5
 62
256
  6
BYLAYER
 49
-0.5
 62
256
  6
BYLAYER
  0
LAYOUT
  5
23D
102
{ACAD_REACTORS
330
1A
102
}
100
AcDbPlotSettings
  1

  2
none_device
  4
ISO_A4_(297.00_x_210.00_MM)
  6

 40
0.0
 41
0.0
 42
0.0
 43
0.0
 44
297.0
 45
210.0
 46
0.0
 47
0.0
 48
0.0
 49
0.0
140
0.0
141
0.0
142
1.0
143
1.0
 70
1024
 72
0
 73
0
 74
0
  7

 75
0
147
1.0
148
0.0
149
0.0
100
AcDbLayout
  1
Model
 70
0
 71
0
 10
0.0
 20
0.0
 11
11.6929133858
 21
8.2677165354
 12
0.0
 22
0.0
 32
0.0
 14
0.0
 24
0.0
 34
0.0
 15
0.0
 25
0.0
 35
0.0
146
0.0
 13
0.0
 23
0.0
 33
0.0
 16
1.0
 26
0.0
 36
0.0
 17
0.0
 27
1.0
 37
0.0
 76
0
330
203
345
0
346
0
  0
LAYOUT
  5
23E
102
{ACAD_REACTORS
330
1A
102
}
100
AcDbPlotSettings
  1

  2
none_device
  4
ISO_A4_(297.00_x_210.00_MM)
  6

 40
0.0
 41
0.0
 42
0.0
 43
0.0
 44
297.0
 45
210.0
 46
0.0
 47
0.0
 48
0.0
 49
0.0
140
0.0
141
0.0
142
1.0
143
1.0
 70
0
 72
0
 73
0
 74
0
  7

 75
0
147
1.0
148
0.0
149
0.0
100
AcDbLayout
  1
Layout1
 70
0
 71
1
 10
0.0
 20
0.0
 11
11.6929133858
 21
8.2677165354
 12
0.0
 22
0.0
 32
0.0
 14
0.0
 24
0.0
 34
0.0
 15
0.0
 25
0.0
 35
0.0
146
0.0
 13
0.0
 23
0.0
 33
0.0
 16
1.0
 26
0.0
 36
0.0
 17
0.0
 27
1.0
 37
0.0
 76
0
330
204
345
0
346
0
  0
ENDSEC
  0
EOF
