  0
SECTION
  2
HEADER
  9
$ACADVER
  1
AC1021
  9
$DWGCODEPAGE
  3
ANSI_1252
  9
$EXTMAX
 10
11.6929133858
 20
8.2677165354
 30
0.0
  9
$EXTMIN
 10
0.0
 20
0.0
 30
0.0
  9
$LIMMIN
 10
0.0
 20
0.0
  9
$LIMMAX
 10
11.6929133858
 20
8.2677165354
  9
$VIEWCTR
 10
5.8464566929
 20
4.1338582677
  9
$VIEWSIZE
 40
8.2677165354
  9
$CLAYER
  8
0
  9
$LTSCALE
 40
0.6431102362
  9
$CELTYPE
  6
BYLAYER
  9
$DIMSCALE
 40
1.0
  9
$DIMASZ
 40
0.1
  9
$DIMEXO
 40
0.0730807087
  9
$DIMDLI
 40
0.4443307087
  9
$DIMEXE
 40
0.2104724409
  9
$DIMCEN
 40
0.1052362205
  9
$DIMLFAC
 40
1.0
  9
$DIMBLK
  1
_FILLED
  9
$DIMTXT
 40
0.08
  9
$DIMTOL
 70
1
  9
$DIMLIM
 70
0
  9
$DIMTFAC
 40
1.0
  9
$DIMTP
 40
0.001
  9
$DIMTM
 40
0.001
  9
$PDMODE
 70
3
  9
$PDSIZE
 40
0.06
  9
$HANDSEED
  5
23F
  9
$TILEMODE
 70
1
  9
$MEASUREMENT
 70
0
  9
$INSUNITS
 70
1
  0
ENDSEC
  0
SECTION
  2
CLASSES
  0
CLASS
  1
ACDBDICTIONARYWDFLT
  2
AcDbDictionaryWithDefault
  3
AutoCAD 2000
 90
0
 91
1
280
0
281
0
  0
CLASS
  1
ACDBPLACEHOLDER
  2
AcDbPlaceHolder
  3
AutoCAD 2000
 90
0
 91
1
280
0
281
0
  0
CLASS
  1
LAYOUT
  2
AcDbLayout
  3
AutoCAD 2000
 90
0
 91
0
280
0
281
0
  0
ENDSEC
  0
SECTION
  2
TABLES
  0
TABLE
  2
VPORT
  5
8
100
AcDbSymbolTable
 70
2
  0
VPORT
  5
1F4
100
AcDbSymbolTableRecord
100
AcDbViewportTableRecord
  2
*ACTIVE
 70
0
 10
0.0
 20
0.0
 11
1.0
 21
1.0
 12
5.8464566929
 22
4.1338582677
 13
0.0
 23
0.0
 14
1.0
 24
1.0
 15
0.0
 25
0.0
 16
0.0
 26
0.0
 36
1.0
 17
0.0
 27
0.0
 37
0.0
 40
8.2677165354
 41
1.4142857143
 42
50.0
 43
0.0
 44
0.0
 50
0.0
 51
0.0
 71
0
 72
100
 73
1
 74
1
 75
0
 76
0
 77
0
 78
0
  0
ENDTAB
  0
TABLE
  2
LTYPE
  5
5
100
AcDbSymbolTable
 70
6
  0
LTYPE
  5
14
100
AcDbSymbolTableRecord
100
AcDbLinetypeTableRecord
  2
BYBLOCK
 70
0
  3

 72
65
 73
0
 40
0.0
  0
LTYPE
  5
15
100
AcDbSymbolTableRecord
100
AcDbLinetypeTableRecord
  2
BYLAYER
 70
0
  3

 72
65
 73
0
 40
0.0
  0
LTYPE
  5
16
100
AcDbSymbolTableRecord
100
AcDbLinetypeTableRecord
  2
CONTINUOUS
 70
64
  3
Solid line
 72
65
 73
0
 40
0.0
  0
LTYPE
  5
1F5
100
AcDbSymbolTableRecord
100
AcDbLinetypeTableRecord
  2
CENTER
 70
64
  3
____ _ ____ _ ____ _ ____ _ ____ _ ____ _ ____
 72
65
 73
4
 40
0.6
 49
0.375
 74
0
 49
-0.075
 74
0
 49
0.075
 74
0
 49
-0.075
 74
0
  0
LTYPE
  5
1F6
100
AcDbSymbolTableRecord
100
AcDbLinetypeTableRecord
  2
HIDDEN
 70
64
  3
- - - - - - - - - - - - - - - - - - - -
 72
65
 73
2
 40
0.2
 49
0.1
 74
0
 49
-0.1
 74
0
  0
LTYPE
  5
1F7
100
AcDbSymbolTableRecord
100
AcDbLinetypeTableRecord
  2
PHANTOM
 70
64
  3
_____ _ _ _____ _ _ _____ _ _ _____
 72
65
 73
6
 40
0.8
 49
0.45
 74
0
 49
-0.05
 74
0
 49
0.1
 74
0
 49
-0.05
 74
0
 49
0.1
 74
0
 49
-0.05
 74
0
  0
LTYPE
  5
1F8
100
AcDbSymbolTableRecord
100
AcDbLinetypeTableRecord
  2
DOT
 70
64
  3
. . . . . . . . . . . . . . . . . . . .
 72
65
 73
2
 40
0.2
 49
0.1
 74
0
 49
-0.1
 74
0
  0
LTYPE
  5
1F9
100
AcDbSymbolTableRecord
100
AcDbLinetypeTableRecord
  2
DASHED
 70
64
  3
- - - - - - - - - - - - - - - - - - - -
 72
65
 73
2
 40
0.2
 49
0.1
 74
0
 49
-0.1
 74
0
  0
ENDTAB
  0
TABLE
  2
LAYER
  5
2
100
AcDbSymbolTable
 70
36
  0
LAYER
  5
10
100
AcDbSymbolTableRecord
100
AcDbLayerTableRecord
  2
0
 70
0
 62
7
  6
CONTINUOUS
370
-3
390
F
  0
LAYER
  5
1FA
100
AcDbSymbolTableRecord
100
AcDbLayerTableRecord
  2
DEFAULT_1
 70
0
 62
7
  6
CENTER
370
-3
390
F
  0
LAYER
  5
1FB
100
AcDbSymbolTableRecord
100
AcDbLayerTableRecord
  2
DEFAULT_2
 70
0
 62
8
  6
HIDDEN
370
-3
390
F
  0
LAYER
  5
1FC
100
AcDbSymbolTableRecord
100
AcDbLayerTableRecord
  2
DEFAULT_3
 70
0
 62
7
  6
PHANTOM
370
-3
390
F
  0
LAYER
  5
1FD
100
AcDbSymbolTableRecord
100
AcDbLayerTableRecord
  2
DEFAULT_COORDINATE_SYSTEM
 70
0
 62
7
  6
CONTINUOUS
370
-3
390
F
  0
LAYER
  5
1FE
100
AcDbSymbolTableRecord
100
AcDbLayerTableRecord
  2
DEFAULT_DATUM_AXES
 70
0
 62
7
  6
CONTINUOUS
370
-3
390
F
  0
LAYER
  5
1FF
100
AcDbSymbolTableRecord
100
AcDbLayerTableRecord
  2
DEFAULT_DATUM_CURVES
 70
0
 62
7
  6
CONTINUOUS
370
-3
390
F
  0
LAYER
  5
200
100
AcDbSymbolTableRecord
100
AcDbLayerTableRecord
  2
DEFAULT_DATUM_PLANES
 70
0
 62
7
  6
CONTINUOUS
370
-3
390
F
  0
ENDTAB
  0
TABLE
  2
STYLE
  5
3
100
AcDbSymbolTable
 70
1
  0
STYLE
  5
11
100
AcDbSymbolTableRecord
100
AcDbTextStyleTableRecord
  2
STANDARD
 70
0
 40
0.0
 41
0.8
 50
0.0
 71
0
 42
0.2
  3
txt
  4

  0
STYLE
  5
201
100
AcDbSymbolTableRecord
100
AcDbTextStyleTableRecord
  2
TEXTSTYLE_1
 70
0
 40
0.0
 41
0.8
 50
0.0
 71
0
 42
0.2
  3
gdt
  4

  0
ENDTAB
  0
TABLE
  2
VIEW
  5
6
100
AcDbSymbolTable
 70
0
  0
ENDTAB
  0
TABLE
  2
UCS
  5
7
100
AcDbSymbolTable
 70
0
  0
ENDTAB
  0
TABLE
  2
APPID
  5
9
100
AcDbSymbolTable
 70
1
  0
APPID
  5
202
100
AcDbSymbolTableRecord
100
AcDbRegAppTableRecord
  2
ACAD
 70
0
  0
ENDTAB
  0
TABLE
  2
BLOCK_RECORD
  5
1
100
AcDbSymbolTable
 70
0
  0
BLOCK_RECORD
  5
203
100
AcDbSymbolTableRecord
100
AcDbBlockTableRecord
  2
*Model_Space
  0
BLOCK_RECORD
  5
204
100
AcDbSymbolTableRecord
100
AcDbBlockTableRecord
  2
*Paper_Space
  0
ENDTAB
  0
TABLE
  2
DIMSTYLE
  5
A
100
AcDbSymbolTable
 70
1
100
AcDbDimStyleTable
 71
0
  0
DIMSTYLE
105
205
100
AcDbSymbolTableRecord
100
AcDbDimStyleTableRecord
  2
STANDARD
 70
0
  3

  4

 40
1.0
 41
0.1
 42
0.0625
 43
0.38
 44
0.18
 45
0.0
 46
0.0
 47
0.001
 48
0.001
140
0.08
141
0.09
142
0.0
143
25.4
144
1.0
145
0.0
146
1.0
147
0.09
 71
1.0
 72
0.0
 73
1
 74
1
 75
0
 76
0
 77
0
 78
4
170
0
171
2
172
0
173
0
174
0
175
0
176
0
177
0
178
0
270
2
271
3
272
3
273
2
274
2
275
0
280
0
281
0
282
0
283
1
284
4
285
0
286
0
287
3
288
0
340
11
  0
ENDTAB
  0
ENDSEC
  0
SECTION
  2
BLOCKS
  0
BLOCK
  5
20
100
AcDbEntity
  8
0
100
AcDbBlockBegin
  2
*Model_Space
 70
0
 10
0.0
 20
0.0
 30
0.0
  3
*Model_Space
  1

  0
ENDBLK
  5
21
100
AcDbEntity
  8
0
100
AcDbBlockEnd
  0
BLOCK
  5
1C
100
AcDbEntity
  8
0
100
AcDbBlockBegin
  2
*Paper_Space
 70
0
 10
0.0
 20
0.0
 30
0.0
  3
*Paper_Space
  1

  0
ENDBLK
  5
1D
100
AcDbEntity
  8
0
100
AcDbBlockEnd
  0
ENDSEC
  0
SECTION
  2
ENTITIES
  0
LINE
  5
206
100
AcDbEntity
  8
0
100
AcDbLine
 62
6
  6
CONTINUOUS
 10
4.2675241314
 20
5.9452120617
 11
4.2675241314
 21
2.0702120617
  0
LINE
  5
207
100
AcDbEntity
  8
0
100
AcDbLine
 62
9
  6
CONTINUOUS
 10
4.6425241314
 20
3.1327120617
 11
4.2675241314
 21
3.1327120617
  0
LINE
  5
208
100
AcDbEntity
  8
0
100
AcDbLine
 62
6
  6
CONTINUOUS
 10
4.6425241314
 20
5.9452120617
 11
4.6425241314
 21
2.0702120617
  0
LINE
  5
209
100
AcDbEntity
  8
0
100
AcDbLine
 62
6
  6
CONTINUOUS
 10
6.4585010301
 20
6.5702120617
 11
6.4373786637
 21
6.5490896954
  0
LINE
  5
20A
100
AcDbEntity
  8
0
100
AcDbLine
 62
6
  6
CONTINUOUS
 10
4.9462430235
 20
6.2702120617
 11
4.9462430235
 21
5.6202120617
  0
LINE
  5
20B
100
AcDbEntity
  8
0
100
AcDbLine
 62
9
  6
CONTINUOUS
 10
5.7877160122
 20
6.3959710425
 11
5.7877160122
 21
5.4944530809
  0
LINE
  5
20C
100
AcDbEntity
  8
0
100
AcDbLine
 62
9
  6
CONTINUOUS
 10
4.6425241314
 20
4.8827120617
 11
4.2675241314
 21
4.8827120617
  0
LINE
  5
20D
100
AcDbEntity
  8
0
100
AcDbLine
 62
9
  6
CONTINUOUS
 10
6.021372983
 20
6.4962635315
 11
6.021372983
 21
5.394160592
  0
LINE
  5
20E
100
AcDbEntity
  8
0
100
AcDbLine
 62
9
  6
CONTINUOUS
 10
6.2380062091
 20
6.5172880617
 11
6.2380062091
 21
5.3731360617
  0
LINE
  5
20F
100
AcDbEntity
  8
0
100
AcDbLine
 62
6
  6
CONTINUOUS
 10
6.8462430235
 20
5.2042120617
 11
6.9082430235
 21
5.2042120617
  0
LINE
  5
210
100
AcDbEntity
  8
0
100
AcDbLine
 62
6
  6
CONTINUOUS
 10
6.8462430235
 20
5.3202120617
 11
6.4585010301
 21
5.3202120617
  0
LINE
  5
211
100
AcDbEntity
  8
0
100
AcDbLine
 62
6
  6
CONTINUOUS
 10
5.3184875611
 20
5.5645797428
 11
5.3182316277
 21
5.5647143424
  0
LINE
  5
212
100
AcDbEntity
  8
0
100
AcDbLine
 62
9
  6
CONTINUOUS
 10
6.4373786637
 20
6.5490896954
 11
6.4373786637
 21
5.3413344281
  0
LINE
  5
213
100
AcDbEntity
  8
0
100
AcDbLine
 62
6
  6
CONTINUOUS
 10
5.7877160122
 20
5.4944530809
 11
5.4812430235
 21
5.540255776
  0
LINE
  5
214
100
AcDbEntity
  8
0
100
AcDbLine
 62
6
  6
CONTINUOUS
 10
5.3182300351
 20
5.5646182303
 11
4.9462430235
 21
5.6202120617
  0
LINE
  5
215
100
AcDbEntity
  8
0
100
AcDbLine
 62
6
  6
CONTINUOUS
 10
6.8462430235
 20
5.2042152414
 11
6.8462430235
 21
6.686208882
  0
LINE
  5
216
100
AcDbEntity
  8
0
100
AcDbLine
 62
6
  6
CONTINUOUS
 10
6.4585010301
 20
5.3202120617
 11
6.4373786637
 21
5.3413344281
  0
LINE
  5
217
100
AcDbEntity
  8
0
100
AcDbLine
 62
9
  6
CONTINUOUS
 10
6.9082430235
 20
5.1322120096
 11
6.9082430235
 21
6.7582121138
  0
LINE
  5
218
100
AcDbEntity
  8
0
100
AcDbLine
 62
6
  6
CONTINUOUS
 10
6.8462430235
 20
5.9452120617
 11
6.5551888666
 21
5.9452120617
  0
LINE
  5
219
100
AcDbEntity
  8
0
100
AcDbLine
 62
6
  6
CONTINUOUS
 10
7.0962430235
 20
4.9452120617
 11
7.0962430235
 21
6.9452120617
  0
LINE
  5
21A
100
AcDbEntity
  8
0
100
AcDbLine
 62
6
  6
CONTINUOUS
 10
7.2832430235
 20
4.7652120617
 11
7.2832430235
 21
7.1252120617
  0
LINE
  5
21B
100
AcDbEntity
  8
0
100
AcDbLine
 62
6
  6
CONTINUOUS
 10
5.7877160122
 20
6.3959710425
 11
4.9462430235
 21
6.2702120617
  0
LINE
  5
21C
100
AcDbEntity
  8
0
100
AcDbLine
 62
6
  6
CONTINUOUS
 10
6.4585010301
 20
6.5702120617
 11
6.8462430235
 21
6.5702120617
  0
LINE
  5
21D
100
AcDbEntity
  8
0
100
AcDbLine
 62
6
  6
CONTINUOUS
 10
6.8462430235
 20
6.6862120617
 11
6.9082430235
 21
6.6862120617
  0
ARC
  5
21E
100
AcDbEntity
  8
0
100
AcDbCircle
 62
6
  6
CONTINUOUS
 10
4.4550241229
 20
2.6898842281
 40
0.3125000085
100
AcDbArc
 50
306.8723403172
 51
53.1206499415
  0
ARC
  5
21F
100
AcDbEntity
  8
0
100
AcDbCircle
 62
6
  6
CONTINUOUS
 10
4.4550241399
 20
2.6898842192
 40
0.3125000085
100
AcDbArc
 50
126.8723403172
 51
233.1206499415
  0
ARC
  5
220
100
AcDbEntity
  8
0
100
AcDbCircle
 62
9
  6
CONTINUOUS
 10
4.4550241314
 20
2.0702120617
 40
0.1875
100
AcDbArc
 50
180.0
 51
360.0
  0
ARC
  5
221
100
AcDbEntity
  8
0
100
AcDbCircle
 62
7
  6
CONTINUOUS
 10
4.5490700943
 20
2.5136303318
 40
0.0944540376
100
AcDbArc
 50
0.0059100755
 51
5.7552615871
  0
ARC
  5
222
100
AcDbEntity
  8
0
100
AcDbCircle
 62
7
  6
CONTINUOUS
 10
4.3609781685
 20
2.5136303318
 40
0.0944540376
100
AcDbArc
 50
174.244738413
 51
179.9940899245
  0
ARC
  5
223
100
AcDbEntity
  8
0
100
AcDbCircle
 62
7
  6
CONTINUOUS
 10
4.5490700943
 20
2.5136498177
 40
0.0944540376
100
AcDbArc
 50
354.2447384129
 51
359.9940899245
  0
ARC
  5
224
100
AcDbEntity
  8
0
100
AcDbCircle
 62
7
  6
CONTINUOUS
 10
4.3609781685
 20
2.5136498177
 40
0.0944540376
100
AcDbArc
 50
180.0059100755
 51
185.755261587
  0
ARC
  5
225
100
AcDbEntity
  8
0
100
AcDbCircle
 62
6
  6
CONTINUOUS
 10
4.4550241314
 20
5.9452120617
 40
0.589
100
AcDbArc
 50
33.4893985991
 51
251.428367054
  0
ARC
  5
226
100
AcDbEntity
  8
0
100
AcDbCircle
 62
6
  6
CONTINUOUS
 10
4.4550241314
 20
5.9452120617
 40
0.589
100
AcDbArc
 50
288.5638555714
 51
326.5106014009
  0
ARC
  5
227
100
AcDbEntity
  8
0
100
AcDbCircle
 62
7
  6
CONTINUOUS
 10
4.4550241314
 20
5.9452120617
 40
0.193
100
AcDbArc
 50
346.7655687938
 51
193.2344312062
  0
ARC
  5
228
100
AcDbEntity
  8
0
100
AcDbCircle
 62
9
  6
CONTINUOUS
 10
4.4550241314
 20
5.9452120617
 40
0.1875
100
AcDbArc
 50
0.0
 51
180.0
  0
ARC
  5
229
100
AcDbEntity
  8
0
100
AcDbCircle
 62
6
  6
CONTINUOUS
 10
5.3030597804
 20
5.0446170569
 40
0.5266944312
100
AcDbArc
 50
70.2263737584
 51
71.0388754998
  0
ARC
  5
22A
100
AcDbEntity
  8
0
100
AcDbCircle
 62
6
  6
CONTINUOUS
 10
5.7138113067
 20
4.9999451493
 40
0.5
100
AcDbArc
 50
52.0391161445
 51
81.5
  0
ARC
  5
22B
100
AcDbEntity
  8
0
100
AcDbCircle
 62
6
  6
CONTINUOUS
 10
5.2512606905
 20
5.0893955459
 40
0.4959492623
100
AcDbArc
 50
69.1300722107
 51
71.8812644861
  0
ARC
  5
22C
100
AcDbEntity
  8
0
100
AcDbCircle
 62
6
  6
CONTINUOUS
 10
5.3272644554
 20
5.1188985891
 40
0.4454345764
100
AcDbArc
 50
75.4969902168
 51
76.9371454946
  0
ARC
  5
22D
100
AcDbEntity
  8
0
100
AcDbCircle
 62
6
  6
CONTINUOUS
 10
5.7138113067
 20
6.8904789742
 40
0.5
100
AcDbArc
 50
278.5
 51
307.9608838555
  0
ARC
  5
22E
100
AcDbEntity
  8
0
100
AcDbCircle
 62
6
  6
CONTINUOUS
 10
6.1462430235
 20
5.5542120617
 40
0.203
100
AcDbArc
 50
232.0391161445
 51
296.8743480767
  0
ARC
  5
22F
100
AcDbEntity
  8
0
100
AcDbCircle
 62
6
  6
CONTINUOUS
 10
6.3157562974
 20
5.2197120617
 40
0.172
100
AcDbArc
 50
45.0
 51
116.8743480767
  0
ARC
  5
230
100
AcDbEntity
  8
0
100
AcDbCircle
 62
6
  6
CONTINUOUS
 10
6.1462430235
 20
6.3362120617
 40
0.203
100
AcDbArc
 50
63.1256519233
 51
127.9608838555
  0
ARC
  5
231
100
AcDbEntity
  8
0
100
AcDbCircle
 62
6
  6
CONTINUOUS
 10
6.3157562974
 20
6.6707120617
 40
0.172
100
AcDbArc
 50
243.1256519233
 51
315.0
  0
ARC
  5
232
100
AcDbEntity
  8
0
100
AcDbCircle
 62
6
  6
CONTINUOUS
 10
7.2832430235
 20
4.9523481728
 40
0.1871361111
100
AcDbArc
 50
182.1854050713
 51
270.0
  0
ARC
  5
233
100
AcDbEntity
  8
0
100
AcDbCircle
 62
6
  6
CONTINUOUS
 10
7.0952430235
 20
5.1322093879
 40
0.187
100
AcDbArc
 50
180.0
 51
270.3063960032
  0
ARC
  5
234
100
AcDbEntity
  8
0
100
AcDbCircle
 62
6
  6
CONTINUOUS
 10
7.2832430235
 20
6.9380759506
 40
0.1871361111
100
AcDbArc
 50
90.0
 51
177.8145949287
  0
ARC
  5
235
100
AcDbEntity
  8
0
100
AcDbCircle
 62
6
  6
CONTINUOUS
 10
7.0952430235
 20
6.7582147355
 40
0.187
100
AcDbArc
 50
89.6936039968
 51
180.0
  0
SPLINE
  5
236
100
AcDbEntity
  8
0
100
AcDbSpline
 62
6
  6
CONTINUOUS
 70
0
 71
3
 72
14
 73
10
 74
8
 42
0.0000001
 43
0.0000001
 44
0.0000000001
 12
0.0355580864
 22
-0.006525251
 32
0.0
 13
0.0352206728
 23
-0.0081523381
 33
0.0
 40
0.0
 40
0.0
 40
0.0
 40
0.0
 40
0.1378904587
 40
0.273337261
 40
0.405712914
 40
0.5344083836
 40
0.6588541697
 40
0.7784735904
 40
1.0
 40
1.0
 40
1.0
 40
1.0
 10
5.4388150199
 20
5.550139164
 30
0.0
 10
5.4404493935
 20
5.5498392407
 30
0.0
 10
5.4436868887
 20
5.5492321709
 30
0.0
 10
5.4484855926
 20
5.5482962101
 30
0.0
 10
5.4531691805
 20
5.5473494462
 30
0.0
 10
5.4577168218
 20
5.5463997569
 30
0.0
 10
5.4621085483
 20
5.5454558362
 30
0.0
 10
5.4675876024
 20
5.5442476281
 30
0.0
 10
5.4715960381
 20
5.5433347253
 30
0.0
 10
5.4741968078
 20
5.5427327393
 30
0.0
 11
5.4388150199
 21
5.550139164
 31
0.0
 11
5.4437146848
 21
5.5492207614
 31
0.0
 11
5.4485208191
 21
5.5482835943
 31
0.0
 11
5.4532116046
 21
5.5473355765
 31
0.0
 11
5.4577659972
 21
5.5463847851
 31
0.0
 11
5.4621645424
 21
5.5454396328
 31
0.0
 11
5.4663876112
 21
5.5445086791
 31
0.0
 11
5.4741968078
 21
5.5427327393
 31
0.0
  0
SPLINE
  5
237
100
AcDbEntity
  8
0
100
AcDbSpline
 62
6
  6
CONTINUOUS
 70
0
 71
3
 72
18
 73
14
 74
12
 42
0.0000001
 43
0.0000001
 44
0.0000000001
 12
0.0451445291
 22
-0.0026425929
 32
0.0
 13
0.0445290327
 23
-0.0078852424
 33
0.0
 40
0.0
 40
0.0
 40
0.0
 40
0.0
 40
0.1180796166
 40
0.2393750842
 40
0.3010164052
 40
0.3632081561
 40
0.488959931
 40
0.5523883314
 40
0.6160965894
 40
0.6800183812
 40
0.7440788541
 40
0.872274589
 40
1.0
 40
1.0
 40
1.0
 40
1.0
 10
5.3606105589
 20
5.5660581701
 30
0.0
 10
5.3623874418
 20
5.565954158
 30
0.0
 10
5.3659881228
 20
5.565717266
 30
0.0
 10
5.3705112829
 20
5.565354742
 30
0.0
 10
5.3741911238
 20
5.565019472
 30
0.0
 10
5.3779352155
 20
5.5646502448
 30
0.0
 10
5.3817018685
 20
5.5642363086
 30
0.0
 10
5.3854862845
 20
5.5637781414
 30
0.0
 10
5.3883427993
 20
5.5634108534
 30
0.0
 10
5.3912059372
 20
5.5630209987
 30
0.0
 10
5.3950282912
 20
5.5624715627
 30
0.0
 10
5.3997949744
 20
5.5617330241
 30
0.0
 10
5.4035985101
 20
5.5610877035
 30
0.0
 10
5.4054943397
 20
5.5607519882
 30
0.0
 11
5.3606105589
 21
5.5660581701
 31
0.0
 11
5.3659388347
 21
5.5657079426
 31
0.0
 11
5.3714065047
 21
5.5652697573
 31
0.0
 11
5.3741825354
 21
5.5650167995
 31
0.0
 11
5.3769813861
 21
5.5647408294
 31
0.0
 11
5.3826341059
 21
5.5641198855
 31
0.0
 11
5.3854816609
 21
5.563775147
 31
0.0
 11
5.3883391378
 21
5.5634077217
 31
0.0
 11
5.3912033692
 21
5.5630177378
 31
0.0
 11
5.3940708371
 21
5.5626056302
 31
0.0
 11
5.3997997587
 21
5.5617182289
 31
0.0
 11
5.4054943397
 21
5.5607519882
 31
0.0
  0
SPLINE
  5
238
100
AcDbEntity
  8
0
100
AcDbSpline
 62
6
  6
CONTINUOUS
 70
0
 71
3
 72
43
 73
39
 74
37
 42
0.0000001
 43
0.0000001
 44
0.0000000001
 12
-0.0988809488
 22
0.0170594299
 32
0.0
 13
-0.0992395795
 23
0.0148314545
 33
0.0
 40
0.0
 40
0.0
 40
0.0
 40
0.0
 40
0.0856215347
 40
0.1285409746
 40
0.1714334008
 40
0.2142244466
 40
0.2568395963
 40
0.2991989959
 40
0.3412176606
 40
0.3828102731
 40
0.4238914052
 40
0.4643752156
 40
0.5041701744
 40
0.5431798382
 40
0.581307286
 40
0.6184552937
 40
0.6545254029
 40
0.6894135366
 40
0.7230133803
 40
0.755218213
 40
0.7859209482
 40
0.8150141515
 40
0.8423900249
 40
0.8679404428
 40
0.8915570352
 40
0.9131364724
 40
0.9325863646
 40
0.9498156859
 40
0.9647335213
 40
0.9712986702
 40
0.9772583614
 40
0.9826069752
 40
0.9873389882
 40
0.991449036
 40
0.9949320337
 40
0.9977834322
 40
0.9989712034
 40
1.0
 40
1.0
 40
1.0
 40
1.0
 10
5.4183687985
 20
5.5563711718
 30
0.0
 10
5.4155466857
 20
5.5568580566
 30
0.0
 10
5.4113043289
 20
5.5575570676
 30
0.0
 10
5.4056363463
 20
5.5584247542
 30
0.0
 10
5.4013795459
 20
5.5590429848
 30
0.0
 10
5.3971281443
 20
5.5596266498
 30
0.0
 10
5.3928898958
 20
5.5601740598
 30
0.0
 10
5.3886730513
 20
5.5606844348
 30
0.0
 10
5.3844863098
 20
5.5611577921
 30
0.0
 10
5.3803385161
 20
5.561593928
 30
0.0
 10
5.3762385439
 20
5.5619927462
 30
0.0
 10
5.3721954458
 20
5.5623539029
 30
0.0
 10
5.3682187322
 20
5.5626781207
 30
0.0
 10
5.3643183159
 20
5.5629668894
 30
0.0
 10
5.3605042495
 20
5.5632215005
 30
0.0
 10
5.3567866277
 20
5.5634433182
 30
0.0
 10
5.3531757527
 20
5.5636335858
 30
0.0
 10
5.3496822642
 20
5.5637947427
 30
0.0
 10
5.3463170377
 20
5.5639293405
 30
0.0
 10
5.3430910082
 20
5.5640399131
 30
0.0
 10
5.34001511
 20
5.5641289343
 30
0.0
 10
5.3371002885
 20
5.564199155
 30
0.0
 10
5.3343574979
 20
5.5642537175
 30
0.0
 10
5.3317976889
 20
5.5642956844
 30
0.0
 10
5.3294316357
 20
5.5643281476
 30
0.0
 10
5.3272695632
 20
5.5643541302
 30
0.0
 10
5.3253210981
 20
5.5643763472
 30
0.0
 10
5.3235954492
 20
5.5643975544
 30
0.0
 10
5.3223007738
 20
5.5644173106
 30
0.0
 10
5.3213830786
 20
5.5644359356
 30
0.0
 10
5.3207854391
 20
5.5644506302
 30
0.0
 10
5.3202491748
 20
5.5644668098
 30
0.0
 10
5.3197748659
 20
5.5644846448
 30
0.0
 10
5.3193630828
 20
5.5645042709
 30
0.0
 10
5.3190144011
 20
5.5645258504
 30
0.0
 10
5.3187636179
 20
5.56454652
 30
0.0
 10
5.3185951021
 20
5.5645649311
 30
0.0
 10
5.3185215935
 20
5.5645746567
 30
0.0
 10
5.3184875611
 20
5.5645797428
 30
0.0
 11
5.4183687985
 21
5.5563711718
 31
0.0
 11
5.4098916629
 21
5.5577678004
 31
0.0
 11
5.4056346365
 21
5.5584194367
 31
0.0
 11
5.4013754081
 21
5.5590379322
 31
0.0
 11
5.3971215589
 21
5.5596217732
 31
0.0
 11
5.3928807023
 21
5.5601694799
 31
0.0
 11
5.3886610871
 21
5.5606802489
 31
0.0
 11
5.3844715507
 21
5.5611539031
 31
0.0
 11
5.3803209526
 21
5.5615902887
 31
0.0
 11
5.3762181523
 21
5.561989252
 31
0.0
 11
5.3721720472
 21
5.562350686
 31
0.0
 11
5.368192165
 21
5.5626752635
 31
0.0
 11
5.3642885532
 21
5.5629643001
 31
0.0
 11
5.3604712749
 21
5.5632191307
 31
0.0
 11
5.3567503932
 21
5.5634410901
 31
0.0
 11
5.3531360758
 21
5.5636316563
 31
0.0
 11
5.3496390638
 21
5.5637930922
 31
0.0
 11
5.3462702942
 21
5.5639279289
 31
0.0
 11
5.343040704
 21
5.5640386974
 31
0.0
 11
5.3399612307
 21
5.5641279368
 31
0.0
 11
5.3370428192
 21
5.5641984353
 31
0.0
 11
5.3342964237
 21
5.5642532757
 31
0.0
 11
5.3317329988
 21
5.5642955575
 31
0.0
 11
5.329363496
 21
5.5643283797
 31
0.0
 11
5.3271983382
 21
5.5643547526
 31
0.0
 11
5.3252468346
 21
5.5643775
 31
0.0
 11
5.3235181534
 21
5.5643994216
 31
0.0
 11
5.3220214625
 21
5.5644233172
 31
0.0
 11
5.3213628428
 21
5.5644368402
 31
0.0
 11
5.3207650221
 21
5.5644517185
 31
0.0
 11
5.320228584
 21
5.564468136
 31
0.0
 11
5.3197541122
 21
5.5644862763
 31
0.0
 11
5.3193421903
 21
5.5645063234
 31
0.0
 11
5.3189934021
 21
5.564528461
 31
0.0
 11
5.3187083311
 21
5.5645528728
 31
0.0
 11
5.318589872
 21
5.5645659891
 31
0.0
 11
5.3184875611
 21
5.5645797428
 31
0.0
  0
SPLINE
  5
239
100
AcDbEntity
  8
0
100
AcDbSpline
 62
6
  6
CONTINUOUS
 70
0
 71
3
 72
33
 73
29
 74
27
 42
0.0000001
 43
0.0000001
 44
0.0000000001
 12
0.0366985421
 22
0.0212942574
 32
0.0
 13
0.0424179405
 23
-0.0009729924
 33
0.0
 40
0.0
 40
0.0
 40
0.0
 40
0.0
 40
0.000613605
 40
0.0013555111
 40
0.0032348727
 40
0.0056512474
 40
0.0086094748
 40
0.0121115669
 40
0.016158222
 40
0.0258818602
 40
0.0377538793
 40
0.0517360215
 40
0.0677888492
 40
0.0858723443
 40
0.1059461683
 40
0.1279697947
 40
0.1518994283
 40
0.1776820564
 40
0.2052630173
 40
0.2345876748
 40
0.2982495781
 40
0.3682324967
 40
0.4441125056
 40
0.5254743333
 40
0.6119041598
 40
0.7029885822
 40
0.7983108194
 40
1.0
 40
1.0
 40
1.0
 40
1.0
 10
5.318245906
 20
5.5647127915
 30
0.0
 10
5.3182534121
 20
5.5647171469
 30
0.0
 10
5.318270593
 20
5.5647257324
 30
0.0
 10
5.3183129591
 20
5.5647430616
 30
0.0
 10
5.3183809953
 20
5.5647645358
 30
0.0
 10
5.318480429
 20
5.5647898664
 30
0.0
 10
5.3186032037
 20
5.5648162148
 30
0.0
 10
5.318749275
 20
5.5648435687
 30
0.0
 10
5.3189902351
 20
5.5648838054
 30
0.0
 10
5.3193492719
 20
5.5649352297
 30
0.0
 10
5.3198486288
 20
5.5649972528
 30
0.0
 10
5.3204377691
 20
5.5650621844
 30
0.0
 10
5.3211149741
 20
5.5651295806
 30
0.0
 10
5.3218785318
 20
5.5651989666
 30
0.0
 10
5.3227267179
 20
5.565269903
 30
0.0
 10
5.3236577627
 20
5.5653419529
 30
0.0
 10
5.324669722
 20
5.565414659
 30
0.0
 10
5.3257604625
 20
5.5654874251
 30
0.0
 10
5.3269276965
 20
5.5655596591
 30
0.0
 10
5.3286301023
 20
5.565657158
 30
0.0
 10
5.3309320902
 20
5.5657732744
 30
0.0
 10
5.3338928339
 20
5.5658975322
 30
0.0
 10
5.337104703
 20
5.5660055387
 30
0.0
 10
5.340549899
 20
5.5660926386
 30
0.0
 10
5.3442107188
 20
5.5661541734
 30
0.0
 10
5.3480693805
 20
5.566185489
 30
0.0
 10
5.353558277
 20
5.5661823059
 30
0.0
 10
5.3577588124
 20
5.5661235841
 30
0.0
 10
5.3606105589
 20
5.5660581701
 30
0.0
 11
5.318245906
 21
5.5647127915
 31
0.0
 11
5.3182690839
 21
5.5647246484
 31
0.0
 11
5.318298148
 21
5.5647367384
 31
0.0
 11
5.3183739086
 21
5.5647616129
 31
0.0
 11
5.3184731359
 21
5.5647874053
 31
0.0
 11
5.3185957779
 21
5.5648141062
 31
0.0
 11
5.3187417827
 21
5.564841706
 31
0.0
 11
5.3189110986
 21
5.5648701952
 31
0.0
 11
5.3193193393
 21
5.5649297736
 31
0.0
 11
5.3198191354
 21
5.5649925172
 31
0.0
 11
5.3204087592
 21
5.5650580075
 31
0.0
 11
5.3210864814
 21
5.5651258253
 31
0.0
 11
5.321850573
 21
5.5651955516
 31
0.0
 11
5.3226993047
 21
5.5652667672
 31
0.0
 11
5.3236309473
 21
5.565339053
 31
0.0
 11
5.3246436397
 21
5.5654119505
 31
0.0
 11
5.3257351392
 21
5.5654848868
 31
0.0
 11
5.3269031339
 21
5.5655572683
 31
0.0
 11
5.3281453119
 21
5.5656285013
 31
0.0
 11
5.3308429704
 21
5.565765148
 31
0.0
 11
5.3338096531
 21
5.5658900824
 31
0.0
 11
5.3370273435
 21
5.5659986165
 31
0.0
 11
5.3404783438
 21
5.5660861027
 31
0.0
 11
5.3441449628
 21
5.5661478942
 31
0.0
 11
5.3480094632
 21
5.5661795291
 31
0.0
 11
5.3520538992
 21
5.5661773808
 31
0.0
 11
5.3606105589
 21
5.5660581701
 31
0.0
  0
SPLINE
  5
23A
100
AcDbEntity
  8
0
100
AcDbSpline
 62
6
  6
CONTINUOUS
 70
0
 71
3
 72
49
 73
45
 74
43
 42
0.0000001
 43
0.0000001
 44
0.0000000001
 12
-0.3309753647
 22
-0.5732661477
 32
0.0
 13
0.3309753647
 23
-0.5732661477
 33
0.0
 40
0.0
 40
0.0
 40
0.0
 40
0.0
 40
0.0317949766
 40
0.0635219808
 40
0.0951745469
 40
0.1267495382
 40
0.1582460038
 40
0.1896600067
 40
0.2209902249
 40
0.2522405556
 40
0.283415265
 40
0.3145146755
 40
0.3300382415
 40
0.3455455075
 40
0.3610380504
 40
0.3765168781
 40
0.407435176
 40
0.4228786508
 40
0.4383131961
 40
0.4537407259
 40
0.4691632507
 40
0.4845824808
 40
0.5000000668
 40
0.5154176536
 40
0.5308368855
 40
0.5462594123
 40
0.561686942
 40
0.5771214827
 40
0.5925649506
 40
0.6234832349
 40
0.6389620588
 40
0.6544546007
 40
0.6699618622
 40
0.685485419
 40
0.7165848037
 40
0.7477594896
 40
0.7790098048
 40
0.8103400057
 40
0.8417539914
 40
0.8732504432
 40
0.9048254315
 40
0.9364780047
 40
0.9682050185
 40
1.0
 40
1.0
 40
1.0
 40
1.0
 10
6.5551888666
 20
5.9452120617
 30
0.0
 10
6.5516810819
 20
5.9391364005
 30
0.0
 10
6.5447870671
 20
5.926931719
 30
0.0
 10
6.5348336104
 20
5.9084383576
 30
0.0
 10
6.5253123056
 20
5.8897729424
 30
0.0
 10
6.5162581635
 20
5.8709326512
 30
0.0
 10
6.507706614
 20
5.8519163327
 30
0.0
 10
6.4996979905
 20
5.832723176
 30
0.0
 10
6.4922738613
 20
5.8133541899
 30
0.0
 10
6.4854766189
 20
5.7938118091
 30
0.0
 10
6.4793484682
 20
5.7741024374
 30
0.0
 10
6.474829989
 20
5.7575374505
 30
0.0
 10
6.4715918168
 20
5.7442156196
 30
0.0
 10
6.4693573975
 20
5.7341956884
 30
0.0
 10
6.4673213051
 20
5.7241435911
 30
0.0
 10
6.4648769723
 20
5.7107074894
 30
0.0
 10
6.4628414251
 20
5.6972103886
 30
0.0
 10
6.4612298339
 20
5.683669817
 30
0.0
 10
6.4602367191
 20
5.6735000441
 30
0.0
 10
6.4594623287
 20
5.6633159521
 30
0.0
 10
6.4589093871
 20
5.653120801
 30
0.0
 10
6.4585775831
 20
5.6429182627
 30
0.0
 10
6.4584669954
 20
5.6327120172
 30
0.0
 10
6.4585775941
 20
5.6225057715
 30
0.0
 10
6.4589094046
 20
5.6123032324
 30
0.0
 10
6.4594623414
 20
5.6021080804
 30
0.0
 10
6.4602367168
 20
5.5919239878
 30
0.0
 10
6.4612298316
 20
5.5817542174
 30
0.0
 10
6.4628414294
 20
5.5682136521
 30
0.0
 10
6.4648769893
 20
5.5547165586
 30
0.0
 10
6.4673213272
 20
5.541280462
 30
0.0
 10
6.469357413
 20
5.5312283655
 30
0.0
 10
6.4715918272
 20
5.5212084365
 30
0.0
 10
6.4748299962
 20
5.5078866138
 30
0.0
 10
6.4793484763
 20
5.4913216404
 30
0.0
 10
6.4854766302
 20
5.4716122848
 30
0.0
 10
6.4922738704
 20
5.4520699164
 30
0.0
 10
6.4996979962
 20
5.4327009408
 30
0.0
 10
6.5077066146
 20
5.4135077936
 30
0.0
 10
6.5162581584
 20
5.3944914808
 30
0.0
 10
6.5253122984
 20
5.3756511909
 30
0.0
 10
6.534833605
 20
5.3569857732
 30
0.0
 10
6.5447870648
 20
5.338492408
 30
0.0
 10
6.5516810814
 20
5.3262877239
 30
0.0
 10
6.5551888666
 20
5.3202120617
 30
0.0
 11
6.5551888666
 21
5.9452120617
 31
0.0
 11
6.5448425288
 21
5.9268840174
 31
0.0
 11
6.5348942594
 21
5.9083879662
 31
0.0
 11
6.5253788083
 21
5.8897208588
 31
0.0
 11
6.5163309251
 21
5.8708796456
 31
0.0
 11
6.5077862891
 21
5.8518619035
 31
0.0
 11
6.4997851731
 21
5.8326683032
 31
0.0
 11
6.4923692665
 21
5.8133004697
 31
0.0
 11
6.4855802581
 21
5.7937600661
 31
0.0
 11
6.479459718
 21
5.7740524913
 31
0.0
 11
6.4740489996
 21
5.7541899903
 31
0.0
 11
6.471622739
 21
5.744204698
 31
0.0
 11
6.4693894326
 21
5.7341855407
 31
0.0
 11
6.4673541214
 21
5.724134238
 31
0.0
 11
6.465520728
 21
5.7140533789
 31
0.0
 11
6.4624730276
 21
5.6938151815
 31
0.0
 11
6.4612653792
 21
5.683663944
 31
0.0
 11
6.4602729711
 21
5.6734953479
 31
0.0
 11
6.459499127
 21
5.6633124449
 31
0.0
 11
6.4589461947
 21
5.6531184782
 31
0.0
 11
6.4586144393
 21
5.6429171006
 31
0.0
 11
6.4585038585
 21
5.6327120174
 31
0.0
 11
6.4586144496
 21
5.6225069338
 31
0.0
 11
6.4589462103
 21
5.6123055552
 31
0.0
 11
6.459499138
 21
5.6021115869
 31
0.0
 11
6.4602729714
 21
5.5919286831
 31
0.0
 11
6.4612653778
 21
5.58176009
 31
0.0
 11
6.4624730307
 21
5.5716088577
 31
0.0
 11
6.4655207454
 21
5.5513706715
 31
0.0
 11
6.4673541416
 21
5.5412898155
 31
0.0
 11
6.4693894486
 21
5.5312385125
 31
0.0
 11
6.4716227502
 21
5.5212193572
 31
0.0
 11
6.4740490083
 21
5.5112340706
 31
0.0
 11
6.4794597263
 21
5.4913715872
 31
0.0
 11
6.4855802679
 21
5.4716640291
 31
0.0
 11
6.4923692755
 21
5.452123636
 31
0.0
 11
6.4997851784
 21
5.4327558135
 31
0.0
 11
6.5077862891
 21
5.4135622233
 31
0.0
 11
6.5163309193
 21
5.3945444885
 31
0.0
 11
6.5253788004
 21
5.3757032766
 31
0.0
 11
6.5348942538
 21
5.3570361652
 31
0.0
 11
6.5448425269
 21
5.3385401087
 31
0.0
 11
6.5551888666
 21
5.3202120617
 31
0.0
  0
SPLINE
  5
23B
100
AcDbEntity
  8
0
100
AcDbSpline
 62
6
  6
CONTINUOUS
 70
0
 71
3
 72
14
 73
10
 74
8
 42
0.0000001
 43
0.0000001
 44
0.0000000001
 12
-0.0438598906
 22
0.003209868
 32
0.0
 13
-0.0437602184
 23
0.0043630885
 33
0.0
 40
0.0
 40
0.0
 40
0.0
 40
0.0
 40
0.2735565219
 40
0.4070051144
 40
0.5368309111
 40
0.6619913923
 40
0.781519401
 40
0.8944940621
 40
1.0
 40
1.0
 40
1.0
 40
1.0
 10
5.3938781328
 20
5.5625725749
 30
0.0
 10
5.3898787464
 20
5.5628652684
 30
0.0
 10
5.3839284338
 20
5.5633019969
 30
0.0
 10
5.3760813463
 20
5.5638947357
 30
0.0
 10
5.3704043314
 20
5.5643354662
 30
0.0
 10
5.3649320061
 20
5.5647761197
 30
0.0
 10
5.3597075173
 20
5.5652165868
 30
0.0
 10
5.3547721902
 20
5.5656566883
 30
0.0
 10
5.3515839308
 20
5.5659610538
 30
0.0
 10
5.3500449432
 20
5.5661144978
 30
0.0
 11
5.3938781328
 21
5.5625725749
 31
0.0
 11
5.3818805177
 21
5.5634580577
 31
0.0
 11
5.3760285478
 21
5.563900798
 31
0.0
 11
5.370336366
 21
5.5643435337
 31
0.0
 11
5.364849994
 21
5.5647862625
 31
0.0
 11
5.3596121656
 21
5.5652289912
 31
0.0
 11
5.3546636237
 21
5.5656717324
 31
0.0
 11
5.3500449432
 21
5.5661144978
 31
0.0
  0
SPLINE
  5
23C
100
AcDbEntity
  8
0
100
AcDbSpline
 62
6
  6
CONTINUOUS
 70
0
 71
3
 72
49
 73
45
 74
43
 42
0.0000001
 43
0.0000001
 44
0.0000000001
 12
-0.3309753647
 22
-0.5732661477
 32
0.0
 13
0.3309753647
 23
-0.5732661477
 33
0.0
 40
0.0
 40
0.0
 40
0.0
 40
0.0
 40
0.0317949766
 40
0.0635219808
 40
0.0951745469
 40
0.1267495382
 40
0.1582460038
 40
0.1896600067
 40
0.2209902249
 40
0.2522405556
 40
0.283415265
 40
0.3145146755
 40
0.3300382415
 40
0.3455455075
 40
0.3610380504
 40
0.3765168781
 40
0.407435176
 40
0.4228786508
 40
0.4383131961
 40
0.4537407259
 40
0.4691632507
 40
0.4845824808
 40
0.5000000668
 40
0.5154176536
 40
0.5308368855
 40
0.5462594123
 40
0.561686942
 40
0.5771214827
 40
0.5925649506
 40
0.6234832349
 40
0.6389620588
 40
0.6544546007
 40
0.6699618622
 40
0.685485419
 40
0.7165848037
 40
0.7477594896
 40
0.7790098048
 40
0.8103400057
 40
0.8417539914
 40
0.8732504432
 40
0.9048254315
 40
0.9364780047
 40
0.9682050185
 40
1.0
 40
1.0
 40
1.0
 40
1.0
 10
6.5551888666
 20
6.5702120617
 30
0.0
 10
6.5516810819
 20
6.5641364005
 30
0.0
 10
6.5447870671
 20
6.551931719
 30
0.0
 10
6.5348336104
 20
6.5334383576
 30
0.0
 10
6.5253123056
 20
6.5147729424
 30
0.0
 10
6.5162581635
 20
6.4959326512
 30
0.0
 10
6.507706614
 20
6.4769163327
 30
0.0
 10
6.4996979905
 20
6.457723176
 30
0.0
 10
6.4922738613
 20
6.4383541899
 30
0.0
 10
6.4854766189
 20
6.4188118091
 30
0.0
 10
6.4793484682
 20
6.3991024374
 30
0.0
 10
6.474829989
 20
6.3825374505
 30
0.0
 10
6.4715918168
 20
6.3692156196
 30
0.0
 10
6.4693573975
 20
6.3591956884
 30
0.0
 10
6.4673213051
 20
6.3491435911
 30
0.0
 10
6.4648769723
 20
6.3357074894
 30
0.0
 10
6.4628414251
 20
6.3222103886
 30
0.0
 10
6.4612298339
 20
6.308669817
 30
0.0
 10
6.4602367191
 20
6.2985000441
 30
0.0
 10
6.4594623287
 20
6.2883159521
 30
0.0
 10
6.4589093871
 20
6.278120801
 30
0.0
 10
6.4585775831
 20
6.2679182627
 30
0.0
 10
6.4584669954
 20
6.2577120172
 30
0.0
 10
6.4585775941
 20
6.2475057715
 30
0.0
 10
6.4589094046
 20
6.2373032324
 30
0.0
 10
6.4594623414
 20
6.2271080804
 30
0.0
 10
6.4602367168
 20
6.2169239878
 30
0.0
 10
6.4612298316
 20
6.2067542174
 30
0.0
 10
6.4628414294
 20
6.1932136521
 30
0.0
 10
6.4648769893
 20
6.1797165586
 30
0.0
 10
6.4673213272
 20
6.166280462
 30
0.0
 10
6.469357413
 20
6.1562283655
 30
0.0
 10
6.4715918272
 20
6.1462084365
 30
0.0
 10
6.4748299962
 20
6.1328866138
 30
0.0
 10
6.4793484763
 20
6.1163216404
 30
0.0
 10
6.4854766302
 20
6.0966122848
 30
0.0
 10
6.4922738704
 20
6.0770699164
 30
0.0
 10
6.4996979962
 20
6.0577009408
 30
0.0
 10
6.5077066146
 20
6.0385077936
 30
0.0
 10
6.5162581584
 20
6.0194914808
 30
0.0
 10
6.5253122984
 20
6.0006511909
 30
0.0
 10
6.534833605
 20
5.9819857732
 30
0.0
 10
6.5447870648
 20
5.963492408
 30
0.0
 10
6.5516810814
 20
5.9512877239
 30
0.0
 10
6.5551888666
 20
5.9452120617
 30
0.0
 11
6.5551888666
 21
6.5702120617
 31
0.0
 11
6.5448425288
 21
6.5518840174
 31
0.0
 11
6.5348942594
 21
6.5333879662
 31
0.0
 11
6.5253788083
 21
6.5147208588
 31
0.0
 11
6.5163309251
 21
6.4958796456
 31
0.0
 11
6.5077862891
 21
6.4768619035
 31
0.0
 11
6.4997851731
 21
6.4576683032
 31
0.0
 11
6.4923692665
 21
6.4383004697
 31
0.0
 11
6.4855802581
 21
6.4187600661
 31
0.0
 11
6.479459718
 21
6.3990524913
 31
0.0
 11
6.4740489996
 21
6.3791899903
 31
0.0
 11
6.471622739
 21
6.369204698
 31
0.0
 11
6.4693894326
 21
6.3591855407
 31
0.0
 11
6.4673541214
 21
6.349134238
 31
0.0
 11
6.465520728
 21
6.3390533789
 31
0.0
 11
6.4624730276
 21
6.3188151815
 31
0.0
 11
6.4612653792
 21
6.308663944
 31
0.0
 11
6.4602729711
 21
6.2984953479
 31
0.0
 11
6.459499127
 21
6.2883124449
 31
0.0
 11
6.4589461947
 21
6.2781184782
 31
0.0
 11
6.4586144393
 21
6.2679171006
 31
0.0
 11
6.4585038585
 21
6.2577120174
 31
0.0
 11
6.4586144496
 21
6.2475069338
 31
0.0
 11
6.4589462103
 21
6.2373055552
 31
0.0
 11
6.459499138
 21
6.2271115869
 31
0.0
 11
6.4602729714
 21
6.2169286831
 31
0.0
 11
6.4612653778
 21
6.20676009
 31
0.0
 11
6.4624730307
 21
6.1966088577
 31
0.0
 11
6.4655207454
 21
6.1763706715
 31
0.0
 11
6.4673541416
 21
6.1662898155
 31
0.0
 11
6.4693894486
 21
6.1562385125
 31
0.0
 11
6.4716227502
 21
6.1462193572
 31
0.0
 11
6.4740490083
 21
6.1362340706
 31
0.0
 11
6.4794597263
 21
6.1163715872
 31
0.0
 11
6.4855802679
 21
6.0966640291
 31
0.0
 11
6.4923692755
 21
6.077123636
 31
0.0
 11
6.4997851784
 21
6.0577558135
 31
0.0
 11
6.5077862891
 21
6.0385622233
 31
0.0
 11
6.5163309193
 21
6.0195444885
 31
0.0
 11
6.5253788004
 21
6.0007032766
 31
0.0
 11
6.5348942538
 21
5.9820361652
 31
0.0
 11
6.5448425269
 21
5.9635401087
 31
0.0
 11
6.5551888666
 21
5.9452120617
 31
0.0
  0
ENDSEC
  0
SECTION
  2
OBJECTS
  0
DICTIONARY
  5
C
100
AcDbDictionary
280
0
281
1
  3
ACAD_GROUP
350
D
  3
ACAD_MLINESTYLE
350
17
  3
ACAD_LAYOUT
350
1A
  3
ACAD_PLOTSETTINGS
350
19
  3
ACAD_PLOTSTYLENAME
350
E
  0
DICTIONARY
  5
D
102
{ACAD_REACTORS
330
C
102
}
100
AcDbDictionary
280
0
281
1
  0
ACDBDICTIONARYWDFLT
  5
E
102
{ACAD_REACTORS
330
C
102
}
100
AcDbDictionary
281
1
  3
Normal
350
F
100
AcDbDictionaryWithDefault
340
F
  0
DICTIONARY
  5
17
102
{ACAD_REACTORS
330
C
102
}
100
AcDbDictionary
280
0
281
1
  3
Standard
350
18
  0
DICTIONARY
  5
19
102
{ACAD_REACTORS
330
C
102
}
100
AcDbDictionary
281
1
  0
DICTIONARY
  5
1A
102
{ACAD_REACTORS
330
C
102
}
100
AcDbDictionary
281
1
  3
Model
350
23D
  3
Layout1
350
23E
  0
ACDBPLACEHOLDER
  5
F
102
{ACAD_REACTORS
330
E
102
}
  0
MLINESTYLE
  5
18
102
{ACAD_REACTORS
330
17
102
}
100
AcDbMlineStyle
  2
STANDARD
 70
0
  3

 62
256
 51
90.0
 52
90.0
 71
2
 49
0.5
 62
256
  6
BYLAYER
 49
-0.5
 62
256
  6
BYLAYER
  0
LAYOUT
  5
23D
102
{ACAD_REACTORS
330
1A
102
}
100
AcDbPlotSettings
  1

  2
none_device
  4
ISO_A4_(297.00_x_210.00_MM)
  6

 40
0.0
 41
0.0
 42
0.0
 43
0.0
 44
297.0
 45
210.0
 46
0.0
 47
0.0
 48
0.0
 49
0.0
140
0.0
141
0.0
142
1.0
143
1.0
 70
1024
 72
0
 73
0
 74
0
  7

 75
0
147
1.0
148
0.0
149
0.0
100
AcDbLayout
  1
Model
 70
0
 71
0
 10
0.0
 20
0.0
 11
11.6929133858
 21
8.2677165354
 12
0.0
 22
0.0
 32
0.0
 14
0.0
 24
0.0
 34
0.0
 15
0.0
 25
0.0
 35
0.0
146
0.0
 13
0.0
 23
0.0
 33
0.0
 16
1.0
 26
0.0
 36
0.0
 17
0.0
 27
1.0
 37
0.0
 76
0
330
203
345
0
346
0
  0
LAYOUT
  5
23E
102
{ACAD_REACTORS
330
1A
102
}
100
AcDbPlotSettings
  1

  2
none_device
  4
ISO_A4_(297.00_x_210.00_MM)
  6

 40
0.0
 41
0.0
 42
0.0
 43
0.0
 44
297.0
 45
210.0
 46
0.0
 47
0.0
 48
0.0
 49
0.0
140
0.0
141
0.0
142
1.0
143
1.0
 70
0
 72
0
 73
0
 74
0
  7

 75
0
147
1.0
148
0.0
149
0.0
100
AcDbLayout
  1
Layout1
 70
0
 71
1
 10
0.0
 20
0.0
 11
11.6929133858
 21
8.2677165354
 12
0.0
 22
0.0
 32
0.0
 14
0.0
 24
0.0
 34
0.0
 15
0.0
 25
0.0
 35
0.0
146
0.0
 13
0.0
 23
0.0
 33
0.0
 16
1.0
 26
0.0
 36
0.0
 17
0.0
 27
1.0
 37
0.0
 76
0
330
204
345
0
346
0
  0
ENDSEC
  0
EOF
