  0
SECTION
  2
HEADER
  9
$ACADVER
  1
AC1021
  9
$DWGCODEPAGE
  3
ANSI_1252
  9
$EXTMAX
 10
11.6929133858
 20
8.2677165354
 30
0.0
  9
$EXTMIN
 10
0.0
 20
0.0
 30
0.0
  9
$LIMMIN
 10
0.0
 20
0.0
  9
$LIMMAX
 10
11.6929133858
 20
8.2677165354
  9
$VIEWCTR
 10
5.8464566929
 20
4.1338582677
  9
$VIEWSIZE
 40
8.2677165354
  9
$CLAYER
  8
0
  9
$LTSCALE
 40
0.6431102362
  9
$CELTYPE
  6
BYLAYER
  9
$DIMSCALE
 40
1.0
  9
$DIMASZ
 40
0.1
  9
$DIMEXO
 40
0.0730807087
  9
$DIMDLI
 40
0.4443307087
  9
$DIMEXE
 40
0.2104724409
  9
$DIMCEN
 40
0.1052362205
  9
$DIMLFAC
 40
1.0
  9
$DIMBLK
  1
_FILLED
  9
$DIMTXT
 40
0.08
  9
$DIMTOL
 70
1
  9
$DIMLIM
 70
0
  9
$DIMTFAC
 40
1.0
  9
$DIMTP
 40
0.001
  9
$DIMTM
 40
0.001
  9
$PDMODE
 70
3
  9
$PDSIZE
 40
0.06
  9
$HANDSEED
  5
22D
  9
$TILEMODE
 70
1
  9
$MEASUREMENT
 70
0
  9
$INSUNITS
 70
1
  0
ENDSEC
  0
SECTION
  2
CLASSES
  0
CLASS
  1
ACDBDICTIONARYWDFLT
  2
AcDbDictionaryWithDefault
  3
AutoCAD 2000
 90
0
 91
1
280
0
281
0
  0
CLASS
  1
ACDBPLACEHOLDER
  2
AcDbPlaceHolder
  3
AutoCAD 2000
 90
0
 91
1
280
0
281
0
  0
CLASS
  1
LAYOUT
  2
AcDbLayout
  3
AutoCAD 2000
 90
0
 91
0
280
0
281
0
  0
ENDSEC
  0
SECTION
  2
TABLES
  0
TABLE
  2
VPORT
  5
8
100
AcDbSymbolTable
 70
2
  0
VPORT
  5
1F4
100
AcDbSymbolTableRecord
100
AcDbViewportTableRecord
  2
*ACTIVE
 70
0
 10
0.0
 20
0.0
 11
1.0
 21
1.0
 12
5.8464566929
 22
4.1338582677
 13
0.0
 23
0.0
 14
1.0
 24
1.0
 15
0.0
 25
0.0
 16
0.0
 26
0.0
 36
1.0
 17
0.0
 27
0.0
 37
0.0
 40
8.2677165354
 41
1.4142857143
 42
50.0
 43
0.0
 44
0.0
 50
0.0
 51
0.0
 71
0
 72
100
 73
1
 74
1
 75
0
 76
0
 77
0
 78
0
  0
ENDTAB
  0
TABLE
  2
LTYPE
  5
5
100
AcDbSymbolTable
 70
6
  0
LTYPE
  5
14
100
AcDbSymbolTableRecord
100
AcDbLinetypeTableRecord
  2
BYBLOCK
 70
0
  3

 72
65
 73
0
 40
0.0
  0
LTYPE
  5
15
100
AcDbSymbolTableRecord
100
AcDbLinetypeTableRecord
  2
BYLAYER
 70
0
  3

 72
65
 73
0
 40
0.0
  0
LTYPE
  5
16
100
AcDbSymbolTableRecord
100
AcDbLinetypeTableRecord
  2
CONTINUOUS
 70
64
  3
Solid line
 72
65
 73
0
 40
0.0
  0
LTYPE
  5
1F5
100
AcDbSymbolTableRecord
100
AcDbLinetypeTableRecord
  2
CENTER
 70
64
  3
____ _ ____ _ ____ _ ____ _ ____ _ ____ _ ____
 72
65
 73
4
 40
0.6
 49
0.375
 74
0
 49
-0.075
 74
0
 49
0.075
 74
0
 49
-0.075
 74
0
  0
LTYPE
  5
1F6
100
AcDbSymbolTableRecord
100
AcDbLinetypeTableRecord
  2
HIDDEN
 70
64
  3
- - - - - - - - - - - - - - - - - - - -
 72
65
 73
2
 40
0.2
 49
0.1
 74
0
 49
-0.1
 74
0
  0
LTYPE
  5
1F7
100
AcDbSymbolTableRecord
100
AcDbLinetypeTableRecord
  2
PHANTOM
 70
64
  3
_____ _ _ _____ _ _ _____ _ _ _____
 72
65
 73
6
 40
0.8
 49
0.45
 74
0
 49
-0.05
 74
0
 49
0.1
 74
0
 49
-0.05
 74
0
 49
0.1
 74
0
 49
-0.05
 74
0
  0
LTYPE
  5
1F8
100
AcDbSymbolTableRecord
100
AcDbLinetypeTableRecord
  2
DOT
 70
64
  3
. . . . . . . . . . . . . . . . . . . .
 72
65
 73
2
 40
0.2
 49
0.1
 74
0
 49
-0.1
 74
0
  0
LTYPE
  5
1F9
100
AcDbSymbolTableRecord
100
AcDbLinetypeTableRecord
  2
DASHED
 70
64
  3
- - - - - - - - - - - - - - - - - - - -
 72
65
 73
2
 40
0.2
 49
0.1
 74
0
 49
-0.1
 74
0
  0
ENDTAB
  0
TABLE
  2
LAYER
  5
2
100
AcDbSymbolTable
 70
36
  0
LAYER
  5
10
100
AcDbSymbolTableRecord
100
AcDbLayerTableRecord
  2
0
 70
0
 62
7
  6
CONTINUOUS
370
-3
390
F
  0
LAYER
  5
1FA
100
AcDbSymbolTableRecord
100
AcDbLayerTableRecord
  2
DEFAULT_1
 70
0
 62
7
  6
CENTER
370
-3
390
F
  0
LAYER
  5
1FB
100
AcDbSymbolTableRecord
100
AcDbLayerTableRecord
  2
DEFAULT_2
 70
0
 62
8
  6
HIDDEN
370
-3
390
F
  0
LAYER
  5
1FC
100
AcDbSymbolTableRecord
100
AcDbLayerTableRecord
  2
DEFAULT_3
 70
0
 62
7
  6
PHANTOM
370
-3
390
F
  0
LAYER
  5
1FD
100
AcDbSymbolTableRecord
100
AcDbLayerTableRecord
  2
DEFAULT_COORDINATE_SYSTEM
 70
0
 62
7
  6
CONTINUOUS
370
-3
390
F
  0
LAYER
  5
1FE
100
AcDbSymbolTableRecord
100
AcDbLayerTableRecord
  2
DEFAULT_DATUM_AXES
 70
0
 62
7
  6
CONTINUOUS
370
-3
390
F
  0
LAYER
  5
1FF
100
AcDbSymbolTableRecord
100
AcDbLayerTableRecord
  2
DEFAULT_DATUM_CURVES
 70
0
 62
7
  6
CONTINUOUS
370
-3
390
F
  0
LAYER
  5
200
100
AcDbSymbolTableRecord
100
AcDbLayerTableRecord
  2
DEFAULT_DATUM_PLANES
 70
0
 62
7
  6
CONTINUOUS
370
-3
390
F
  0
ENDTAB
  0
TABLE
  2
STYLE
  5
3
100
AcDbSymbolTable
 70
1
  0
STYLE
  5
11
100
AcDbSymbolTableRecord
100
AcDbTextStyleTableRecord
  2
STANDARD
 70
0
 40
0.0
 41
0.8
 50
0.0
 71
0
 42
0.2
  3
txt
  4

  0
STYLE
  5
201
100
AcDbSymbolTableRecord
100
AcDbTextStyleTableRecord
  2
TEXTSTYLE_1
 70
0
 40
0.0
 41
0.8
 50
0.0
 71
0
 42
0.2
  3
gdt
  4

  0
ENDTAB
  0
TABLE
  2
VIEW
  5
6
100
AcDbSymbolTable
 70
0
  0
ENDTAB
  0
TABLE
  2
UCS
  5
7
100
AcDbSymbolTable
 70
0
  0
ENDTAB
  0
TABLE
  2
APPID
  5
9
100
AcDbSymbolTable
 70
1
  0
APPID
  5
202
100
AcDbSymbolTableRecord
100
AcDbRegAppTableRecord
  2
ACAD
 70
0
  0
ENDTAB
  0
TABLE
  2
BLOCK_RECORD
  5
1
100
AcDbSymbolTable
 70
0
  0
BLOCK_RECORD
  5
203
100
AcDbSymbolTableRecord
100
AcDbBlockTableRecord
  2
*Model_Space
  0
BLOCK_RECORD
  5
204
100
AcDbSymbolTableRecord
100
AcDbBlockTableRecord
  2
*Paper_Space
  0
ENDTAB
  0
TABLE
  2
DIMSTYLE
  5
A
100
AcDbSymbolTable
 70
1
100
AcDbDimStyleTable
 71
0
  0
DIMSTYLE
105
205
100
AcDbSymbolTableRecord
100
AcDbDimStyleTableRecord
  2
STANDARD
 70
0
  3

  4

 40
1.0
 41
0.1
 42
0.0625
 43
0.38
 44
0.18
 45
0.0
 46
0.0
 47
0.001
 48
0.001
140
0.08
141
0.09
142
0.0
143
25.4
144
1.0
145
0.0
146
1.0
147
0.09
 71
1.0
 72
0.0
 73
1
 74
1
 75
0
 76
0
 77
0
 78
4
170
0
171
2
172
0
173
0
174
0
175
0
176
0
177
0
178
0
270
2
271
3
272
3
273
2
274
2
275
0
280
0
281
0
282
0
283
1
284
4
285
0
286
0
287
3
288
0
340
11
  0
ENDTAB
  0
ENDSEC
  0
SECTION
  2
BLOCKS
  0
BLOCK
  5
20
100
AcDbEntity
  8
0
100
AcDbBlockBegin
  2
*Model_Space
 70
0
 10
0.0
 20
0.0
 30
0.0
  3
*Model_Space
  1

  0
ENDBLK
  5
21
100
AcDbEntity
  8
0
100
AcDbBlockEnd
  0
BLOCK
  5
1C
100
AcDbEntity
  8
0
100
AcDbBlockBegin
  2
*Paper_Space
 70
0
 10
0.0
 20
0.0
 30
0.0
  3
*Paper_Space
  1

  0
ENDBLK
  5
1D
100
AcDbEntity
  8
0
100
AcDbBlockEnd
  0
ENDSEC
  0
SECTION
  2
ENTITIES
  0
LINE
  5
206
100
AcDbEntity
  8
0
100
AcDbLine
 62
6
  6
CONTINUOUS
 10
6.9441907921
 20
3.6138709964
 11
7.0061907921
 21
3.6138709964
  0
LINE
  5
207
100
AcDbEntity
  8
0
100
AcDbLine
 62
6
  6
CONTINUOUS
 10
6.9441907921
 20
3.6331831599
 11
6.6915696924
 21
3.6331831599
  0
LINE
  5
208
100
AcDbEntity
  8
0
100
AcDbLine
 62
7
  6
CONTINUOUS
 10
5.0441907921
 20
4.6798709964
 11
5.0441907921
 21
4.0298709964
  0
LINE
  5
209
100
AcDbEntity
  8
0
100
AcDbLine
 62
9
  6
CONTINUOUS
 10
5.0544170786
 20
4.0283426676
 11
5.0544170786
 21
4.6813993252
  0
LINE
  5
20A
100
AcDbEntity
  8
0
100
AcDbLine
 62
6
  6
CONTINUOUS
 10
5.0544170785
 20
4.0283426677
 11
5.8738014159
 21
3.9058848579
  0
LINE
  5
20B
100
AcDbEntity
  8
0
100
AcDbLine
 62
6
  6
CONTINUOUS
 10
6.9441907921
 20
3.9940270782
 11
6.6915696924
 21
3.9940270782
  0
LINE
  5
20C
100
AcDbEntity
  8
0
100
AcDbLine
 62
9
  6
CONTINUOUS
 10
5.8738014159
 20
3.9058848579
 11
5.8738014159
 21
4.8038571349
  0
LINE
  5
20D
100
AcDbEntity
  8
0
100
AcDbLine
 62
6
  6
CONTINUOUS
 10
6.5737594895
 20
4.95874863
 11
6.6915696924
 21
5.0765588329
  0
LINE
  5
20E
100
AcDbEntity
  8
0
100
AcDbLine
 62
6
  6
CONTINUOUS
 10
6.5737594895
 20
3.7509933628
 11
6.6915696924
 21
3.6331831599
  0
LINE
  5
20F
100
AcDbEntity
  8
0
100
AcDbLine
 62
6
  6
CONTINUOUS
 10
5.0544170785
 20
4.6813993252
 11
5.8738014159
 21
4.8038571349
  0
LINE
  5
210
100
AcDbEntity
  8
0
100
AcDbLine
 62
6
  6
CONTINUOUS
 10
6.9441907921
 20
4.7157149146
 11
6.6915696924
 21
4.7157149146
  0
LINE
  5
211
100
AcDbEntity
  8
0
100
AcDbLine
 62
9
  6
CONTINUOUS
 10
6.1230077215
 20
3.7929516561
 11
6.1230077215
 21
4.9167903367
  0
LINE
  5
212
100
AcDbEntity
  8
0
100
AcDbLine
 62
9
  6
CONTINUOUS
 10
6.3613457393
 20
3.7754563297
 11
6.3613457393
 21
4.9342856631
  0
LINE
  5
213
100
AcDbEntity
  8
0
100
AcDbLine
 62
6
  6
CONTINUOUS
 10
6.9441907921
 20
5.0765588329
 11
6.6915696924
 21
5.0765588329
  0
LINE
  5
214
100
AcDbEntity
  8
0
100
AcDbLine
 62
6
  6
CONTINUOUS
 10
6.9441907921
 20
5.0958709964
 11
7.0061907921
 21
5.0958709964
  0
LINE
  5
215
100
AcDbEntity
  8
0
100
AcDbLine
 62
9
  6
CONTINUOUS
 10
6.5737594895
 20
3.7509933628
 11
6.5737594895
 21
4.95874863
  0
LINE
  5
216
100
AcDbEntity
  8
0
100
AcDbLine
 62
6
  6
CONTINUOUS
 10
6.9441907921
 20
3.6138741761
 11
6.9441907921
 21
5.0958678167
  0
LINE
  5
217
100
AcDbEntity
  8
0
100
AcDbLine
 62
9
  6
CONTINUOUS
 10
7.0061907921
 20
3.5418709443
 11
7.0061907921
 21
5.1678710485
  0
LINE
  5
218
100
AcDbEntity
  8
0
100
AcDbLine
 62
6
  6
CONTINUOUS
 10
7.1941907921
 20
3.3548709964
 11
7.1941907921
 21
5.3548709964
  0
LINE
  5
219
100
AcDbEntity
  8
0
100
AcDbLine
 62
6
  6
CONTINUOUS
 10
7.3811907921
 20
3.1748709964
 11
7.3811907921
 21
5.5348709964
  0
ARC
  5
21A
100
AcDbEntity
  8
0
100
AcDbCircle
 62
6
  6
CONTINUOUS
 10
4.5535715405
 20
4.3548709964
 40
0.5885
100
AcDbArc
 50
33.5216119034
 51
326.4783880966
  0
ARC
  5
21B
100
AcDbEntity
  8
0
100
AcDbCircle
 62
6
  6
CONTINUOUS
 10
5.7998967103
 20
5.2983650665
 40
0.5
100
AcDbArc
 50
278.5
 51
310.2573604586
  0
ARC
  5
21C
100
AcDbEntity
  8
0
100
AcDbCircle
 62
6
  6
CONTINUOUS
 10
5.7998967103
 20
3.4113769263
 40
0.5
100
AcDbArc
 50
49.7426395414
 51
81.5
  0
ARC
  5
21D
100
AcDbEntity
  8
0
100
AcDbCircle
 62
6
  6
CONTINUOUS
 10
6.2541907921
 20
4.7618709964
 40
0.203
100
AcDbArc
 50
58.1392329178
 51
130.2573604586
  0
ARC
  5
21E
100
AcDbEntity
  8
0
100
AcDbCircle
 62
6
  6
CONTINUOUS
 10
6.2541907921
 20
3.9478709964
 40
0.203
100
AcDbArc
 50
229.7426395414
 51
301.8607670822
  0
ARC
  5
21F
100
AcDbEntity
  8
0
100
AcDbCircle
 62
6
  6
CONTINUOUS
 10
7.3811907921
 20
3.3620071075
 40
0.1871361111
100
AcDbArc
 50
182.1854050713
 51
270.0
  0
ARC
  5
220
100
AcDbEntity
  8
0
100
AcDbCircle
 62
6
  6
CONTINUOUS
 10
7.3811907921
 20
5.3477348853
 40
0.1871361111
100
AcDbArc
 50
90.0
 51
177.8145949287
  0
ARC
  5
221
100
AcDbEntity
  8
0
100
AcDbCircle
 62
6
  6
CONTINUOUS
 10
7.1931907921
 20
3.5418683226
 40
0.187
100
AcDbArc
 50
180.0
 51
270.3063960032
  0
ARC
  5
222
100
AcDbEntity
  8
0
100
AcDbCircle
 62
6
  6
CONTINUOUS
 10
7.1931907921
 20
5.1678736702
 40
0.187
100
AcDbArc
 50
89.6936039968
 51
180.0
  0
ARC
  5
223
100
AcDbEntity
  8
0
100
AcDbCircle
 62
6
  6
CONTINUOUS
 10
6.4521371232
 20
5.0803709964
 40
0.172
100
AcDbArc
 50
238.1392329178
 51
315.0
  0
ARC
  5
224
100
AcDbEntity
  8
0
100
AcDbCircle
 62
6
  6
CONTINUOUS
 10
6.4521371232
 20
3.6293709964
 40
0.172
100
AcDbArc
 50
45.0
 51
121.8607670822
  0
ARC
  5
225
100
AcDbEntity
  8
0
100
AcDbCircle
 62
6
  6
CONTINUOUS
 10
5.0561907921
 20
4.0402108579
 40
0.012
100
AcDbArc
 50
179.9999819713
 51
261.4999970517
  0
ARC
  5
226
100
AcDbEntity
  8
0
100
AcDbCircle
 62
6
  6
CONTINUOUS
 10
5.0561907921
 20
4.6695311349
 40
0.012
100
AcDbArc
 50
98.5000029483
 51
180.0000180287
  0
SPLINE
  5
227
100
AcDbEntity
  8
0
100
AcDbSpline
 62
6
  6
CONTINUOUS
 70
0
 71
3
 72
49
 73
45
 74
43
 42
0.0000001
 43
0.0000001
 44
0.0000000001
 12
-0.2970388097
 22
-0.2970388097
 32
0.0
 13
0.2970388097
 23
-0.2970388097
 33
0.0
 40
0.0
 40
0.0
 40
0.0
 40
0.0
 40
0.0352320662
 40
0.0699756974
 40
0.1042010166
 40
0.1211121226
 40
0.1378852823
 40
0.1710050944
 40
0.2035408984
 40
0.235482017
 40
0.2668280576
 40
0.2975837841
 40
0.3127466733
 40
0.3277702931
 40
0.357417584
 40
0.3865795806
 40
0.4153239679
 40
0.4295681181
 40
0.443741741
 40
0.4578578788
 40
0.4719301334
 40
0.4859726436
 40
0.5000000558
 40
0.5140274661
 40
0.5280699731
 40
0.5421422254
 40
0.5562583623
 40
0.5704319853
 40
0.5846761344
 40
0.6134205126
 40
0.6425825009
 40
0.6722297868
 40
0.687253401
 40
0.7024162819
 40
0.7331719898
 40
0.7645180178
 40
0.7964591267
 40
0.828994918
 40
0.8621147186
 40
0.8788878745
 40
0.8957989786
 40
0.930024298
 40
0.964767932
 40
1.0
 40
1.0
 40
1.0
 40
1.0
 10
6.6915696924
 20
5.0765588329
 30
0.0
 10
6.688081262
 20
5.0730704026
 30
0.0
 10
6.6812273648
 20
5.0660666791
 30
0.0
 10
6.6712757385
 20
5.0553943497
 30
0.0
 10
6.6633108181
 20
5.0463825666
 30
0.0
 10
6.6571725815
 20
5.0391195904
 30
0.0
 10
6.651245289
 20
5.0318825139
 30
0.0
 10
6.6441488634
 20
5.0227766502
 30
0.0
 10
6.6361390149
 20
5.0117001188
 30
0.0
 10
6.6287122099
 20
5.0005205939
 30
0.0
 10
6.6219103781
 20
4.9892396791
 30
0.0
 10
6.616773267
 20
4.9797123247
 30
0.0
 10
6.6130242156
 20
4.9720454467
 30
0.0
 10
6.6095521492
 20
4.964419529
 30
0.0
 10
6.6056744585
 20
4.9548286026
 30
0.0
 10
6.6017886321
 20
4.9431925905
 30
0.0
 10
6.5992270685
 20
4.9334108027
 30
0.0
 10
6.5976120609
 20
4.9255698042
 30
0.0
 10
6.5966202937
 20
4.9196957646
 30
0.0
 10
6.5958460342
 20
4.9138134282
 30
0.0
 10
6.5952909096
 20
4.9079247749
 30
0.0
 10
6.5949565385
 20
4.9020318955
 30
0.0
 10
6.5948445373
 20
4.8961368503
 30
0.0
 10
6.5949565283
 20
4.8902418052
 30
0.0
 10
6.5952909039
 20
4.884348927
 30
0.0
 10
6.5958460375
 20
4.8784602754
 30
0.0
 10
6.5966203061
 20
4.8725779406
 30
0.0
 10
6.5976120786
 20
4.8667039023
 30
0.0
 10
6.5992270735
 20
4.8588629027
 30
0.0
 10
6.6017886347
 20
4.8490811163
 30
0.0
 10
6.6056744756
 20
4.8374451125
 30
0.0
 10
6.6095521646
 20
4.8278541886
 30
0.0
 10
6.6130242262
 20
4.8202282716
 30
0.0
 10
6.6167732757
 20
4.8125613976
 30
0.0
 10
6.6219103869
 20
4.8030340496
 30
0.0
 10
6.6287122192
 20
4.7917531418
 30
0.0
 10
6.6361390219
 20
4.7805736213
 30
0.0
 10
6.6441488674
 20
4.7694970936
 30
0.0
 10
6.6512452901
 20
4.7603912327
 30
0.0
 10
6.6571725808
 20
4.7531541578
 30
0.0
 10
6.6633108168
 20
4.7458911821
 30
0.0
 10
6.6712757373
 20
4.7368793988
 30
0.0
 10
6.6812273642
 20
4.7262070691
 30
0.0
 10
6.6880812619
 20
4.7192033452
 30
0.0
 10
6.6915696924
 20
4.7157149146
 30
0.0
 11
6.6915696924
 21
5.0765588329
 31
0.0
 11
6.6812228553
 21
5.0659764138
 31
0.0
 11
6.6712745339
 21
5.055297264
 31
0.0
 11
6.6617589927
 21
5.0445195242
 31
0.0
 11
6.6571742223
 21
5.039093102
 31
0.0
 11
6.6527105282
 21
5.0336413453
 31
0.0
 11
6.6441657605
 21
5.0226616231
 31
0.0
 11
6.6361651628
 21
5.011580488
 31
0.0
 11
6.6287495704
 21
5.0003981868
 31
0.0
 11
6.6219600784
 21
4.989115816
 31
0.0
 11
6.6158389052
 21
4.9777381521
 31
0.0
 11
6.6130422263
 21
4.9720153891
 31
0.0
 11
6.6104285729
 21
4.9662709674
 31
0.0
 11
6.6057705952
 21
4.9547207092
 31
0.0
 11
6.6019004986
 21
4.94309783
 31
0.0
 11
6.5988516101
 21
4.931414254
 31
0.0
 11
6.5976453101
 21
4.9255534802
 31
0.0
 11
6.5966547426
 21
4.9196824555
 31
0.0
 11
6.5958815121
 21
4.9138032297
 31
0.0
 11
6.59532722
 21
4.9079178532
 31
0.0
 11
6.5949934675
 21
4.9020283765
 31
0.0
 11
6.5948818559
 21
4.89613685
 31
0.0
 11
6.5949934597
 21
4.8902453241
 31
0.0
 11
6.595327215
 21
4.8843558489
 31
0.0
 11
6.5958815154
 21
4.8784704742
 31
0.0
 11
6.5966547543
 21
4.8725912498
 31
0.0
 11
6.5976453254
 21
4.8667202257
 31
0.0
 11
6.5988516194
 21
4.8608594511
 31
0.0
 11
6.601900504
 21
4.849175878
 31
0.0
 11
6.6057706094
 21
4.8375530054
 31
0.0
 11
6.6104285872
 21
4.8260027495
 31
0.0
 11
6.6130422375
 21
4.820258329
 31
0.0
 11
6.6158389146
 21
4.814535569
 31
0.0
 11
6.6219600867
 21
4.8031579134
 31
0.0
 11
6.6287495789
 21
4.7918755489
 31
0.0
 11
6.6361651699
 21
4.7806932517
 31
0.0
 11
6.6441657644
 21
4.7696121208
 31
0.0
 11
6.6527105286
 21
4.758632402
 31
0.0
 11
6.6571742214
 21
4.7531806464
 31
0.0
 11
6.6617589912
 21
4.7477542247
 31
0.0
 11
6.6712745324
 21
4.7369764848
 31
0.0
 11
6.6812228547
 21
4.7262973342
 31
0.0
 11
6.6915696924
 21
4.7157149146
 31
0.0
  0
SPLINE
  5
228
100
AcDbEntity
  8
0
100
AcDbSpline
 62
6
  6
CONTINUOUS
 70
0
 71
3
 72
49
 73
45
 74
43
 42
0.0000001
 43
0.0000001
 44
0.0000000001
 12
-0.2970388097
 22
-0.2970388097
 32
0.0
 13
0.2970388097
 23
-0.2970388097
 33
0.0
 40
0.0
 40
0.0
 40
0.0
 40
0.0
 40
0.0352320662
 40
0.0699756974
 40
0.1042010166
 40
0.1211121226
 40
0.1378852823
 40
0.1710050944
 40
0.2035408984
 40
0.235482017
 40
0.2668280576
 40
0.2975837841
 40
0.3127466733
 40
0.3277702931
 40
0.357417584
 40
0.3865795806
 40
0.4153239679
 40
0.4295681181
 40
0.443741741
 40
0.4578578788
 40
0.4719301334
 40
0.4859726436
 40
0.5000000558
 40
0.5140274661
 40
0.5280699731
 40
0.5421422254
 40
0.5562583623
 40
0.5704319853
 40
0.5846761344
 40
0.6134205126
 40
0.6425825009
 40
0.6722297868
 40
0.687253401
 40
0.7024162819
 40
0.7331719898
 40
0.7645180178
 40
0.7964591267
 40
0.828994918
 40
0.8621147186
 40
0.8788878745
 40
0.8957989786
 40
0.930024298
 40
0.964767932
 40
1.0
 40
1.0
 40
1.0
 40
1.0
 10
6.6915696924
 20
3.9940270782
 30
0.0
 10
6.688081262
 20
3.9905386478
 30
0.0
 10
6.6812273648
 20
3.9835349243
 30
0.0
 10
6.6712757385
 20
3.972862595
 30
0.0
 10
6.6633108181
 20
3.9638508118
 30
0.0
 10
6.6571725815
 20
3.9565878356
 30
0.0
 10
6.651245289
 20
3.9493507591
 30
0.0
 10
6.6441488634
 20
3.9402448955
 30
0.0
 10
6.6361390149
 20
3.929168364
 30
0.0
 10
6.6287122099
 20
3.9179888392
 30
0.0
 10
6.6219103781
 20
3.9067079243
 30
0.0
 10
6.616773267
 20
3.89718057
 30
0.0
 10
6.6130242156
 20
3.889513692
 30
0.0
 10
6.6095521492
 20
3.8818877743
 30
0.0
 10
6.6056744585
 20
3.8722968479
 30
0.0
 10
6.6017886321
 20
3.8606608358
 30
0.0
 10
6.5992270685
 20
3.850879048
 30
0.0
 10
6.5976120609
 20
3.8430380495
 30
0.0
 10
6.5966202937
 20
3.8371640099
 30
0.0
 10
6.5958460342
 20
3.8312816734
 30
0.0
 10
6.5952909096
 20
3.8253930201
 30
0.0
 10
6.5949565385
 20
3.8195001408
 30
0.0
 10
6.5948445373
 20
3.8136050956
 30
0.0
 10
6.5949565283
 20
3.8077100504
 30
0.0
 10
6.5952909039
 20
3.8018171722
 30
0.0
 10
6.5958460375
 20
3.7959285207
 30
0.0
 10
6.5966203061
 20
3.7900461859
 30
0.0
 10
6.5976120786
 20
3.7841721476
 30
0.0
 10
6.5992270735
 20
3.776331148
 30
0.0
 10
6.6017886347
 20
3.7665493616
 30
0.0
 10
6.6056744756
 20
3.7549133578
 30
0.0
 10
6.6095521646
 20
3.7453224339
 30
0.0
 10
6.6130242262
 20
3.7376965168
 30
0.0
 10
6.6167732757
 20
3.7300296429
 30
0.0
 10
6.6219103869
 20
3.7205022949
 30
0.0
 10
6.6287122192
 20
3.7092213871
 30
0.0
 10
6.6361390219
 20
3.6980418666
 30
0.0
 10
6.6441488674
 20
3.6869653388
 30
0.0
 10
6.6512452901
 20
3.677859478
 30
0.0
 10
6.6571725808
 20
3.6706224031
 30
0.0
 10
6.6633108168
 20
3.6633594273
 30
0.0
 10
6.6712757373
 20
3.6543476441
 30
0.0
 10
6.6812273642
 20
3.6436753144
 30
0.0
 10
6.6880812619
 20
3.6366715904
 30
0.0
 10
6.6915696924
 20
3.6331831599
 30
0.0
 11
6.6915696924
 21
3.9940270782
 31
0.0
 11
6.6812228553
 21
3.9834446591
 31
0.0
 11
6.6712745339
 21
3.9727655093
 31
0.0
 11
6.6617589927
 21
3.9619877695
 31
0.0
 11
6.6571742223
 21
3.9565613472
 31
0.0
 11
6.6527105282
 21
3.9511095906
 31
0.0
 11
6.6441657605
 21
3.9401298683
 31
0.0
 11
6.6361651628
 21
3.9290487333
 31
0.0
 11
6.6287495704
 21
3.9178664321
 31
0.0
 11
6.6219600784
 21
3.9065840613
 31
0.0
 11
6.6158389052
 21
3.8952063974
 31
0.0
 11
6.6130422263
 21
3.8894836344
 31
0.0
 11
6.6104285729
 21
3.8837392127
 31
0.0
 11
6.6057705952
 21
3.8721889545
 31
0.0
 11
6.6019004986
 21
3.8605660753
 31
0.0
 11
6.5988516101
 21
3.8488824992
 31
0.0
 11
6.5976453101
 21
3.8430217255
 31
0.0
 11
6.5966547426
 21
3.8371507008
 31
0.0
 11
6.5958815121
 21
3.8312714749
 31
0.0
 11
6.59532722
 21
3.8253860984
 31
0.0
 11
6.5949934675
 21
3.8194966217
 31
0.0
 11
6.5948818559
 21
3.8136050953
 31
0.0
 11
6.5949934597
 21
3.8077135694
 31
0.0
 11
6.595327215
 21
3.8018240942
 31
0.0
 11
6.5958815154
 21
3.7959387194
 31
0.0
 11
6.5966547543
 21
3.7900594951
 31
0.0
 11
6.5976453254
 21
3.784188471
 31
0.0
 11
6.5988516194
 21
3.7783276964
 31
0.0
 11
6.601900504
 21
3.7666441233
 31
0.0
 11
6.6057706094
 21
3.7550212507
 31
0.0
 11
6.6104285872
 21
3.7434709948
 31
0.0
 11
6.6130422375
 21
3.7377265743
 31
0.0
 11
6.6158389146
 21
3.7320038143
 31
0.0
 11
6.6219600867
 21
3.7206261587
 31
0.0
 11
6.6287495789
 21
3.7093437942
 31
0.0
 11
6.6361651699
 21
3.698161497
 31
0.0
 11
6.6441657644
 21
3.6870803661
 31
0.0
 11
6.6527105286
 21
3.6761006473
 31
0.0
 11
6.6571742214
 21
3.6706488917
 31
0.0
 11
6.6617589912
 21
3.66522247
 31
0.0
 11
6.6712745324
 21
3.6544447301
 31
0.0
 11
6.6812228547
 21
3.6437655795
 31
0.0
 11
6.6915696924
 21
3.6331831599
 31
0.0
  0
SPLINE
  5
229
100
AcDbEntity
  8
0
100
AcDbSpline
 62
6
  6
CONTINUOUS
 70
0
 71
3
 72
23
 73
19
 74
17
 42
0.0000001
 43
0.0000001
 44
0.0000000001
 12
0.0
 22
-0.3770187769
 32
0.0
 13
0.1686079228
 23
-0.3372158455
 33
0.0
 40
0.0
 40
0.0
 40
0.0
 40
0.0
 40
0.0624922463
 40
0.1250060377
 40
0.1875237391
 40
0.2500319253
 40
0.3125360555
 40
0.3750385145
 40
0.4375381922
 40
0.5000398126
 40
0.5625416478
 40
0.6250374722
 40
0.6875328109
 40
0.750030971
 40
0.7812805933
 40
0.8125294764
 40
0.8750253814
 40
1.0
 40
1.0
 40
1.0
 40
1.0
 10
6.5948818559
 20
4.3548709964
 30
0.0
 10
6.5948818559
 20
4.347017413
 30
0.0
 10
6.595180439
 20
4.3313059595
 30
0.0
 10
6.5965100885
 20
4.3077716863
 30
0.0
 10
6.59870888
 20
4.2843003832
 30
0.0
 10
6.601763635
 20
4.2609266424
 30
0.0
 10
6.6056395116
 20
4.2376772717
 30
0.0
 10
6.6103030781
 20
4.2145744192
 30
0.0
 10
6.615720789
 20
4.1916374063
 30
0.0
 10
6.6218490508
 20
4.1688804454
 30
0.0
 10
6.6286452781
 20
4.1463148527
 30
0.0
 10
6.6360680589
 20
4.123948719
 30
0.0
 10
6.6440755659
 20
4.1017861161
 30
0.0
 10
6.6512017044
 20
4.0834871835
 30
0.0
 10
6.657154265
 20
4.0689497012
 30
0.0
 10
6.663268191
 20
4.0544795725
 30
0.0
 10
6.6743752356
 20
4.0293346574
 30
0.0
 10
6.6845457888
 20
4.0080748854
 30
0.0
 10
6.6915696924
 20
3.9940270782
 30
0.0
 11
6.5948818559
 21
4.3548709964
 31
0.0
 11
6.595327282
 21
4.331314457
 31
0.0
 11
6.5966548957
 21
4.3077830052
 31
0.0
 11
6.5988516994
 21
4.2843152544
 31
0.0
 11
6.6019006076
 21
4.2609465503
 31
0.0
 11
6.6057708632
 21
4.2377013095
 31
0.0
 11
6.6104288536
 21
4.2146016661
 31
0.0
 11
6.6158391566
 21
4.1916676388
 31
0.0
 11
6.6219603955
 21
4.1689122891
 31
0.0
 11
6.6287499715
 21
4.1463472503
 31
0.0
 11
6.6361655562
 21
4.1239825096
 31
0.0
 11
6.6441660665
 21
4.1018204762
 31
0.0
 11
6.6527107777
 21
4.0798613794
 31
0.0
 11
6.6571744852
 21
4.068958002
 31
0.0
 11
6.6617592508
 21
4.0581052751
 31
0.0
 11
6.6712747107
 21
4.0365499979
 31
0.0
 11
6.6915696924
 21
3.9940270782
 31
0.0
  0
SPLINE
  5
22A
100
AcDbEntity
  8
0
100
AcDbSpline
 62
6
  6
CONTINUOUS
 70
0
 71
3
 72
24
 73
20
 74
18
 42
0.0000001
 43
0.0000001
 44
0.0000000001
 12
-0.1686083708
 22
-0.3372167417
 32
0.0
 13
0.0
 23
-0.3770197788
 33
0.0
 40
0.0
 40
0.0
 40
0.0
 40
0.0
 40
0.124974737
 40
0.1874707981
 40
0.2187197386
 40
0.2499694152
 40
0.3124678117
 40
0.3749633191
 40
0.4374589453
 40
0.4999605635
 40
0.5624621849
 40
0.6249616983
 40
0.6874637837
 40
0.7499675426
 40
0.8124751216
 40
0.8437341435
 40
0.8749947086
 40
0.9375079945
 40
1.0
 40
1.0
 40
1.0
 40
1.0
 10
6.6915696924
 20
4.7157149146
 30
0.0
 10
6.6845457635
 20
4.7016670568
 30
0.0
 10
6.6743751394
 20
4.6804072112
 30
0.0
 10
6.6632680466
 20
4.6552621914
 30
0.0
 10
6.6571541151
 20
4.6407919831
 30
0.0
 10
6.6512015646
 20
4.6262544044
 30
0.0
 10
6.6440753997
 20
4.6079553644
 30
0.0
 10
6.6360678545
 20
4.5857926813
 30
0.0
 10
6.6286450431
 20
4.5634265239
 30
0.0
 10
6.6218488621
 20
4.5408609062
 30
0.0
 10
6.6157206723
 20
4.5181039087
 30
0.0
 10
6.6103029262
 20
4.4951669194
 30
0.0
 10
6.6056393386
 20
4.4720640878
 30
0.0
 10
6.6017636035
 20
4.4488149305
 30
0.0
 10
6.5992180321
 20
4.4293369456
 30
0.0
 10
6.5976093898
 20
4.4137061623
 30
0.0
 10
6.5962884212
 20
4.3980477042
 30
0.0
 10
6.5951803828
 20
4.3784358719
 30
0.0
 10
6.5948818559
 20
4.3627245704
 30
0.0
 10
6.5948818559
 20
4.3548709964
 30
0.0
 11
6.6915696924
 21
4.7157149146
 31
0.0
 11
6.6712746109
 21
4.6731918543
 31
0.0
 11
6.6617591056
 21
4.6516364643
 31
0.0
 11
6.6571743376
 21
4.640783681
 31
0.0
 11
6.6527106374
 21
4.6298802447
 31
0.0
 11
6.6441658939
 21
4.6079209977
 31
0.0
 11
6.6361653348
 21
4.5857588476
 31
0.0
 11
6.6287497474
 21
4.5633941206
 31
0.0
 11
6.6219602188
 21
4.5408290875
 31
0.0
 11
6.6158390163
 21
4.5180736629
 31
0.0
 11
6.6104286968
 21
4.4951396388
 31
0.0
 11
6.6057707156
 21
4.4720400733
 31
0.0
 11
6.6019005481
 21
4.4487948962
 31
0.0
 11
6.59885165
 21
4.4254263586
 31
0.0
 11
6.597645378
 21
4.4137029851
 31
0.0
 11
6.5966548105
 21
4.4019588347
 31
0.0
 11
6.5953272448
 21
4.3784275083
 31
0.0
 11
6.5948818559
 21
4.3548709964
 31
0.0
  0
ENDSEC
  0
SECTION
  2
OBJECTS
  0
DICTIONARY
  5
C
100
AcDbDictionary
280
0
281
1
  3
ACAD_GROUP
350
D
  3
ACAD_MLINESTYLE
350
17
  3
ACAD_LAYOUT
350
1A
  3
ACAD_PLOTSETTINGS
350
19
  3
ACAD_PLOTSTYLENAME
350
E
  0
DICTIONARY
  5
D
102
{ACAD_REACTORS
330
C
102
}
100
AcDbDictionary
280
0
281
1
  0
ACDBDICTIONARYWDFLT
  5
E
102
{ACAD_REACTORS
330
C
102
}
100
AcDbDictionary
281
1
  3
Normal
350
F
100
AcDbDictionaryWithDefault
340
F
  0
DICTIONARY
  5
17
102
{ACAD_REACTORS
330
C
102
}
100
AcDbDictionary
280
0
281
1
  3
Standard
350
18
  0
DICTIONARY
  5
19
102
{ACAD_REACTORS
330
C
102
}
100
AcDbDictionary
281
1
  0
DICTIONARY
  5
1A
102
{ACAD_REACTORS
330
C
102
}
100
AcDbDictionary
281
1
  3
Model
350
22B
  3
Layout1
350
22C
  0
ACDBPLACEHOLDER
  5
F
102
{ACAD_REACTORS
330
E
102
}
  0
MLINESTYLE
  5
18
102
{ACAD_REACTORS
330
17
102
}
100
AcDbMlineStyle
  2
STANDARD
 70
0
  3

 62
256
 51
90.0
 52
90.0
 71
2
 49
0.5
 62
256
  6
BYLAYER
 49
-0.5
 62
256
  6
BYLAYER
  0
LAYOUT
  5
22B
102
{ACAD_REACTORS
330
1A
102
}
100
AcDbPlotSettings
  1

  2
none_device
  4
ISO_A4_(297.00_x_210.00_MM)
  6

 40
0.0
 41
0.0
 42
0.0
 43
0.0
 44
297.0
 45
210.0
 46
0.0
 47
0.0
 48
0.0
 49
0.0
140
0.0
141
0.0
142
1.0
143
1.0
 70
1024
 72
0
 73
0
 74
0
  7

 75
0
147
1.0
148
0.0
149
0.0
100
AcDbLayout
  1
Model
 70
0
 71
0
 10
0.0
 20
0.0
 11
11.6929133858
 21
8.2677165354
 12
0.0
 22
0.0
 32
0.0
 14
0.0
 24
0.0
 34
0.0
 15
0.0
 25
0.0
 35
0.0
146
0.0
 13
0.0
 23
0.0
 33
0.0
 16
1.0
 26
0.0
 36
0.0
 17
0.0
 27
1.0
 37
0.0
 76
0
330
203
345
0
346
0
  0
LAYOUT
  5
22C
102
{ACAD_REACTORS
330
1A
102
}
100
AcDbPlotSettings
  1

  2
none_device
  4
ISO_A4_(297.00_x_210.00_MM)
  6

 40
0.0
 41
0.0
 42
0.0
 43
0.0
 44
297.0
 45
210.0
 46
0.0
 47
0.0
 48
0.0
 49
0.0
140
0.0
141
0.0
142
1.0
143
1.0
 70
0
 72
0
 73
0
 74
0
  7

 75
0
147
1.0
148
0.0
149
0.0
100
AcDbLayout
  1
Layout1
 70
0
 71
1
 10
0.0
 20
0.0
 11
11.6929133858
 21
8.2677165354
 12
0.0
 22
0.0
 32
0.0
 14
0.0
 24
0.0
 34
0.0
 15
0.0
 25
0.0
 35
0.0
146
0.0
 13
0.0
 23
0.0
 33
0.0
 16
1.0
 26
0.0
 36
0.0
 17
0.0
 27
1.0
 37
0.0
 76
0
330
204
345
0
346
0
  0
ENDSEC
  0
EOF
