999
DXF file: 130_right.dxf
999
Pro/ENGINEER 2018400 by Parametric Technology Corporation
  0
SECTION
  2
HEADER
  9
$ACADVER
  1
AC1027
  9
$DWGCODEPAGE
  3
ANSI_1252
  9
$EXTMAX
 10
11.0
 20
8.5
 30
0.0
  9
$EXTMIN
 10
0.0
 20
0.0
 30
0.0
  9
$LIMMIN
 10
0.0
 20
0.0
  9
$LIMMAX
 10
11.0
 20
8.5
  9
$VIEWCTR
 10
5.5
 20
4.25
  9
$VIEWSIZE
 40
8.5
  9
$CLAYER
  8
0
  9
$LTSCALE
 40
0.605
  9
$CELTYPE
  6
BYLAYER
  9
$DIMSCALE
 40
1.0
  9
$DIMASZ
 40
0.1
  9
$DIMEXO
 40
0.0625
  9
$DIMDLI
 40
0.418
  9
$DIMEXE
 40
0.125
  9
$DIMCEN
 40
0.099
  9
$DIMLFAC
 40
1.0
  9
$DIMBLK
  1
_FILLED
  9
$DIMALT
 70
1
  9
$DIMALTD
 70
1
  9
$DIMALTTD
 70
2
  9
$DIMALTF
 40
25.4
  9
$DIMTXT
 40
0.08
  9
$DIMTOL
 70
1
  9
$DIMLIM
 70
0
  9
$DIMTFAC
 40
1.0
  9
$DIMTP
 40
0.01
  9
$DIMTM
 40
0.01
  9
$DIMGAP
 40
0.09
  9
$DIMDSEP
 70
46
  9
$AUNITS
 70
0
  9
$PDMODE
 70
3
  9
$PDSIZE
 40
0.3125
  9
$HANDSEED
  5
4A7
  9
$TILEMODE
 70
1
  9
$MEASUREMENT
 70
0
  9
$INSUNITS
 70
1
  0
ENDSEC
  0
SECTION
  2
CLASSES
  0
CLASS
  1
ACDBDICTIONARYWDFLT
  2
AcDbDictionaryWithDefault
  3
AutoCAD 2000
 90
0
 91
1
280
0
281
0
  0
CLASS
  1
ACDBPLACEHOLDER
  2
AcDbPlaceHolder
  3
AutoCAD 2000
 90
0
 91
1
280
0
281
0
  0
CLASS
  1
LAYOUT
  2
AcDbLayout
  3
AutoCAD 2000
 90
0
 91
0
280
0
281
0
  0
ENDSEC
  0
SECTION
  2
TABLES
  0
TABLE
  2
VPORT
  5
8
100
AcDbSymbolTable
 70
2
  0
VPORT
  5
1F4
100
AcDbSymbolTableRecord
100
AcDbViewportTableRecord
  2
*ACTIVE
 70
0
 10
0.0
 20
0.0
 11
1.0
 21
1.0
 12
5.5
 22
4.25
 13
0.0
 23
0.0
 14
1.0
 24
1.0
 15
0.0
 25
0.0
 16
0.0
 26
0.0
 36
1.0
 17
0.0
 27
0.0
 37
0.0
 40
8.5
 41
1.2941176471
 42
50.0
 43
0.0
 44
0.0
 50
0.0
 51
0.0
 71
0
 72
100
 73
1
 74
1
 75
0
 76
0
 77
0
 78
0
  0
ENDTAB
  0
TABLE
  2
LTYPE
  5
5
100
AcDbSymbolTable
 70
6
  0
LTYPE
  5
14
100
AcDbSymbolTableRecord
100
AcDbLinetypeTableRecord
  2
BYBLOCK
 70
0
  3

 72
65
 73
0
 40
0.0
  0
LTYPE
  5
15
100
AcDbSymbolTableRecord
100
AcDbLinetypeTableRecord
  2
BYLAYER
 70
0
  3

 72
65
 73
0
 40
0.0
  0
LTYPE
  5
16
100
AcDbSymbolTableRecord
100
AcDbLinetypeTableRecord
  2
CONTINUOUS
 70
64
  3
Solid line
 72
65
 73
0
 40
0.0
  0
LTYPE
  5
1F5
100
AcDbSymbolTableRecord
100
AcDbLinetypeTableRecord
  2
CENTER
 70
64
  3
____ _ ____ _ ____ _ ____ _ ____ _ ____ _ ____
 72
65
 73
4
 40
0.6
 49
0.375
 74
0
 49
-0.075
 74
0
 49
0.075
 74
0
 49
-0.075
 74
0
  0
LTYPE
  5
1F6
100
AcDbSymbolTableRecord
100
AcDbLinetypeTableRecord
  2
HIDDEN
 70
64
  3
- - - - - - - - - - - - - - - - - - - -
 72
65
 73
2
 40
0.2
 49
0.1
 74
0
 49
-0.1
 74
0
  0
LTYPE
  5
1F7
100
AcDbSymbolTableRecord
100
AcDbLinetypeTableRecord
  2
PHANTOM
 70
64
  3
_____ _ _ _____ _ _ _____ _ _ _____
 72
65
 73
6
 40
0.8
 49
0.45
 74
0
 49
-0.05
 74
0
 49
0.1
 74
0
 49
-0.05
 74
0
 49
0.1
 74
0
 49
-0.05
 74
0
  0
LTYPE
  5
1F8
100
AcDbSymbolTableRecord
100
AcDbLinetypeTableRecord
  2
DOT
 70
64
  3
. . . . . . . . . . . . . . . . . . . .
 72
65
 73
2
 40
0.2
 49
0.1
 74
0
 49
-0.1
 74
0
  0
LTYPE
  5
1F9
100
AcDbSymbolTableRecord
100
AcDbLinetypeTableRecord
  2
DASHED
 70
64
  3
- - - - - - - - - - - - - - - - - - - -
 72
65
 73
2
 40
0.2
 49
0.1
 74
0
 49
-0.1
 74
0
  0
ENDTAB
  0
TABLE
  2
LAYER
  5
2
100
AcDbSymbolTable
 70
36
  0
LAYER
  5
10
100
AcDbSymbolTableRecord
100
AcDbLayerTableRecord
  2
0
 70
0
 62
7
  6
CONTINUOUS
370
-3
390
F
  0
LAYER
  5
1FA
100
AcDbSymbolTableRecord
100
AcDbLayerTableRecord
  2
DEFAULT_1
 70
0
 62
7
  6
CENTER
370
-3
390
F
  0
LAYER
  5
1FB
100
AcDbSymbolTableRecord
100
AcDbLayerTableRecord
  2
DEFAULT_2
 70
0
 62
8
  6
HIDDEN
370
-3
390
F
  0
LAYER
  5
1FC
100
AcDbSymbolTableRecord
100
AcDbLayerTableRecord
  2
DEFAULT_3
 70
0
 62
7
  6
PHANTOM
370
-3
390
F
  0
LAYER
  5
1FD
100
AcDbSymbolTableRecord
100
AcDbLayerTableRecord
  2
ALL_ASSEMBLY_MEMBERS
 70
0
 62
7
  6
CONTINUOUS
370
-3
390
F
  0
LAYER
  5
1FE
100
AcDbSymbolTableRecord
100
AcDbLayerTableRecord
  2
ALL_FEATURES
 70
0
 62
7
  6
CONTINUOUS
370
-3
390
F
  0
LAYER
  5
1FF
100
AcDbSymbolTableRecord
100
AcDbLayerTableRecord
  2
AXES_FEATURES
 70
0
 62
7
  6
CONTINUOUS
370
-3
390
F
  0
LAYER
  5
200
100
AcDbSymbolTableRecord
100
AcDbLayerTableRecord
  2
CHAMFER_FEATURES
 70
0
 62
7
  6
CONTINUOUS
370
-3
390
F
  0
LAYER
  5
201
100
AcDbSymbolTableRecord
100
AcDbLayerTableRecord
  2
CUT_FEATURES
 70
0
 62
7
  6
CONTINUOUS
370
-3
390
F
  0
LAYER
  5
202
100
AcDbSymbolTableRecord
100
AcDbLayerTableRecord
  2
DATUM_CURVES
 70
0
 62
7
  6
CONTINUOUS
370
-3
390
F
  0
LAYER
  5
203
100
AcDbSymbolTableRecord
100
AcDbLayerTableRecord
  2
DATUM_PLANES
 70
0
 62
7
  6
CONTINUOUS
370
-3
390
F
  0
LAYER
  5
204
100
AcDbSymbolTableRecord
100
AcDbLayerTableRecord
  2
DEFAULT_COORDINATE_SYSTEM
 70
0
 62
7
  6
CONTINUOUS
370
-3
390
F
  0
LAYER
  5
205
100
AcDbSymbolTableRecord
100
AcDbLayerTableRecord
  2
DEFAULT_DATUM_AXES
 70
0
 62
7
  6
CONTINUOUS
370
-3
390
F
  0
LAYER
  5
206
100
AcDbSymbolTableRecord
100
AcDbLayerTableRecord
  2
DEFAULT_DATUM_PLANES
 70
0
 62
7
  6
CONTINUOUS
370
-3
390
F
  0
LAYER
  5
207
100
AcDbSymbolTableRecord
100
AcDbLayerTableRecord
  2
DIMENSIONS
 70
0
 62
7
  6
CONTINUOUS
370
-3
390
F
  0
LAYER
  5
208
100
AcDbSymbolTableRecord
100
AcDbLayerTableRecord
  2
PART_REFERENCE_DIMENSIONS
 70
0
 62
7
  6
CONTINUOUS
370
-3
390
F
  0
LAYER
  5
209
100
AcDbSymbolTableRecord
100
AcDbLayerTableRecord
  2
PLATED_SURFACE_AREA
 70
0
 62
7
  6
CONTINUOUS
370
-3
390
F
  0
LAYER
  5
20A
100
AcDbSymbolTableRecord
100
AcDbLayerTableRecord
  2
PROTRUSION_FEATURES
 70
0
 62
7
  6
CONTINUOUS
370
-3
390
F
  0
LAYER
  5
20B
100
AcDbSymbolTableRecord
100
AcDbLayerTableRecord
  2
QUILTS
 70
0
 62
7
  6
CONTINUOUS
370
-3
390
F
  0
LAYER
  5
20C
100
AcDbSymbolTableRecord
100
AcDbLayerTableRecord
  2
REFERENCE_DIMENSIONS
 70
0
 62
7
  6
CONTINUOUS
370
-3
390
F
  0
LAYER
  5
20D
100
AcDbSymbolTableRecord
100
AcDbLayerTableRecord
  2
ROUND_FEATURES
 70
0
 62
7
  6
CONTINUOUS
370
-3
390
F
  0
ENDTAB
  0
TABLE
  2
STYLE
  5
3
100
AcDbSymbolTable
 70
1
  0
STYLE
  5
11
100
AcDbSymbolTableRecord
100
AcDbTextStyleTableRecord
  2
STANDARD
 70
0
 40
0.0
 41
0.8
 50
0.0
 71
0
 42
0.2
  3
txt
  4

  0
STYLE
  5
20E
100
AcDbSymbolTableRecord
100
AcDbTextStyleTableRecord
  2
TEXTSTYLE_1
 70
0
 40
0.0
 41
0.8
 50
0.0
 71
0
 42
0.2
  3
gdt
  4

  0
ENDTAB
  0
TABLE
  2
VIEW
  5
6
100
AcDbSymbolTable
 70
0
  0
ENDTAB
  0
TABLE
  2
UCS
  5
7
100
AcDbSymbolTable
 70
0
  0
ENDTAB
  0
TABLE
  2
APPID
  5
9
100
AcDbSymbolTable
 70
1
  0
APPID
  5
20F
100
AcDbSymbolTableRecord
100
AcDbRegAppTableRecord
  2
ACAD
 70
0
  0
ENDTAB
  0
TABLE
  2
BLOCK_RECORD
  5
1
100
AcDbSymbolTable
 70
0
  0
BLOCK_RECORD
  5
210
100
AcDbSymbolTableRecord
100
AcDbBlockTableRecord
  2
*Model_Space
  0
BLOCK_RECORD
  5
211
100
AcDbSymbolTableRecord
100
AcDbBlockTableRecord
  2
*Paper_Space
  0
BLOCK_RECORD
  5
212
100
AcDbSymbolTableRecord
100
AcDbBlockTableRecord
  2
_FILLED
  0
ENDTAB
  0
TABLE
  2
DIMSTYLE
  5
A
100
AcDbSymbolTable
 70
1
100
AcDbDimStyleTable
 71
0
  0
DIMSTYLE
105
213
100
AcDbSymbolTableRecord
100
AcDbDimStyleTableRecord
  2
STANDARD
 70
0
  3

  4

 40
1.0
 41
0.1
 42
0.0625
 43
0.38
 44
0.125
 45
0.0
 46
0.0
 47
0.01
 48
0.01
140
0.08
141
0.09
142
0.0
143
25.4
144
1.0
145
0.0
146
1.0
147
0.09
 71
1.0
 72
0.0
 73
1
 74
1
 75
0
 76
0
 77
0
 78
4
 79
1
170
1
171
1
172
0
173
0
174
0
175
0
176
0
177
0
178
0
270
2
179
2
271
2
272
2
273
2
274
2
275
0
280
0
281
0
282
0
283
1
284
4
285
0
286
0
287
3
288
0
340
11
278
46
341
212
342
212
343
212
344
212
  0
ENDTAB
  0
ENDSEC
  0
SECTION
  2
BLOCKS
  0
BLOCK
  5
20
100
AcDbEntity
  8
0
100
AcDbBlockBegin
  2
*Model_Space
 70
0
 10
0.0
 20
0.0
 30
0.0
  3
*Model_Space
  1

  0
ENDBLK
  5
21
100
AcDbEntity
  8
0
100
AcDbBlockEnd
  0
BLOCK
  5
1C
100
AcDbEntity
  8
0
100
AcDbBlockBegin
  2
*Paper_Space
 70
0
 10
0.0
 20
0.0
 30
0.0
  3
*Paper_Space
  1

  0
ENDBLK
  5
1D
100
AcDbEntity
  8
0
100
AcDbBlockEnd
  0
BLOCK
  5
214
100
AcDbEntity
  8
0
100
AcDbBlockBegin
  2
_FILLED
 70
64
 10
0.0
 20
0.0
  3
_FILLED
  1

  0
SOLID
  5
215
100
AcDbEntity
  8
0
  6
BYBLOCK
 62
0
100
AcDbTrace
 10
0.0
 20
0.0
 11
-1.0
 21
0.2
 12
-1.0
 22
-0.2
 13
-1.0
 23
-0.2
  0
ENDBLK
  5
216
100
AcDbEntity
  8
0
  6
BYBLOCK
 62
0
100
AcDbBlockEnd
  0
ENDSEC
  0
SECTION
  2
ENTITIES
  0
MTEXT
  5
217
100
AcDbEntity
  8
0
100
AcDbMText
 62
2
  6
CONTINUOUS
  7
STANDARD
 71
3
 72
1
 10
5.396234472
 20
2.728117236
 30
0.0
 11
1.0
 21
0.0
 31
0.0
 73
2
 44
0.9
  1
SCALE  1.000
 40
0.08
 41
0.768
  0
LINE
  5
218
100
AcDbEntity
  8
0
100
AcDbLine
 62
7
  6
CONTINUOUS
 10
0.0
 20
0.0
 11
0.0
 21
8.5
  0
LINE
  5
219
100
AcDbEntity
  8
0
100
AcDbLine
 62
7
  6
CONTINUOUS
 10
0.0
 20
0.0
 11
11.0
 21
0.0
  0
LINE
  5
21A
100
AcDbEntity
  8
0
100
AcDbLine
 62
7
  6
CONTINUOUS
 10
0.0
 20
8.5
 11
11.0
 21
8.5
  0
LINE
  5
21B
100
AcDbEntity
  8
0
100
AcDbLine
 62
7
  6
CONTINUOUS
 10
11.0
 20
0.0
 11
11.0
 21
8.5
  0
LINE
  5
21C
100
AcDbEntity
  8
ALL_ASSEMBLY_MEMBERS
100
AcDbLine
 62
7
  6
CONTINUOUS
 10
3.5075838509
 20
5.9881793478
 11
3.5075838509
 21
5.9481793478
  0
LINE
  5
21D
100
AcDbEntity
  8
ALL_FEATURES
100
AcDbLine
 62
7
  6
CONTINUOUS
 10
3.5743338509
 20
5.9339070579
 11
3.5743338509
 21
5.9131793478
  0
LINE
  5
21E
100
AcDbEntity
  8
ALL_FEATURES
100
AcDbLine
 62
7
  6
CONTINUOUS
 10
3.5915838509
 20
5.6681793478
 11
3.5915838509
 21
5.7881793478
  0
LINE
  5
21F
100
AcDbEntity
  8
ALL_ASSEMBLY_MEMBERS
100
AcDbLine
 62
7
  6
CONTINUOUS
 10
4.8645594643
 20
3.2381793478
 11
5.0286082375
 21
3.2381793478
  0
LINE
  5
220
100
AcDbEntity
  8
ALL_ASSEMBLY_MEMBERS
100
AcDbLine
 62
7
  6
CONTINUOUS
 10
5.0723875057
 20
3.2385209803
 11
5.0330005176
 21
3.2385209803
  0
LINE
  5
221
100
AcDbEntity
  8
ALL_ASSEMBLY_MEMBERS
100
AcDbLine
 62
7
  6
CONTINUOUS
 10
4.8207801962
 20
3.2385209803
 11
4.8601671843
 21
3.2385209803
  0
LINE
  5
222
100
AcDbEntity
  8
ALL_ASSEMBLY_MEMBERS
100
AcDbLine
 62
7
  6
CONTINUOUS
 10
5.0723875057
 20
3.2785209803
 11
5.0330005176
 21
3.2785209803
  0
LINE
  5
223
100
AcDbEntity
  8
ALL_ASSEMBLY_MEMBERS
100
AcDbLine
 62
7
  6
CONTINUOUS
 10
4.8207801962
 20
3.2785209803
 11
4.8601671843
 21
3.2785209803
  0
LINE
  5
224
100
AcDbEntity
  8
ALL_ASSEMBLY_MEMBERS
100
AcDbLine
 62
7
  6
CONTINUOUS
 10
4.3928861407
 20
3.2891924984
 11
4.3874710597
 21
3.2891924984
  0
LINE
  5
225
100
AcDbEntity
  8
ALL_ASSEMBLY_MEMBERS
100
AcDbLine
 62
7
  6
CONTINUOUS
 10
4.868705778
 20
3.2891924984
 11
5.0244619238
 21
3.2891924984
  0
LINE
  5
226
100
AcDbEntity
  8
ALL_ASSEMBLY_MEMBERS
100
AcDbLine
 62
7
  6
CONTINUOUS
 10
5.5002815612
 20
3.2891924984
 11
5.5056966422
 21
3.2891924984
  0
LINE
  5
227
100
AcDbEntity
  8
ALL_ASSEMBLY_MEMBERS
100
AcDbLine
 62
7
  6
CONTINUOUS
 10
5.5177253455
 20
3.2956390127
 11
5.0478249224
 21
3.2956390127
  0
LINE
  5
228
100
AcDbEntity
  8
ALL_ASSEMBLY_MEMBERS
100
AcDbLine
 62
7
  6
CONTINUOUS
 10
4.3754423564
 20
3.2956390127
 11
4.8453427795
 21
3.2956390127
  0
LINE
  5
229
100
AcDbEntity
  8
ALL_FEATURES
100
AcDbLine
 62
7
  6
CONTINUOUS
 10
3.6848338509
 20
5.6369293478
 11
3.6848338509
 21
5.5846793478
  0
LINE
  5
22A
100
AcDbEntity
  8
ALL_ASSEMBLY_MEMBERS
100
AcDbLine
 62
7
  6
CONTINUOUS
 10
4.3065838509
 20
3.3371793478
 11
5.5865838509
 21
3.3371793478
  0
LINE
  5
22B
100
AcDbEntity
  8
ALL_FEATURES
100
AcDbLine
 62
7
  6
CONTINUOUS
 10
3.8590838509
 20
5.5846793478
 11
3.8590838509
 21
5.3551793478
  0
LINE
  5
22C
100
AcDbEntity
  8
ALL_FEATURES
100
AcDbLine
 62
7
  6
CONTINUOUS
 10
3.8672815806
 20
5.3551793478
 11
3.8672815806
 21
5.5846793478
  0
LINE
  5
22D
100
AcDbEntity
  8
ALL_FEATURES
100
AcDbLine
 62
7
  6
CONTINUOUS
 10
4.1471685311
 20
3.43962264
 11
5.7469056639
 21
3.43962264
  0
LINE
  5
22E
100
AcDbEntity
  8
ALL_FEATURES
100
AcDbLine
 62
7
  6
CONTINUOUS
 10
3.9807244399
 20
3.4826423315
 11
5.912443262
 21
3.4826423315
  0
LINE
  5
22F
100
AcDbEntity
  8
ALL_FEATURES
100
AcDbLine
 62
7
  6
CONTINUOUS
 10
3.9615838509
 20
3.4957799468
 11
3.9615838509
 21
3.8412972936
  0
LINE
  5
230
100
AcDbEntity
  8
ALL_FEATURES
100
AcDbLine
 62
7
  6
CONTINUOUS
 10
3.9765838509
 20
3.8520220603
 11
3.9765838509
 21
3.9720220603
  0
LINE
  5
231
100
AcDbEntity
  8
ALL_ASSEMBLY_MEMBERS
100
AcDbLine
 62
7
  6
CONTINUOUS
 10
4.0391980388
 20
5.0080529932
 11
4.0387681056
 21
5.0076050157
  0
LINE
  5
232
100
AcDbEntity
  8
ALL_ASSEMBLY_MEMBERS
100
AcDbLine
 62
7
  6
CONTINUOUS
 10
4.085157999
 20
5.3073287146
 11
4.0734955051
 21
5.3005925622
  0
LINE
  5
233
100
AcDbEntity
  8
ALL_FEATURES
100
AcDbLine
 62
7
  6
CONTINUOUS
 10
5.9315838509
 20
3.5918262684
 11
5.6998639307
 21
3.5918262684
  0
LINE
  5
234
100
AcDbEntity
  8
ALL_FEATURES
100
AcDbLine
 62
7
  6
CONTINUOUS
 10
3.9615838509
 20
3.5918262684
 11
4.1933037712
 21
3.5918262684
  0
LINE
  5
235
100
AcDbEntity
  8
ALL_FEATURES
100
AcDbLine
 62
7
  6
CONTINUOUS
 10
4.7148639307
 20
3.5918262684
 11
5.1783037712
 21
3.5918262684
  0
LINE
  5
236
100
AcDbEntity
  8
ALL_ASSEMBLY_MEMBERS
100
AcDbLine
 62
7
  6
CONTINUOUS
 10
4.0359283515
 20
3.9909515707
 11
4.0687023592
 21
3.9720220603
  0
LINE
  5
237
100
AcDbEntity
  8
ALL_ASSEMBLY_MEMBERS
100
AcDbLine
 62
7
  6
CONTINUOUS
 10
4.0359283515
 20
4.0818615707
 11
4.085157999
 21
4.0534274544
  0
LINE
  5
238
100
AcDbEntity
  8
ALL_ASSEMBLY_MEMBERS
100
AcDbLine
 62
7
  6
CONTINUOUS
 10
4.0359283515
 20
4.0818615707
 11
4.0355838509
 21
4.0822594912
  0
LINE
  5
239
100
AcDbEntity
  8
ALL_ASSEMBLY_MEMBERS
100
AcDbLine
 62
7
  6
CONTINUOUS
 10
4.0359283515
 20
4.1727715707
 11
4.0355838509
 21
4.1731694912
  0
LINE
  5
23A
100
AcDbEntity
  8
ALL_ASSEMBLY_MEMBERS
100
AcDbLine
 62
7
  6
CONTINUOUS
 10
4.0359283515
 20
4.2636815707
 11
4.0355838509
 21
4.2640794912
  0
LINE
  5
23B
100
AcDbEntity
  8
ALL_ASSEMBLY_MEMBERS
100
AcDbLine
 62
7
  6
CONTINUOUS
 10
4.2703646776
 20
3.43962264
 11
4.3065838509
 21
3.3371793478
  0
LINE
  5
23C
100
AcDbEntity
  8
ALL_ASSEMBLY_MEMBERS
100
AcDbLine
 62
7
  6
CONTINUOUS
 10
4.0355838509
 20
4.9148566777
 11
4.0355838509
 21
4.9004494912
  0
LINE
  5
23D
100
AcDbEntity
  8
ALL_ASSEMBLY_MEMBERS
100
AcDbLine
 62
7
  6
CONTINUOUS
 10
4.0355838509
 20
4.8239466777
 11
4.0355838509
 21
4.8095394912
  0
LINE
  5
23E
100
AcDbEntity
  8
ALL_ASSEMBLY_MEMBERS
100
AcDbLine
 62
7
  6
CONTINUOUS
 10
4.0355838509
 20
4.7330366777
 11
4.0355838509
 21
4.7186294912
  0
LINE
  5
23F
100
AcDbEntity
  8
ALL_ASSEMBLY_MEMBERS
100
AcDbLine
 62
7
  6
CONTINUOUS
 10
4.0355838509
 20
4.6421266777
 11
4.0355838509
 21
4.6277194912
  0
LINE
  5
240
100
AcDbEntity
  8
ALL_ASSEMBLY_MEMBERS
100
AcDbLine
 62
7
  6
CONTINUOUS
 10
4.0355838509
 20
4.5512166777
 11
4.0355838509
 21
4.5368094912
  0
LINE
  5
241
100
AcDbEntity
  8
ALL_ASSEMBLY_MEMBERS
100
AcDbLine
 62
7
  6
CONTINUOUS
 10
4.0355838509
 20
4.4603066777
 11
4.0355838509
 21
4.4458994912
  0
LINE
  5
242
100
AcDbEntity
  8
ALL_ASSEMBLY_MEMBERS
100
AcDbLine
 62
7
  6
CONTINUOUS
 10
4.0355838509
 20
4.3693966777
 11
4.0355838509
 21
4.3549894912
  0
LINE
  5
243
100
AcDbEntity
  8
ALL_ASSEMBLY_MEMBERS
100
AcDbLine
 62
7
  6
CONTINUOUS
 10
4.0355838509
 20
4.2784866777
 11
4.0355838509
 21
4.2640794912
  0
LINE
  5
244
100
AcDbEntity
  8
ALL_ASSEMBLY_MEMBERS
100
AcDbLine
 62
7
  6
CONTINUOUS
 10
4.0355838509
 20
4.1875766777
 11
4.0355838509
 21
4.1731694912
  0
LINE
  5
245
100
AcDbEntity
  8
ALL_ASSEMBLY_MEMBERS
100
AcDbLine
 62
7
  6
CONTINUOUS
 10
4.0355838509
 20
4.0966666777
 11
4.0355838509
 21
4.0822594912
  0
LINE
  5
246
100
AcDbEntity
  8
ALL_ASSEMBLY_MEMBERS
100
AcDbLine
 62
7
  6
CONTINUOUS
 10
4.0355838509
 20
4.0057566777
 11
4.0355838509
 21
3.9913494912
  0
LINE
  5
247
100
AcDbEntity
  8
ALL_ASSEMBLY_MEMBERS
100
AcDbLine
 62
7
  6
CONTINUOUS
 10
4.0847938509
 20
5.3265880845
 11
4.0847938509
 21
5.3069080845
  0
LINE
  5
248
100
AcDbEntity
  8
ALL_ASSEMBLY_MEMBERS
100
AcDbLine
 62
7
  6
CONTINUOUS
 10
4.0847938509
 20
5.0538580845
 11
4.0847938509
 21
5.0341780845
  0
LINE
  5
249
100
AcDbEntity
  8
ALL_ASSEMBLY_MEMBERS
100
AcDbLine
 62
7
  6
CONTINUOUS
 10
4.0847938509
 20
4.9629480845
 11
4.0847938509
 21
4.9432680845
  0
LINE
  5
24A
100
AcDbEntity
  8
ALL_ASSEMBLY_MEMBERS
100
AcDbLine
 62
7
  6
CONTINUOUS
 10
4.0847938509
 20
4.8720380845
 11
4.0847938509
 21
4.8523580845
  0
LINE
  5
24B
100
AcDbEntity
  8
ALL_ASSEMBLY_MEMBERS
100
AcDbLine
 62
7
  6
CONTINUOUS
 10
4.0847938509
 20
4.7811280845
 11
4.0847938509
 21
4.7614480845
  0
LINE
  5
24C
100
AcDbEntity
  8
ALL_ASSEMBLY_MEMBERS
100
AcDbLine
 62
7
  6
CONTINUOUS
 10
4.0847938509
 20
4.6902180845
 11
4.0847938509
 21
4.6705380845
  0
LINE
  5
24D
100
AcDbEntity
  8
ALL_ASSEMBLY_MEMBERS
100
AcDbLine
 62
7
  6
CONTINUOUS
 10
4.0847938509
 20
4.5993080845
 11
4.0847938509
 21
4.5796280845
  0
LINE
  5
24E
100
AcDbEntity
  8
ALL_ASSEMBLY_MEMBERS
100
AcDbLine
 62
7
  6
CONTINUOUS
 10
4.0847938509
 20
4.5083980845
 11
4.0847938509
 21
4.4887180845
  0
LINE
  5
24F
100
AcDbEntity
  8
ALL_ASSEMBLY_MEMBERS
100
AcDbLine
 62
7
  6
CONTINUOUS
 10
4.0847938509
 20
4.4174880845
 11
4.0847938509
 21
4.3978080845
  0
LINE
  5
250
100
AcDbEntity
  8
ALL_ASSEMBLY_MEMBERS
100
AcDbLine
 62
7
  6
CONTINUOUS
 10
4.0847938509
 20
4.3265780845
 11
4.0847938509
 21
4.3068980845
  0
LINE
  5
251
100
AcDbEntity
  8
ALL_ASSEMBLY_MEMBERS
100
AcDbLine
 62
7
  6
CONTINUOUS
 10
4.0847938509
 20
4.2356680845
 11
4.0847938509
 21
4.2159880845
  0
LINE
  5
252
100
AcDbEntity
  8
ALL_ASSEMBLY_MEMBERS
100
AcDbLine
 62
7
  6
CONTINUOUS
 10
4.0847938509
 20
4.1447580845
 11
4.0847938509
 21
4.1250780845
  0
LINE
  5
253
100
AcDbEntity
  8
ALL_ASSEMBLY_MEMBERS
100
AcDbLine
 62
7
  6
CONTINUOUS
 10
4.0847938509
 20
4.0538480845
 11
4.0847938509
 21
4.0341680845
  0
LINE
  5
254
100
AcDbEntity
  8
ALL_ASSEMBLY_MEMBERS
100
AcDbLine
 62
7
  6
CONTINUOUS
 10
4.0359283515
 20
4.9152545982
 11
4.0355838509
 21
4.9148566777
  0
LINE
  5
255
100
AcDbEntity
  8
ALL_ASSEMBLY_MEMBERS
100
AcDbLine
 62
7
  6
CONTINUOUS
 10
4.0359283515
 20
4.8243445982
 11
4.0355838509
 21
4.8239466777
  0
LINE
  5
256
100
AcDbEntity
  8
ALL_ASSEMBLY_MEMBERS
100
AcDbLine
 62
7
  6
CONTINUOUS
 10
4.085157999
 20
5.0345987146
 11
4.039198055
 21
5.0080530791
  0
LINE
  5
257
100
AcDbEntity
  8
ALL_FEATURES
100
AcDbLine
 62
7
  6
CONTINUOUS
 10
5.9315838509
 20
3.7452512778
 11
5.6998639307
 21
3.7452512778
  0
LINE
  5
258
100
AcDbEntity
  8
ALL_FEATURES
100
AcDbLine
 62
7
  6
CONTINUOUS
 10
3.9615838509
 20
3.7452512778
 11
4.1933037712
 21
3.7452512778
  0
LINE
  5
259
100
AcDbEntity
  8
ALL_FEATURES
100
AcDbLine
 62
7
  6
CONTINUOUS
 10
4.7148639307
 20
3.7452512778
 11
5.1783037712
 21
3.7452512778
  0
LINE
  5
25A
100
AcDbEntity
  8
ALL_ASSEMBLY_MEMBERS
100
AcDbLine
 62
7
  6
CONTINUOUS
 10
4.0359283515
 20
4.1727715707
 11
4.085157999
 21
4.1443374544
  0
LINE
  5
25B
100
AcDbEntity
  8
ALL_ASSEMBLY_MEMBERS
100
AcDbLine
 62
7
  6
CONTINUOUS
 10
4.0359283515
 20
4.4455015707
 11
4.0355838509
 21
4.4458994912
  0
LINE
  5
25C
100
AcDbEntity
  8
ALL_FEATURES
100
AcDbLine
 62
7
  6
CONTINUOUS
 10
4.1933037712
 20
3.5918262684
 11
4.1933037712
 21
3.7452512778
  0
LINE
  5
25D
100
AcDbEntity
  8
ALL_FEATURES
100
AcDbLine
 62
7
  6
CONTINUOUS
 10
4.2915111212
 20
5.3551793478
 11
4.2915111212
 21
5.5846793478
  0
LINE
  5
25E
100
AcDbEntity
  8
ALL_ASSEMBLY_MEMBERS
100
AcDbLine
 62
7
  6
CONTINUOUS
 10
4.0359283515
 20
4.7334345982
 11
4.0355838509
 21
4.7330366777
  0
LINE
  5
25F
100
AcDbEntity
  8
ALL_ASSEMBLY_MEMBERS
100
AcDbLine
 62
7
  6
CONTINUOUS
 10
4.0359283515
 20
4.6425245982
 11
4.0355838509
 21
4.6421266777
  0
LINE
  5
260
100
AcDbEntity
  8
ALL_ASSEMBLY_MEMBERS
100
AcDbLine
 62
7
  6
CONTINUOUS
 10
4.0359283515
 20
4.5516145982
 11
4.0355838509
 21
4.5512166777
  0
LINE
  5
261
100
AcDbEntity
  8
ALL_ASSEMBLY_MEMBERS
100
AcDbLine
 62
7
  6
CONTINUOUS
 10
4.085157999
 20
4.9436887146
 11
4.0359283515
 21
4.9152545982
  0
LINE
  5
262
100
AcDbEntity
  8
ALL_ASSEMBLY_MEMBERS
100
AcDbLine
 62
7
  6
CONTINUOUS
 10
5.6219855099
 20
3.9790166253
 11
5.6225984698
 21
3.9790337936
  0
LINE
  5
263
100
AcDbEntity
  8
ALL_FEATURES
100
AcDbLine
 62
7
  6
CONTINUOUS
 10
3.9765838509
 20
3.8520220603
 11
5.9165838509
 21
3.8520220603
  0
LINE
  5
264
100
AcDbEntity
  8
ALL_ASSEMBLY_MEMBERS
100
AcDbLine
 62
7
  6
CONTINUOUS
 10
4.0359283515
 20
4.2636815707
 11
4.085157999
 21
4.2352474544
  0
LINE
  5
265
100
AcDbEntity
  8
ALL_ASSEMBLY_MEMBERS
100
AcDbLine
 62
7
  6
CONTINUOUS
 10
4.0359283515
 20
4.3545915707
 11
4.085157999
 21
4.3261574544
  0
LINE
  5
266
100
AcDbEntity
  8
ALL_ASSEMBLY_MEMBERS
100
AcDbLine
 62
7
  6
CONTINUOUS
 10
4.0359283515
 20
4.5364115707
 11
4.0355838509
 21
4.5368094912
  0
LINE
  5
267
100
AcDbEntity
  8
ALL_ASSEMBLY_MEMBERS
100
AcDbLine
 62
7
  6
CONTINUOUS
 10
4.0359283515
 20
4.6273215707
 11
4.0355838509
 21
4.6277194912
  0
LINE
  5
268
100
AcDbEntity
  8
ALL_ASSEMBLY_MEMBERS
100
AcDbLine
 62
7
  6
CONTINUOUS
 10
4.3951368907
 20
3.2886696833
 11
4.3951368907
 21
3.2956390127
  0
LINE
  5
269
100
AcDbEntity
  8
ALL_ASSEMBLY_MEMBERS
100
AcDbLine
 62
7
  6
CONTINUOUS
 10
4.0359283515
 20
4.4607045982
 11
4.0355838509
 21
4.4603066777
  0
LINE
  5
26A
100
AcDbEntity
  8
ALL_ASSEMBLY_MEMBERS
100
AcDbLine
 62
7
  6
CONTINUOUS
 10
4.0359283515
 20
4.3697945982
 11
4.0355838509
 21
4.3693966777
  0
LINE
  5
26B
100
AcDbEntity
  8
ALL_ASSEMBLY_MEMBERS
100
AcDbLine
 62
7
  6
CONTINUOUS
 10
4.085157999
 20
4.8527787146
 11
4.0359283515
 21
4.8243445982
  0
LINE
  5
26C
100
AcDbEntity
  8
ALL_ASSEMBLY_MEMBERS
100
AcDbLine
 62
7
  6
CONTINUOUS
 10
4.085157999
 20
4.7618687146
 11
4.0359283515
 21
4.7334345982
  0
LINE
  5
26D
100
AcDbEntity
  8
ALL_FEATURES
100
AcDbLine
 62
7
  6
CONTINUOUS
 10
3.9765838509
 20
3.9720220603
 11
5.9165838509
 21
3.9720220603
  0
LINE
  5
26E
100
AcDbEntity
  8
ALL_ASSEMBLY_MEMBERS
100
AcDbLine
 62
7
  6
CONTINUOUS
 10
4.0359283515
 20
4.4455015707
 11
4.085157999
 21
4.4170674544
  0
LINE
  5
26F
100
AcDbEntity
  8
ALL_ASSEMBLY_MEMBERS
100
AcDbLine
 62
7
  6
CONTINUOUS
 10
4.0359283515
 20
4.5364115707
 11
4.085157999
 21
4.5079774544
  0
LINE
  5
270
100
AcDbEntity
  8
ALL_ASSEMBLY_MEMBERS
100
AcDbLine
 62
7
  6
CONTINUOUS
 10
4.0359283515
 20
4.7182315707
 11
4.0355838509
 21
4.7186294912
  0
LINE
  5
271
100
AcDbEntity
  8
ALL_ASSEMBLY_MEMBERS
100
AcDbLine
 62
7
  6
CONTINUOUS
 10
4.0359283515
 20
4.8091415707
 11
4.0355838509
 21
4.8095394912
  0
LINE
  5
272
100
AcDbEntity
  8
ALL_FEATURES
100
AcDbLine
 62
7
  6
CONTINUOUS
 10
4.519200826
 20
5.3551793478
 11
4.519200826
 21
5.5846793478
  0
LINE
  5
273
100
AcDbEntity
  8
ALL_ASSEMBLY_MEMBERS
100
AcDbLine
 62
7
  6
CONTINUOUS
 10
4.0359283515
 20
4.2788845982
 11
4.0355838509
 21
4.2784866777
  0
LINE
  5
274
100
AcDbEntity
  8
ALL_ASSEMBLY_MEMBERS
100
AcDbLine
 62
7
  6
CONTINUOUS
 10
4.0359283515
 20
4.1879745982
 11
4.0355838509
 21
4.1875766777
  0
LINE
  5
275
100
AcDbEntity
  8
ALL_ASSEMBLY_MEMBERS
100
AcDbLine
 62
7
  6
CONTINUOUS
 10
4.085157999
 20
4.6709587146
 11
4.0359283515
 21
4.6425245982
  0
LINE
  5
276
100
AcDbEntity
  8
ALL_ASSEMBLY_MEMBERS
100
AcDbLine
 62
7
  6
CONTINUOUS
 10
4.085157999
 20
4.5800487146
 11
4.0359283515
 21
4.5516145982
  0
LINE
  5
277
100
AcDbEntity
  8
ALL_ASSEMBLY_MEMBERS
100
AcDbLine
 62
7
  6
CONTINUOUS
 10
5.6398884394
 20
4.2522413216
 11
5.6411347048
 21
4.2522779197
  0
LINE
  5
278
100
AcDbEntity
  8
ALL_ASSEMBLY_MEMBERS
100
AcDbLine
 62
7
  6
CONTINUOUS
 10
4.2696096522
 20
4.1837763653
 11
4.2702649377
 21
4.1837919093
  0
LINE
  5
279
100
AcDbEntity
  8
ALL_ASSEMBLY_MEMBERS
100
AcDbLine
 62
7
  6
CONTINUOUS
 10
4.337112207
 20
4.1087902835
 11
4.3359246255
 21
4.1087642835
  0
LINE
  5
27A
100
AcDbEntity
  8
ALL_ASSEMBLY_MEMBERS
100
AcDbLine
 62
7
  6
CONTINUOUS
 10
4.7124544788
 20
4.1012262751
 11
4.7140392641
 21
4.1012523137
  0
LINE
  5
27B
100
AcDbEntity
  8
ALL_ASSEMBLY_MEMBERS
100
AcDbLine
 62
7
  6
CONTINUOUS
 10
4.0359283515
 20
4.6273215707
 11
4.085157999
 21
4.5988874544
  0
LINE
  5
27C
100
AcDbEntity
  8
ALL_ASSEMBLY_MEMBERS
100
AcDbLine
 62
7
  6
CONTINUOUS
 10
4.0359283515
 20
4.9000515707
 11
4.0355838509
 21
4.9004494912
  0
LINE
  5
27D
100
AcDbEntity
  8
ALL_ASSEMBLY_MEMBERS
100
AcDbLine
 62
7
  6
CONTINUOUS
 10
4.0367287379
 20
4.9904992818
 11
4.0364193379
 21
4.990877122
  0
LINE
  5
27E
100
AcDbEntity
  8
ALL_ASSEMBLY_MEMBERS
100
AcDbLine
 62
7
  6
CONTINUOUS
 10
4.0359283515
 20
4.0970645982
 11
4.0355838509
 21
4.0966666777
  0
LINE
  5
27F
100
AcDbEntity
  8
ALL_ASSEMBLY_MEMBERS
100
AcDbLine
 62
7
  6
CONTINUOUS
 10
4.0359283515
 20
4.0061545982
 11
4.0355838509
 21
4.0057566777
  0
LINE
  5
280
100
AcDbEntity
  8
ALL_ASSEMBLY_MEMBERS
100
AcDbLine
 62
7
  6
CONTINUOUS
 10
4.085157999
 20
4.4891387146
 11
4.0359283515
 21
4.4607045982
  0
LINE
  5
281
100
AcDbEntity
  8
ALL_ASSEMBLY_MEMBERS
100
AcDbLine
 62
7
  6
CONTINUOUS
 10
4.7138386707
 20
4.3256688407
 11
4.7144977579
 21
4.325680332
  0
LINE
  5
282
100
AcDbEntity
  8
ALL_ASSEMBLY_MEMBERS
100
AcDbLine
 62
7
  6
CONTINUOUS
 10
4.946630595
 20
4.2583963683
 11
4.952623522
 21
4.2584969856
  0
LINE
  5
283
100
AcDbEntity
  8
ALL_ASSEMBLY_MEMBERS
100
AcDbLine
 62
7
  6
CONTINUOUS
 10
4.0359283515
 20
4.7182315707
 11
4.085157999
 21
4.6897974544
  0
LINE
  5
284
100
AcDbEntity
  8
ALL_ASSEMBLY_MEMBERS
100
AcDbLine
 62
7
  6
CONTINUOUS
 10
4.0359283515
 20
4.8091415707
 11
4.085157999
 21
4.7807074544
  0
LINE
  5
285
100
AcDbEntity
  8
ALL_FEATURES
100
AcDbLine
 62
7
  6
CONTINUOUS
 10
4.7148639307
 20
3.5918262684
 11
4.7148639307
 21
3.7452512778
  0
LINE
  5
286
100
AcDbEntity
  8
ALL_ASSEMBLY_MEMBERS
100
AcDbLine
 62
7
  6
CONTINUOUS
 10
4.8042813562
 20
3.2387228798
 11
4.8042813562
 21
3.2787228798
  0
LINE
  5
287
100
AcDbEntity
  8
ALL_ASSEMBLY_MEMBERS
100
AcDbLine
 62
7
  6
CONTINUOUS
 10
4.8207801962
 20
3.2385209803
 11
4.8207801962
 21
3.2785209803
  0
LINE
  5
288
100
AcDbEntity
  8
ALL_ASSEMBLY_MEMBERS
100
AcDbLine
 62
7
  6
CONTINUOUS
 10
4.085157999
 20
4.3982287146
 11
4.0359283515
 21
4.3697945982
  0
LINE
  5
289
100
AcDbEntity
  8
ALL_ASSEMBLY_MEMBERS
100
AcDbLine
 62
7
  6
CONTINUOUS
 10
4.085157999
 20
4.3073187146
 11
4.0359283515
 21
4.2788845982
  0
LINE
  5
28A
100
AcDbEntity
  8
ALL_ASSEMBLY_MEMBERS
100
AcDbLine
 62
7
  6
CONTINUOUS
 10
5.6218114648
 20
4.3897962065
 11
5.6229779467
 21
4.3898246498
  0
LINE
  5
28B
100
AcDbEntity
  8
ALL_ASSEMBLY_MEMBERS
100
AcDbLine
 62
7
  6
CONTINUOUS
 10
5.6234469799
 20
4.4042421673
 11
5.6226604121
 21
4.4042235151
  0
LINE
  5
28C
100
AcDbEntity
  8
ALL_ASSEMBLY_MEMBERS
100
AcDbLine
 62
7
  6
CONTINUOUS
 10
5.0253822926
 20
4.3933772457
 11
4.8678749964
 21
4.3908725379
  0
LINE
  5
28D
100
AcDbEntity
  8
ALL_ASSEMBLY_MEMBERS
100
AcDbLine
 62
7
  6
CONTINUOUS
 10
4.0359283515
 20
4.9000515707
 11
4.085157999
 21
4.8716174544
  0
LINE
  5
28E
100
AcDbEntity
  8
ALL_ASSEMBLY_MEMBERS
100
AcDbLine
 62
7
  6
CONTINUOUS
 10
4.0367287388
 20
4.990499292
 11
4.085157999
 21
4.9625274544
  0
LINE
  5
28F
100
AcDbEntity
  8
ALL_ASSEMBLY_MEMBERS
100
AcDbLine
 62
7
  6
CONTINUOUS
 10
4.8601671843
 20
3.2385209803
 11
4.8601671843
 21
3.2785209803
  0
LINE
  5
290
100
AcDbEntity
  8
ALL_ASSEMBLY_MEMBERS
100
AcDbLine
 62
7
  6
CONTINUOUS
 10
4.8688338509
 20
3.2886675993
 11
4.8688338509
 21
3.2387221513
  0
LINE
  5
291
100
AcDbEntity
  8
ALL_ASSEMBLY_MEMBERS
100
AcDbLine
 62
7
  6
CONTINUOUS
 10
4.085157999
 20
4.2164087146
 11
4.0359283515
 21
4.1879745982
  0
LINE
  5
292
100
AcDbEntity
  8
ALL_ASSEMBLY_MEMBERS
100
AcDbLine
 62
7
  6
CONTINUOUS
 10
4.085157999
 20
4.1254987146
 11
4.0359283515
 21
4.0970645982
  0
LINE
  5
293
100
AcDbEntity
  8
ALL_ASSEMBLY_MEMBERS
100
AcDbLine
 62
7
  6
CONTINUOUS
 10
5.6252258461
 20
4.6154745785
 11
5.6257192475
 21
4.6154880264
  0
LINE
  5
294
100
AcDbEntity
  8
ALL_ASSEMBLY_MEMBERS
100
AcDbLine
 62
7
  6
CONTINUOUS
 10
5.3365698279
 20
4.6091501305
 11
5.3376616267
 21
4.6091706936
  0
LINE
  5
295
100
AcDbEntity
  8
ALL_ASSEMBLY_MEMBERS
100
AcDbLine
 62
7
  6
CONTINUOUS
 10
4.7032393015
 20
4.5269836825
 11
4.7054715526
 21
4.5270227348
  0
LINE
  5
296
100
AcDbEntity
  8
ALL_ASSEMBLY_MEMBERS
100
AcDbLine
 62
7
  6
CONTINUOUS
 10
4.8679418162
 20
4.6010329559
 11
5.0253972225
 21
4.6036807566
  0
LINE
  5
297
100
AcDbEntity
  8
ALL_ASSEMBLY_MEMBERS
100
AcDbLine
 62
7
  6
CONTINUOUS
 10
5.8376358538
 20
3.9720220603
 11
5.8080097029
 21
3.9891337146
  0
LINE
  5
298
100
AcDbEntity
  8
ALL_ASSEMBLY_MEMBERS
100
AcDbLine
 62
7
  6
CONTINUOUS
 10
4.0612365393
 20
5.0672541963
 11
4.085157999
 21
5.0534374544
  0
LINE
  5
299
100
AcDbEntity
  8
ALL_ASSEMBLY_MEMBERS
100
AcDbLine
 62
7
  6
CONTINUOUS
 10
5.8572393503
 20
4.0516095982
 11
5.8080097029
 21
4.0800437146
  0
LINE
  5
29A
100
AcDbEntity
  8
ALL_ASSEMBLY_MEMBERS
100
AcDbLine
 62
7
  6
CONTINUOUS
 10
4.0471528018
 20
5.3483201032
 11
4.0476916104
 21
5.3478074163
  0
LINE
  5
29B
100
AcDbEntity
  8
ALL_ASSEMBLY_MEMBERS
100
AcDbLine
 62
7
  6
CONTINUOUS
 10
5.0243338509
 20
3.2387221513
 11
5.0243338509
 21
3.2886675993
  0
LINE
  5
29C
100
AcDbEntity
  8
ALL_ASSEMBLY_MEMBERS
100
AcDbLine
 62
7
  6
CONTINUOUS
 10
5.0330005176
 20
3.2385209803
 11
5.0330005176
 21
3.2785209803
  0
LINE
  5
29D
100
AcDbEntity
  8
ALL_ASSEMBLY_MEMBERS
100
AcDbLine
 62
7
  6
CONTINUOUS
 10
5.0723875057
 20
3.2385209803
 11
5.0723875057
 21
3.2785209803
  0
LINE
  5
29E
100
AcDbEntity
  8
ALL_ASSEMBLY_MEMBERS
100
AcDbLine
 62
7
  6
CONTINUOUS
 10
5.0888863457
 20
3.2387228798
 11
5.0888863457
 21
3.2787228798
  0
LINE
  5
29F
100
AcDbEntity
  8
ALL_ASSEMBLY_MEMBERS
100
AcDbLine
 62
7
  6
CONTINUOUS
 10
4.085157999
 20
4.0345887146
 11
4.0359283515
 21
4.0061545982
  0
LINE
  5
2A0
100
AcDbEntity
  8
ALL_ASSEMBLY_MEMBERS
100
AcDbLine
 62
7
  6
CONTINUOUS
 10
5.8080097029
 20
5.0079824544
 11
5.8480651853
 21
5.03111784
  0
LINE
  5
2A1
100
AcDbEntity
  8
ALL_ASSEMBLY_MEMBERS
100
AcDbLine
 62
7
  6
CONTINUOUS
 10
4.3359438469
 20
4.7451352824
 11
4.3355093737
 21
4.7451259813
  0
LINE
  5
2A2
100
AcDbEntity
  8
ALL_ASSEMBLY_MEMBERS
100
AcDbLine
 62
7
  6
CONTINUOUS
 10
5.1791085478
 20
4.7450913424
 11
5.1813633834
 21
4.7451283936
  0
LINE
  5
2A3
100
AcDbEntity
  8
ALL_ASSEMBLY_MEMBERS
100
AcDbLine
 62
7
  6
CONTINUOUS
 10
5.8572393503
 20
4.1425195982
 11
5.8080097029
 21
4.1709537146
  0
LINE
  5
2A4
100
AcDbEntity
  8
ALL_ASSEMBLY_MEMBERS
100
AcDbLine
 62
7
  6
CONTINUOUS
 10
5.8572393503
 20
4.2334295982
 11
5.8080097029
 21
4.2618637146
  0
LINE
  5
2A5
100
AcDbEntity
  8
ALL_FEATURES
100
AcDbLine
 62
7
  6
CONTINUOUS
 10
5.1783037712
 20
3.5918262684
 11
5.1783037712
 21
3.7452512778
  0
LINE
  5
2A6
100
AcDbEntity
  8
ALL_ASSEMBLY_MEMBERS
100
AcDbLine
 62
7
  6
CONTINUOUS
 10
5.8080097029
 20
4.9170724544
 11
5.8572393503
 21
4.9455065707
  0
LINE
  5
2A7
100
AcDbEntity
  8
ALL_ASSEMBLY_MEMBERS
100
AcDbLine
 62
7
  6
CONTINUOUS
 10
5.8080097029
 20
4.8261624544
 11
5.8572393503
 21
4.8545965707
  0
LINE
  5
2A8
100
AcDbEntity
  8
ALL_ASSEMBLY_MEMBERS
100
AcDbLine
 62
7
  6
CONTINUOUS
 10
4.2677414241
 20
4.8201013941
 11
4.2702629633
 21
4.820161864
  0
LINE
  5
2A9
100
AcDbEntity
  8
ALL_ASSEMBLY_MEMBERS
100
AcDbLine
 62
7
  6
CONTINUOUS
 10
4.0476915958
 20
5.3478074557
 11
4.085157999
 21
5.3261674544
  0
LINE
  5
2AA
100
AcDbEntity
  8
ALL_ASSEMBLY_MEMBERS
100
AcDbLine
 62
7
  6
CONTINUOUS
 10
5.8572393503
 20
4.3243395982
 11
5.8080097029
 21
4.3527737146
  0
LINE
  5
2AB
100
AcDbEntity
  8
ALL_ASSEMBLY_MEMBERS
100
AcDbLine
 62
7
  6
CONTINUOUS
 10
5.8080097029
 20
4.7352524544
 11
5.8572393503
 21
4.7636865707
  0
LINE
  5
2AC
100
AcDbEntity
  8
ALL_ASSEMBLY_MEMBERS
100
AcDbLine
 62
7
  6
CONTINUOUS
 10
5.8080097029
 20
4.6443424544
 11
5.8572393503
 21
4.6727765707
  0
LINE
  5
2AD
100
AcDbEntity
  8
ALL_ASSEMBLY_MEMBERS
100
AcDbLine
 62
7
  6
CONTINUOUS
 10
4.7120330091
 20
5.00838204
 11
4.7138767468
 21
5.0084094123
  0
LINE
  5
2AE
100
AcDbEntity
  8
ALL_ASSEMBLY_MEMBERS
100
AcDbLine
 62
7
  6
CONTINUOUS
 10
5.8572393503
 20
4.4152495982
 11
5.8080097029
 21
4.4436837146
  0
LINE
  5
2AF
100
AcDbEntity
  8
ALL_ASSEMBLY_MEMBERS
100
AcDbLine
 62
7
  6
CONTINUOUS
 10
5.8572393503
 20
4.5061595982
 11
5.8080097029
 21
4.5345937146
  0
LINE
  5
2B0
100
AcDbEntity
  8
ALL_ASSEMBLY_MEMBERS
100
AcDbLine
 62
7
  6
CONTINUOUS
 10
5.8572393503
 20
4.0516095982
 11
5.8575838509
 21
4.0512116777
  0
LINE
  5
2B1
100
AcDbEntity
  8
ALL_ASSEMBLY_MEMBERS
100
AcDbLine
 62
7
  6
CONTINUOUS
 10
5.8572393503
 20
4.1425195982
 11
5.8575838509
 21
4.1421216777
  0
LINE
  5
2B2
100
AcDbEntity
  8
ALL_FEATURES
100
AcDbLine
 62
7
  6
CONTINUOUS
 10
5.3739668759
 20
5.5846793478
 11
5.3739668759
 21
5.3551793478
  0
LINE
  5
2B3
100
AcDbEntity
  8
ALL_ASSEMBLY_MEMBERS
100
AcDbLine
 62
7
  6
CONTINUOUS
 10
5.848065187
 20
5.0311178348
 11
5.8483029443
 21
5.0314561576
  0
LINE
  5
2B4
100
AcDbEntity
  8
ALL_ASSEMBLY_MEMBERS
100
AcDbLine
 62
7
  6
CONTINUOUS
 10
5.8575838509
 20
4.9459044912
 11
5.8572393503
 21
4.9455065707
  0
LINE
  5
2B5
100
AcDbEntity
  8
ALL_ASSEMBLY_MEMBERS
100
AcDbLine
 62
7
  6
CONTINUOUS
 10
5.8572393503
 20
4.8545965707
 11
5.8575838509
 21
4.8549944912
  0
LINE
  5
2B6
100
AcDbEntity
  8
ALL_ASSEMBLY_MEMBERS
100
AcDbLine
 62
7
  6
CONTINUOUS
 10
5.8080097029
 20
4.5534324544
 11
5.8572393503
 21
4.5818665707
  0
LINE
  5
2B7
100
AcDbEntity
  8
ALL_ASSEMBLY_MEMBERS
100
AcDbLine
 62
7
  6
CONTINUOUS
 10
4.5582450889
 20
5.0265368701
 11
4.5567084293
 21
5.0265037246
  0
LINE
  5
2B8
100
AcDbEntity
  8
ALL_ASSEMBLY_MEMBERS
100
AcDbLine
 62
7
  6
CONTINUOUS
 10
4.9465838509
 20
5.0344296576
 11
4.8678099197
 21
5.0328534963
  0
LINE
  5
2B9
100
AcDbEntity
  8
ALL_ASSEMBLY_MEMBERS
100
AcDbLine
 62
7
  6
CONTINUOUS
 10
5.7881101665
 20
5.1188879417
 11
4.1050575354
 21
5.1188879417
  0
LINE
  5
2BA
100
AcDbEntity
  8
ALL_ASSEMBLY_MEMBERS
100
AcDbLine
 62
7
  6
CONTINUOUS
 10
5.8572393503
 20
4.5970695982
 11
5.8080097029
 21
4.6255037146
  0
LINE
  5
2BB
100
AcDbEntity
  8
ALL_ASSEMBLY_MEMBERS
100
AcDbLine
 62
7
  6
CONTINUOUS
 10
5.8572393503
 20
4.6879795982
 11
5.8080097029
 21
4.7164137146
  0
LINE
  5
2BC
100
AcDbEntity
  8
ALL_ASSEMBLY_MEMBERS
100
AcDbLine
 62
7
  6
CONTINUOUS
 10
5.8572393503
 20
4.2334295982
 11
5.8575838509
 21
4.2330316777
  0
LINE
  5
2BD
100
AcDbEntity
  8
ALL_ASSEMBLY_MEMBERS
100
AcDbLine
 62
7
  6
CONTINUOUS
 10
5.8572393503
 20
4.3243395982
 11
5.8575838509
 21
4.3239416777
  0
LINE
  5
2BE
100
AcDbEntity
  8
ALL_ASSEMBLY_MEMBERS
100
AcDbLine
 62
7
  6
CONTINUOUS
 10
5.4980308112
 20
3.2886696833
 11
5.4980308112
 21
3.2956390127
  0
LINE
  5
2BF
100
AcDbEntity
  8
ALL_FEATURES
100
AcDbLine
 62
7
  6
CONTINUOUS
 10
5.6016565806
 20
5.3551793478
 11
5.6016565806
 21
5.5846793478
  0
LINE
  5
2C0
100
AcDbEntity
  8
ALL_ASSEMBLY_MEMBERS
100
AcDbLine
 62
7
  6
CONTINUOUS
 10
5.8572393503
 20
4.7636865707
 11
5.8575838509
 21
4.7640844912
  0
LINE
  5
2C1
100
AcDbEntity
  8
ALL_ASSEMBLY_MEMBERS
100
AcDbLine
 62
7
  6
CONTINUOUS
 10
5.8572393503
 20
4.6727765707
 11
5.8575838509
 21
4.6731744912
  0
LINE
  5
2C2
100
AcDbEntity
  8
ALL_ASSEMBLY_MEMBERS
100
AcDbLine
 62
7
  6
CONTINUOUS
 10
5.8080097029
 20
4.4625224544
 11
5.8572393503
 21
4.4909565707
  0
LINE
  5
2C3
100
AcDbEntity
  8
ALL_ASSEMBLY_MEMBERS
100
AcDbLine
 62
7
  6
CONTINUOUS
 10
5.8080097029
 20
4.3716124544
 11
5.8572393503
 21
4.4000465707
  0
LINE
  5
2C4
100
AcDbEntity
  8
ALL_ASSEMBLY_MEMBERS
100
AcDbLine
 62
7
  6
CONTINUOUS
 10
5.7481080354
 20
5.1931793478
 11
4.1450596665
 21
5.1931793478
  0
LINE
  5
2C5
100
AcDbEntity
  8
ALL_ASSEMBLY_MEMBERS
100
AcDbLine
 62
7
  6
CONTINUOUS
 10
5.7881101667
 20
5.2674707541
 11
4.1050575352
 21
5.2674707541
  0
LINE
  5
2C6
100
AcDbEntity
  8
ALL_ASSEMBLY_MEMBERS
100
AcDbLine
 62
7
  6
CONTINUOUS
 10
5.8572393503
 20
4.7788895982
 11
5.8080097029
 21
4.8073237146
  0
LINE
  5
2C7
100
AcDbEntity
  8
ALL_ASSEMBLY_MEMBERS
100
AcDbLine
 62
7
  6
CONTINUOUS
 10
5.8572393503
 20
4.8697995982
 11
5.8080097029
 21
4.8982337146
  0
LINE
  5
2C8
100
AcDbEntity
  8
ALL_ASSEMBLY_MEMBERS
100
AcDbLine
 62
7
  6
CONTINUOUS
 10
5.8572393503
 20
4.4152495982
 11
5.8575838509
 21
4.4148516777
  0
LINE
  5
2C9
100
AcDbEntity
  8
ALL_ASSEMBLY_MEMBERS
100
AcDbLine
 62
7
  6
CONTINUOUS
 10
5.8572393503
 20
4.5061595982
 11
5.8575838509
 21
4.5057616777
  0
LINE
  5
2CA
100
AcDbEntity
  8
ALL_ASSEMBLY_MEMBERS
100
AcDbLine
 62
7
  6
CONTINUOUS
 10
5.8572393503
 20
4.5970695982
 11
5.8575838509
 21
4.5966716777
  0
LINE
  5
2CB
100
AcDbEntity
  8
ALL_FEATURES
100
AcDbLine
 62
7
  6
CONTINUOUS
 10
5.6998639307
 20
3.5918262684
 11
5.6998639307
 21
3.7452512778
  0
LINE
  5
2CC
100
AcDbEntity
  8
ALL_ASSEMBLY_MEMBERS
100
AcDbLine
 62
7
  6
CONTINUOUS
 10
5.8572393503
 20
4.5818665707
 11
5.8575838509
 21
4.5822644912
  0
LINE
  5
2CD
100
AcDbEntity
  8
ALL_ASSEMBLY_MEMBERS
100
AcDbLine
 62
7
  6
CONTINUOUS
 10
5.8572393503
 20
4.4909565707
 11
5.8575838509
 21
4.4913544912
  0
LINE
  5
2CE
100
AcDbEntity
  8
ALL_ASSEMBLY_MEMBERS
100
AcDbLine
 62
7
  6
CONTINUOUS
 10
5.8080097029
 20
4.2807024544
 11
5.8572393503
 21
4.3091365707
  0
LINE
  5
2CF
100
AcDbEntity
  8
ALL_ASSEMBLY_MEMBERS
100
AcDbLine
 62
7
  6
CONTINUOUS
 10
5.8080097029
 20
4.1897924544
 11
5.8572393503
 21
4.2182265707
  0
LINE
  5
2D0
100
AcDbEntity
  8
ALL_ASSEMBLY_MEMBERS
100
AcDbLine
 62
7
  6
CONTINUOUS
 10
4.2494608316
 20
5.3356804083
 11
4.2503486327
 21
5.3357066845
  0
LINE
  5
2D1
100
AcDbEntity
  8
ALL_ASSEMBLY_MEMBERS
100
AcDbLine
 62
7
  6
CONTINUOUS
 10
4.7301491007
 20
5.3259623408
 11
4.731330454
 21
5.3259829761
  0
LINE
  5
2D2
100
AcDbEntity
  8
ALL_ASSEMBLY_MEMBERS
100
AcDbLine
 62
7
  6
CONTINUOUS
 10
4.9927797976
 20
5.3172241374
 11
4.9007713784
 21
5.3161056133
  0
LINE
  5
2D3
100
AcDbEntity
  8
ALL_FEATURES
100
AcDbLine
 62
7
  6
CONTINUOUS
 10
3.859085169
 20
5.3551793478
 11
6.0340825329
 21
5.3551793478
  0
LINE
  5
2D4
100
AcDbEntity
  8
ALL_ASSEMBLY_MEMBERS
100
AcDbLine
 62
7
  6
CONTINUOUS
 10
5.8572393503
 20
4.9607095982
 11
5.8080097029
 21
4.9891437146
  0
LINE
  5
2D5
100
AcDbEntity
  8
ALL_ASSEMBLY_MEMBERS
100
AcDbLine
 62
7
  6
CONTINUOUS
 10
5.8572393503
 20
4.6879795982
 11
5.8575838509
 21
4.6875816777
  0
LINE
  5
2D6
100
AcDbEntity
  8
ALL_ASSEMBLY_MEMBERS
100
AcDbLine
 62
7
  6
CONTINUOUS
 10
5.8572393503
 20
4.7788895982
 11
5.8575838509
 21
4.7784916777
  0
LINE
  5
2D7
100
AcDbEntity
  8
ALL_ASSEMBLY_MEMBERS
100
AcDbLine
 62
7
  6
CONTINUOUS
 10
5.8083738509
 20
3.9887130845
 11
5.8083738509
 21
4.0083930845
  0
LINE
  5
2D8
100
AcDbEntity
  8
ALL_ASSEMBLY_MEMBERS
100
AcDbLine
 62
7
  6
CONTINUOUS
 10
5.8083738509
 20
4.0796230845
 11
5.8083738509
 21
4.0993030845
  0
LINE
  5
2D9
100
AcDbEntity
  8
ALL_ASSEMBLY_MEMBERS
100
AcDbLine
 62
7
  6
CONTINUOUS
 10
5.8083738509
 20
4.1705330845
 11
5.8083738509
 21
4.1902130845
  0
LINE
  5
2DA
100
AcDbEntity
  8
ALL_ASSEMBLY_MEMBERS
100
AcDbLine
 62
7
  6
CONTINUOUS
 10
5.8083738509
 20
4.2614430845
 11
5.8083738509
 21
4.2811230845
  0
LINE
  5
2DB
100
AcDbEntity
  8
ALL_ASSEMBLY_MEMBERS
100
AcDbLine
 62
7
  6
CONTINUOUS
 10
5.8083738509
 20
4.3523530845
 11
5.8083738509
 21
4.3720330845
  0
LINE
  5
2DC
100
AcDbEntity
  8
ALL_ASSEMBLY_MEMBERS
100
AcDbLine
 62
7
  6
CONTINUOUS
 10
5.8083738509
 20
4.4432630845
 11
5.8083738509
 21
4.4629430845
  0
LINE
  5
2DD
100
AcDbEntity
  8
ALL_ASSEMBLY_MEMBERS
100
AcDbLine
 62
7
  6
CONTINUOUS
 10
5.8083738509
 20
4.5341730845
 11
5.8083738509
 21
4.5538530845
  0
LINE
  5
2DE
100
AcDbEntity
  8
ALL_ASSEMBLY_MEMBERS
100
AcDbLine
 62
7
  6
CONTINUOUS
 10
5.8083738509
 20
4.6250830845
 11
5.8083738509
 21
4.6447630845
  0
LINE
  5
2DF
100
AcDbEntity
  8
ALL_ASSEMBLY_MEMBERS
100
AcDbLine
 62
7
  6
CONTINUOUS
 10
5.8083738509
 20
4.7159930845
 11
5.8083738509
 21
4.7356730845
  0
LINE
  5
2E0
100
AcDbEntity
  8
ALL_ASSEMBLY_MEMBERS
100
AcDbLine
 62
7
  6
CONTINUOUS
 10
5.8083738509
 20
4.8069030845
 11
5.8083738509
 21
4.8265830845
  0
LINE
  5
2E1
100
AcDbEntity
  8
ALL_ASSEMBLY_MEMBERS
100
AcDbLine
 62
7
  6
CONTINUOUS
 10
5.8083738509
 20
4.8978130845
 11
5.8083738509
 21
4.9174930845
  0
LINE
  5
2E2
100
AcDbEntity
  8
ALL_ASSEMBLY_MEMBERS
100
AcDbLine
 62
7
  6
CONTINUOUS
 10
5.8083738509
 20
4.9887230845
 11
5.8083738509
 21
5.0084030845
  0
LINE
  5
2E3
100
AcDbEntity
  8
ALL_ASSEMBLY_MEMBERS
100
AcDbLine
 62
7
  6
CONTINUOUS
 10
5.8083738509
 20
5.0796330845
 11
5.8083738509
 21
5.0993130845
  0
LINE
  5
2E4
100
AcDbEntity
  8
ALL_ASSEMBLY_MEMBERS
100
AcDbLine
 62
7
  6
CONTINUOUS
 10
5.8083738509
 20
5.3523630845
 11
5.8083738509
 21
5.3551793478
  0
LINE
  5
2E5
100
AcDbEntity
  8
ALL_ASSEMBLY_MEMBERS
100
AcDbLine
 62
7
  6
CONTINUOUS
 10
5.8575838509
 20
4.9603116777
 11
5.8575838509
 21
4.9459044912
  0
LINE
  5
2E6
100
AcDbEntity
  8
ALL_ASSEMBLY_MEMBERS
100
AcDbLine
 62
7
  6
CONTINUOUS
 10
5.8575838509
 20
4.8694016777
 11
5.8575838509
 21
4.8549944912
  0
LINE
  5
2E7
100
AcDbEntity
  8
ALL_ASSEMBLY_MEMBERS
100
AcDbLine
 62
7
  6
CONTINUOUS
 10
5.8575838509
 20
4.7784916777
 11
5.8575838509
 21
4.7640844912
  0
LINE
  5
2E8
100
AcDbEntity
  8
ALL_ASSEMBLY_MEMBERS
100
AcDbLine
 62
7
  6
CONTINUOUS
 10
5.8575838509
 20
4.6875816777
 11
5.8575838509
 21
4.6731744912
  0
LINE
  5
2E9
100
AcDbEntity
  8
ALL_ASSEMBLY_MEMBERS
100
AcDbLine
 62
7
  6
CONTINUOUS
 10
5.8575838509
 20
4.5966716777
 11
5.8575838509
 21
4.5822644912
  0
LINE
  5
2EA
100
AcDbEntity
  8
ALL_ASSEMBLY_MEMBERS
100
AcDbLine
 62
7
  6
CONTINUOUS
 10
5.8575838509
 20
4.5057616777
 11
5.8575838509
 21
4.4913544912
  0
LINE
  5
2EB
100
AcDbEntity
  8
ALL_ASSEMBLY_MEMBERS
100
AcDbLine
 62
7
  6
CONTINUOUS
 10
5.8575838509
 20
4.4148516777
 11
5.8575838509
 21
4.4004444912
  0
LINE
  5
2EC
100
AcDbEntity
  8
ALL_ASSEMBLY_MEMBERS
100
AcDbLine
 62
7
  6
CONTINUOUS
 10
5.8575838509
 20
4.3239416777
 11
5.8575838509
 21
4.3095344912
  0
LINE
  5
2ED
100
AcDbEntity
  8
ALL_ASSEMBLY_MEMBERS
100
AcDbLine
 62
7
  6
CONTINUOUS
 10
5.8575838509
 20
4.2330316777
 11
5.8575838509
 21
4.2186244912
  0
LINE
  5
2EE
100
AcDbEntity
  8
ALL_ASSEMBLY_MEMBERS
100
AcDbLine
 62
7
  6
CONTINUOUS
 10
5.8575838509
 20
4.1421216777
 11
5.8575838509
 21
4.1277144912
  0
LINE
  5
2EF
100
AcDbEntity
  8
ALL_ASSEMBLY_MEMBERS
100
AcDbLine
 62
7
  6
CONTINUOUS
 10
5.8575838509
 20
4.0512116777
 11
5.8575838509
 21
4.0368044912
  0
LINE
  5
2F0
100
AcDbEntity
  8
ALL_ASSEMBLY_MEMBERS
100
AcDbLine
 62
7
  6
CONTINUOUS
 10
5.8572393503
 20
4.4000465707
 11
5.8575838509
 21
4.4004444912
  0
LINE
  5
2F1
100
AcDbEntity
  8
ALL_ASSEMBLY_MEMBERS
100
AcDbLine
 62
7
  6
CONTINUOUS
 10
5.8572393503
 20
4.3091365707
 11
5.8575838509
 21
4.3095344912
  0
LINE
  5
2F2
100
AcDbEntity
  8
ALL_ASSEMBLY_MEMBERS
100
AcDbLine
 62
7
  6
CONTINUOUS
 10
5.8080097029
 20
4.0988824544
 11
5.8572393503
 21
4.1273165707
  0
LINE
  5
2F3
100
AcDbEntity
  8
ALL_ASSEMBLY_MEMBERS
100
AcDbLine
 62
7
  6
CONTINUOUS
 10
5.8328043523
 20
5.0657326348
 11
5.8080097029
 21
5.0800537146
  0
LINE
  5
2F4
100
AcDbEntity
  8
ALL_ASSEMBLY_MEMBERS
100
AcDbLine
 62
7
  6
CONTINUOUS
 10
5.8328042038
 20
5.0657328971
 11
5.8335011234
 21
5.0651259194
  0
LINE
  5
2F5
100
AcDbEntity
  8
ALL_ASSEMBLY_MEMBERS
100
AcDbLine
 62
7
  6
CONTINUOUS
 10
5.8572393503
 20
4.8697995982
 11
5.8575838509
 21
4.8694016777
  0
LINE
  5
2F6
100
AcDbEntity
  8
ALL_FEATURES
100
AcDbLine
 62
7
  6
CONTINUOUS
 10
5.9165838509
 20
3.8520220603
 11
5.9165838509
 21
3.9720220603
  0
LINE
  5
2F7
100
AcDbEntity
  8
ALL_FEATURES
100
AcDbLine
 62
7
  6
CONTINUOUS
 10
5.9315838509
 20
3.4957799468
 11
5.9315838509
 21
3.8412972936
  0
LINE
  5
2F8
100
AcDbEntity
  8
ALL_FEATURES
100
AcDbLine
 62
7
  6
CONTINUOUS
 10
6.0258861212
 20
5.5846793478
 11
6.0258861212
 21
5.3551793478
  0
LINE
  5
2F9
100
AcDbEntity
  8
ALL_ASSEMBLY_MEMBERS
100
AcDbLine
 62
7
  6
CONTINUOUS
 10
5.6228030242
 20
3.43962264
 11
5.5865838509
 21
3.3371793478
  0
LINE
  5
2FA
100
AcDbEntity
  8
ALL_ASSEMBLY_MEMBERS
100
AcDbLine
 62
7
  6
CONTINUOUS
 10
5.8572393503
 20
4.2182265707
 11
5.8575838509
 21
4.2186244912
  0
LINE
  5
2FB
100
AcDbEntity
  8
ALL_ASSEMBLY_MEMBERS
100
AcDbLine
 62
7
  6
CONTINUOUS
 10
5.8572393503
 20
4.1273165707
 11
5.8575838509
 21
4.1277144912
  0
LINE
  5
2FC
100
AcDbEntity
  8
ALL_ASSEMBLY_MEMBERS
100
AcDbLine
 62
7
  6
CONTINUOUS
 10
5.8572393503
 20
4.0364065707
 11
5.8575838509
 21
4.0368044912
  0
LINE
  5
2FD
100
AcDbEntity
  8
ALL_ASSEMBLY_MEMBERS
100
AcDbLine
 62
7
  6
CONTINUOUS
 10
5.8080097029
 20
4.0079724544
 11
5.8572393503
 21
4.0364065707
  0
LINE
  5
2FE
100
AcDbEntity
  8
ALL_ASSEMBLY_MEMBERS
100
AcDbLine
 62
7
  6
CONTINUOUS
 10
6.3855838509
 20
5.9481793478
 11
6.3188338509
 21
5.9339070579
  0
LINE
  5
2FF
100
AcDbEntity
  8
ALL_FEATURES
100
AcDbLine
 62
7
  6
CONTINUOUS
 10
3.6848357692
 20
5.5846793478
 11
6.2083319326
 21
5.5846793478
  0
LINE
  5
300
100
AcDbEntity
  8
ALL_FEATURES
100
AcDbLine
 62
7
  6
CONTINUOUS
 10
3.6848338509
 20
5.6369293478
 11
6.2083338509
 21
5.6369293478
  0
LINE
  5
301
100
AcDbEntity
  8
ALL_FEATURES
100
AcDbLine
 62
7
  6
CONTINUOUS
 10
3.5915838509
 20
5.6681793478
 11
6.3015838509
 21
5.6681793478
  0
LINE
  5
302
100
AcDbEntity
  8
ALL_ASSEMBLY_MEMBERS
100
AcDbLine
 62
7
  6
CONTINUOUS
 10
3.5075838509
 20
5.9481793478
 11
3.5743338509
 21
5.9339070579
  0
LINE
  5
303
100
AcDbEntity
  8
ALL_ASSEMBLY_MEMBERS
100
AcDbLine
 62
7
  6
CONTINUOUS
 10
5.8398772874
 20
5.3343774556
 11
5.8080097029
 21
5.3527837146
  0
LINE
  5
304
100
AcDbEntity
  8
ALL_FEATURES
100
AcDbLine
 62
7
  6
CONTINUOUS
 10
6.0340838509
 20
5.5846793478
 11
6.0340838509
 21
5.3551793478
  0
LINE
  5
305
100
AcDbEntity
  8
ALL_ASSEMBLY_MEMBERS
100
AcDbLine
 62
7
  6
CONTINUOUS
 10
6.1850847095
 20
5.9131793478
 11
5.9140372468
 21
5.8781793478
  0
LINE
  5
306
100
AcDbEntity
  8
ALL_FEATURES
100
AcDbLine
 62
7
  6
CONTINUOUS
 10
3.5915838509
 20
5.7881793478
 11
6.3015838509
 21
5.7881793478
  0
LINE
  5
307
100
AcDbEntity
  8
ALL_ASSEMBLY_MEMBERS
100
AcDbLine
 62
7
  6
CONTINUOUS
 10
3.7080829923
 20
5.9131793478
 11
3.979130455
 21
5.8781793478
  0
LINE
  5
308
100
AcDbEntity
  8
ALL_ASSEMBLY_MEMBERS
100
AcDbLine
 62
7
  6
CONTINUOUS
 10
5.8398772888
 20
5.3343774586
 11
5.8400799724
 21
5.3340575464
  0
LINE
  5
309
100
AcDbEntity
  8
ALL_FEATURES
100
AcDbLine
 62
7
  6
CONTINUOUS
 10
6.2083338509
 20
5.6369293478
 11
6.2083338509
 21
5.5846793478
  0
LINE
  5
30A
100
AcDbEntity
  8
ALL_ASSEMBLY_MEMBERS
100
AcDbLine
 62
7
  6
CONTINUOUS
 10
3.979130455
 20
5.8781793478
 11
5.9140372468
 21
5.8781793478
  0
LINE
  5
30B
100
AcDbEntity
  8
ALL_FEATURES
100
AcDbLine
 62
7
  6
CONTINUOUS
 10
6.3188338509
 20
5.9131793478
 11
3.5743338509
 21
5.9131793478
  0
LINE
  5
30C
100
AcDbEntity
  8
ALL_ASSEMBLY_MEMBERS
100
AcDbLine
 62
7
  6
CONTINUOUS
 10
3.5075838509
 20
5.9481793478
 11
6.3855838509
 21
5.9481793478
  0
LINE
  5
30D
100
AcDbEntity
  8
ALL_FEATURES
100
AcDbLine
 62
7
  6
CONTINUOUS
 10
6.3015838509
 20
5.6681793478
 11
6.3015838509
 21
5.7881793478
  0
LINE
  5
30E
100
AcDbEntity
  8
ALL_FEATURES
100
AcDbLine
 62
7
  6
CONTINUOUS
 10
6.3188338509
 20
5.9339070579
 11
6.3188338509
 21
5.9131793478
  0
LINE
  5
30F
100
AcDbEntity
  8
ALL_ASSEMBLY_MEMBERS
100
AcDbLine
 62
7
  6
CONTINUOUS
 10
6.3855838509
 20
5.9881793478
 11
6.3855838509
 21
5.9481793478
  0
LINE
  5
310
100
AcDbEntity
  8
ALL_ASSEMBLY_MEMBERS
100
AcDbLine
 62
7
  6
CONTINUOUS
 10
6.3855838509
 20
5.9881793478
 11
3.5075838509
 21
5.9881793478
  0
ARC
  5
311
100
AcDbEntity
  8
ALL_ASSEMBLY_MEMBERS
100
AcDbCircle
 62
7
  6
CONTINUOUS
 10
5.4756967048
 20
-64.981609151
 40
70.2993903694
100
AcDbArc
 50
90.7750321955
 51
90.9103669305
  0
ARC
  5
312
100
AcDbEntity
  8
ALL_ASSEMBLY_MEMBERS
100
AcDbCircle
 62
7
  6
CONTINUOUS
 10
5.5430069145
 20
-53.0429326867
 40
57.5280093733
100
AcDbArc
 50
91.0454442099
 51
91.1808019975
  0
ARC
  5
313
100
AcDbEntity
  8
ALL_ASSEMBLY_MEMBERS
100
AcDbCircle
 62
7
  6
CONTINUOUS
 10
5.5424092233
 20
-52.7391939943
 40
57.4969949293
100
AcDbArc
 50
91.0455676405
 51
91.1809391368
  0
ARC
  5
314
100
AcDbEntity
  8
ALL_ASSEMBLY_MEMBERS
100
AcDbCircle
 62
7
  6
CONTINUOUS
 10
5.5423099596
 20
-53.3703225004
 40
57.4917524966
100
AcDbArc
 50
91.0455646483
 51
91.18097828
  0
ARC
  5
315
100
AcDbEntity
  8
ALL_ASSEMBLY_MEMBERS
100
AcDbCircle
 62
7
  6
CONTINUOUS
 10
4.506359596
 20
3.7725961942
 40
0.4965434101
100
AcDbArc
 50
256.7896487019
 51
257.0562758395
  0
ARC
  5
316
100
AcDbEntity
  8
ALL_FEATURES
100
AcDbCircle
 62
7
  6
CONTINUOUS
 10
4.146262038
 20
3.77962264
 40
0.34
100
AcDbArc
 50
240.8645905689
 51
270.0
  0
ARC
  5
317
100
AcDbEntity
  8
ALL_ASSEMBLY_MEMBERS
100
AcDbCircle
 62
7
  6
CONTINUOUS
 10
4.2230838509
 20
4.9731963537
 40
0.1875
100
AcDbArc
 50
129.0113025779
 51
149.7830064631
  0
ARC
  5
318
100
AcDbEntity
  8
ALL_ASSEMBLY_MEMBERS
100
AcDbCircle
 62
7
  6
CONTINUOUS
 10
4.2230838509
 20
4.9731963537
 40
0.1875
100
AcDbArc
 50
169.4255263578
 51
174.5891157723
  0
ARC
  5
319
100
AcDbEntity
  8
ALL_ASSEMBLY_MEMBERS
100
AcDbCircle
 62
7
  6
CONTINUOUS
 10
4.2230838509
 20
5.413162342
 40
0.1875
100
AcDbArc
 50
198.0201597475
 51
200.2321605015
  0
ARC
  5
31A
100
AcDbEntity
  8
ALL_ASSEMBLY_MEMBERS
100
AcDbCircle
 62
7
  6
CONTINUOUS
 10
4.2230838509
 20
5.413162342
 40
0.1875
100
AcDbArc
 50
217.0071994581
 51
230.9886974221
  0
ARC
  5
31B
100
AcDbEntity
  8
ALL_ASSEMBLY_MEMBERS
100
AcDbCircle
 62
7
  6
CONTINUOUS
 10
3.8576761663
 20
5.7481793478
 40
0.1779076846
100
AcDbArc
 50
13.0001944433
 51
46.9464564172
  0
ARC
  5
31C
100
AcDbEntity
  8
ALL_ASSEMBLY_MEMBERS
100
AcDbCircle
 62
7
  6
CONTINUOUS
 10
4.422920083
 20
3.4411114464
 40
0.156
100
AcDbArc
 50
221.7768645919
 51
256.8655238869
  0
ARC
  5
31D
100
AcDbEntity
  8
ALL_FEATURES
100
AcDbCircle
 62
7
  6
CONTINUOUS
 10
4.0415838509
 20
3.5918262684
 40
0.125
100
AcDbArc
 50
230.2081805004
 51
240.8645905689
  0
ARC
  5
31E
100
AcDbEntity
  8
ALL_FEATURES
100
AcDbCircle
 62
7
  6
CONTINUOUS
 10
4.0415838509
 20
3.7452512778
 40
0.125
100
AcDbArc
 50
121.3322514976
 51
129.7918194996
  0
ARC
  5
31F
100
AcDbEntity
  8
ALL_ASSEMBLY_MEMBERS
100
AcDbCircle
 62
7
  6
CONTINUOUS
 10
4.0362088509
 20
5.2038747012
 40
0.109375
100
AcDbArc
 50
309.0113025779
 51
354.38830225
  0
ARC
  5
320
100
AcDbEntity
  8
ALL_ASSEMBLY_MEMBERS
100
AcDbCircle
 62
7
  6
CONTINUOUS
 10
4.0362088509
 20
5.1824839945
 40
0.109375
100
AcDbArc
 50
5.61169775
 51
50.9886974221
  0
ARC
  5
321
100
AcDbEntity
  8
ALL_FEATURES
100
AcDbCircle
 62
7
  6
CONTINUOUS
 10
3.7160838509
 20
5.6369293478
 40
0.03125
100
AcDbArc
 50
90.0
 51
180.0
  0
ARC
  5
322
100
AcDbEntity
  8
ALL_ASSEMBLY_MEMBERS
100
AcDbCircle
 62
7
  6
CONTINUOUS
 10
4.4420212201
 20
72.3243421403
 40
67.0087096452
100
AcDbArc
 50
270.7921249191
 51
270.9350908492
  0
ARC
  5
323
100
AcDbEntity
  8
ALL_ASSEMBLY_MEMBERS
100
AcDbCircle
 62
7
  6
CONTINUOUS
 10
5.3726388545
 20
-39.3556220543
 40
44.6859001319
100
AcDbArc
 50
91.0950844308
 51
91.3015282654
  0
ARC
  5
324
100
AcDbEntity
  8
ALL_ASSEMBLY_MEMBERS
100
AcDbCircle
 62
7
  6
CONTINUOUS
 10
5.3168876944
 20
-37.4136470789
 40
42.1069541102
100
AcDbArc
 50
91.1207649969
 51
91.3054439992
  0
ARC
  5
325
100
AcDbEntity
  8
ALL_ASSEMBLY_MEMBERS
100
AcDbCircle
 62
7
  6
CONTINUOUS
 10
5.3165220275
 20
-38.0330471775
 40
42.0899802821
100
AcDbArc
 50
91.1207697495
 51
91.3054232559
  0
ARC
  5
326
100
AcDbEntity
  8
ALL_ASSEMBLY_MEMBERS
100
AcDbCircle
 62
7
  6
CONTINUOUS
 10
5.3158758467
 20
-37.7285997756
 40
42.0582563236
100
AcDbArc
 50
91.1207693381
 51
91.305721199
  0
ARC
  5
327
100
AcDbEntity
  8
ALL_ASSEMBLY_MEMBERS
100
AcDbCircle
 62
7
  6
CONTINUOUS
 10
5.1112058448
 20
-27.0187489108
 40
32.3659489066
100
AcDbArc
 50
91.097294279
 51
91.4738337461
  0
ARC
  5
328
100
AcDbEntity
  8
ALL_ASSEMBLY_MEMBERS
100
AcDbCircle
 62
7
  6
CONTINUOUS
 10
5.1093200073
 20
-27.3006673207
 40
32.264530969
100
AcDbArc
 50
91.0941871176
 51
91.4787711171
  0
ARC
  5
329
100
AcDbEntity
  8
ALL_ASSEMBLY_MEMBERS
100
AcDbCircle
 62
7
  6
CONTINUOUS
 10
4.9788162618
 20
-23.0166748793
 40
26.9986015884
100
AcDbArc
 50
91.2731493832
 51
91.3941065162
  0
ARC
  5
32A
100
AcDbEntity
  8
ALL_ASSEMBLY_MEMBERS
100
AcDbCircle
 62
7
  6
CONTINUOUS
 10
4.8050811142
 20
-15.7981565693
 40
19.8492032202
100
AcDbArc
 50
91.354246722
 51
91.5250211462
  0
ARC
  5
32B
100
AcDbEntity
  8
ALL_ASSEMBLY_MEMBERS
100
AcDbCircle
 62
7
  6
CONTINUOUS
 10
4.8022749922
 20
-15.055471445
 40
19.7428511031
100
AcDbArc
 50
91.3597707623
 51
91.5248302908
  0
ARC
  5
32C
100
AcDbEntity
  8
ALL_ASSEMBLY_MEMBERS
100
AcDbCircle
 62
7
  6
CONTINUOUS
 10
4.7924912146
 20
-15.3985498738
 40
19.3781984213
100
AcDbArc
 50
91.3913689545
 51
91.5142251086
  0
ARC
  5
32D
100
AcDbEntity
  8
ALL_ASSEMBLY_MEMBERS
100
AcDbCircle
 62
7
  6
CONTINUOUS
 10
4.7797944514
 20
-14.2590022584
 40
18.8748609035
100
AcDbArc
 50
91.3898844419
 51
91.5323162331
  0
ARC
  5
32E
100
AcDbEntity
  8
ALL_ASSEMBLY_MEMBERS
100
AcDbCircle
 62
7
  6
CONTINUOUS
 10
4.7770568601
 20
-14.4513198713
 40
18.774731117
100
AcDbArc
 50
91.4028866872
 51
91.5271892242
  0
ARC
  5
32F
100
AcDbEntity
  8
ALL_ASSEMBLY_MEMBERS
100
AcDbCircle
 62
7
  6
CONTINUOUS
 10
4.7659432809
 20
-12.9680034886
 40
18.2913002765
100
AcDbArc
 50
91.3472806038
 51
91.5844694342
  0
ARC
  5
330
100
AcDbEntity
  8
ALL_ASSEMBLY_MEMBERS
100
AcDbCircle
 62
7
  6
CONTINUOUS
 10
4.8305838509
 20
5.1881793478
 40
1.95
100
AcDbArc
 50
256.8655238869
 51
270.0
  0
ARC
  5
331
100
AcDbEntity
  8
ALL_ASSEMBLY_MEMBERS
100
AcDbCircle
 62
7
  6
CONTINUOUS
 10
5.0625838509
 20
5.1881793478
 40
1.95
100
AcDbArc
 50
270.0
 51
283.1344761131
  0
ARC
  5
332
100
AcDbEntity
  8
ALL_ASSEMBLY_MEMBERS
100
AcDbCircle
 62
7
  6
CONTINUOUS
 10
5.0681265582
 20
5.1503762505
 40
1.8710549131
100
AcDbArc
 50
276.3334902998
 51
277.5771979391
  0
ARC
  5
333
100
AcDbEntity
  8
ALL_ASSEMBLY_MEMBERS
100
AcDbCircle
 62
7
  6
CONTINUOUS
 10
4.8250411437
 20
5.1503762505
 40
1.8710549131
100
AcDbArc
 50
262.4228020609
 51
263.6665097002
  0
ARC
  5
334
100
AcDbEntity
  8
ALL_ASSEMBLY_MEMBERS
100
AcDbCircle
 62
7
  6
CONTINUOUS
 10
5.3871419182
 20
3.7711591123
 40
0.4950680719
100
AcDbArc
 50
282.9433268758
 51
283.2107485828
  0
ARC
  5
335
100
AcDbEntity
  8
ALL_ASSEMBLY_MEMBERS
100
AcDbCircle
 62
7
  6
CONTINUOUS
 10
5.4702476189
 20
3.4411114464
 40
0.156
100
AcDbArc
 50
283.1344761131
 51
318.2231354081
  0
ARC
  5
336
100
AcDbEntity
  8
ALL_ASSEMBLY_MEMBERS
100
AcDbCircle
 62
7
  6
CONTINUOUS
 10
5.0576711864
 20
34.9449197769
 40
29.6242130172
100
AcDbArc
 50
270.9670857316
 51
271.1123634362
  0
ARC
  5
337
100
AcDbEntity
  8
ALL_ASSEMBLY_MEMBERS
100
AcDbCircle
 62
7
  6
CONTINUOUS
 10
4.8751297739
 20
32.6538540308
 40
28.6845849823
100
AcDbArc
 50
271.2761727659
 51
271.3899189071
  0
ARC
  5
338
100
AcDbEntity
  8
ALL_ASSEMBLY_MEMBERS
100
AcDbCircle
 62
7
  6
CONTINUOUS
 10
4.9541300162
 20
32.3406128383
 40
28.3079248713
100
AcDbArc
 50
271.221017185
 51
271.3409926998
  0
ARC
  5
339
100
AcDbEntity
  8
ALL_ASSEMBLY_MEMBERS
100
AcDbCircle
 62
7
  6
CONTINUOUS
 10
5.0848427455
 20
24.8028541721
 40
19.9931848051
100
AcDbArc
 50
271.3940130599
 51
271.5293643714
  0
ARC
  5
33A
100
AcDbEntity
  8
ALL_ASSEMBLY_MEMBERS
100
AcDbCircle
 62
7
  6
CONTINUOUS
 10
5.0892199817
 20
23.7874704494
 40
19.8156171241
100
AcDbArc
 50
271.3929210489
 51
271.540648209
  0
ARC
  5
33B
100
AcDbEntity
  8
ALL_ASSEMBLY_MEMBERS
100
AcDbCircle
 62
7
  6
CONTINUOUS
 10
5.090454408
 20
24.3732796602
 40
19.7650412952
100
AcDbArc
 50
271.392832836
 51
271.5431847739
  0
ARC
  5
33C
100
AcDbEntity
  8
ALL_ASSEMBLY_MEMBERS
100
AcDbCircle
 62
7
  6
CONTINUOUS
 10
5.0915126892
 20
23.896871421
 40
19.7234895818
100
AcDbArc
 50
271.3935885735
 51
271.5444544113
  0
ARC
  5
33D
100
AcDbEntity
  8
ALL_ASSEMBLY_MEMBERS
100
AcDbCircle
 62
7
  6
CONTINUOUS
 10
7.5398117597
 20
-165.3160369023
 40
169.8188648632
100
AcDbArc
 50
90.8749721849
 51
91.0225258206
  0
ARC
  5
33E
100
AcDbEntity
  8
ALL_ASSEMBLY_MEMBERS
100
AcDbCircle
 62
7
  6
CONTINUOUS
 10
7.5389262437
 20
-164.989287404
 40
169.7648381351
100
AcDbArc
 50
90.8749517644
 51
91.0225876834
  0
ARC
  5
33F
100
AcDbEntity
  8
ALL_ASSEMBLY_MEMBERS
100
AcDbCircle
 62
7
  6
CONTINUOUS
 10
7.5387539064
 20
-165.6151442152
 40
169.7543235392
100
AcDbArc
 50
90.8749477888
 51
91.0225989844
  0
ARC
  5
340
100
AcDbEntity
  8
ALL_ASSEMBLY_MEMBERS
100
AcDbCircle
 62
7
  6
CONTINUOUS
 10
5.9359864922
 20
-80.2688448839
 40
85.2860074839
100
AcDbArc
 50
90.826815096
 51
91.0605378624
  0
ARC
  5
341
100
AcDbEntity
  8
ALL_ASSEMBLY_MEMBERS
100
AcDbCircle
 62
7
  6
CONTINUOUS
 10
5.7391017819
 20
-57.2130539847
 40
62.274408823
100
AcDbArc
 50
90.9867706114
 51
91.2660336559
  0
ARC
  5
342
100
AcDbEntity
  8
ALL_FEATURES
100
AcDbCircle
 62
7
  6
CONTINUOUS
 10
5.7469056639
 20
3.77962264
 40
0.34
100
AcDbArc
 50
270.0
 51
299.1354094311
  0
ARC
  5
343
100
AcDbEntity
  8
ALL_ASSEMBLY_MEMBERS
100
AcDbCircle
 62
7
  6
CONTINUOUS
 10
5.6700838509
 20
4.9731963537
 40
0.1875
100
AcDbArc
 50
42.3413169318
 51
50.9886974221
  0
ARC
  5
344
100
AcDbEntity
  8
ALL_ASSEMBLY_MEMBERS
100
AcDbCircle
 62
7
  6
CONTINUOUS
 10
5.6700838509
 20
4.9731963537
 40
0.1875
100
AcDbArc
 50
18.1025632627
 51
29.3596734636
  0
ARC
  5
345
100
AcDbEntity
  8
ALL_ASSEMBLY_MEMBERS
100
AcDbCircle
 62
7
  6
CONTINUOUS
 10
5.6700838509
 20
5.413162342
 40
0.1875
100
AcDbArc
 50
309.0113025779
 51
335.045889614
  0
ARC
  5
346
100
AcDbEntity
  8
ALL_ASSEMBLY_MEMBERS
100
AcDbCircle
 62
7
  6
CONTINUOUS
 10
6.0354915355
 20
5.7481793478
 40
0.1779076846
100
AcDbArc
 50
133.0535435828
 51
166.9998055567
  0
ARC
  5
347
100
AcDbEntity
  8
ALL_FEATURES
100
AcDbCircle
 62
7
  6
CONTINUOUS
 10
5.8515838509
 20
3.5918262684
 40
0.125
100
AcDbArc
 50
299.1354094311
 51
309.7918194996
  0
ARC
  5
348
100
AcDbEntity
  8
ALL_FEATURES
100
AcDbCircle
 62
7
  6
CONTINUOUS
 10
5.8515838509
 20
3.7452512778
 40
0.125
100
AcDbArc
 50
50.2081805004
 51
58.6677485024
  0
ARC
  5
349
100
AcDbEntity
  8
ALL_ASSEMBLY_MEMBERS
100
AcDbCircle
 62
7
  6
CONTINUOUS
 10
5.8569588509
 20
5.2038747012
 40
0.109375
100
AcDbArc
 50
185.61169775
 51
230.9886974221
  0
ARC
  5
34A
100
AcDbEntity
  8
ALL_ASSEMBLY_MEMBERS
100
AcDbCircle
 62
7
  6
CONTINUOUS
 10
5.8569588509
 20
5.1824839945
 40
0.109375
100
AcDbArc
 50
129.0113025779
 51
174.38830225
  0
ARC
  5
34B
100
AcDbEntity
  8
ALL_FEATURES
100
AcDbCircle
 62
7
  6
CONTINUOUS
 10
6.1770838509
 20
5.6369293478
 40
0.03125
100
AcDbArc
 50
0.0
 51
90.0
  0
SPLINE
  5
34C
100
AcDbEntity
  8
ALL_FEATURES
100
AcDbSpline
 62
7
  6
CONTINUOUS
 70
0
 71
3
 72
68
 73
64
 74
0
 42
0.0000001
 43
0.0000001
 44
0.0000000001
 40
0.0
 40
0.0
 40
0.0
 40
0.0
 40
0.0088063328
 40
0.0132114248
 40
0.0176041212
 40
0.0219738153
 40
0.0263143333
 40
0.0349169262
 40
0.0434242346
 40
0.0518228686
 40
0.0601261891
 40
0.0683511761
 40
0.0845823208
 40
0.0926162044
 40
0.1006031379
 40
0.1085480445
 40
0.116457982
 40
0.1243376221
 40
0.1321895532
 40
0.1478229676
 40
0.1633822013
 40
0.1943297693
 40
0.2251242395
 40
0.2558160472
 40
0.2864375076
 40
0.3170101049
 40
0.3475481351
 40
0.3780619383
 40
0.4085590338
 40
0.4390447457
 40
0.4695236412
 40
0.499999187
 40
0.5304747886
 40
0.560953687
 40
0.5914395252
 40
0.6219366583
 40
0.6371913748
 40
0.6524513056
 40
0.6829894138
 40
0.7135621918
 40
0.7441838135
 40
0.7748757364
 40
0.8056703242
 40
0.8366179862
 40
0.8521772564
 40
0.8678106987
 40
0.8756626334
 40
0.883542287
 40
0.8914522401
 40
0.8993971458
 40
0.9073840626
 40
0.9154179567
 40
0.9316490389
 40
0.9398739972
 40
0.9481772933
 40
0.9565758287
 40
0.9650830097
 40
0.9736855406
 40
0.9780260742
 40
0.9823958101
 40
0.9867885394
 40
0.9911936532
 40
1.0
 40
1.0
 40
1.0
 40
1.0
 10
4.1933037712
 20
3.7452512778
 30
0.0
 10
4.1933037712
 20
3.7469988292
 30
0.0
 10
4.1934736412
 20
3.7496239635
 30
0.0
 10
4.194011009
 20
3.7530770306
 30
0.0
 10
4.1945630719
 20
3.7556326804
 30
0.0
 10
4.1952578649
 20
3.7581397993
 30
0.0
 10
4.1963623612
 20
3.7613946443
 30
0.0
 10
4.1980523794
 20
3.7653102881
 30
0.0
 10
4.2004960385
 20
3.7697508069
 30
0.0
 10
4.2032712465
 20
3.7739194456
 30
0.0
 10
4.2063201604
 20
3.7778202195
 30
0.0
 10
4.2106630695
 20
3.7826625479
 30
0.0
 10
4.2153809479
 20
3.7870782701
 30
0.0
 10
4.2203586904
 20
3.7911032012
 30
0.0
 10
4.2241820693
 20
3.7939340201
 30
0.0
 10
4.2280905794
 20
3.7966019263
 30
0.0
 10
4.2320735361
 20
3.7991175214
 30
0.0
 10
4.2361201092
 20
3.8014928828
 30
0.0
 10
4.2415783592
 20
3.8044856231
 30
0.0
 10
4.2485223492
 20
3.807931294
 30
0.0
 10
4.2598166682
 20
3.8128893348
 30
0.0
 10
4.274225569
 20
3.8181956178
 30
0.0
 10
4.2918144414
 20
3.8234322477
 30
0.0
 10
4.3095838999
 20
3.8277429504
 30
0.0
 10
4.3274757079
 20
3.8312829619
 30
0.0
 10
4.3454527828
 20
3.8341671831
 30
0.0
 10
4.3634893751
 20
3.8364839375
 30
0.0
 10
4.3815676388
 20
3.8383002594
 30
0.0
 10
4.3996748798
 20
3.839664021
 30
0.0
 10
4.4178013216
 20
3.8406149776
 30
0.0
 10
4.4359396488
 20
3.8411743792
 30
0.0
 10
4.4540835732
 20
3.8413604828
 30
0.0
 10
4.4722274958
 20
3.8411744502
 30
0.0
 10
4.4903658694
 20
3.8406149365
 30
0.0
 10
4.5084923018
 20
3.8396641593
 30
0.0
 10
4.5235799563
 20
3.8385279139
 30
0.0
 10
4.5356342026
 20
3.8373920957
 30
0.0
 10
4.5476807305
 20
3.8360988026
 30
0.0
 10
4.5627146567
 20
3.8341669325
 30
0.0
 10
4.5806918189
 20
3.8312831168
 30
0.0
 10
4.5985837244
 20
3.8277430199
 30
0.0
 10
4.6163532375
 20
3.8234322376
 30
0.0
 10
4.6339421764
 20
3.8181956022
 30
0.0
 10
4.6483511252
 20
3.8128893051
 30
0.0
 10
4.6596454678
 20
3.8079312407
 30
0.0
 10
4.6665894751
 20
3.8044855734
 30
0.0
 10
4.6720477182
 20
3.8014928018
 30
0.0
 10
4.6760942958
 20
3.7991174357
 30
0.0
 10
4.6800772629
 20
3.7966018467
 30
0.0
 10
4.6839857724
 20
3.7939339393
 30
0.0
 10
4.6878091229
 20
3.7911030848
 30
0.0
 10
4.6927868704
 20
3.7870781825
 30
0.0
 10
4.6975047244
 20
3.7826624537
 30
0.0
 10
4.7018475829
 20
3.7778201119
 30
0.0
 10
4.7048964884
 20
3.7739193707
 30
0.0
 10
4.7076716841
 20
3.7697507834
 30
0.0
 10
4.7101153288
 20
3.7653103218
 30
0.0
 10
4.7118053317
 20
3.7613947082
 30
0.0
 10
4.712909813
 20
3.7581398589
 30
0.0
 10
4.7136045983
 20
3.7556327194
 30
0.0
 10
4.7141566686
 20
3.7530770519
 30
0.0
 10
4.7146940498
 20
3.7496239732
 30
0.0
 10
4.7148639307
 20
3.7469988319
 30
0.0
 10
4.7148639307
 20
3.7452512778
 30
0.0
  0
SPLINE
  5
34D
100
AcDbEntity
  8
ALL_FEATURES
100
AcDbSpline
 62
7
  6
CONTINUOUS
 70
0
 71
3
 72
67
 73
63
 74
0
 42
0.0000001
 43
0.0000001
 44
0.0000000001
 40
0.0
 40
0.0
 40
0.0
 40
0.0
 40
0.0088063597
 40
0.013211502
 40
0.0176042809
 40
0.0219740881
 40
0.0263146682
 40
0.034917228
 40
0.0434244993
 40
0.0518231768
 40
0.0601264732
 40
0.0683514375
 40
0.0845825992
 40
0.092616482
 40
0.1006034382
 40
0.1085483557
 40
0.1164582945
 40
0.1243379459
 40
0.1321899005
 40
0.1478233285
 40
0.1633825992
 40
0.1943302086
 40
0.2251247025
 40
0.2558165204
 40
0.2864380012
 40
0.3170106095
 40
0.3475486219
 40
0.3780624293
 40
0.4085595001
 40
0.4390452019
 40
0.4695240769
 40
0.4999996109
 40
0.5304751932
 40
0.5609540787
 40
0.5914398937
 40
0.6219370086
 40
0.6524509702
 40
0.6829890457
 40
0.7135617866
 40
0.7441833869
 40
0.7748752891
 40
0.8056698669
 40
0.8366175448
 40
0.8521768432
 40
0.8678102923
 40
0.8756622498
 40
0.8835419118
 40
0.8914518627
 40
0.8993967793
 40
0.9073837228
 40
0.9154176138
 40
0.9316487272
 40
0.9398736696
 40
0.948176947
 40
0.9565755482
 40
0.9650827214
 40
0.9736852336
 40
0.9780258261
 40
0.9823956659
 40
0.9867884703
 40
0.9911936295
 40
1.0
 40
1.0
 40
1.0
 40
1.0
 10
5.1783037712
 20
3.7452512778
 30
0.0
 10
5.1783037712
 20
3.7469988333
 30
0.0
 10
5.1784736662
 20
3.7496239808
 30
0.0
 10
5.1790110654
 20
3.7530770724
 30
0.0
 10
5.1795631463
 20
3.7556327659
 30
0.0
 10
5.1802579224
 20
3.7581399404
 30
0.0
 10
5.1813623926
 20
3.761394822
 30
0.0
 10
5.1830524121
 20
3.7653104631
 30
0.0
 10
5.1854961252
 20
3.7697509428
 30
0.0
 10
5.1882713598
 20
3.7739195536
 30
0.0
 10
5.1913202555
 20
3.7778203362
 30
0.0
 10
5.1956631632
 20
3.7826626534
 30
0.0
 10
5.2003810502
 20
3.7870783566
 30
0.0
 10
5.2053587883
 20
3.7911032994
 30
0.0
 10
5.2091821905
 20
3.7939340927
 30
0.0
 10
5.2130907013
 20
3.7966020037
 30
0.0
 10
5.2170736531
 20
3.7991176096
 30
0.0
 10
5.2211202338
 20
3.8014929667
 30
0.0
 10
5.2265785061
 20
3.8044856771
 30
0.0
 10
5.2335224842
 20
3.807931393
 30
0.0
 10
5.2448168426
 20
3.812889372
 30
0.0
 10
5.2592257456
 20
3.8181956714
 30
0.0
 10
5.2768146261
 20
3.8234322859
 30
0.0
 10
5.2945840752
 20
3.8277430197
 30
0.0
 10
5.3124758854
 20
3.8312830074
 30
0.0
 10
5.3304529604
 20
3.8341671597
 30
0.0
 10
5.348489528
 20
3.8364840113
 30
0.0
 10
5.3665677825
 20
3.8383002318
 30
0.0
 10
5.3846750005
 20
3.8396640495
 30
0.0
 10
5.4028014214
 20
3.8406149723
 30
0.0
 10
5.4209397281
 20
3.8411743719
 30
0.0
 10
5.4390836292
 20
3.8413604894
 30
0.0
 10
5.4572275349
 20
3.841174437
 30
0.0
 10
5.4753658702
 20
3.8406149212
 30
0.0
 10
5.4934923392
 20
3.8396642413
 30
0.0
 10
5.5115995947
 20
3.8383001194
 30
0.0
 10
5.5296779368
 20
3.8364842461
 30
0.0
 10
5.5477145327
 20
3.8341670583
 30
0.0
 10
5.5656916976
 20
3.8312830941
 30
0.0
 10
5.5835835736
 20
3.8277430763
 30
0.0
 10
5.6013530647
 20
3.8234322781
 30
0.0
 10
5.6189419919
 20
3.8181956581
 30
0.0
 10
5.63335093
 20
3.8128893484
 30
0.0
 10
5.6446453059
 20
3.8079313524
 30
0.0
 10
5.6515892972
 20
3.804485639
 30
0.0
 10
5.6570475641
 20
3.8014929045
 30
0.0
 10
5.6610941486
 20
3.7991175442
 30
0.0
 10
5.6650771084
 20
3.7966019429
 30
0.0
 10
5.6689856185
 20
3.7939340306
 30
0.0
 10
5.6728089989
 20
3.79110321
 30
0.0
 10
5.6777867411
 20
3.7870782898
 30
0.0
 10
5.682504609
 20
3.782662581
 30
0.0
 10
5.686847478
 20
3.7778202537
 30
0.0
 10
5.6898963672
 20
3.7739194964
 30
0.0
 10
5.6926715922
 20
3.7697509253
 30
0.0
 10
5.6951152944
 20
3.7653104897
 30
0.0
 10
5.6968053022
 20
3.7613948718
 30
0.0
 10
5.6979097607
 20
3.7581399866
 30
0.0
 10
5.6986045309
 20
3.7556327961
 30
0.0
 10
5.6991566176
 20
3.7530770889
 30
0.0
 10
5.6996940273
 20
3.7496239883
 30
0.0
 10
5.6998639307
 20
3.7469988355
 30
0.0
 10
5.6998639307
 20
3.7452512778
 30
0.0
  0
SPLINE
  5
34E
100
AcDbEntity
  8
ALL_FEATURES
100
AcDbSpline
 62
7
  6
CONTINUOUS
 70
0
 71
3
 72
57
 73
53
 74
0
 42
0.0000001
 43
0.0000001
 44
0.0000000001
 40
0.0
 40
0.0
 40
0.0
 40
0.0
 40
0.0088056373
 40
0.0175849285
 40
0.02627549
 40
0.034869349
 40
0.0433576356
 40
0.051748871
 40
0.0682552918
 40
0.0844810745
 40
0.10049477
 40
0.1163483024
 40
0.1320794633
 40
0.1477160267
 40
0.1632784862
 40
0.1787821287
 40
0.1942386167
 40
0.2250413073
 40
0.2557418149
 40
0.2863722303
 40
0.3169537998
 40
0.3475010516
 40
0.3780242285
 40
0.4085307016
 40
0.4390259241
 40
0.4695142874
 40
0.4999993975
 40
0.5304844973
 40
0.560972921
 40
0.5914682026
 40
0.6219747335
 40
0.652498049
 40
0.6830454298
 40
0.7136271055
 40
0.7442576261
 40
0.7749582295
 40
0.8057609847
 40
0.8212174897
 40
0.8367211401
 40
0.8522836031
 40
0.867920168
 40
0.8836513243
 40
0.8995048481
 40
0.9155185335
 40
0.9317443082
 40
0.9482507431
 40
0.9566420077
 40
0.9651303186
 40
0.9737242603
 40
0.982414906
 40
0.9911943303
 40
1.0
 40
1.0
 40
1.0
 40
1.0
 10
5.6998639307
 20
3.5918262684
 30
0.0
 10
5.6998639307
 20
3.5900789243
 30
0.0
 10
5.6996411791
 20
3.5865860787
 30
0.0
 10
5.6986876304
 20
3.581448183
 30
0.0
 10
5.6971523621
 20
3.5764977563
 30
0.0
 10
5.6951268227
 20
3.5717925314
 30
0.0
 10
5.6926903939
 20
3.5673556349
 30
0.0
 10
5.6890152702
 20
3.5618357948
 30
0.0
 10
5.6837413776
 20
3.5555725747
 30
0.0
 10
5.6766663649
 20
3.5489520382
 30
0.0
 10
5.6691024805
 20
3.5431135686
 30
0.0
 10
5.6611949689
 20
3.5379340488
 30
0.0
 10
5.6530374446
 20
3.5333123616
 30
0.0
 10
5.6446930293
 20
3.5291689204
 30
0.0
 10
5.6362057002
 20
3.525440022
 30
0.0
 10
5.6276071243
 20
3.5220738851
 30
0.0
 10
5.6160394719
 20
3.5180182816
 30
0.0
 10
5.601394376
 20
3.5136563255
 30
0.0
 10
5.5836216531
 20
3.5093428721
 30
0.0
 10
5.5657254086
 20
3.5058009295
 30
0.0
 10
5.547743992
 20
3.5029146059
 30
0.0
 10
5.5297027939
 20
3.5005962375
 30
0.0
 10
5.5116197372
 20
3.4987793652
 30
0.0
 10
5.4935076972
 20
3.4974141371
 30
0.0
 10
5.475376323
 20
3.4964635685
 30
0.0
 10
5.45723309
 20
3.495902735
 30
0.0
 10
5.4390842104
 20
3.4957176646
 30
0.0
 10
5.420935324
 20
3.4959028711
 30
0.0
 10
5.4027920574
 20
3.4964633464
 30
0.0
 10
5.3846606574
 20
3.4974141454
 30
0.0
 10
5.3665485714
 20
3.4987793939
 30
0.0
 10
5.348465431
 20
3.5005960853
 30
0.0
 10
5.3304241604
 20
3.5029144831
 30
0.0
 10
5.3124426829
 20
3.5058008504
 30
0.0
 10
5.2945463775
 20
3.5093427974
 30
0.0
 10
5.2767735977
 20
3.5136562399
 30
0.0
 10
5.2621284652
 20
3.5180181975
 30
0.0
 10
5.2505607952
 20
3.5220738043
 30
0.0
 10
5.2419622118
 20
3.5254399373
 30
0.0
 10
5.2334748757
 20
3.5291688257
 30
0.0
 10
5.2251304531
 20
3.5333122527
 30
0.0
 10
5.2169729268
 20
3.5379339317
 30
0.0
 10
5.2090654118
 20
3.5431134378
 30
0.0
 10
5.2015015207
 20
3.5489518891
 30
0.0
 10
5.194426487
 20
3.5555724034
 30
0.0
 10
5.1891525827
 20
3.5618356201
 30
0.0
 10
5.1854774088
 20
3.5673554437
 30
0.0
 10
5.1830409717
 20
3.5717923662
 30
0.0
 10
5.1810153757
 20
3.5764976079
 30
0.0
 10
5.1794800973
 20
3.5814480962
 30
0.0
 10
5.178526553
 20
3.5865860412
 30
0.0
 10
5.1783037712
 20
3.5900789179
 30
0.0
 10
5.1783037712
 20
3.5918262684
 30
0.0
  0
SPLINE
  5
34F
100
AcDbEntity
  8
ALL_FEATURES
100
AcDbSpline
 62
7
  6
CONTINUOUS
 70
0
 71
3
 72
57
 73
53
 74
0
 42
0.0000001
 43
0.0000001
 44
0.0000000001
 40
0.0
 40
0.0
 40
0.0
 40
0.0
 40
0.0088056528
 40
0.0175850171
 40
0.0262756177
 40
0.0348695104
 40
0.0433578063
 40
0.0517490601
 40
0.0682554989
 40
0.0844812863
 40
0.100494978
 40
0.116348501
 40
0.1320796552
 40
0.1477162211
 40
0.1632786866
 40
0.178782332
 40
0.1942388241
 40
0.2250415218
 40
0.2557420333
 40
0.2863724439
 40
0.3169540019
 40
0.3475012428
 40
0.3780244069
 40
0.4085308548
 40
0.4390260507
 40
0.4695143937
 40
0.4999994791
 40
0.5304845591
 40
0.5609729599
 40
0.5914682153
 40
0.6219747226
 40
0.6524980024
 40
0.683045346
 40
0.7136269863
 40
0.7442574745
 40
0.774958053
 40
0.8057607922
 40
0.8212172938
 40
0.8367209407
 40
0.8522834058
 40
0.8679199722
 40
0.8836511227
 40
0.8995046387
 40
0.9155183216
 40
0.9317441002
 40
0.9482505514
 40
0.9566418334
 40
0.9651301543
 40
0.9737241309
 40
0.9824148169
 40
0.9911943149
 40
1.0
 40
1.0
 40
1.0
 40
1.0
 10
4.7148639307
 20
3.5918262684
 30
0.0
 10
4.7148639307
 20
3.5900789213
 30
0.0
 10
4.7146411612
 20
3.5865860591
 30
0.0
 10
4.7136876165
 20
3.5814481381
 30
0.0
 10
4.7121523458
 20
3.5764976805
 30
0.0
 10
4.7101267764
 20
3.5717924508
 30
0.0
 10
4.707690345
 20
3.5673555422
 30
0.0
 10
4.7040151954
 20
3.5618357079
 30
0.0
 10
4.6987412935
 20
3.5555724864
 30
0.0
 10
4.6916662663
 20
3.5489519591
 30
0.0
 10
4.6841023767
 20
3.5431134998
 30
0.0
 10
4.6761948654
 20
3.5379339868
 30
0.0
 10
4.6680373433
 20
3.5333123013
 30
0.0
 10
4.6596929232
 20
3.5291688685
 30
0.0
 10
4.6512055874
 20
3.5254399803
 30
0.0
 10
4.6426070099
 20
3.5220738408
 30
0.0
 10
4.6310393546
 20
3.5180182372
 30
0.0
 10
4.6163942543
 20
3.513656285
 30
0.0
 10
4.5986215269
 20
3.5093428453
 30
0.0
 10
4.5807252843
 20
3.5058009068
 30
0.0
 10
4.5627438744
 20
3.5029145765
 30
0.0
 10
4.5447026831
 20
3.5005962092
 30
0.0
 10
4.526619633
 20
3.4987793668
 30
0.0
 10
4.5085076055
 20
3.4974141514
 30
0.0
 10
4.4903762478
 20
3.496463542
 30
0.0
 10
4.4722330276
 20
3.495902742
 30
0.0
 10
4.4540841614
 20
3.4957176805
 30
0.0
 10
4.4359352879
 20
3.4959028523
 30
0.0
 10
4.4177920358
 20
3.4964633592
 30
0.0
 10
4.3996606505
 20
3.4974141532
 30
0.0
 10
4.3815485799
 20
3.4987793826
 30
0.0
 10
4.3634654606
 20
3.5005960922
 30
0.0
 10
4.3454242104
 20
3.5029144783
 30
0.0
 10
4.3274427526
 20
3.5058008363
 30
0.0
 10
4.309546465
 20
3.5093427775
 30
0.0
 10
4.2917736974
 20
3.5136562086
 30
0.0
 10
4.2771285725
 20
3.5180181603
 30
0.0
 10
4.2655609049
 20
3.5220737608
 30
0.0
 10
4.2569623238
 20
3.5254398966
 30
0.0
 10
4.2484749829
 20
3.5291687738
 30
0.0
 10
4.2401305559
 20
3.5333121911
 30
0.0
 10
4.2319730315
 20
3.5379338686
 30
0.0
 10
4.2240655163
 20
3.5431133683
 30
0.0
 10
4.2165016196
 20
3.5489518096
 30
0.0
 10
4.2094265716
 20
3.5555723145
 30
0.0
 10
4.2041526585
 20
3.5618355322
 30
0.0
 10
4.2004774585
 20
3.5673553494
 30
0.0
 10
4.1980410188
 20
3.5717922842
 30
0.0
 10
4.1960153922
 20
3.576497531
 30
0.0
 10
4.1944801115
 20
3.5814480509
 30
0.0
 10
4.1935265709
 20
3.5865860214
 30
0.0
 10
4.1933037712
 20
3.5900789148
 30
0.0
 10
4.1933037712
 20
3.5918262684
 30
0.0
  0
LINE
  5
350
100
AcDbEntity
  8
ALL_ASSEMBLY_MEMBERS
100
AcDbLine
 62
7
  6
CONTINUOUS
 10
4.868705778
 20
3.2891924984
 11
4.8688338509
 21
3.2886675993
  0
SPLINE
  5
351
100
AcDbEntity
  8
ALL_ASSEMBLY_MEMBERS
100
AcDbSpline
 62
7
  6
CONTINUOUS
 70
0
 71
3
 72
18
 73
14
 74
0
 42
0.0000001
 43
0.0000001
 44
0.0000000001
 40
0.0
 40
0.0
 40
0.0
 40
0.0
 40
0.1675905452
 40
0.3343769084
 40
0.4930024936
 40
0.6377897643
 40
0.7640070425
 40
0.8188936046
 40
0.8677917783
 40
0.9103995061
 40
0.9465357826
 40
0.9762580352
 40
1.0
 40
1.0
 40
1.0
 40
1.0
 10
4.8453427795
 20
3.2956390127
 30
0.0
 10
4.8467269779
 20
3.2956390127
 30
0.0
 10
4.8494896672
 20
3.2955275266
 30
0.0
 10
4.8535389148
 20
3.2950686104
 30
0.0
 10
4.8573600784
 20
3.2943561968
 30
0.0
 10
4.8607960981
 20
3.2934586388
 30
0.0
 10
4.8633448398
 20
3.2925817582
 30
0.0
 10
4.8650916619
 20
3.2918332029
 30
0.0
 10
4.8661751171
 20
3.2912946501
 30
0.0
 10
4.8670851856
 20
3.2907605362
 30
0.0
 10
4.8678146489
 20
3.290237088
 30
0.0
 10
4.8683577276
 20
3.2897315131
 30
0.0
 10
4.8686202931
 20
3.289368979
 30
0.0
 10
4.868705778
 20
3.2891924984
 30
0.0
  0
LINE
  5
352
100
AcDbEntity
  8
ALL_ASSEMBLY_MEMBERS
100
AcDbLine
 62
7
  6
CONTINUOUS
 10
5.0243338509
 20
3.2886675993
 11
5.0244619238
 21
3.2891924984
  0
LINE
  5
353
100
AcDbEntity
  8
ALL_ASSEMBLY_MEMBERS
100
AcDbLine
 62
7
  6
CONTINUOUS
 10
5.5177253455
 20
3.2956390127
 11
5.5180290302
 21
3.2955242188
  0
SPLINE
  5
354
100
AcDbEntity
  8
ALL_ASSEMBLY_MEMBERS
100
AcDbSpline
 62
7
  6
CONTINUOUS
 70
0
 71
3
 72
13
 73
9
 74
0
 42
0.0000001
 43
0.0000001
 44
0.0000000001
 40
0.0
 40
0.0
 40
0.0
 40
0.0
 40
0.0760195454
 40
0.1649802326
 40
0.2679958125
 40
0.3855528841
 40
0.6644441374
 40
1.0
 40
1.0
 40
1.0
 40
1.0
 10
5.0244619238
 20
3.2891924984
 30
0.0
 10
5.0245180118
 20
3.28930829
 30
0.0
 10
5.0246696748
 20
3.289545168
 30
0.0
 10
5.0249720263
 20
3.2898847571
 30
0.0
 10
5.0253637283
 20
3.2902340326
 30
0.0
 10
5.0260424347
 20
3.2907392885
 30
0.0
 10
5.0271121441
 20
3.29137035
 30
0.0
 10
5.028052683
 20
3.2918162717
 30
0.0
 10
5.028573464
 20
3.2920428043
 30
0.0
  0
SPLINE
  5
355
100
AcDbEntity
  8
ALL_ASSEMBLY_MEMBERS
100
AcDbSpline
 62
7
  6
CONTINUOUS
 70
0
 71
3
 72
13
 73
9
 74
0
 42
0.0000001
 43
0.0000001
 44
0.0000000001
 40
0.0
 40
0.0
 40
0.0
 40
0.0
 40
0.0967853511
 40
0.2051759304
 40
0.4504404039
 40
0.7215933973
 40
0.8613870737
 40
1.0
 40
1.0
 40
1.0
 40
1.0
 10
5.028573464
 20
3.2920428043
 30
0.0
 10
5.0291563103
 20
3.2922963345
 30
0.0
 10
5.0304116384
 20
3.292788857
 30
0.0
 10
5.0332233014
 20
3.2937117249
 30
0.0
 10
5.0372167751
 20
3.2946840037
 30
0.0
 10
5.0414861758
 20
3.2953169321
 30
0.0
 10
5.0450860072
 20
3.2955896454
 30
0.0
 10
5.0469146361
 20
3.2956390127
 30
0.0
 10
5.0478249224
 20
3.2956390127
 30
0.0
  0
LINE
  5
356
100
AcDbEntity
  8
ALL_ASSEMBLY_MEMBERS
100
AcDbLine
 62
7
  6
CONTINUOUS
 10
4.0612378736
 20
5.0672541957
 11
4.0610626873
 21
5.0675606511
  0
LINE
  5
357
100
AcDbEntity
  8
ALL_ASSEMBLY_MEMBERS
100
AcDbLine
 62
7
  6
CONTINUOUS
 10
5.8085572715
 20
5.099210536
 11
5.8086721688
 21
5.0994861717
  0
LINE
  5
358
100
AcDbEntity
  8
ALL_ASSEMBLY_MEMBERS
100
AcDbLine
 62
7
  6
CONTINUOUS
 10
4.0734958596
 20
5.300592563
 11
4.0733539033
 21
5.3003032098
  0
SPLINE
  5
359
100
AcDbEntity
  8
ALL_ASSEMBLY_MEMBERS
100
AcDbSpline
 62
7
  6
CONTINUOUS
 70
0
 71
3
 72
11
 73
7
 74
0
 42
0.0000001
 43
0.0000001
 44
0.0000000001
 40
0.0
 40
0.0
 40
0.0
 40
0.0
 40
0.2500004931
 40
0.5000005386
 40
0.7500003296
 40
1.0
 40
1.0
 40
1.0
 40
1.0
 10
5.0888863457
 20
3.2787228798
 30
0.0
 10
5.1043908895
 20
3.2790444355
 30
0.0
 10
5.1353945996
 20
3.2799996311
 30
0.0
 10
5.1818571569
 20
3.2824552588
 30
0.0
 10
5.2282516995
 20
3.2859696743
 30
0.0
 10
5.2591193392
 20
3.289030171
 30
0.0
 10
5.2745325018
 20
3.2907410513
 30
0.0
  0
LINE
  5
35A
100
AcDbEntity
  8
ALL_ASSEMBLY_MEMBERS
100
AcDbLine
 62
7
  6
CONTINUOUS
 10
5.0723875057
 20
3.2785209803
 11
5.0888863457
 21
3.2787228798
  0
LINE
  5
35B
100
AcDbEntity
  8
ALL_ASSEMBLY_MEMBERS
100
AcDbLine
 62
7
  6
CONTINUOUS
 10
5.0243338509
 20
3.2787221513
 11
5.0330005176
 21
3.2785209803
  0
LINE
  5
35C
100
AcDbEntity
  8
ALL_ASSEMBLY_MEMBERS
100
AcDbLine
 62
7
  6
CONTINUOUS
 10
4.8601671843
 20
3.2785209803
 11
4.8688338509
 21
3.2787221513
  0
LINE
  5
35D
100
AcDbEntity
  8
ALL_ASSEMBLY_MEMBERS
100
AcDbLine
 62
7
  6
CONTINUOUS
 10
4.8042813562
 20
3.2787228798
 11
4.8207801962
 21
3.2785209803
  0
SPLINE
  5
35E
100
AcDbEntity
  8
ALL_ASSEMBLY_MEMBERS
100
AcDbSpline
 62
7
  6
CONTINUOUS
 70
0
 71
3
 72
11
 73
7
 74
0
 42
0.0000001
 43
0.0000001
 44
0.0000000001
 40
0.0
 40
0.0
 40
0.0
 40
0.0
 40
0.2499996721
 40
0.4999994643
 40
0.7499995085
 40
1.0
 40
1.0
 40
1.0
 40
1.0
 10
4.6186352001
 20
3.2907410513
 30
0.0
 10
4.6340483628
 20
3.289030171
 30
0.0
 10
4.6649160026
 20
3.2859696743
 30
0.0
 10
4.7113105454
 20
3.2824552587
 30
0.0
 10
4.7577731025
 20
3.2799996311
 30
0.0
 10
4.7887768125
 20
3.2790444355
 30
0.0
 10
4.8042813562
 20
3.2787228798
 30
0.0
  0
LINE
  5
35F
100
AcDbEntity
  8
ALL_ASSEMBLY_MEMBERS
100
AcDbLine
 62
7
  6
CONTINUOUS
 10
5.857238119
 20
4.9607095989
 11
5.8575832814
 21
4.9603116788
  0
LINE
  5
360
100
AcDbEntity
  8
ALL_ASSEMBLY_MEMBERS
100
AcDbLine
 62
7
  6
CONTINUOUS
 10
4.0359283722
 20
4.3545915705
 11
4.0355842164
 21
4.3549894923
  0
LINE
  5
361
100
AcDbEntity
  8
ALL_ASSEMBLY_MEMBERS
100
AcDbLine
 62
7
  6
CONTINUOUS
 10
4.0359297542
 20
3.9909515698
 11
4.0355845709
 21
3.9913494898
  0
LINE
  5
362
100
AcDbEntity
  8
ALL_ASSEMBLY_MEMBERS
100
AcDbLine
 62
7
  6
CONTINUOUS
 10
4.3751386717
 20
3.2955242188
 11
4.3754423564
 21
3.2956390127
  0
LINE
  5
363
100
AcDbEntity
  8
ALL_ASSEMBLY_MEMBERS
100
AcDbLine
 62
7
  6
CONTINUOUS
 10
4.0851585079
 20
4.8527787133
 11
4.0861762496
 21
4.85317772
  0
SPLINE
  5
364
100
AcDbEntity
  8
ALL_ASSEMBLY_MEMBERS
100
AcDbSpline
 62
7
  6
CONTINUOUS
 70
0
 71
3
 72
66
 73
62
 74
0
 42
0.0000001
 43
0.0000001
 44
0.0000000001
 40
0.0
 40
0.0
 40
0.0
 40
0.0
 40
0.0003908227
 40
0.0008520979
 40
0.0019875052
 40
0.0034079431
 40
0.0051136917
 40
0.0071044911
 40
0.0093798131
 40
0.0147808634
 40
0.0213054599
 40
0.0289378001
 40
0.0376616632
 40
0.0474582242
 40
0.05830322
 40
0.0701716167
 40
0.0830376466
 40
0.0968705539
 40
0.1273051269
 40
0.1611955994
 40
0.198226137
 40
0.2380534387
 40
0.280308577
 40
0.3245980749
 40
0.370512136
 40
0.417623446
 40
0.4654952958
 40
0.513682882
 40
0.5617391217
 40
0.6092175024
 40
0.6556776209
 40
0.7006879857
 40
0.7438304593
 40
0.7847055736
 40
0.8229322338
 40
0.8581577123
 40
0.874540595
 40
0.8900535003
 40
0.904659893
 40
0.9183246733
 40
0.9310176814
 40
0.9427098435
 40
0.9533724944
 40
0.9629816532
 40
0.9715165212
 40
0.9789564911
 40
0.9852839279
 40
0.9904868795
 40
0.9926633482
 40
0.9945548406
 40
0.9961604187
 40
0.9968559891
 40
0.9974802057
 40
0.9980332427
 40
0.9985153734
 40
0.9989270383
 40
0.9992689814
 40
0.9995425549
 40
0.9996545355
 40
0.9997506892
 40
1.0
 40
1.0
 40
1.0
 40
1.0
 10
4.0861762496
 20
4.85317772
 30
0.0
 10
4.0863914918
 20
4.8532415468
 30
0.0
 10
4.0868650406
 20
4.853366335
 30
0.0
 10
4.0879798048
 20
4.8536137112
 30
0.0
 10
4.0896876919
 20
4.8539129148
 30
0.0
 10
4.0921118731
 20
4.8542552562
 30
0.0
 10
4.0950313404
 20
4.854599117
 30
0.0
 10
4.0984445334
 20
4.8549443834
 30
0.0
 10
4.1039762688
 20
4.8554341513
 30
0.0
 10
4.112112422
 20
4.8560317001
 30
0.0
 10
4.1233265296
 20
4.8567187909
 30
0.0
 10
4.1364523295
 20
4.8574083495
 30
0.0
 10
4.1514598115
 20
4.8580998132
 30
0.0
 10
4.1683144707
 20
4.8587923306
 30
0.0
 10
4.1869768141
 20
4.8594858302
 30
0.0
 10
4.2074034787
 20
4.860180006
 30
0.0
 10
4.2295474285
 20
4.8608746012
 30
0.0
 10
4.2623535524
 20
4.8618320204
 30
0.0
 10
4.3072354897
 20
4.8630158029
 30
0.0
 10
4.3654423572
 20
4.864397817
 30
0.0
 10
4.4290461711
 20
4.8657818003
 30
0.0
 10
4.4974560403
 20
4.867167273
 30
0.0
 10
4.5700365651
 20
4.8685537206
 30
0.0
 10
4.6461141882
 20
4.8699409766
 30
0.0
 10
4.7249818518
 20
4.8713286949
 30
0.0
 10
4.8059076817
 20
4.8727168102
 30
0.0
 10
4.8881397122
 20
4.874105108
 30
0.0
 10
4.9709146276
 20
4.8754935085
 30
0.0
 10
5.0534634857
 20
4.8768818578
 30
0.0
 10
5.1350198696
 20
4.878270066
 30
0.0
 10
5.2148263131
 20
4.879657974
 30
0.0
 10
5.2921416378
 20
4.881045423
 30
0.0
 10
5.3662481599
 20
4.8824322747
 30
0.0
 10
5.4364571224
 20
4.8838181227
 30
0.0
 10
5.5021172864
 20
4.8852029049
 30
0.0
 10
5.5537091552
 20
4.8863819296
 30
0.0
 10
5.5922549308
 20
4.8873326893
 30
0.0
 10
5.6189588402
 20
4.8880281752
 30
0.0
 10
5.6441007971
 20
4.8887233665
 30
0.0
 10
5.6676222263
 20
4.8894183393
 30
0.0
 10
5.6894688216
 20
4.8901128917
 30
0.0
 10
5.7095899403
 20
4.8908068545
 30
0.0
 10
5.7279384343
 20
4.8915002228
 30
0.0
 10
5.7444718563
 20
4.892192697
 30
0.0
 10
5.7591522782
 20
4.8928838218
 30
0.0
 10
5.7719453203
 20
4.8935728204
 30
0.0
 10
5.7828212514
 20
4.8942595127
 30
0.0
 10
5.7906728043
 20
4.8948572401
 30
0.0
 10
5.795975924
 20
4.8953478412
 30
0.0
 10
5.7992168725
 20
4.89569273
 30
0.0
 10
5.8016069635
 20
4.8959914058
 30
0.0
 10
5.8032698108
 20
4.8962344853
 30
0.0
 10
5.8043316649
 20
4.8964077659
 30
0.0
 10
5.8052691392
 20
4.8965807332
 30
0.0
 10
5.8060823076
 20
4.8967533894
 30
0.0
 10
5.8067711153
 20
4.8969252948
 30
0.0
 10
5.8073363953
 20
4.8970969871
 30
0.0
 10
5.8077262697
 20
4.8972463172
 30
0.0
 10
5.8079756068
 20
4.8973713156
 30
0.0
 10
5.8081948015
 20
4.8975034456
 30
0.0
 10
5.8083731029
 20
4.8976698681
 30
0.0
 10
5.8083733889
 20
4.8978130833
 30
0.0
  0
LINE
  5
365
100
AcDbEntity
  8
ALL_ASSEMBLY_MEMBERS
100
AcDbLine
 62
7
  6
CONTINUOUS
 10
4.9465838509
 20
4.1049869912
 11
5.1790992617
 21
4.1087211901
  0
LINE
  5
366
100
AcDbEntity
  8
ALL_ASSEMBLY_MEMBERS
100
AcDbLine
 62
7
  6
CONTINUOUS
 10
5.1790992617
 20
4.1087211901
 11
5.182847607
 21
4.1087827962
  0
LINE
  5
367
100
AcDbEntity
  8
ALL_ASSEMBLY_MEMBERS
100
AcDbLine
 62
7
  6
CONTINUOUS
 10
5.182847607
 20
4.1087827962
 11
5.1876534499
 21
4.1088618861
  0
LINE
  5
368
100
AcDbEntity
  8
ALL_ASSEMBLY_MEMBERS
100
AcDbLine
 62
7
  6
CONTINUOUS
 10
5.1876534499
 20
4.1088618861
 11
5.3836741582
 21
4.1122274221
  0
LINE
  5
369
100
AcDbEntity
  8
ALL_ASSEMBLY_MEMBERS
100
AcDbLine
 62
7
  6
CONTINUOUS
 10
5.3836741582
 20
4.1122274221
 11
5.3996477587
 21
4.1125181969
  0
SPLINE
  5
36A
100
AcDbEntity
  8
ALL_ASSEMBLY_MEMBERS
100
AcDbSpline
 62
7
  6
CONTINUOUS
 70
0
 71
3
 72
32
 73
28
 74
0
 42
0.0000001
 43
0.0000001
 44
0.0000000001
 40
0.0
 40
0.0
 40
0.0
 40
0.0
 40
0.2119770737
 40
0.3108175008
 40
0.4043532501
 40
0.492195088
 40
0.5739906592
 40
0.6494030565
 40
0.7181223502
 40
0.7798754792
 40
0.8344021911
 40
0.8588885311
 40
0.8814907104
 40
0.9021842216
 40
0.9209463352
 40
0.9377608078
 40
0.9526131458
 40
0.965489265
 40
0.9763757983
 40
0.9852630879
 40
0.988956858
 40
0.9921513932
 40
0.9948480921
 40
0.9970497525
 40
0.9987621816
 40
0.9994389688
 40
1.0
 40
1.0
 40
1.0
 40
1.0
 10
5.3996477587
 20
4.1125181969
 30
0.0
 10
5.4320052574
 20
4.1131105675
 30
0.0
 10
5.4794498497
 20
4.1140088143
 30
0.0
 10
5.5411703646
 20
4.1152674488
 30
0.0
 10
5.5839418404
 20
4.1161888398
 30
0.0
 10
5.6241104169
 20
4.1171098597
 30
0.0
 10
5.66151131
 20
4.1180302252
 30
0.0
 10
5.6959918001
 20
4.1189497998
 30
0.0
 10
5.7274112256
 20
4.1198683762
 30
0.0
 10
5.7556405404
 20
4.1207854015
 30
0.0
 10
5.777117212
 20
4.1215735289
 30
0.0
 10
5.7926179075
 20
4.1222111458
 30
0.0
 10
5.8029560801
 20
4.1226717446
 30
0.0
 10
5.8124194046
 20
4.1231319517
 30
0.0
 10
5.8209979891
 20
4.1235917679
 30
0.0
 10
5.8286834213
 20
4.1240509367
 30
0.0
 10
5.8354684904
 20
4.124509226
 30
0.0
 10
5.8413463393
 20
4.1249660298
 30
0.0
 10
5.846310411
 20
4.1254210793
 30
0.0
 10
5.8498716795
 20
4.1258177784
 30
0.0
 10
5.8522581457
 20
4.1261437877
 30
0.0
 10
5.8537036525
 20
4.1263723961
 30
0.0
 10
5.8549183989
 20
4.126599869
 30
0.0
 10
5.8559021782
 20
4.1268261669
 30
0.0
 10
5.8565754946
 20
4.1270248096
 30
0.0
 10
5.8569947105
 20
4.1271902436
 30
0.0
 10
5.8571646786
 20
4.1272737672
 30
0.0
 10
5.8572388709
 20
4.1273165696
 30
0.0
  0
SPLINE
  5
36B
100
AcDbEntity
  8
ALL_ASSEMBLY_MEMBERS
100
AcDbSpline
 62
7
  6
CONTINUOUS
 70
0
 71
3
 72
22
 73
18
 74
0
 42
0.0000001
 43
0.0000001
 44
0.0000000001
 40
0.0
 40
0.0
 40
0.0
 40
0.0
 40
0.2154136168
 40
0.4055023424
 40
0.5699378115
 40
0.6424350935
 40
0.7083994371
 40
0.767797754
 40
0.8206190472
 40
0.8668602634
 40
0.9065227607
 40
0.9396158283
 40
0.9661645478
 40
0.9770033056
 40
0.9862353759
 40
0.993885737
 40
1.0
 40
1.0
 40
1.0
 40
1.0
 10
4.088688311
 20
4.647091294
 30
0.0
 10
4.0848836127
 20
4.646911682
 30
0.0
 10
4.0777223011
 20
4.6465562544
 30
0.0
 10
4.067660481
 20
4.6459908293
 30
0.0
 10
4.0601255347
 20
4.6455028368
 30
0.0
 10
4.0547843365
 20
4.6451069132
 30
0.0
 10
4.0512972978
 20
4.6448228485
 30
0.0
 10
4.0481594085
 20
4.6445391115
 30
0.0
 10
4.0453717895
 20
4.6442558431
 30
0.0
 10
4.0429351039
 20
4.6439731996
 30
0.0
 10
4.0408497314
 20
4.6436916221
 30
0.0
 10
4.0391161856
 20
4.6434112547
 30
0.0
 10
4.0378936133
 20
4.6431662532
 30
0.0
 10
4.0370943127
 20
4.6429640117
 30
0.0
 10
4.0366245559
 20
4.6428231683
 30
0.0
 10
4.0362426399
 20
4.6426829386
 30
0.0
 10
4.0360219028
 20
4.6425786966
 30
0.0
 10
4.0359282994
 20
4.6425245982
 30
0.0
  0
LINE
  5
36C
100
AcDbEntity
  8
ALL_ASSEMBLY_MEMBERS
100
AcDbLine
 62
7
  6
CONTINUOUS
 10
4.0851595978
 20
4.7618687149
 11
4.0865289701
 21
4.7623660423
  0
SPLINE
  5
36D
100
AcDbEntity
  8
ALL_ASSEMBLY_MEMBERS
100
AcDbSpline
 62
7
  6
CONTINUOUS
 70
0
 71
3
 72
64
 73
60
 74
0
 42
0.0000001
 43
0.0000001
 44
0.0000000001
 40
0.0
 40
0.0
 40
0.0
 40
0.0
 40
0.0009286944
 40
0.0021403206
 40
0.0036365706
 40
0.0054174895
 40
0.0074823147
 40
0.0098300534
 40
0.0153696738
 40
0.0220265237
 40
0.0297861553
 40
0.038629438
 40
0.048536856
 40
0.0594871862
 40
0.0714536944
 40
0.0983231632
 40
0.1288994221
 40
0.1628997355
 40
0.2000093946
 40
0.2398871682
 40
0.2821627198
 40
0.3264469162
 40
0.3723294885
 40
0.4193867537
 40
0.4671837828
 40
0.5152786298
 40
0.5632268623
 40
0.6105851858
 40
0.6569161319
 40
0.7017908383
 40
0.7447956951
 40
0.7855316991
 40
0.8236239974
 40
0.8587196283
 40
0.8750416391
 40
0.8904944853
 40
0.9050439555
 40
0.9186564167
 40
0.9312989101
 40
0.9429433448
 40
0.9535638249
 40
0.9631345966
 40
0.971633429
 40
0.9790427236
 40
0.9853453739
 40
0.9905260683
 40
0.992692865
 40
0.994576227
 40
0.9961755723
 40
0.9968686614
 40
0.9974907044
 40
0.9980417883
 40
0.9985221014
 40
0.9989320543
 40
0.9992724409
 40
0.9995446714
 40
0.99965608
 40
0.9997517388
 40
1.0
 40
1.0
 40
1.0
 40
1.0
 10
4.0865289701
 20
4.7623660423
 30
0.0
 10
4.0870445547
 20
4.7625026316
 30
0.0
 10
4.0882481196
 20
4.762758291
 30
0.0
 10
4.0903090807
 20
4.7630978545
 30
0.0
 10
4.092864707
 20
4.7634396257
 30
0.0
 10
4.0959135522
 20
4.7637832363
 30
0.0
 10
4.0994539863
 20
4.764127923
 30
0.0
 10
4.1051489855
 20
4.7646157956
 30
0.0
 10
4.1134811093
 20
4.7652120593
 30
0.0
 10
4.1249219392
 20
4.7658981413
 30
0.0
 10
4.1382629421
 20
4.7665863435
 30
0.0
 10
4.1534728526
 20
4.7672764911
 30
0.0
 10
4.1705168759
 20
4.7679677576
 30
0.0
 10
4.1893559287
 20
4.7686597883
 30
0.0
 10
4.2179332233
 20
4.7696209349
 30
0.0
 10
4.2577808062
 20
4.7708052582
 30
0.0
 10
4.3102823908
 20
4.7721816234
 30
0.0
 10
4.3686668923
 20
4.7735606327
 30
0.0
 10
4.4323947627
 20
4.7749417845
 30
0.0
 10
4.5008762948
 20
4.7763242243
 30
0.0
 10
4.5734790911
 20
4.7777077724
 30
0.0
 10
4.6495311621
 20
4.7790919721
 30
0.0
 10
4.7283299069
 20
4.7804767222
 30
0.0
 10
4.8091464481
 20
4.7818618015
 30
0.0
 10
4.8912337285
 20
4.7832470831
 30
0.0
 10
4.9738327824
 20
4.7846324494
 30
0.0
 10
5.056179843
 20
4.7860177705
 30
0.0
 10
5.1375137131
 20
4.7874029432
 30
0.0
 10
5.2170821324
 20
4.7887877979
 30
0.0
 10
5.2941498752
 20
4.790172249
 30
0.0
 10
5.3680037906
 20
4.7915559907
 30
0.0
 10
5.4379617158
 20
4.7929388949
 30
0.0
 10
5.5033762753
 20
4.7943205375
 30
0.0
 10
5.5547704612
 20
4.7954971164
 30
0.0
 10
5.5931640081
 20
4.7964457127
 30
0.0
 10
5.6197600875
 20
4.79713972
 30
0.0
 10
5.6447994588
 20
4.7978334266
 30
0.0
 10
5.6682241327
 20
4.798526773
 30
0.0
 10
5.6899796066
 20
4.7992198097
 30
0.0
 10
5.7100157959
 20
4.7999123446
 30
0.0
 10
5.7282867085
 20
4.800604123
 30
0.0
 10
5.7447496515
 20
4.8012949833
 30
0.0
 10
5.7593665806
 20
4.8019847081
 30
0.0
 10
5.7721043424
 20
4.8026722706
 30
0.0
 10
5.7829333359
 20
4.8033571979
 30
0.0
 10
5.7907506357
 20
4.8039536967
 30
0.0
 10
5.7960296043
 20
4.8044432936
 30
0.0
 10
5.799256048
 20
4.8047874758
 30
0.0
 10
5.8016359568
 20
4.8050854679
 30
0.0
 10
5.8032922069
 20
4.8053279718
 30
0.0
 10
5.8043500475
 20
4.8055008598
 30
0.0
 10
5.8052839176
 20
4.8056734295
 30
0.0
 10
5.8060937696
 20
4.8058456912
 30
0.0
 10
5.8067795087
 20
4.8060172176
 30
0.0
 10
5.8073419981
 20
4.806188536
 30
0.0
 10
5.8077297811
 20
4.806337549
 30
0.0
 10
5.8079776105
 20
4.8064622915
 30
0.0
 10
5.808195544
 20
4.8065941815
 30
0.0
 10
5.8083722937
 20
4.8067605027
 30
0.0
 10
5.8083722417
 20
4.8069030847
 30
0.0
  0
SPLINE
  5
36E
100
AcDbEntity
  8
ALL_ASSEMBLY_MEMBERS
100
AcDbSpline
 62
7
  6
CONTINUOUS
 70
0
 71
3
 72
37
 73
33
 74
0
 42
0.0000001
 43
0.0000001
 44
0.0000000001
 40
0.0
 40
0.0
 40
0.0
 40
0.0
 40
0.0962813504
 40
0.1917157093
 40
0.2853395417
 40
0.3763112737
 40
0.4637919886
 40
0.5469579506
 40
0.6250401654
 40
0.6973158458
 40
0.763110794
 40
0.7933864903
 40
0.821817255
 40
0.8483367098
 40
0.8728860569
 40
0.8954069922
 40
0.9158452257
 40
0.9341568549
 40
0.9502997804
 40
0.9642341478
 40
0.9703639691
 40
0.9759314621
 40
0.980933656
 40
0.9853676917
 40
0.9892309038
 40
0.9925217498
 40
0.9952404431
 40
0.9973884331
 40
0.9982496763
 40
0.9989703486
 40
0.9995524546
 40
1.0
 40
1.0
 40
1.0
 40
1.0
 10
4.9465838509
 20
4.1958969912
 30
0.0
 10
4.9758221519
 20
4.1963613627
 30
0.0
 10
5.0340415433
 20
4.197286015
 30
0.0
 10
5.1206920086
 20
4.198675013
 30
0.0
 10
5.2057296619
 20
4.2000638418
 30
0.0
 10
5.2883513611
 20
4.2014522002
 30
0.0
 10
5.3677964077
 20
4.2028399246
 30
0.0
 10
5.443326119
 20
4.2042268893
 30
0.0
 10
5.5142370529
 20
4.2056126639
 30
0.0
 10
5.5798711199
 20
4.2069968808
 30
0.0
 10
5.6309866354
 20
4.2081789716
 30
0.0
 10
5.6687874174
 20
4.2091333178
 30
0.0
 10
5.694662384
 20
4.2098288241
 30
0.0
 10
5.718797518
 20
4.2105240206
 30
0.0
 10
5.7411369712
 20
4.2112187197
 30
0.0
 10
5.7616285296
 20
4.2119127993
 30
0.0
 10
5.7802244435
 20
4.2126062333
 30
0.0
 10
5.796881838
 20
4.2132984934
 30
0.0
 10
5.8115620661
 20
4.2139892652
 30
0.0
 10
5.8225426489
 20
4.2145856823
 30
0.0
 10
5.8303123204
 20
4.2150697932
 30
0.0
 10
5.8353723469
 20
4.2154168456
 30
0.0
 10
5.8399160395
 20
4.2157634358
 30
0.0
 10
5.8439405082
 20
4.21610939
 30
0.0
 10
5.8474431091
 20
4.2164545342
 30
0.0
 10
5.8504220805
 20
4.2167982258
 30
0.0
 10
5.8528760935
 20
4.2171402551
 30
0.0
 10
5.8545906396
 20
4.2174395601
 30
0.0
 10
5.8556961046
 20
4.2176879039
 30
0.0
 10
5.8563309557
 20
4.2178594626
 30
0.0
 10
5.8568347171
 20
4.2180299207
 30
0.0
 10
5.8571211012
 20
4.2181586454
 30
0.0
 10
5.8572388387
 20
4.2182265696
 30
0.0
  0
SPLINE
  5
36F
100
AcDbEntity
  8
ALL_ASSEMBLY_MEMBERS
100
AcDbSpline
 62
7
  6
CONTINUOUS
 70
0
 71
3
 72
19
 73
15
 74
0
 42
0.0000001
 43
0.0000001
 44
0.0000000001
 40
0.0
 40
0.0
 40
0.0
 40
0.0
 40
0.1623002458
 40
0.3207901935
 40
0.4717424875
 40
0.6116072069
 40
0.6763421583
 40
0.7371015839
 40
0.7935244338
 40
0.8452814342
 40
0.8920626382
 40
0.9336043819
 40
0.9696594229
 40
1.0
 40
1.0
 40
1.0
 40
1.0
 10
4.9465838509
 20
4.6648541777
 30
0.0
 10
4.9001666024
 20
4.664116965
 30
0.0
 10
4.8084218354
 20
4.6626599015
 30
0.0
 10
4.6735060904
 20
4.660466887
 30
0.0
 10
4.5450084681
 20
4.6582763505
 30
0.0
 10
4.4433262098
 20
4.6564102522
 30
0.0
 10
4.3674400121
 20
4.6548975903
 30
0.0
 10
4.3154175225
 20
4.6537932635
 30
0.0
 10
4.2671080204
 20
4.6526897272
 30
0.0
 10
4.2227978272
 20
4.6515876384
 30
0.0
 10
4.18274551
 20
4.6504871056
 30
0.0
 10
4.1471862352
 20
4.6493892922
 30
0.0
 10
4.1163319723
 20
4.648294716
 30
0.0
 10
4.09735704
 20
4.647500527
 30
0.0
 10
4.088688311
 20
4.647091294
 30
0.0
  0
SPLINE
  5
370
100
AcDbEntity
  8
ALL_ASSEMBLY_MEMBERS
100
AcDbSpline
 62
7
  6
CONTINUOUS
 70
0
 71
3
 72
37
 73
33
 74
0
 42
0.0000001
 43
0.0000001
 44
0.0000000001
 40
0.0
 40
0.0
 40
0.0
 40
0.0
 40
0.0962821835
 40
0.1917185886
 40
0.2853438314
 40
0.3763161628
 40
0.4637974874
 40
0.5469636759
 40
0.6250455781
 40
0.6973197754
 40
0.7631123743
 40
0.7933866814
 40
0.821816295
 40
0.8483350709
 40
0.8728840069
 40
0.8954045528
 40
0.9158427732
 40
0.9341547134
 40
0.9502978639
 40
0.9642325034
 40
0.9703626084
 40
0.9759304145
 40
0.980932899
 40
0.9853671502
 40
0.9892304663
 40
0.9925214086
 40
0.9952402086
 40
0.997388301
 40
0.998249589
 40
0.9989702995
 40
0.9995524352
 40
1.0
 40
1.0
 40
1.0
 40
1.0
 10
4.9465838509
 20
4.0140769912
 30
0.0
 10
4.9758224049
 20
4.0145413667
 30
0.0
 10
5.0340426707
 20
4.015466033
 30
0.0
 10
5.1206944388
 20
4.016855052
 30
0.0
 10
5.2057333238
 20
4.0182439023
 30
0.0
 10
5.2883558185
 20
4.0196322769
 30
0.0
 10
5.3678013011
 20
4.0210200107
 30
0.0
 10
5.4433311713
 20
4.0224069869
 30
0.0
 10
5.5142416287
 20
4.0237927541
 30
0.0
 10
5.579874437
 20
4.0251769587
 30
0.0
 10
5.6309883671
 20
4.0263590093
 30
0.0
 10
5.6687876644
 20
4.027313323
 30
0.0
 10
5.6946616536
 20
4.028008806
 30
0.0
 10
5.7187961073
 20
4.0287039783
 30
0.0
 10
5.7411351117
 20
4.0293986547
 30
0.0
 10
5.7616264231
 20
4.0300927275
 30
0.0
 10
5.7802223096
 20
4.0307861523
 30
0.0
 10
5.7968798636
 20
4.0314783988
 30
0.0
 10
5.8115603373
 20
4.0321691738
 30
0.0
 10
5.8225411567
 20
4.0327656071
 30
0.0
 10
5.8303110925
 20
4.033249721
 30
0.0
 10
5.8353713886
 20
4.0335967799
 30
0.0
 10
5.8399153303
 20
4.0339433771
 30
0.0
 10
5.8439399845
 20
4.034289337
 30
0.0
 10
5.8474427109
 20
4.0346344951
 30
0.0
 10
5.8504217751
 20
4.0349781963
 30
0.0
 10
5.8528758806
 20
4.0353202334
 30
0.0
 10
5.8545905039
 20
4.0356195444
 30
0.0
 10
5.8556960254
 20
4.0358678929
 30
0.0
 10
5.8563309111
 20
4.036039455
 30
0.0
 10
5.8568346994
 20
4.0362099163
 30
0.0
 10
5.8571210988
 20
4.0363386436
 30
0.0
 10
5.8572388421
 20
4.0364065696
 30
0.0
  0
SPLINE
  5
371
100
AcDbEntity
  8
ALL_ASSEMBLY_MEMBERS
100
AcDbSpline
 62
7
  6
CONTINUOUS
 70
0
 71
3
 72
37
 73
33
 74
0
 42
0.0000001
 43
0.0000001
 44
0.0000000001
 40
0.0
 40
0.0
 40
0.0
 40
0.0
 40
0.0962818919
 40
0.1917157417
 40
0.285337074
 40
0.3763068611
 40
0.4637865072
 40
0.5469526577
 40
0.6250355909
 40
0.6973123507
 40
0.7631081767
 40
0.7933843265
 40
0.821815376
 40
0.8483352
 40
0.8728849285
 40
0.895406106
 40
0.9158445623
 40
0.9341564426
 40
0.9502995565
 40
0.9642340499
 40
0.9703639404
 40
0.975931501
 40
0.9809337566
 40
0.9853678436
 40
0.9892310906
 40
0.992521936
 40
0.9952405981
 40
0.9973885386
 40
0.9982497538
 40
0.9989703982
 40
0.9995524778
 40
1.0
 40
1.0
 40
1.0
 40
1.0
 10
4.9465838509
 20
4.2868069912
 30
0.0
 10
4.9758223175
 20
4.2872713653
 30
0.0
 10
5.0340417209
 20
4.2881960183
 30
0.0
 10
5.1206914402
 20
4.2895850033
 30
0.0
 10
5.2057275922
 20
4.2909738083
 30
0.0
 10
5.2883476203
 20
4.2923621352
 30
0.0
 10
5.367791812
 20
4.2937498444
 30
0.0
 10
5.4433214772
 20
4.2951367992
 30
0.0
 10
5.514233017
 20
4.2965225847
 30
0.0
 10
5.5798678992
 20
4.2979068073
 30
0.0
 10
5.6309841486
 20
4.2990889132
 30
0.0
 10
5.6687854229
 20
4.3000432634
 30
0.0
 10
5.6946607267
 20
4.3007387801
 30
0.0
 10
5.718796176
 20
4.3014339822
 30
0.0
 10
5.7411359317
 20
4.3021286848
 30
0.0
 10
5.7616277478
 20
4.302822772
 30
0.0
 10
5.7802238799
 20
4.3035162118
 30
0.0
 10
5.7968814762
 20
4.3042084752
 30
0.0
 10
5.8115618765
 20
4.3048992535
 30
0.0
 10
5.8225425758
 20
4.3054956819
 30
0.0
 10
5.8303123271
 20
4.3059798
 30
0.0
 10
5.8353724138
 20
4.3063268574
 30
0.0
 10
5.8399161614
 20
4.3066734517
 30
0.0
 10
5.8439406751
 20
4.3070194089
 30
0.0
 10
5.8474433022
 20
4.307364553
 30
0.0
 10
5.8504222748
 20
4.3077082433
 30
0.0
 10
5.8528762633
 20
4.3080502701
 30
0.0
 10
5.8545907766
 20
4.3083495722
 30
0.0
 10
5.8556962094
 20
4.3085979131
 30
0.0
 10
5.8563310354
 20
4.308769469
 30
0.0
 10
5.8568347731
 20
4.3089399241
 30
0.0
 10
5.8571211417
 20
4.3090686467
 30
0.0
 10
5.8572388717
 20
4.3091365697
 30
0.0
  0
LINE
  5
372
100
AcDbEntity
  8
ALL_ASSEMBLY_MEMBERS
100
AcDbLine
 62
7
  6
CONTINUOUS
 10
5.2957867651
 20
3.9720220266
 11
5.3365857353
 21
3.972780443
  0
LINE
  5
373
100
AcDbEntity
  8
ALL_ASSEMBLY_MEMBERS
100
AcDbLine
 62
7
  6
CONTINUOUS
 10
5.3365857353
 20
3.972780443
 11
5.4411198657
 21
3.9748288557
  0
LINE
  5
374
100
AcDbEntity
  8
ALL_ASSEMBLY_MEMBERS
100
AcDbLine
 62
7
  6
CONTINUOUS
 10
5.4411198657
 20
3.9748288557
 11
5.513980659
 21
3.9763840386
  0
LINE
  5
375
100
AcDbEntity
  8
ALL_ASSEMBLY_MEMBERS
100
AcDbLine
 62
7
  6
CONTINUOUS
 10
5.6226198781
 20
3.9790337857
 11
5.6252661371
 21
3.9791056504
  0
SPLINE
  5
376
100
AcDbEntity
  8
ALL_ASSEMBLY_MEMBERS
100
AcDbSpline
 62
7
  6
CONTINUOUS
 70
0
 71
3
 72
32
 73
28
 74
0
 42
0.0000001
 43
0.0000001
 44
0.0000000001
 40
0.0
 40
0.0
 40
0.0
 40
0.0
 40
0.2270624204
 40
0.330571293
 40
0.427150949
 40
0.5166295129
 40
0.5988655228
 40
0.6737218467
 40
0.7410619172
 40
0.8007663447
 40
0.8527481944
 40
0.8969257868
 40
0.9160634691
 40
0.9332214444
 40
0.9483950531
 40
0.9615832941
 40
0.9727869019
 40
0.9820097362
 40
0.9858815347
 40
0.9892630903
 40
0.9921583805
 40
0.9945741041
 40
0.9965223093
 40
0.9980268338
 40
0.9986287463
 40
0.9991449636
 40
1.0
 40
1.0
 40
1.0
 40
1.0
 10
5.6252661371
 20
3.9791056504
 30
0.0
 10
5.6391647854
 20
3.9794842957
 30
0.0
 10
5.6593985843
 20
3.9800624551
 30
0.0
 10
5.6855415294
 20
3.9808863059
 30
0.0
 10
5.7032626271
 20
3.9814846744
 30
0.0
 10
5.7196803289
 20
3.9820827582
 30
0.0
 10
5.7347669025
 20
3.9826803828
 30
0.0
 10
5.7484967328
 20
3.983277365
 30
0.0
 10
5.7608454797
 20
3.9838735663
 30
0.0
 10
5.7717917998
 20
3.9844686975
 30
0.0
 10
5.7813175017
 20
3.9850623449
 30
0.0
 10
5.788359044
 20
3.9855762731
 30
0.0
 10
5.7932689579
 20
3.9859946969
 30
0.0
 10
5.7964065176
 20
3.9862929364
 30
0.0
 10
5.7991779877
 20
3.9865906546
 30
0.0
 10
5.8015826084
 20
3.9868875385
 30
0.0
 10
5.8036197305
 20
3.9871834267
 30
0.0
 10
5.8050855625
 20
3.9874410466
 30
0.0
 10
5.8060722284
 20
3.9876521961
 30
0.0
 10
5.8066757563
 20
3.9878008824
 30
0.0
 10
5.8071871335
 20
3.987949143
 30
0.0
 10
5.8076068465
 20
3.988096789
 30
0.0
 10
5.8079350891
 20
3.9882438946
 30
0.0
 10
5.8081483503
 20
3.9883740094
 30
0.0
 10
5.8082679234
 20
3.9884822803
 30
0.0
 10
5.8083436383
 20
3.988576484
 30
0.0
 10
5.8083737449
 20
3.9886607286
 30
0.0
 10
5.8083736661
 20
3.9887130853
 30
0.0
  0
SPLINE
  5
377
100
AcDbEntity
  8
ALL_ASSEMBLY_MEMBERS
100
AcDbSpline
 62
7
  6
CONTINUOUS
 70
0
 71
3
 72
39
 73
35
 74
0
 42
0.0000001
 43
0.0000001
 44
0.0000000001
 40
0.0
 40
0.0
 40
0.0
 40
0.0
 40
0.0819296443
 40
0.1668937911
 40
0.253583867
 40
0.3407428449
 40
0.4270677786
 40
0.5112774839
 40
0.592123566
 40
0.668405135
 40
0.738989089
 40
0.771814443
 40
0.8028289765
 40
0.8319204219
 40
0.8589785301
 40
0.8839032496
 40
0.9066043422
 40
0.9269942538
 40
0.945000405
 40
0.9530888648
 40
0.9605565809
 40
0.9673964102
 40
0.9736031105
 40
0.9791716902
 40
0.9840972543
 40
0.9883750652
 40
0.9920010762
 40
0.9949738962
 40
0.9962154612
 40
0.9972940442
 40
0.9982101486
 40
0.9989647643
 40
0.9995598936
 40
1.0
 40
1.0
 40
1.0
 40
1.0
 10
4.6036802427
 20
3.9797446232
 30
0.0
 10
4.6365800877
 20
3.9803466991
 30
0.0
 10
4.7035989201
 20
3.9815403451
 30
0.0
 10
4.8054306127
 20
3.9832909102
 30
0.0
 10
4.9093628526
 20
3.9850420041
 30
0.0
 10
5.0138416996
 20
3.9867931664
 30
0.0
 10
5.1173242207
 20
3.9885441094
 30
0.0
 10
5.21827094
 20
3.9902944024
 30
0.0
 10
5.3151833472
 20
3.9920434945
 30
0.0
 10
5.4066223483
 20
3.9937908569
 30
0.0
 10
5.4787762012
 20
3.9952783966
 30
0.0
 10
5.5327514075
 20
3.9964799358
 30
0.0
 10
5.5700650237
 20
3.9973589165
 30
0.0
 10
5.6050616776
 20
3.998237332
 30
0.0
 10
5.6376116755
 20
3.9991152313
 30
0.0
 10
5.6675941338
 20
3.9999924665
 30
0.0
 10
5.6948972453
 20
4.0008685019
 30
0.0
 10
5.7194201145
 20
4.0017434318
 30
0.0
 10
5.7380746308
 20
4.0024951701
 30
0.0
 10
5.7515405508
 20
4.0031032448
 30
0.0
 10
5.7605247341
 20
4.0035425812
 30
0.0
 10
5.7687521852
 20
4.0039816186
 30
0.0
 10
5.7762157268
 20
4.0044202249
 30
0.0
 10
5.7829090253
 20
4.0048582149
 30
0.0
 10
5.7888258285
 20
4.0052953916
 30
0.0
 10
5.7939601805
 20
4.0057312047
 30
0.0
 10
5.798307071
 20
4.0061655499
 30
0.0
 10
5.8014336607
 20
4.0065438886
 30
0.0
 10
5.8035367825
 20
4.0068544353
 30
0.0
 10
5.8048182848
 20
4.0070725938
 30
0.0
 10
5.8059010209
 20
4.007289922
 30
0.0
 10
5.8067856644
 20
4.0075059153
 30
0.0
 10
5.8074719857
 20
4.0077201265
 30
0.0
 10
5.8078564546
 20
4.0078840994
 30
0.0
 10
5.8080095477
 20
4.0079724536
 30
0.0
  0
LINE
  5
378
100
AcDbEntity
  8
ALL_ASSEMBLY_MEMBERS
100
AcDbLine
 62
7
  6
CONTINUOUS
 10
4.3174036555
 20
4.317783662
 11
4.3357640149
 21
4.318227528
  0
LINE
  5
379
100
AcDbEntity
  8
ALL_ASSEMBLY_MEMBERS
100
AcDbLine
 62
7
  6
CONTINUOUS
 10
4.3357640149
 20
4.318227528
 11
4.3504675021
 21
4.3185733277
  0
LINE
  5
37A
100
AcDbEntity
  8
ALL_ASSEMBLY_MEMBERS
100
AcDbLine
 62
7
  6
CONTINUOUS
 10
4.3504675021
 20
4.3185733277
 11
4.3574875667
 21
4.3187356558
  0
LINE
  5
37B
100
AcDbEntity
  8
ALL_ASSEMBLY_MEMBERS
100
AcDbLine
 62
7
  6
CONTINUOUS
 10
4.4932219189
 20
4.3216102773
 11
4.4994035345
 21
4.3217319979
  0
LINE
  5
37C
100
AcDbEntity
  8
ALL_ASSEMBLY_MEMBERS
100
AcDbLine
 62
7
  6
CONTINUOUS
 10
4.4994035345
 20
4.3217319979
 11
4.509257001
 21
4.3219247488
  0
LINE
  5
37D
100
AcDbEntity
  8
ALL_ASSEMBLY_MEMBERS
100
AcDbLine
 62
7
  6
CONTINUOUS
 10
4.509257001
 20
4.3219247488
 11
4.70523719
 21
4.3255186349
  0
LINE
  5
37E
100
AcDbEntity
  8
ALL_ASSEMBLY_MEMBERS
100
AcDbLine
 62
7
  6
CONTINUOUS
 10
4.70523719
 20
4.3255186349
 11
4.7138386707
 21
4.3256688407
  0
SPLINE
  5
37F
100
AcDbEntity
  8
ALL_ASSEMBLY_MEMBERS
100
AcDbSpline
 62
7
  6
CONTINUOUS
 70
0
 71
3
 72
46
 73
42
 74
0
 42
0.0000001
 43
0.0000001
 44
0.0000000001
 40
0.0
 40
0.0
 40
0.0
 40
0.0
 40
0.0885826505
 40
0.1788027779
 40
0.2694634113
 40
0.359363126
 40
0.4473101433
 40
0.5321379336
 40
0.6127232248
 40
0.6510881241
 40
0.687997817
 40
0.7233275505
 40
0.7569624326
 40
0.7887909551
 40
0.818705125
 40
0.8466089227
 40
0.8724089474
 40
0.8960177745
 40
0.9173609028
 40
0.9363658087
 40
0.9529689734
 40
0.9603539865
 40
0.9671196933
 40
0.9732599599
 40
0.9787692978
 40
0.9836442956
 40
0.9878821306
 40
0.9914802671
 40
0.9930388223
 40
0.994436783
 40
0.995674088
 40
0.9967508627
 40
0.9976677355
 40
0.9984259571
 40
0.9990277991
 40
0.9992714938
 40
0.9994782783
 40
0.9996499012
 40
0.9997894425
 40
0.9999026375
 40
1.0
 40
1.0
 40
1.0
 40
1.0
 10
4.7144977579
 20
4.325680332
 30
0.0
 10
4.7468146237
 20
4.3262437174
 30
0.0
 10
4.8120460625
 20
4.3273625329
 30
0.0
 10
4.9103531319
 20
4.3290184488
 30
0.0
 10
5.0091408334
 20
4.3306744883
 30
0.0
 10
5.1070990157
 20
4.3323303378
 30
0.0
 10
5.2029286288
 20
4.3339856706
 30
0.0
 10
5.2953591146
 20
4.3356402218
 30
0.0
 10
5.3696998685
 20
4.3370397534
 30
0.0
 10
5.4265583926
 20
4.3381671027
 30
0.0
 10
5.4669068124
 20
4.3389985166
 30
0.0
 10
5.505528979
 20
4.3398298026
 30
0.0
 10
5.5422967
 20
4.3406608298
 30
0.0
 10
5.5770878838
 20
4.3414915138
 30
0.0
 10
5.6097873027
 20
4.3423219382
 30
0.0
 10
5.6402863201
 20
4.3431518297
 30
0.0
 10
5.6684837689
 20
4.343981069
 30
0.0
 10
5.6942862793
 20
4.3448096558
 30
0.0
 10
5.7176080593
 20
4.3456369644
 30
0.0
 10
5.7383718972
 20
4.3464628539
 30
0.0
 10
5.754043085
 20
4.3471742095
 30
0.0
 10
5.7652496954
 20
4.3477505237
 30
0.0
 10
5.7726418109
 20
4.3481653775
 30
0.0
 10
5.7793483885
 20
4.348579786
 30
0.0
 10
5.7853636685
 20
4.3489937332
 30
0.0
 10
5.7906830385
 20
4.3494068731
 30
0.0
 10
5.7953027406
 20
4.349819017
 30
0.0
 10
5.7987121964
 20
4.3501759052
 30
0.0
 10
5.8010861939
 20
4.3504663881
 30
0.0
 10
5.8026024116
 20
4.3506734299
 30
0.0
 10
5.803941085
 20
4.3508800878
 30
0.0
 10
5.8051019256
 20
4.3510862972
 30
0.0
 10
5.8060850406
 20
4.351291719
 30
0.0
 10
5.8068905026
 20
4.3514962467
 30
0.0
 10
5.8074484451
 20
4.351675463
 30
0.0
 10
5.8078029385
 20
4.3518236551
 30
0.0
 10
5.8080054887
 20
4.3519267331
 30
0.0
 10
5.8081644844
 20
4.3520298007
 30
0.0
 10
5.8082805146
 20
4.352133646
 30
0.0
 10
5.8083541269
 20
4.3522402655
 30
0.0
 10
5.8083723016
 20
4.3523175584
 30
0.0
 10
5.8083723364
 20
4.3523530837
 30
0.0
  0
SPLINE
  5
380
100
AcDbEntity
  8
ALL_ASSEMBLY_MEMBERS
100
AcDbSpline
 62
7
  6
CONTINUOUS
 70
0
 71
3
 72
43
 73
39
 74
0
 42
0.0000001
 43
0.0000001
 44
0.0000000001
 40
0.0
 40
0.0
 40
0.0
 40
0.0
 40
0.0626397168
 40
0.1330872068
 40
0.2098023586
 40
0.291127303
 40
0.3752928669
 40
0.4604728603
 40
0.5448173681
 40
0.6264951433
 40
0.6657763036
 40
0.7037327001
 40
0.7401570362
 40
0.7748530542
 40
0.8076299179
 40
0.8383122216
 40
0.8667305836
 40
0.8927331565
 40
0.916177015
 40
0.9268991951
 40
0.9369360525
 40
0.9462735856
 40
0.9548980828
 40
0.9627984517
 40
0.969965079
 40
0.9763884223
 40
0.9820590418
 40
0.9869691765
 40
0.9911140449
 40
0.9928982399
 40
0.9944896736
 40
0.9958880089
 40
0.9970930591
 40
0.9981049349
 40
0.9989246007
 40
0.9995543611
 40
0.9997996128
 40
1.0
 40
1.0
 40
1.0
 40
1.0
 10
4.3174036555
 20
4.337463662
 30
0.0
 10
4.3485309082
 20
4.3382284201
 30
0.0
 10
4.4146685472
 20
4.3397207399
 30
0.0
 10
4.5189349604
 20
4.3418220059
 30
0.0
 10
4.6324909681
 20
4.343927989
 30
0.0
 10
4.7528669151
 20
4.3460371017
 30
0.0
 10
4.8774511141
 20
4.3481478023
 30
0.0
 10
5.0035364636
 20
4.3502590454
 30
0.0
 10
5.1283850279
 20
4.3523699016
 30
0.0
 10
5.2304207523
 20
4.3541499223
 30
0.0
 10
5.3094005448
 20
4.355586959
 30
0.0
 10
5.3658890405
 20
4.3566504507
 30
0.0
 10
5.4200979624
 20
4.3577136852
 30
0.0
 10
5.4717317607
 20
4.3587764221
 30
0.0
 10
5.5205107105
 20
4.3598387694
 30
0.0
 10
5.5661684276
 20
4.3609002972
 30
0.0
 10
5.6084578611
 20
4.3619610427
 30
0.0
 10
5.647148049
 20
4.3630205207
 30
0.0
 10
5.6770427002
 20
4.3639268677
 30
0.0
 10
5.6990026949
 20
4.3646584064
 30
0.0
 10
5.7139535061
 20
4.3651903659
 30
0.0
 10
5.7278609176
 20
4.3657220261
 30
0.0
 10
5.7407055107
 20
4.3662534263
 30
0.0
 10
5.752470018
 20
4.366784438
 30
0.0
 10
5.7631392007
 20
4.367314864
 30
0.0
 10
5.7726985604
 20
4.3678445115
 30
0.0
 10
5.7811344389
 20
4.368373016
 30
0.0
 10
5.7884352853
 20
4.3689002494
 30
0.0
 10
5.793804031
 20
4.3693572628
 30
0.0
 10
5.797523747
 20
4.3697297871
 30
0.0
 10
5.7998820054
 20
4.3699946499
 30
0.0
 10
5.8019504497
 20
4.3702589113
 30
0.0
 10
5.8037282015
 20
4.3705224265
 30
0.0
 10
5.8052150564
 20
4.3707845502
 30
0.0
 10
5.806410604
 20
4.3710452271
 30
0.0
 10
5.8072227108
 20
4.3712742139
 30
0.0
 10
5.8077220942
 20
4.371465786
 30
0.0
 10
5.8079219305
 20
4.371562616
 30
0.0
 10
5.8080081727
 20
4.371612455
 30
0.0
  0
SPLINE
  5
381
100
AcDbEntity
  8
ALL_ASSEMBLY_MEMBERS
100
AcDbSpline
 62
7
  6
CONTINUOUS
 70
0
 71
3
 72
11
 73
7
 74
0
 42
0.0000001
 43
0.0000001
 44
0.0000000001
 40
0.0
 40
0.0
 40
0.0
 40
0.0
 40
0.1979799463
 40
0.4315545787
 40
0.6993808898
 40
1.0
 40
1.0
 40
1.0
 40
1.0
 10
4.1350297374
 20
4.6755027008
 30
0.0
 10
4.142760788
 20
4.6758885082
 30
0.0
 10
4.159617342
 20
4.6766393303
 30
0.0
 10
4.1869422996
 20
4.6776776921
 30
0.0
 10
4.2182826923
 20
4.6787188965
 30
0.0
 10
4.2404981931
 20
4.6793776214
 30
0.0
 10
4.2522471583
 20
4.6797106372
 30
0.0
  0
LINE
  5
382
100
AcDbEntity
  8
ALL_ASSEMBLY_MEMBERS
100
AcDbLine
 62
7
  6
CONTINUOUS
 10
4.2522471583
 20
4.6797106372
 11
4.2714100537
 21
4.6802407013
  0
LINE
  5
383
100
AcDbEntity
  8
ALL_ASSEMBLY_MEMBERS
100
AcDbLine
 62
7
  6
CONTINUOUS
 10
4.2714100537
 20
4.6802407013
 11
4.2769144142
 21
4.6803884537
  0
LINE
  5
384
100
AcDbEntity
  8
ALL_ASSEMBLY_MEMBERS
100
AcDbLine
 62
7
  6
CONTINUOUS
 10
4.333772217
 20
4.6818200315
 11
4.33607831
 21
4.6818749953
  0
LINE
  5
385
100
AcDbEntity
  8
ALL_ASSEMBLY_MEMBERS
100
AcDbLine
 62
7
  6
CONTINUOUS
 10
4.33607831
 20
4.6818749953
 11
4.3575933927
 21
4.6823781358
  0
LINE
  5
386
100
AcDbEntity
  8
ALL_ASSEMBLY_MEMBERS
100
AcDbLine
 62
7
  6
CONTINUOUS
 10
4.4932844341
 20
4.6852515065
 11
4.5093771258
 21
4.6855670783
  0
LINE
  5
387
100
AcDbEntity
  8
ALL_ASSEMBLY_MEMBERS
100
AcDbLine
 62
7
  6
CONTINUOUS
 10
4.5093771258
 20
4.6855670783
 11
4.7053331052
 21
4.6891603082
  0
LINE
  5
388
100
AcDbEntity
  8
ALL_ASSEMBLY_MEMBERS
100
AcDbLine
 62
7
  6
CONTINUOUS
 10
4.7053331052
 20
4.6891603082
 11
4.71386915
 21
4.6893093708
  0
SPLINE
  5
389
100
AcDbEntity
  8
ALL_ASSEMBLY_MEMBERS
100
AcDbSpline
 62
7
  6
CONTINUOUS
 70
0
 71
3
 72
45
 73
41
 74
0
 42
0.0000001
 43
0.0000001
 44
0.0000000001
 40
0.0
 40
0.0
 40
0.0
 40
0.0
 40
0.0885544494
 40
0.1787530643
 40
0.2693998279
 40
0.3592914779
 40
0.4472356192
 40
0.5320661664
 40
0.6126564523
 40
0.6879378512
 40
0.7232735366
 40
0.7569132449
 40
0.7887453544
 40
0.8186665537
 40
0.8465747628
 40
0.8723786077
 40
0.8959944603
 40
0.9173406633
 40
0.9363491389
 40
0.9529583011
 40
0.9603443342
 40
0.9671101788
 40
0.9732511685
 40
0.9787627059
 40
0.9836402978
 40
0.9878796244
 40
0.9914775178
 40
0.9930356818
 40
0.9944333247
 40
0.9956705735
 40
0.9967477152
 40
0.9976653075
 40
0.9984244068
 40
0.9990270884
 40
0.9992711269
 40
0.9994781734
 40
0.9996499558
 40
0.9997895428
 40
0.9999026912
 40
1.0
 40
1.0
 40
1.0
 40
1.0
 10
4.71386915
 20
4.6893093708
 30
0.0
 10
4.7461943206
 20
4.6898730312
 30
0.0
 10
4.8114451563
 20
4.6909923302
 30
0.0
 10
4.9097855981
 20
4.692648944
 30
0.0
 10
5.0086143018
 20
4.6943056368
 30
0.0
 10
5.1066198136
 20
4.6959621586
 30
0.0
 10
5.202501601
 20
4.6976181999
 30
0.0
 10
5.2949870776
 20
4.6992733368
 30
0.0
 10
5.3828488006
 20
4.7009272371
 30
0.0
 10
5.4526420397
 20
4.7023318215
 30
0.0
 10
5.5052961532
 20
4.7034646375
 30
0.0
 10
5.5420902865
 20
4.7042960083
 30
0.0
 10
5.5769071363
 20
4.7051271226
 30
0.0
 10
5.6096308711
 20
4.7059577788
 30
0.0
 10
5.6401530204
 20
4.7067880373
 30
0.0
 10
5.6683722728
 20
4.7076177206
 30
0.0
 10
5.6941947295
 20
4.7084464757
 30
0.0
 10
5.7175349291
 20
4.7092742169
 30
0.0
 10
5.7383153382
 20
4.7101005444
 30
0.0
 10
5.7539994296
 20
4.7108120005
 30
0.0
 10
5.7652151084
 20
4.7113886079
 30
0.0
 10
5.7726121679
 20
4.7118036766
 30
0.0
 10
5.7793237263
 20
4.7122183014
 30
0.0
 10
5.785344494
 20
4.7126323863
 30
0.0
 10
5.7906692374
 20
4.7130456327
 30
0.0
 10
5.7952930192
 20
4.7134578835
 30
0.0
 10
5.7987047529
 20
4.7138149787
 30
0.0
 10
5.8010797683
 20
4.7141056165
 30
0.0
 10
5.8025965792
 20
4.7143127587
 30
0.0
 10
5.8039360219
 20
4.7145195244
 30
0.0
 10
5.8050979168
 20
4.714725825
 30
0.0
 10
5.8060823375
 20
4.7149313234
 30
0.0
 10
5.806889191
 20
4.7151359231
 30
0.0
 10
5.8074482592
 20
4.7153151892
 30
0.0
 10
5.8078035423
 20
4.7154634325
 30
0.0
 10
5.8080065359
 20
4.7155665432
 30
0.0
 10
5.8081658467
 20
4.7156696402
 30
0.0
 10
5.8082820517
 20
4.7157735159
 30
0.0
 10
5.8083556857
 20
4.7158802071
 30
0.0
 10
5.8083737237
 20
4.7159575591
 30
0.0
 10
5.8083736708
 20
4.7159930853
 30
0.0
  0
SPLINE
  5
38A
100
AcDbEntity
  8
ALL_ASSEMBLY_MEMBERS
100
AcDbSpline
 62
7
  6
CONTINUOUS
 70
0
 71
3
 72
50
 73
46
 74
0
 42
0.0000001
 43
0.0000001
 44
0.0000000001
 40
0.0
 40
0.0
 40
0.0
 40
0.0
 40
0.0079518732
 40
0.016800674
 40
0.0371105559
 40
0.0607674288
 40
0.0875942897
 40
0.1173967728
 40
0.1499490972
 40
0.1850087243
 40
0.2223125093
 40
0.3025239184
 40
0.3881871349
 40
0.4767430719
 40
0.5655460558
 40
0.6092094678
 40
0.6519430488
 40
0.6934281173
 40
0.7333529778
 40
0.7714203526
 40
0.8073439713
 40
0.8408565524
 40
0.8717062074
 40
0.8996633054
 40
0.9124903365
 40
0.9245183572
 40
0.9357242616
 40
0.9460860389
 40
0.9555856792
 40
0.9642061249
 40
0.9719303858
 40
0.9787435493
 40
0.9846347854
 40
0.9872315138
 40
0.9895939924
 40
0.991721029
 40
0.9936115983
 40
0.9952653193
 40
0.9966821391
 40
0.99786228
 40
0.9988065151
 40
0.9991907857
 40
0.9995170775
 40
0.9997862695
 40
1.0
 40
1.0
 40
1.0
 40
1.0
 10
4.1350297374
 20
4.6951827008
 30
0.0
 10
4.1394605754
 20
4.6954038157
 30
0.0
 10
4.148823503
 20
4.6958415264
 30
0.0
 10
4.1695092374
 20
4.6967119149
 30
0.0
 10
4.1989558743
 20
4.6977808938
 30
0.0
 10
4.2384323874
 20
4.6990171461
 30
0.0
 10
4.2832070122
 20
4.7002565681
 30
0.0
 10
4.3329460275
 20
4.7014983725
 30
0.0
 10
4.3872793621
 20
4.7027419305
 30
0.0
 10
4.4457986575
 20
4.7039866082
 30
0.0
 10
4.5309031795
 20
4.7056887266
 30
0.0
 10
4.6442371203
 20
4.7077852739
 30
0.0
 10
4.7861625964
 20
4.7102498453
 30
0.0
 10
4.9328819672
 20
4.712716669
 30
0.0
 10
5.0561730435
 20
4.7147839161
 30
0.0
 10
5.1539028398
 20
4.716456324
 30
0.0
 10
5.2252373697
 20
4.7177034583
 30
0.0
 10
5.2944858414
 20
4.7189502178
 30
0.0
 10
5.3611306064
 20
4.720196627
 30
0.0
 10
5.4246720855
 20
4.7214423814
 30
0.0
 10
5.4846354435
 20
4.7226874552
 30
0.0
 10
5.5405711401
 20
4.7239313678
 30
0.0
 10
5.5920611578
 20
4.7251740139
 30
0.0
 10
5.6320116135
 20
4.7262359014
 30
0.0
 10
5.6614630625
 20
4.727093208
 30
0.0
 10
5.6815718096
 20
4.7277173039
 30
0.0
 10
5.7003044961
 20
4.7283410495
 30
0.0
 10
5.7176257697
 20
4.7289645052
 30
0.0
 10
5.733503626
 20
4.7295874375
 30
0.0
 10
5.7479088052
 20
4.7302096532
 30
0.0
 10
5.7608137121
 20
4.7308308859
 30
0.0
 10
5.7721940634
 20
4.7314510659
 30
0.0
 10
5.7807139412
 20
4.7319861887
 30
0.0
 10
5.7867518587
 20
4.7324203164
 30
0.0
 10
5.7906930283
 20
4.7327317742
 30
0.0
 10
5.7942389134
 20
4.733042841
 30
0.0
 10
5.7973877484
 20
4.7333534407
 30
0.0
 10
5.8001382452
 20
4.733663378
 30
0.0
 10
5.8024897371
 20
4.7339721281
 30
0.0
 10
5.8044414997
 20
4.7342795296
 30
0.0
 10
5.8058157645
 20
4.7345482323
 30
0.0
 10
5.8067120709
 20
4.73477024
 30
0.0
 10
5.8072367158
 20
4.7349246334
 30
0.0
 10
5.8076614721
 20
4.7350783009
 30
0.0
 10
5.807906268
 20
4.7351928511
 30
0.0
 10
5.8080095434
 20
4.7352524536
 30
0.0
  0
SPLINE
  5
38B
100
AcDbEntity
  8
ALL_ASSEMBLY_MEMBERS
100
AcDbSpline
 62
7
  6
CONTINUOUS
 70
0
 71
3
 72
11
 73
7
 74
0
 42
0.0000001
 43
0.0000001
 44
0.0000000001
 40
0.0
 40
0.0
 40
0.0
 40
0.0
 40
0.3123540902
 40
0.5834904172
 40
0.8128724117
 40
1.0
 40
1.0
 40
1.0
 40
1.0
 10
4.1088371135
 20
5.3551798631
 30
0.0
 10
4.103944211
 20
5.3549145209
 30
0.0
 10
4.0948055731
 20
5.3543902069
 30
0.0
 10
4.0820811356
 20
5.3535478891
 30
0.0
 10
4.0713262855
 20
5.3527058241
 30
0.0
 10
4.0648211875
 20
5.3520841276
 30
0.0
 10
4.0619035653
 20
5.3517598617
 30
0.0
  0
SPLINE
  5
38C
100
AcDbEntity
  8
ALL_ASSEMBLY_MEMBERS
100
AcDbSpline
 62
7
  6
CONTINUOUS
 70
0
 71
3
 72
22
 73
18
 74
0
 42
0.0000001
 43
0.0000001
 44
0.0000000001
 40
0.0
 40
0.0
 40
0.0
 40
0.0
 40
0.2325184221
 40
0.4334000999
 40
0.6026625292
 40
0.6754635889
 40
0.7404032748
 40
0.7975178686
 40
0.8468660348
 40
0.8885453183
 40
0.9227264066
 40
0.9497319807
 40
0.9607489551
 40
0.9702854203
 40
0.9858628091
 40
0.9928492293
 40
1.0
 40
1.0
 40
1.0
 40
1.0
 10
4.0619035653
 20
5.3517598617
 30
0.0
 10
4.0607064934
 20
5.3516268186
 30
0.0
 10
4.0584767788
 20
5.3513641747
 30
0.0
 10
4.0553835408
 20
5.350941611
 30
0.0
 10
4.0531182326
 20
5.3505743812
 30
0.0
 10
4.0515563648
 20
5.3502745596
 30
0.0
 10
4.0505697153
 20
5.3500611825
 30
0.0
 10
4.0497076534
 20
5.3498479778
 30
0.0
 10
4.0489701869
 20
5.3496350249
 30
0.0
 10
4.0483568835
 20
5.3494225757
 30
0.0
 10
4.0478674747
 20
5.3492105558
 30
0.0
 10
4.0475416209
 20
5.349023738
 30
0.0
 10
4.047348688
 20
5.3488692426
 30
0.0
 10
4.0472191147
 20
5.3487344446
 30
0.0
 10
4.0471339217
 20
5.348583119
 30
0.0
 10
4.0471234659
 20
5.3484272761
 30
0.0
 10
4.047140462
 20
5.3483549048
 30
0.0
 10
4.0471533204
 20
5.3483201674
 30
0.0
  0
SPLINE
  5
38D
100
AcDbEntity
  8
ALL_ASSEMBLY_MEMBERS
100
AcDbSpline
 62
7
  6
CONTINUOUS
 70
0
 71
3
 72
10
 73
6
 74
0
 42
0.0000001
 43
0.0000001
 44
0.0000000001
 40
0.0
 40
0.0
 40
0.0
 40
0.0
 40
0.5212868761
 40
0.7685247945
 40
1.0
 40
1.0
 40
1.0
 40
1.0
 10
4.9465838509
 20
4.3777169912
 30
0.0
 10
5.0324751005
 20
4.3790811419
 30
0.0
 10
5.159103236
 20
4.3810898565
 30
0.0
 10
5.323868247
 20
4.383873029
 30
0.0
 10
5.402741899
 20
4.3852939456
 30
0.0
 10
5.4408795345
 20
4.3860150228
 30
0.0
  0
LINE
  5
38E
100
AcDbEntity
  8
ALL_ASSEMBLY_MEMBERS
100
AcDbLine
 62
7
  6
CONTINUOUS
 10
5.4408795345
 20
4.3860150228
 11
5.5141490724
 21
4.3874485489
  0
LINE
  5
38F
100
AcDbEntity
  8
ALL_ASSEMBLY_MEMBERS
100
AcDbLine
 62
7
  6
CONTINUOUS
 10
5.5141490724
 20
4.3874485489
 11
5.5175723757
 21
4.3875181921
  0
LINE
  5
390
100
AcDbEntity
  8
ALL_ASSEMBLY_MEMBERS
100
AcDbLine
 62
7
  6
CONTINUOUS
 10
5.5175723757
 20
4.3875181921
 11
5.5712452742
 21
4.3886488509
  0
LINE
  5
391
100
AcDbEntity
  8
ALL_ASSEMBLY_MEMBERS
100
AcDbLine
 62
7
  6
CONTINUOUS
 10
5.5712452742
 20
4.3886488509
 11
5.6218105807
 21
4.3897962077
  0
LINE
  5
392
100
AcDbEntity
  8
ALL_ASSEMBLY_MEMBERS
100
AcDbLine
 62
7
  6
CONTINUOUS
 10
5.6230109406
 20
4.389824639
 11
5.6256437494
 21
4.3898872167
  0
SPLINE
  5
393
100
AcDbEntity
  8
ALL_ASSEMBLY_MEMBERS
100
AcDbSpline
 62
7
  6
CONTINUOUS
 70
0
 71
3
 72
29
 73
25
 74
0
 42
0.0000001
 43
0.0000001
 44
0.0000000001
 40
0.0
 40
0.0
 40
0.0
 40
0.0
 40
0.2182886411
 40
0.3184484705
 40
0.4123595585
 40
0.4998482415
 40
0.5807411325
 40
0.6548757953
 40
0.7221209033
 40
0.7823509805
 40
0.8354424065
 40
0.8812971385
 40
0.901487489
 40
0.9198411446
 40
0.9363494454
 40
0.9510041476
 40
0.9637985916
 40
0.9747314681
 40
0.9838046878
 40
0.9910242222
 40
0.9939435419
 40
0.9964070393
 40
0.9984215239
 40
1.0
 40
1.0
 40
1.0
 40
1.0
 10
5.6256437494
 20
4.3898872167
 30
0.0
 10
5.6425178772
 20
4.3902892561
 30
0.0
 10
5.6671339444
 20
4.3909023289
 30
0.0
 10
5.6990073277
 20
4.3917717327
 30
0.0
 10
5.7207694088
 20
4.3924047045
 30
0.0
 10
5.7410410352
 20
4.3930373001
 30
0.0
 10
5.7597826872
 20
4.3936694775
 30
0.0
 10
5.7769580816
 20
4.3943012213
 30
0.0
 10
5.7925345954
 20
4.394932259
 30
0.0
 10
5.8064825486
 20
4.3955622141
 30
0.0
 10
5.8187746753
 20
4.3961909983
 30
0.0
 10
5.8279709231
 20
4.3967337761
 30
0.0
 10
5.8344821189
 20
4.3971741894
 30
0.0
 10
5.838727281
 20
4.3974900313
 30
0.0
 10
5.8425431349
 20
4.3978054678
 30
0.0
 10
5.8459275573
 20
4.3981203578
 30
0.0
 10
5.8488788191
 20
4.3984345816
 30
0.0
 10
5.851395922
 20
4.3987475444
 30
0.0
 10
5.8534781158
 20
4.3990590761
 30
0.0
 10
5.8549392161
 20
4.3993315356
 30
0.0
 10
5.8558874107
 20
4.3995570507
 30
0.0
 10
5.8564379273
 20
4.3997134409
 30
0.0
 10
5.8568798928
 20
4.399868989
 30
0.0
 10
5.8571331389
 20
4.3999855774
 30
0.0
 10
5.8572388607
 20
4.4000465696
 30
0.0
  0
LINE
  5
394
100
AcDbEntity
  8
ALL_ASSEMBLY_MEMBERS
100
AcDbLine
 62
7
  6
CONTINUOUS
 10
4.9465838509
 20
4.4686269912
 11
5.1792019168
 21
4.4723628764
  0
LINE
  5
395
100
AcDbEntity
  8
ALL_ASSEMBLY_MEMBERS
100
AcDbLine
 62
7
  6
CONTINUOUS
 10
5.1792019168
 20
4.4723628764
 11
5.1827450043
 21
4.472421109
  0
LINE
  5
396
100
AcDbEntity
  8
ALL_ASSEMBLY_MEMBERS
100
AcDbLine
 62
7
  6
CONTINUOUS
 10
5.1827450043
 20
4.472421109
 11
5.1877599875
 21
4.4725036408
  0
LINE
  5
397
100
AcDbEntity
  8
ALL_ASSEMBLY_MEMBERS
100
AcDbLine
 62
7
  6
CONTINUOUS
 10
5.1877599875
 20
4.4725036408
 11
5.3837891709
 21
4.4758695043
  0
LINE
  5
398
100
AcDbEntity
  8
ALL_ASSEMBLY_MEMBERS
100
AcDbLine
 62
7
  6
CONTINUOUS
 10
5.3837891709
 20
4.4758695043
 11
5.3997597882
 21
4.4761602482
  0
SPLINE
  5
399
100
AcDbEntity
  8
ALL_ASSEMBLY_MEMBERS
100
AcDbSpline
 62
7
  6
CONTINUOUS
 70
0
 71
3
 72
32
 73
28
 74
0
 42
0.0000001
 43
0.0000001
 44
0.0000000001
 40
0.0
 40
0.0
 40
0.0
 40
0.0
 40
0.2119798509
 40
0.3108199489
 40
0.4043547953
 40
0.4921959569
 40
0.5739914612
 40
0.6494039056
 40
0.7181236905
 40
0.7798773589
 40
0.8344040952
 40
0.8588902875
 40
0.8814922982
 40
0.9021856835
 40
0.9209475886
 40
0.9377616824
 40
0.9526135973
 40
0.9654893747
 40
0.9763757714
 40
0.9852629993
 40
0.9889567304
 40
0.9921512347
 40
0.9948479209
 40
0.9970495973
 40
0.9987620807
 40
0.9994389122
 40
1.0
 40
1.0
 40
1.0
 40
1.0
 10
5.3997597882
 20
4.4761602482
 30
0.0
 10
5.4321097907
 20
4.4767525299
 30
0.0
 10
5.4795431435
 20
4.4776506423
 30
0.0
 10
5.5412487861
 20
4.478909092
 30
0.0
 10
5.5840095009
 20
4.4798303442
 30
0.0
 10
5.6241679931
 20
4.4807512302
 30
0.0
 10
5.6615596241
 20
4.4816714621
 30
0.0
 10
5.6960317445
 20
4.4825909189
 30
0.0
 10
5.7274436418
 20
4.4835093794
 30
0.0
 10
5.7556662052
 20
4.4844262893
 30
0.0
 10
5.7771376806
 20
4.4852143226
 30
0.0
 10
5.7926345346
 20
4.4858518618
 30
0.0
 10
5.802970107
 20
4.4863124024
 30
0.0
 10
5.8124310362
 20
4.4867725469
 30
0.0
 10
5.8210074097
 20
4.4872322981
 30
0.0
 10
5.8286908035
 20
4.4876914035
 30
0.0
 10
5.8354740338
 20
4.4881496283
 30
0.0
 10
5.8413503024
 20
4.4886063694
 30
0.0
 10
5.8463130724
 20
4.489061351
 30
0.0
 10
5.8498734288
 20
4.4894579906
 30
0.0
 10
5.852259286
 20
4.4897839544
 30
0.0
 10
5.8537044226
 20
4.4900125306
 30
0.0
 10
5.8549188628
 20
4.490239972
 30
0.0
 10
5.8559024048
 20
4.4904662389
 30
0.0
 10
5.8565755684
 20
4.4906648542
 30
0.0
 10
5.8569947009
 20
4.4908302635
 30
0.0
 10
5.8571646406
 20
4.4909137742
 30
0.0
 10
5.8572388228
 20
4.4909565696
 30
0.0
  0
LINE
  5
39A
100
AcDbEntity
  8
ALL_ASSEMBLY_MEMBERS
100
AcDbLine
 62
7
  6
CONTINUOUS
 10
4.5092053272
 20
4.7485185291
 11
4.4932279173
 21
4.7482276254
  0
LINE
  5
39B
100
AcDbEntity
  8
ALL_ASSEMBLY_MEMBERS
100
AcDbLine
 62
7
  6
CONTINUOUS
 10
4.3574066871
 20
4.7455882953
 11
4.3359438469
 21
4.7451352824
  0
LINE
  5
39C
100
AcDbEntity
  8
ALL_ASSEMBLY_MEMBERS
100
AcDbLine
 62
7
  6
CONTINUOUS
 10
4.3355093737
 20
4.7451259813
 11
4.2766816524
 21
4.7438103446
  0
LINE
  5
39D
100
AcDbEntity
  8
ALL_ASSEMBLY_MEMBERS
100
AcDbLine
 62
7
  6
CONTINUOUS
 10
4.2766816524
 20
4.7438103446
 11
4.2685587321
 21
4.7436185857
  0
LINE
  5
39E
100
AcDbEntity
  8
ALL_ASSEMBLY_MEMBERS
100
AcDbLine
 62
7
  6
CONTINUOUS
 10
4.2685587321
 20
4.7436185857
 11
4.2520097812
 21
4.7432188418
  0
SPLINE
  5
39F
100
AcDbEntity
  8
ALL_ASSEMBLY_MEMBERS
100
AcDbSpline
 62
7
  6
CONTINUOUS
 70
0
 71
3
 72
29
 73
25
 74
0
 42
0.0000001
 43
0.0000001
 44
0.0000000001
 40
0.0
 40
0.0
 40
0.0
 40
0.0
 40
0.2185490281
 40
0.3187327273
 40
0.4126218204
 40
0.5000509812
 40
0.580855956
 40
0.6548937772
 40
0.7220425476
 40
0.7821816364
 40
0.8351953733
 40
0.8809990343
 40
0.90117508
 40
0.9195224466
 40
0.9360328897
 40
0.9506986133
 40
0.9635143507
 40
0.9744798063
 40
0.9835972327
 40
0.9908730594
 40
0.9938252551
 40
0.9963248929
 40
0.9983788431
 40
1.0
 40
1.0
 40
1.0
 40
1.0
 10
4.2520097812
 20
4.7432188418
 30
0.0
 10
4.2362460077
 20
4.7428319213
 30
0.0
 10
4.2132566704
 20
4.7422417079
 30
0.0
 10
4.1834973846
 20
4.741404092
 30
0.0
 10
4.1631958854
 20
4.740794505
 30
0.0
 10
4.1442932411
 20
4.7401852793
 30
0.0
 10
4.1268236721
 20
4.7395763926
 30
0.0
 10
4.1108182966
 20
4.7389679542
 30
0.0
 10
4.0963051334
 20
4.738360203
 30
0.0
 10
4.08331029
 20
4.7377534731
 30
0.0
 10
4.0718573517
 20
4.7371477988
 30
0.0
 10
4.0632876323
 20
4.7366250568
 30
0.0
 10
4.057218115
 20
4.7362009409
 30
0.0
 10
4.0532590006
 20
4.7358967379
 30
0.0
 10
4.0496987195
 20
4.7355929211
 30
0.0
 10
4.0465391075
 20
4.7352896065
 30
0.0
 10
4.0437815928
 20
4.7349869207
 30
0.0
 10
4.041426937
 20
4.7346854208
 30
0.0
 10
4.0394757528
 20
4.7343852645
 30
0.0
 10
4.0381041397
 20
4.7341228234
 30
0.0
 10
4.0372116559
 20
4.7339058121
 30
0.0
 10
4.0366912036
 20
4.7337550892
 30
0.0
 10
4.0362714473
 20
4.73360512
 30
0.0
 10
4.0360301655
 20
4.7334930493
 30
0.0
 10
4.0359288486
 20
4.7334345994
 30
0.0
  0
SPLINE
  5
3A0
100
AcDbEntity
  8
ALL_ASSEMBLY_MEMBERS
100
AcDbSpline
 62
7
  6
CONTINUOUS
 70
0
 71
3
 72
37
 73
33
 74
0
 42
0.0000001
 43
0.0000001
 44
0.0000000001
 40
0.0
 40
0.0
 40
0.0
 40
0.0
 40
0.0962822074
 40
0.1917186444
 40
0.285343915
 40
0.3763162713
 40
0.4637976133
 40
0.5469638088
 40
0.6250457719
 40
0.697320127
 40
0.7631129247
 40
0.7933872746
 40
0.821816861
 40
0.8483354851
 40
0.8728842158
 40
0.895404595
 40
0.9158427444
 40
0.934154676
 40
0.950297833
 40
0.9642324782
 40
0.9703625896
 40
0.975930402
 40
0.9809328906
 40
0.9853671418
 40
0.9892304534
 40
0.992521395
 40
0.9952401982
 40
0.9973882953
 40
0.9982495856
 40
0.998970298
 40
0.9995524349
 40
1.0
 40
1.0
 40
1.0
 40
1.0
 10
4.9465838509
 20
4.5595369912
 30
0.0
 10
4.9758224123
 20
4.5600013668
 30
0.0
 10
5.0340426952
 20
4.5609260334
 30
0.0
 10
5.1206944891
 20
4.5623150528
 30
0.0
 10
5.2057334001
 20
4.5637039035
 30
0.0
 10
5.2883559165
 20
4.5650922786
 30
0.0
 10
5.3678014144
 20
4.5664800127
 30
0.0
 10
5.4433313108
 20
4.5678669895
 30
0.0
 10
5.514241837
 20
4.5692527583
 30
0.0
 10
5.5798747723
 20
4.5706369656
 30
0.0
 10
5.6309888239
 20
4.5718190208
 30
0.0
 10
5.6687881864
 20
4.5727733376
 30
0.0
 10
5.6946621343
 20
4.5734688185
 30
0.0
 10
5.7187964715
 20
4.5741639878
 30
0.0
 10
5.741135317
 20
4.5748586606
 30
0.0
 10
5.761626494
 20
4.5755527304
 30
0.0
 10
5.7802223057
 20
4.5762461527
 30
0.0
 10
5.7968798377
 20
4.5769383978
 30
0.0
 10
5.8115603125
 20
4.5776291725
 30
0.0
 10
5.8225411376
 20
4.5782256062
 30
0.0
 10
5.8303110789
 20
4.57870972
 30
0.0
 10
5.8353713802
 20
4.579056779
 30
0.0
 10
5.8399153251
 20
4.5794033762
 30
0.0
 10
5.8439399792
 20
4.5797493361
 30
0.0
 10
5.847442704
 20
4.5800944947
 30
0.0
 10
5.8504217675
 20
4.5804381961
 30
0.0
 10
5.8528758752
 20
4.5807802332
 30
0.0
 10
5.8545905017
 20
4.5810795442
 30
0.0
 10
5.855696026
 20
4.5813278927
 30
0.0
 10
5.8563309133
 20
4.5814994549
 30
0.0
 10
5.8568347028
 20
4.5816699161
 30
0.0
 10
5.8571211026
 20
4.5817986435
 30
0.0
 10
5.857238846
 20
4.5818665696
 30
0.0
  0
SPLINE
  5
3A1
100
AcDbEntity
  8
ALL_ASSEMBLY_MEMBERS
100
AcDbSpline
 62
7
  6
CONTINUOUS
 70
0
 71
3
 72
37
 73
33
 74
0
 42
0.0000001
 43
0.0000001
 44
0.0000000001
 40
0.0
 40
0.0
 40
0.0
 40
0.0
 40
0.0962819818
 40
0.1917176521
 40
0.2853423614
 40
0.3763144257
 40
0.4637953563
 40
0.5469612448
 40
0.6250431506
 40
0.6973181698
 40
0.7631122829
 40
0.7933874534
 40
0.821817684
 40
0.8483366683
 40
0.8728855504
 40
0.8954059556
 40
0.9158438961
 40
0.9341554559
 40
0.9502982699
 40
0.96423272
 40
0.9703627743
 40
0.9759305471
 40
0.9809330065
 40
0.985367232
 40
0.9892305164
 40
0.9925214401
 40
0.9952402329
 40
0.9973883222
 40
0.998249608
 40
0.9989703147
 40
0.9995524442
 40
1.0
 40
1.0
 40
1.0
 40
1.0
 10
4.9465838509
 20
4.6504469912
 30
0.0
 10
4.9758223448
 20
4.6509113658
 30
0.0
 10
5.0340423284
 20
4.6518360275
 30
0.0
 10
5.1206936534
 20
4.6532250394
 30
0.0
 10
5.2057320755
 20
4.6546138817
 30
0.0
 10
5.2883542107
 20
4.6560022491
 30
0.0
 10
5.3677994045
 20
4.6573899775
 30
0.0
 10
5.443329068
 20
4.658776946
 30
0.0
 10
5.5142396877
 20
4.6601627162
 30
0.0
 10
5.5798732091
 20
4.6615469283
 30
0.0
 10
5.6309881126
 20
4.662729006
 30
0.0
 10
5.6687883206
 20
4.6636833411
 30
0.0
 10
5.6946628235
 20
4.664378837
 30
0.0
 10
5.7187975123
 20
4.6650740202
 30
0.0
 10
5.7411365216
 20
4.6657687028
 30
0.0
 10
5.7616276897
 20
4.6664627718
 30
0.0
 10
5.7802233337
 20
4.667156189
 30
0.0
 10
5.7968805857
 20
4.6678484281
 30
0.0
 10
5.8115607847
 20
4.6685391969
 30
0.0
 10
5.8225414294
 20
4.6691356243
 30
0.0
 10
5.8303112825
 20
4.6696197348
 30
0.0
 10
5.8353715457
 20
4.6699667922
 30
0.0
 10
5.839915462
 20
4.6703133881
 30
0.0
 10
5.8439400914
 20
4.6706593465
 30
0.0
 10
5.8474427948
 20
4.6710045045
 30
0.0
 10
5.8504218416
 20
4.6713482043
 30
0.0
 10
5.8528759386
 20
4.6716902395
 30
0.0
 10
5.8545905584
 20
4.6719895486
 30
0.0
 10
5.8556960775
 20
4.6722378957
 30
0.0
 10
5.8563309597
 20
4.6724094567
 30
0.0
 10
5.8568347424
 20
4.6725799167
 30
0.0
 10
5.857121137
 20
4.6727086435
 30
0.0
 10
5.8572388771
 20
4.6727765696
 30
0.0
  0
SPLINE
  5
3A2
100
AcDbEntity
  8
ALL_ASSEMBLY_MEMBERS
100
AcDbSpline
 62
7
  6
CONTINUOUS
 70
0
 71
3
 72
19
 73
15
 74
0
 42
0.0000001
 43
0.0000001
 44
0.0000000001
 40
0.0
 40
0.0
 40
0.0
 40
0.0
 40
0.0303405771
 40
0.0663956181
 40
0.1079373618
 40
0.1547185658
 40
0.2064755662
 40
0.2628984161
 40
0.3236578417
 40
0.3883927931
 40
0.5282575125
 40
0.6792098065
 40
0.8376997542
 40
1.0
 40
1.0
 40
1.0
 40
1.0
 10
4.088688311
 20
4.7235941075
 30
0.0
 10
4.09735704
 20
4.7240033405
 30
0.0
 10
4.1163319723
 20
4.7247975295
 30
0.0
 10
4.1471862352
 20
4.7258921057
 30
0.0
 10
4.18274551
 20
4.7269899191
 30
0.0
 10
4.2227978272
 20
4.7280904519
 30
0.0
 10
4.2671080204
 20
4.7291925407
 30
0.0
 10
4.3154175225
 20
4.730296077
 30
0.0
 10
4.3674400121
 20
4.7314004038
 30
0.0
 10
4.4433262098
 20
4.7329130656
 30
0.0
 10
4.5450084681
 20
4.734779164
 30
0.0
 10
4.6735060904
 20
4.7369697005
 30
0.0
 10
4.8084218354
 20
4.7391627149
 30
0.0
 10
4.9001666024
 20
4.7406197785
 30
0.0
 10
4.9465838509
 20
4.7413569912
 30
0.0
  0
SPLINE
  5
3A3
100
AcDbEntity
  8
ALL_ASSEMBLY_MEMBERS
100
AcDbSpline
 62
7
  6
CONTINUOUS
 70
0
 71
3
 72
31
 73
27
 74
0
 42
0.0000001
 43
0.0000001
 44
0.0000000001
 40
0.0
 40
0.0
 40
0.0
 40
0.0
 40
0.0008963189
 40
0.0020412946
 40
0.0035657207
 40
0.0055256061
 40
0.0079467311
 40
0.0108424191
 40
0.0142202423
 40
0.018084817
 40
0.0272845861
 40
0.0384561805
 40
0.0516058604
 40
0.0667361741
 40
0.083844334
 40
0.1029239494
 40
0.146968299
 40
0.1988079586
 40
0.2583774891
 40
0.3255959885
 40
0.4003506106
 40
0.4825235356
 40
0.5719964809
 40
0.668641467
 40
0.772300132
 40
1.0
 40
1.0
 40
1.0
 40
1.0
 10
4.0847940692
 20
5.3265880853
 30
0.0
 10
4.0847941466
 20
5.3266374481
 30
0.0
 10
4.0848325421
 20
5.3267497766
 30
0.0
 10
4.0849721006
 20
5.3268921707
 30
0.0
 10
4.0851865306
 20
5.3270318212
 30
0.0
 10
4.0854812102
 20
5.3271710424
 30
0.0
 10
4.0858570369
 20
5.3273109505
 30
0.0
 10
4.0863150663
 20
5.3274512908
 30
0.0
 10
4.0868554892
 20
5.3275920456
 30
0.0
 10
4.0877388107
 20
5.3277918506
 30
0.0
 10
4.0890515261
 20
5.328035691
 30
0.0
 10
4.0908764211
 20
5.3283157478
 30
0.0
 10
4.0930310385
 20
5.3285967357
 30
0.0
 10
4.0955148486
 20
5.3288784692
 30
0.0
 10
4.0983270187
 20
5.3291607074
 30
0.0
 10
4.1027279089
 20
5.3295567272
 30
0.0
 10
4.1090408075
 20
5.3300431764
 30
0.0
 10
4.1175837292
 20
5.3306050514
 30
0.0
 10
4.1274052266
 20
5.3311682605
 30
0.0
 10
4.1384904639
 20
5.3317324941
 30
0.0
 10
4.1508219338
 20
5.3322975161
 30
0.0
 10
4.1643801526
 20
5.3328631301
 30
0.0
 10
4.1791448761
 20
5.3334291557
 30
0.0
 10
4.1950936711
 20
5.3339954505
 30
0.0
 10
4.2186521552
 20
5.334775545
 30
0.0
 10
4.2368928757
 20
5.335322419
 30
0.0
 10
4.2494278485
 20
5.3356804197
 30
0.0
  0
LINE
  5
3A4
100
AcDbEntity
  8
ALL_ASSEMBLY_MEMBERS
100
AcDbLine
 62
7
  6
CONTINUOUS
 10
4.2503486327
 20
5.3357066845
 11
4.2769061906
 21
5.3364382181
  0
LINE
  5
3A5
100
AcDbEntity
  8
ALL_ASSEMBLY_MEMBERS
100
AcDbLine
 62
7
  6
CONTINUOUS
 10
4.2769061906
 20
5.3364382181
 11
4.2787403549
 21
5.3364870408
  0
LINE
  5
3A6
100
AcDbEntity
  8
ALL_ASSEMBLY_MEMBERS
100
AcDbLine
 62
7
  6
CONTINUOUS
 10
4.491390576
 20
5.3412640797
 11
4.5092661789
 21
5.3416149101
  0
SPLINE
  5
3A7
100
AcDbEntity
  8
ALL_ASSEMBLY_MEMBERS
100
AcDbSpline
 62
7
  6
CONTINUOUS
 70
0
 71
3
 72
12
 73
8
 74
0
 42
0.0000001
 43
0.0000001
 44
0.0000000001
 40
0.0
 40
0.0
 40
0.0
 40
0.0
 40
0.1155894728
 40
0.2373112689
 40
0.4924139841
 40
0.7513621653
 40
1.0
 40
1.0
 40
1.0
 40
1.0
 10
4.5092661789
 20
5.3416149101
 30
0.0
 10
4.5392063376
 20
5.3421982737
 30
0.0
 10
4.6006758784
 20
5.3433539577
 30
0.0
 10
4.7282255509
 20
5.3456327857
 30
0.0
 10
4.8929120148
 20
5.3484215671
 30
0.0
 10
5.0904747171
 20
5.351721501
 30
0.0
 10
5.2219556175
 20
5.3540027473
 30
0.0
 10
5.286359639
 20
5.3551793642
 30
0.0
  0
LINE
  5
3A8
100
AcDbEntity
  8
ALL_ASSEMBLY_MEMBERS
100
AcDbLine
 62
7
  6
CONTINUOUS
 10
4.9465838509
 20
4.7413569912
 11
5.1791085478
 21
4.7450913424
  0
LINE
  5
3A9
100
AcDbEntity
  8
ALL_ASSEMBLY_MEMBERS
100
AcDbLine
 62
7
  6
CONTINUOUS
 10
5.1813633834
 20
4.7451283936
 11
5.1876803023
 21
4.7452323281
  0
LINE
  5
3AA
100
AcDbEntity
  8
ALL_ASSEMBLY_MEMBERS
100
AcDbLine
 62
7
  6
CONTINUOUS
 10
5.1876803023
 20
4.7452323281
 11
5.3836925593
 21
4.7485977558
  0
LINE
  5
3AB
100
AcDbEntity
  8
ALL_ASSEMBLY_MEMBERS
100
AcDbLine
 62
7
  6
CONTINUOUS
 10
5.3836925593
 20
4.7485977558
 11
5.3996436203
 21
4.7488881216
  0
LINE
  5
3AC
100
AcDbEntity
  8
ALL_ASSEMBLY_MEMBERS
100
AcDbLine
 62
7
  6
CONTINUOUS
 10
5.3996436203
 20
4.7488881216
 11
5.4020753751
 21
4.7489326791
  0
SPLINE
  5
3AD
100
AcDbEntity
  8
ALL_ASSEMBLY_MEMBERS
100
AcDbSpline
 62
7
  6
CONTINUOUS
 70
0
 71
3
 72
32
 73
28
 74
0
 42
0.0000001
 43
0.0000001
 44
0.0000000001
 40
0.0
 40
0.0
 40
0.0
 40
0.0
 40
0.2120599244
 40
0.3109205925
 40
0.4044651961
 40
0.4923066157
 40
0.5740954343
 40
0.6494956457
 40
0.7181997667
 40
0.7799361788
 40
0.8344454564
 40
0.8589232299
 40
0.8815173193
 40
0.9022035
 40
0.9209589263
 40
0.9377672387
 40
0.9526142986
 40
0.9654863785
 40
0.9763704677
 40
0.9852568331
 40
0.988950659
 40
0.9921456185
 40
0.9948431295
 40
0.9970460111
 40
0.9987600918
 40
0.9994378704
 40
1.0
 40
1.0
 40
1.0
 40
1.0
 10
5.4020753751
 20
4.7489326791
 30
0.0
 10
5.4342739008
 20
4.7495231816
 30
0.0
 10
5.4814826006
 20
4.7504186666
 30
0.0
 10
5.5428928657
 20
4.751673604
 30
0.0
 10
5.5854419115
 20
4.7525922326
 30
0.0
 10
5.625397753
 20
4.7535105042
 30
0.0
 10
5.6625973837
 20
4.7544281121
 30
0.0
 10
5.6968898466
 20
4.7553449508
 30
0.0
 10
5.7281359529
 20
4.7562607924
 30
0.0
 10
5.756208055
 20
4.7571750845
 30
0.0
 10
5.7775643157
 20
4.7579608734
 30
0.0
 10
5.7929775963
 20
4.7585965943
 30
0.0
 10
5.8032572704
 20
4.7590558164
 30
0.0
 10
5.8126670154
 20
4.7595146392
 30
0.0
 10
5.8211969984
 20
4.7599730657
 30
0.0
 10
5.8288388685
 20
4.7604308505
 30
0.0
 10
5.8355855423
 20
4.7608877562
 30
0.0
 10
5.8414303592
 20
4.7613431847
 30
0.0
 10
5.8463668913
 20
4.7617968578
 30
0.0
 10
5.8499086765
 20
4.762192348
 30
0.0
 10
5.852282324
 20
4.7625173586
 30
0.0
 10
5.8537202844
 20
4.7627452781
 30
0.0
 10
5.8549288726
 20
4.7629720704
 30
0.0
 10
5.8559078912
 20
4.763197695
 30
0.0
 10
5.8565781146
 20
4.7633957415
 30
0.0
 10
5.8569955788
 20
4.7635606537
 30
0.0
 10
5.8571649117
 20
4.7636439102
 30
0.0
 10
5.8572388549
 20
4.7636865696
 30
0.0
  0
SPLINE
  5
3AE
100
AcDbEntity
  8
ALL_ASSEMBLY_MEMBERS
100
AcDbSpline
 62
7
  6
CONTINUOUS
 70
0
 71
3
 72
37
 73
33
 74
0
 42
0.0000001
 43
0.0000001
 44
0.0000000001
 40
0.0
 40
0.0
 40
0.0
 40
0.0
 40
0.0962818702
 40
0.1917168037
 40
0.2853405011
 40
0.3763115557
 40
0.4637911098
 40
0.5469558841
 40
0.6250375262
 40
0.6973135098
 40
0.7631086589
 40
0.7933844551
 40
0.8218151492
 40
0.8483347665
 40
0.8728843296
 40
0.8954052432
 40
0.915843589
 40
0.9341554968
 40
0.9502985399
 40
0.9642330439
 40
0.9703630694
 40
0.9759307907
 40
0.9809331871
 40
0.9853673491
 40
0.9892305809
 40
0.9925214716
 40
0.995240247
 40
0.9973883289
 40
0.9982496131
 40
0.9989703186
 40
0.9995524466
 40
1.0
 40
1.0
 40
1.0
 40
1.0
 10
4.9465838509
 20
4.9375841777
 30
0.0
 10
4.9173453906
 20
4.9371198037
 30
0.0
 10
4.859125664
 20
4.936195146
 30
0.0
 10
4.772474903
 20
4.9348061434
 30
0.0
 10
4.6874373177
 20
4.9334173149
 30
0.0
 10
4.6048162135
 20
4.9320289669
 30
0.0
 10
4.5253720818
 20
4.9306412572
 30
0.0
 10
4.4498432537
 20
4.9292543135
 30
0.0
 10
4.3789327588
 20
4.927868545
 30
0.0
 10
4.313298709
 20
4.9264843367
 30
0.0
 10
4.2621830076
 20
4.9253022432
 30
0.0
 10
4.2243821536
 20
4.9243479034
 30
0.0
 10
4.1985071276
 20
4.9236523916
 30
0.0
 10
4.1743718988
 20
4.9229571979
 30
0.0
 10
4.1520323358
 20
4.9222625056
 30
0.0
 10
4.1315406834
 20
4.921568421
 30
0.0
 10
4.1129446563
 20
4.9208749881
 30
0.0
 10
4.096287106
 20
4.9201827375
 30
0.0
 10
4.0816067153
 20
4.9194919619
 30
0.0
 10
4.0706259933
 20
4.9188955312
 30
0.0
 10
4.0628561482
 20
4.9184114198
 30
0.0
 10
4.0577959285
 20
4.9180643635
 30
0.0
 10
4.0532520662
 20
4.9177177691
 30
0.0
 10
4.0492274913
 20
4.9173718123
 30
0.0
 10
4.0457248332
 20
4.9170266557
 30
0.0
 10
4.0427458176
 20
4.9166829577
 30
0.0
 10
4.0402917381
 20
4.9163409241
 30
0.0
 10
4.0385771261
 20
4.9160416166
 30
0.0
 10
4.0374716099
 20
4.9157932708
 30
0.0
 10
4.0368367289
 20
4.9156217107
 30
0.0
 10
4.0363329475
 20
4.9154512516
 30
0.0
 10
4.0360465539
 20
4.9153225252
 30
0.0
 10
4.0359288146
 20
4.9152545993
 30
0.0
  0
SPLINE
  5
3AF
100
AcDbEntity
  8
ALL_ASSEMBLY_MEMBERS
100
AcDbSpline
 62
7
  6
CONTINUOUS
 70
0
 71
3
 72
37
 73
33
 74
0
 42
0.0000001
 43
0.0000001
 44
0.0000000001
 40
0.0
 40
0.0
 40
0.0
 40
0.0
 40
0.0962819098
 40
0.1917159581
 40
0.2853374662
 40
0.3763070241
 40
0.4637863063
 40
0.5469523465
 40
0.6250352758
 40
0.6973120493
 40
0.7631078911
 40
0.7933840539
 40
0.8218151072
 40
0.8483349488
 40
0.8728846984
 40
0.8954058841
 40
0.9158443563
 40
0.9341562638
 40
0.9502993997
 40
0.9642339188
 40
0.9703638299
 40
0.9759314124
 40
0.9809336882
 40
0.9853677904
 40
0.9892310454
 40
0.9925218967
 40
0.9952405655
 40
0.9973885143
 40
0.9982497346
 40
0.9989703847
 40
0.9995524708
 40
1.0
 40
1.0
 40
1.0
 40
1.0
 10
4.9465838509
 20
4.8322669912
 30
0.0
 10
4.9758223222
 20
4.8327313654
 30
0.0
 10
5.0340417901
 20
4.8336560193
 30
0.0
 10
5.1206916265
 20
4.8350450064
 30
0.0
 10
5.2057278207
 20
4.8364338122
 30
0.0
 10
5.2883477203
 20
4.8378221366
 30
0.0
 10
5.3677916966
 20
4.8392098425
 30
0.0
 10
5.4433212149
 20
4.8405967942
 30
0.0
 10
5.5142327225
 20
4.8419825789
 30
0.0
 10
5.5798676111
 20
4.8433668009
 30
0.0
 10
5.6309838723
 20
4.8445489067
 30
0.0
 10
5.6687851557
 20
4.8455032562
 30
0.0
 10
5.6946604693
 20
4.8461987732
 30
0.0
 10
5.7187959311
 20
4.8468939749
 30
0.0
 10
5.7411357005
 20
4.847588677
 30
0.0
 10
5.7616275299
 20
4.8482827644
 30
0.0
 10
5.7802236771
 20
4.8489762041
 30
0.0
 10
5.7968812929
 20
4.849668467
 30
0.0
 10
5.8115617156
 20
4.8503592453
 30
0.0
 10
5.8225424354
 20
4.850955674
 30
0.0
 10
5.8303122073
 20
4.8514397917
 30
0.0
 10
5.835372313
 20
4.8517868493
 30
0.0
 10
5.8399160779
 20
4.8521334439
 30
0.0
 10
5.8439406047
 20
4.8524794015
 30
0.0
 10
5.8474432405
 20
4.8528245467
 30
0.0
 10
5.8504222192
 20
4.8531682385
 30
0.0
 10
5.8528762139
 20
4.8535102667
 30
0.0
 10
5.8545907331
 20
4.85380957
 30
0.0
 10
5.8556961716
 20
4.8540579117
 30
0.0
 10
5.8563310029
 20
4.8542294683
 30
0.0
 10
5.8568347465
 20
4.854399924
 30
0.0
 10
5.8571211194
 20
4.8545286468
 30
0.0
 10
5.8572388519
 20
4.8545965697
 30
0.0
  0
SPLINE
  5
3B0
100
AcDbEntity
  8
ALL_ASSEMBLY_MEMBERS
100
AcDbSpline
 62
7
  6
CONTINUOUS
 70
0
 71
3
 72
25
 73
21
 74
0
 42
0.0000001
 43
0.0000001
 44
0.0000000001
 40
0.0
 40
0.0
 40
0.0
 40
0.0
 40
0.003207016
 40
0.0051611909
 40
0.0074520577
 40
0.0132092866
 40
0.0206936566
 40
0.0299933843
 40
0.04115283
 40
0.0541966342
 40
0.0691394551
 40
0.104753735
 40
0.1480379552
 40
0.1990073324
 40
0.2576657217
 40
0.3240091868
 40
0.3980079711
 40
0.5687782535
 40
0.769579293
 40
1.0
 40
1.0
 40
1.0
 40
1.0
 10
4.0847943501
 20
4.6902180846
 30
0.0
 10
4.084794204
 20
4.6902723307
 30
0.0
 10
4.0848266252
 20
4.6903598383
 30
0.0
 10
4.0849071659
 20
4.6904567917
 30
0.0
 10
4.0850349382
 20
4.6905688528
 30
0.0
 10
4.0852625597
 20
4.6907032008
 30
0.0
 10
4.0856126501
 20
4.6908551239
 30
0.0
 10
4.0860604845
 20
4.6910076303
 30
0.0
 10
4.0866062534
 20
4.6911608137
 30
0.0
 10
4.0872504783
 20
4.691314447
 30
0.0
 10
4.0883040292
 20
4.6915326807
 30
0.0
 10
4.0898693014
 20
4.6917989149
 30
0.0
 10
4.0920447743
 20
4.6921046998
 30
0.0
 10
4.0946131513
 20
4.6924115449
 30
0.0
 10
4.0975738161
 20
4.692719288
 30
0.0
 10
4.1009258069
 20
4.6930275845
 30
0.0
 10
4.1061704954
 20
4.6934601271
 30
0.0
 10
4.1136887593
 20
4.693991338
 30
0.0
 10
4.1238529955
 20
4.6946048309
 30
0.0
 10
4.1311370398
 20
4.694988441
 30
0.0
 10
4.1350297374
 20
4.6951827008
 30
0.0
  0
SPLINE
  5
3B1
100
AcDbEntity
  8
ALL_ASSEMBLY_MEMBERS
100
AcDbSpline
 62
7
  6
CONTINUOUS
 70
0
 71
3
 72
62
 73
58
 74
0
 42
0.0000001
 43
0.0000001
 44
0.0000000001
 40
0.0
 40
0.0
 40
0.0
 40
0.0
 40
0.0002424462
 40
0.0003350788
 40
0.000442772
 40
0.0007054721
 40
0.0010335026
 40
0.0014282596
 40
0.0018905338
 40
0.0024208132
 40
0.003019404
 40
0.0036864213
 40
0.0052257298
 40
0.0070384702
 40
0.009123985
 40
0.0141098267
 40
0.0201753715
 40
0.0273079663
 40
0.0354908735
 40
0.0447070196
 40
0.0549375988
 40
0.0661585768
 40
0.0783448514
 40
0.091470988
 40
0.1055075838
 40
0.1204224485
 40
0.1361833153
 40
0.1701030342
 40
0.2069643021
 40
0.2464417736
 40
0.2881853986
 40
0.3318248271
 40
0.3769742307
 40
0.4232325135
 40
0.4701904959
 40
0.5174314365
 40
0.5645371043
 40
0.6110895032
 40
0.6566767601
 40
0.7008939676
 40
0.7433501406
 40
0.7836685619
 40
0.8214918192
 40
0.8564858816
 40
0.8883388859
 40
0.9167712537
 40
0.9415291393
 40
0.9524617098
 40
0.9623955417
 40
0.9713100679
 40
0.9791865641
 40
0.9860065506
 40
0.9917553212
 40
0.9942248107
 40
0.9964227835
 40
0.9983481585
 40
1.0
 40
1.0
 40
1.0
 40
1.0
 10
4.0847970122
 20
5.0538580827
 30
0.0
 10
4.0847973625
 20
5.053996893
 30
0.0
 10
4.0849659183
 20
5.0541598293
 30
0.0
 10
4.0851762806
 20
5.0542897364
 30
0.0
 10
4.0854138675
 20
5.0544118348
 30
0.0
 10
4.0857858029
 20
5.0545578476
 30
0.0
 10
4.0863251994
 20
5.0547256909
 30
0.0
 10
4.086982646
 20
5.0548937431
 30
0.0
 10
4.0877589728
 20
5.0550625085
 30
0.0
 10
4.0886542221
 20
5.0552315665
 30
0.0
 10
4.0896684698
 20
5.055400902
 30
0.0
 10
4.0912568028
 20
5.0556384096
 30
0.0
 10
4.0935395494
 20
5.0559302239
 30
0.0
 10
4.0966346012
 20
5.0562672371
 30
0.0
 10
4.1016986202
 20
5.0567465872
 30
0.0
 10
4.1091977796
 20
5.057330632
 30
0.0
 10
4.119587409
 20
5.0580013707
 30
0.0
 10
4.1318105884
 20
5.0586745626
 30
0.0
 10
4.1458398281
 20
5.0593499348
 30
0.0
 10
4.1616445488
 20
5.0600265343
 30
0.0
 10
4.1791900791
 20
5.0607039125
 30
0.0
 10
4.1984372533
 20
5.0613820061
 30
0.0
 10
4.2193431784
 20
5.0620606478
 30
0.0
 10
4.2418619377
 20
5.0627396087
 30
0.0
 10
4.2659435822
 20
5.0634188576
 30
0.0
 10
4.2915342751
 20
5.0640984218
 30
0.0
 10
4.3285062456
 20
5.0650276414
 30
0.0
 10
4.3780417682
 20
5.0661800384
 30
0.0
 10
4.441154934
 20
5.0675331266
 30
0.0
 10
4.5087485507
 20
5.0688873293
 30
0.0
 10
4.5802236634
 20
5.0702424512
 30
0.0
 10
4.6549467399
 20
5.0715982406
 30
0.0
 10
4.7322550506
 20
5.0729544463
 30
0.0
 10
4.8114636517
 20
5.0743110021
 30
0.0
 10
4.8918699159
 20
5.075667708
 30
0.0
 10
4.9727614106
 20
5.0770245124
 30
0.0
 10
5.0534206598
 20
5.0783812572
 30
0.0
 10
5.1331329722
 20
5.0797378894
 30
0.0
 10
5.2111912808
 20
5.0810942209
 30
0.0
 10
5.2869039702
 20
5.0824501918
 30
0.0
 10
5.3595995388
 20
5.0838055595
 30
0.0
 10
5.4286336508
 20
5.0851601328
 30
0.0
 10
5.4933945425
 20
5.0865136394
 30
0.0
 10
5.5533075271
 20
5.0878655347
 30
0.0
 10
5.6078424057
 20
5.0892152955
 30
0.0
 10
5.6565147288
 20
5.0905619484
 30
0.0
 10
5.6932095731
 20
5.0917229653
 30
0.0
 10
5.7193144145
 20
5.0926664039
 30
0.0
 10
5.7363518486
 20
5.0933437111
 30
0.0
 10
5.751638069
 20
5.0940199976
 30
0.0
 10
5.7651396326
 20
5.0946946546
 30
0.0
 10
5.7768261755
 20
5.0953674475
 30
0.0
 10
5.7854167004
 20
5.0959508891
 30
0.0
 10
5.7913614857
 20
5.0964268133
 30
0.0
 10
5.7951210764
 20
5.0967648983
 30
0.0
 10
5.7984104554
 20
5.0971022322
 30
0.0
 10
5.8004443083
 20
5.0973448784
 30
0.0
 10
5.80138191
 20
5.0974687529
 30
0.0
  0
SPLINE
  5
3B2
100
AcDbEntity
  8
ALL_ASSEMBLY_MEMBERS
100
AcDbSpline
 62
7
  6
CONTINUOUS
 70
0
 71
3
 72
32
 73
28
 74
0
 42
0.0000001
 43
0.0000001
 44
0.0000000001
 40
0.0
 40
0.0
 40
0.0
 40
0.0
 40
0.0008559316
 40
0.0013722525
 40
0.0019738893
 40
0.0034767923
 40
0.0054223595
 40
0.007834998
 40
0.010727328
 40
0.0141066107
 40
0.0179773528
 40
0.0272016921
 40
0.0384096234
 40
0.051602493
 40
0.0667784932
 40
0.0839341277
 40
0.1030649165
 40
0.1472308843
 40
0.1992170965
 40
0.258926868
 40
0.3262570766
 40
0.4011034637
 40
0.4833455235
 40
0.5728313542
 40
0.6694051149
 40
0.7729105711
 40
1.0
 40
1.0
 40
1.0
 40
1.0
 10
4.0847954634
 20
4.5993080842
 30
0.0
 10
4.0847954465
 20
4.5993603843
 30
0.0
 10
4.0848254859
 20
4.5994444798
 30
0.0
 10
4.0849009535
 20
4.5995386104
 30
0.0
 10
4.0850200356
 20
4.5996467452
 30
0.0
 10
4.0852324234
 20
4.5997767416
 30
0.0
 10
4.0855594035
 20
4.5999237042
 30
0.0
 10
4.0859776049
 20
4.6000711996
 30
0.0
 10
4.0864873207
 20
4.6002193021
 30
0.0
 10
4.0870891311
 20
4.6003678279
 30
0.0
 10
4.0880735337
 20
4.600578766
 30
0.0
 10
4.0895365038
 20
4.6008360731
 30
0.0
 10
4.0915698975
 20
4.6011316003
 30
0.0
 10
4.0939700655
 20
4.6014281322
 30
0.0
 10
4.0967358945
 20
4.6017255049
 30
0.0
 10
4.0998663276
 20
4.602023425
 30
0.0
 10
4.1047644723
 20
4.6024414532
 30
0.0
 10
4.1117901209
 20
4.6029548939
 30
0.0
 10
4.1212954064
 20
4.6035477569
 30
0.0
 10
4.1322183949
 20
4.6041421576
 30
0.0
 10
4.1445399467
 20
4.60473779
 30
0.0
 10
4.1582396916
 20
4.6053341701
 30
0.0
 10
4.1732943481
 20
4.6059310591
 30
0.0
 10
4.1896775479
 20
4.6065284321
 30
0.0
 10
4.2073607889
 20
4.6071262005
 30
0.0
 10
4.2334491577
 20
4.6079492109
 30
0.0
 10
4.2536413294
 20
4.60852663
 30
0.0
 10
4.2675120427
 20
4.6089048693
 30
0.0
  0
LINE
  5
3B3
100
AcDbEntity
  8
ALL_ASSEMBLY_MEMBERS
100
AcDbLine
 62
7
  6
CONTINUOUS
 10
4.2675120427
 20
4.6089048693
 11
4.2701313948
 21
4.6089760724
  0
LINE
  5
3B4
100
AcDbEntity
  8
ALL_ASSEMBLY_MEMBERS
100
AcDbLine
 62
7
  6
CONTINUOUS
 10
4.2701313948
 20
4.6089760724
 11
4.2750660332
 21
4.6091090236
  0
LINE
  5
3B5
100
AcDbEntity
  8
ALL_ASSEMBLY_MEMBERS
100
AcDbLine
 62
7
  6
CONTINUOUS
 10
4.3219718524
 20
4.6103054288
 11
4.3720894035
 21
4.6114780239
  0
LINE
  5
3B6
100
AcDbEntity
  8
ALL_ASSEMBLY_MEMBERS
100
AcDbLine
 62
7
  6
CONTINUOUS
 10
4.3720894035
 20
4.6114780239
 11
4.379006682
 21
4.6116330934
  0
LINE
  5
3B7
100
AcDbEntity
  8
ALL_ASSEMBLY_MEMBERS
100
AcDbLine
 62
7
  6
CONTINUOUS
 10
4.379006682
 20
4.6116330934
 11
4.4518851291
 21
4.6131889721
  0
LINE
  5
3B8
100
AcDbEntity
  8
ALL_ASSEMBLY_MEMBERS
100
AcDbLine
 62
7
  6
CONTINUOUS
 10
4.4518851291
 20
4.6131889721
 11
4.5563265751
 21
4.6152359236
  0
LINE
  5
3B9
100
AcDbEntity
  8
ALL_ASSEMBLY_MEMBERS
100
AcDbLine
 62
7
  6
CONTINUOUS
 10
4.5563265751
 20
4.6152359236
 11
4.6413167576
 21
4.6167966614
  0
SPLINE
  5
3BA
100
AcDbEntity
  8
ALL_ASSEMBLY_MEMBERS
100
AcDbSpline
 62
7
  6
CONTINUOUS
 70
0
 71
3
 72
38
 73
34
 74
0
 42
0.0000001
 43
0.0000001
 44
0.0000000001
 40
0.0
 40
0.0
 40
0.0
 40
0.0
 40
0.0838228191
 40
0.1701579747
 40
0.2577855162
 40
0.3454666999
 40
0.4319613929
 40
0.5160473931
 40
0.596536198
 40
0.6722888051
 40
0.7422352674
 40
0.7747195553
 40
0.8053881632
 40
0.8341328422
 40
0.860854189
 40
0.8854546492
 40
0.9078494197
 40
0.9279604867
 40
0.9457137235
 40
0.9610505213
 40
0.9677957946
 40
0.9739167139
 40
0.9794080843
 40
0.9842663224
 40
0.9884880779
 40
0.9920702744
 40
0.995010352
 40
0.9962391796
 40
0.997307477
 40
0.9982159141
 40
0.9989656456
 40
0.9995588249
 40
1.0
 40
1.0
 40
1.0
 40
1.0
 10
4.6413167576
 20
4.6167966614
 30
0.0
 10
4.6739254015
 20
4.6173821015
 30
0.0
 10
4.740120521
 20
4.6185434916
 30
0.0
 10
4.8404055067
 20
4.620252588
 30
0.0
 10
4.9421919181
 20
4.6219620204
 30
0.0
 10
5.0440404109
 20
4.6236714648
 30
0.0
 10
5.1445107664
 20
4.6253805899
 30
0.0
 10
5.2421823008
 20
4.6270890101
 30
0.0
 10
5.3356736528
 20
4.6287961958
 30
0.0
 10
5.4236626395
 20
4.6305017076
 30
0.0
 10
5.4929752994
 20
4.6319541494
 30
0.0
 10
5.5447485051
 20
4.6331272944
 30
0.0
 10
5.5804938648
 20
4.6339850116
 30
0.0
 10
5.6139962969
 20
4.634842335
 30
0.0
 10
5.6451369185
 20
4.635698996
 30
0.0
 10
5.673805922
 20
4.6365550377
 30
0.0
 10
5.6999017712
 20
4.6374101299
 30
0.0
 10
5.7233319862
 20
4.638263651
 30
0.0
 10
5.7440140889
 20
4.6391156386
 30
0.0
 10
5.7594959886
 20
4.6398509484
 30
0.0
 10
5.7704530354
 20
4.6404480232
 30
0.0
 10
5.7775828288
 20
4.6408760435
 30
0.0
 10
5.7839769959
 20
4.6413034994
 30
0.0
 10
5.7896304441
 20
4.6417301871
 30
0.0
 10
5.7945388215
 20
4.6421555802
 30
0.0
 10
5.7986977351
 20
4.6425794397
 30
0.0
 10
5.8016913323
 20
4.6429485382
 30
0.0
 10
5.8037064942
 20
4.6432515235
 30
0.0
 10
5.8049355695
 20
4.6434644569
 30
0.0
 10
5.8059750954
 20
4.6436766023
 30
0.0
 10
5.8068258662
 20
4.6438875078
 30
0.0
 10
5.8074878909
 20
4.6440967418
 30
0.0
 10
5.8078594505
 20
4.6442566164
 30
0.0
 10
5.8080080999
 20
4.644342454
 30
0.0
  0
SPLINE
  5
3BB
100
AcDbEntity
  8
ALL_ASSEMBLY_MEMBERS
100
AcDbSpline
 62
7
  6
CONTINUOUS
 70
0
 71
3
 72
37
 73
33
 74
0
 42
0.0000001
 43
0.0000001
 44
0.0000000001
 40
0.0
 40
0.0
 40
0.0
 40
0.0
 40
0.0962820469
 40
0.1917181565
 40
0.285343162
 40
0.3763153145
 40
0.4637964735
 40
0.5469625772
 40
0.6250441375
 40
0.6973179884
 40
0.76311097
 40
0.7933857256
 40
0.8218157324
 40
0.8483348311
 40
0.8728840294
 40
0.8954047724
 40
0.9158430539
 40
0.934154962
 40
0.9502980844
 40
0.9642326931
 40
0.9703627621
 40
0.9759305297
 40
0.9809329813
 40
0.9853672138
 40
0.9892305295
 40
0.9925214641
 40
0.995240248
 40
0.9973883219
 40
0.9982496016
 40
0.9989703053
 40
0.9995524366
 40
1.0
 40
1.0
 40
1.0
 40
1.0
 10
4.9465838509
 20
4.8466741777
 30
0.0
 10
4.9173453388
 20
4.8462098029
 30
0.0
 10
4.8591252049
 20
4.8452851387
 30
0.0
 10
4.7724736411
 20
4.843896123
 30
0.0
 10
4.6874349733
 20
4.8425072764
 30
0.0
 10
4.6048126562
 20
4.8411189055
 30
0.0
 10
4.5253673049
 20
4.8397311743
 30
0.0
 10
4.4498376155
 20
4.8383442022
 30
0.0
 10
4.3789273936
 20
4.8369584417
 30
0.0
 10
4.3132946789
 20
4.8355742428
 30
0.0
 10
4.2621806022
 20
4.8343921884
 30
0.0
 10
4.2243809335
 20
4.8334378697
 30
0.0
 10
4.1985065911
 20
4.8327423779
 30
0.0
 10
4.1743718406
 20
4.8320471971
 30
0.0
 10
4.152032599
 20
4.8313525134
 30
0.0
 10
4.1315411298
 20
4.8306584369
 30
0.0
 10
4.1129451749
 20
4.829965009
 30
0.0
 10
4.0962876209
 20
4.8292727597
 30
0.0
 10
4.0816071751
 20
4.8285819851
 30
0.0
 10
4.0706263846
 20
4.8279855541
 30
0.0
 10
4.062856481
 20
4.8275014403
 30
0.0
 10
4.0577962175
 20
4.827154382
 30
0.0
 10
4.0532523033
 20
4.8268077855
 30
0.0
 10
4.049227665
 20
4.8264618259
 30
0.0
 10
4.0457249465
 20
4.8261166701
 30
0.0
 10
4.0427458897
 20
4.8257729699
 30
0.0
 10
4.0402917971
 20
4.8254309335
 30
0.0
 10
4.038577187
 20
4.8251316229
 30
0.0
 10
4.0374716758
 20
4.8248832747
 30
0.0
 10
4.0368367962
 20
4.8247117129
 30
0.0
 10
4.0363330118
 20
4.8245412519
 30
0.0
 10
4.0360466143
 20
4.8244125249
 30
0.0
 10
4.0359288713
 20
4.8243445994
 30
0.0
  0
SPLINE
  5
3BC
100
AcDbEntity
  8
ALL_ASSEMBLY_MEMBERS
100
AcDbSpline
 62
7
  6
CONTINUOUS
 70
0
 71
3
 72
41
 73
37
 74
0
 42
0.0000001
 43
0.0000001
 44
0.0000000001
 40
0.0
 40
0.0
 40
0.0
 40
0.0
 40
0.0002449111
 40
0.0003914333
 40
0.0005612909
 40
0.0009832912
 40
0.0015272825
 40
0.0022002416
 40
0.0030057597
 40
0.0050215654
 40
0.0062341561
 40
0.0075839139
 40
0.0090712004
 40
0.0106962645
 40
0.0143603149
 40
0.0185765181
 40
0.0233435657
 40
0.028659637
 40
0.0409306451
 40
0.0553723923
 40
0.0719663839
 40
0.0906871162
 40
0.1115018151
 40
0.1343771745
 40
0.1592796318
 40
0.1861701333
 40
0.2150024335
 40
0.2783052052
 40
0.3487889693
 40
0.4259930346
 40
0.5094278381
 40
0.5985496359
 40
0.6927909574
 40
0.7915394057
 40
0.8941640964
 40
1.0
 40
1.0
 40
1.0
 40
1.0
 10
4.0847942946
 20
4.5083980857
 30
0.0
 10
4.0847943946
 20
4.5084486296
 30
0.0
 10
4.0848224939
 20
4.5085296685
 30
0.0
 10
4.0848936761
 20
4.5086211396
 30
0.0
 10
4.0850054593
 20
4.5087256799
 30
0.0
 10
4.0852049198
 20
4.5088516416
 30
0.0
 10
4.0855121254
 20
4.508994033
 30
0.0
 10
4.0859047223
 20
4.5091369523
 30
0.0
 10
4.0865957544
 20
4.5093439594
 30
0.0
 10
4.0874078134
 20
4.5095307639
 30
0.0
 10
4.0883349205
 20
4.5097126759
 30
0.0
 10
4.0891581791
 20
4.5098570726
 30
0.0
 10
4.0900676516
 20
4.5100017003
 30
0.0
 10
4.0914516561
 20
4.5102027554
 30
0.0
 10
4.0933977048
 20
4.5104510146
 30
0.0
 10
4.0959919653
 20
4.5107389608
 30
0.0
 10
4.0989289523
 20
4.5110274187
 30
0.0
 10
4.1035246039
 20
4.5114321626
 30
0.0
 10
4.1101161363
 20
4.5119293317
 30
0.0
 10
4.1190352993
 20
4.5125035992
 30
0.0
 10
4.1292878492
 20
4.5130791754
 30
0.0
 10
4.1408573736
 20
4.5136558494
 30
0.0
 10
4.1537246262
 20
4.5142333336
 30
0.0
 10
4.1678687771
 20
4.5148114239
 30
0.0
 10
4.1832677749
 20
4.5153898946
 30
0.0
 10
4.1998969364
 20
4.5159686692
 30
0.0
 10
4.2244481773
 20
4.5167658186
 30
0.0
 10
4.2579945576
 20
4.5177526355
 30
0.0
 10
4.3015229927
 20
4.5189049572
 30
0.0
 10
4.3492075009
 20
4.5200588734
 30
0.0
 10
4.4007394817
 20
4.521213748
 30
0.0
 10
4.4557883635
 20
4.5223695746
 30
0.0
 10
4.5139982761
 20
4.5235258839
 30
0.0
 10
4.574995388
 20
4.5246827638
 30
0.0
 10
4.6383857639
 20
4.5258399037
 30
0.0
 10
4.6814005318
 20
4.5266014713
 30
0.0
 10
4.7032393015
 20
4.5269836825
 30
0.0
  0
LINE
  5
3BD
100
AcDbEntity
  8
ALL_ASSEMBLY_MEMBERS
100
AcDbLine
 62
7
  6
CONTINUOUS
 10
4.7054715526
 20
4.5270227348
 11
4.7139736683
 21
4.527171197
  0
LINE
  5
3BE
100
AcDbEntity
  8
ALL_ASSEMBLY_MEMBERS
100
AcDbLine
 62
7
  6
CONTINUOUS
 10
4.7139736683
 20
4.527171197
 11
4.9465427637
 21
4.5311248933
  0
LINE
  5
3BF
100
AcDbEntity
  8
ALL_ASSEMBLY_MEMBERS
100
AcDbLine
 62
7
  6
CONTINUOUS
 10
4.9465427637
 20
4.5311248933
 11
5.1791102108
 21
4.5350785184
  0
LINE
  5
3C0
100
AcDbEntity
  8
ALL_ASSEMBLY_MEMBERS
100
AcDbLine
 62
7
  6
CONTINUOUS
 10
5.1791102108
 20
4.5350785184
 11
5.1876814543
 21
4.5352281854
  0
SPLINE
  5
3C1
100
AcDbEntity
  8
ALL_ASSEMBLY_MEMBERS
100
AcDbSpline
 62
7
  6
CONTINUOUS
 70
0
 71
3
 72
36
 73
32
 74
0
 42
0.0000001
 43
0.0000001
 44
0.0000000001
 40
0.0
 40
0.0
 40
0.0
 40
0.0
 40
0.1035116425
 40
0.2039819673
 40
0.3007943699
 40
0.3933461275
 40
0.4810705607
 40
0.5634206902
 40
0.639893113
 40
0.7100109284
 40
0.7733458308
 40
0.8023455167
 40
0.8295037766
 40
0.8547817825
 40
0.8781418442
 40
0.8995463363
 40
0.9189599494
 40
0.9363560406
 40
0.9517102216
 40
0.9649984473
 40
0.9761986533
 40
0.9810117118
 40
0.9852987775
 40
0.9890591659
 40
0.9922925723
 40
0.9949993687
 40
0.9971812607
 40
0.9980767914
 40
0.9988434014
 40
0.9994832123
 40
1.0
 40
1.0
 40
1.0
 40
1.0
 10
5.1876814543
 20
4.5352281854
 30
0.0
 10
5.209098228
 20
4.5356027113
 30
0.0
 10
5.2513023765
 20
4.53634904
 30
0.0
 10
5.3135365503
 20
4.5374827115
 30
0.0
 10
5.3735023738
 20
4.5386159807
 30
0.0
 10
5.4308301591
 20
4.5397489349
 30
0.0
 10
5.4851646141
 20
4.540881235
 30
0.0
 10
5.5361709618
 20
4.5420129396
 30
0.0
 10
5.5835329781
 20
4.54314354
 30
0.0
 10
5.6269589175
 20
4.544273017
 30
0.0
 10
5.6605619844
 20
4.5452388307
 30
0.0
 10
5.6852768076
 20
4.5460183528
 30
0.0
 10
5.7021191189
 20
4.5465855272
 30
0.0
 10
5.7177937061
 20
4.5471523923
 30
0.0
 10
5.7322768231
 20
4.5477188865
 30
0.0
 10
5.7455454152
 20
4.5482849024
 30
0.0
 10
5.757578661
 20
4.5488504108
 30
0.0
 10
5.7683584077
 20
4.5494151148
 30
0.0
 10
5.7778687549
 20
4.5499785365
 30
0.0
 10
5.7860944887
 20
4.5505403648
 30
0.0
 10
5.7921386225
 20
4.5510276312
 30
0.0
 10
5.796320678
 20
4.5514250127
 30
0.0
 10
5.798967011
 20
4.551707346
 30
0.0
 10
5.8012844357
 20
4.5519890672
 30
0.0
 10
5.8032722896
 20
4.552269799
 30
0.0
 10
5.8049297941
 20
4.552549381
 30
0.0
 10
5.8061022174
 20
4.5527935697
 30
0.0
 10
5.8068719578
 20
4.552994856
 30
0.0
 10
5.8073273621
 20
4.5531353664
 30
0.0
 10
5.8077001458
 20
4.5532753462
 30
0.0
 10
5.8079166362
 20
4.5533789213
 30
0.0
 10
5.8080092127
 20
4.5534324556
 30
0.0
  0
SPLINE
  5
3C2
100
AcDbEntity
  8
ALL_ASSEMBLY_MEMBERS
100
AcDbSpline
 62
7
  6
CONTINUOUS
 70
0
 71
3
 72
43
 73
39
 74
0
 42
0.0000001
 43
0.0000001
 44
0.0000000001
 40
0.0
 40
0.0
 40
0.0
 40
0.0
 40
0.0000991898
 40
0.0002117937
 40
0.0003472827
 40
0.0005111953
 40
0.000935145
 40
0.0014969171
 40
0.0022015182
 40
0.0030513566
 40
0.0040477214
 40
0.0051913487
 40
0.0064826715
 40
0.0079219435
 40
0.0112447804
 40
0.0151602311
 40
0.0196668075
 40
0.0247616743
 40
0.0304417708
 40
0.0435448133
 40
0.058949202
 40
0.076618288
 40
0.0965076839
 40
0.1185724185
 40
0.1427604634
 40
0.1690107148
 40
0.1972613951
 40
0.2274464903
 40
0.2594905298
 40
0.2933167365
 40
0.3659908962
 40
0.4447670294
 40
0.5288902319
 40
0.6175537113
 40
0.7098935391
 40
0.8050261768
 40
0.9020657024
 40
1.0
 40
1.0
 40
1.0
 40
1.0
 10
4.0355838512
 20
4.9004494912
 30
0.0
 10
4.0355838532
 20
4.9004796347
 30
0.0
 10
4.0355973479
 20
4.9005444082
 30
0.0
 10
4.03565347
 20
4.9006354216
 30
0.0
 10
4.0357427326
 20
4.9007242954
 30
0.0
 10
4.0359217985
 20
4.9008528645
 30
0.0
 10
4.0362377913
 20
4.9010062003
 30
0.0
 10
4.0367216433
 20
4.9011793956
 30
0.0
 10
4.037341188
 20
4.9013536257
 30
0.0
 10
4.0380964575
 20
4.9015288044
 30
0.0
 10
4.0389880426
 20
4.9017045408
 30
0.0
 10
4.0400158991
 20
4.9018806868
 30
0.0
 10
4.0411800259
 20
4.9020571337
 30
0.0
 10
4.0430029683
 20
4.9023046854
 30
0.0
 10
4.0456226741
 20
4.9026088742
 30
0.0
 10
4.0491746848
 20
4.9029600623
 30
0.0
 10
4.0532674059
 20
4.9033120554
 30
0.0
 10
4.0578980558
 20
4.9036647898
 30
0.0
 10
4.0651376722
 20
4.904159581
 30
0.0
 10
4.0755095776
 20
4.9047673638
 30
0.0
 10
4.0895250013
 20
4.9054693324
 30
0.0
 10
4.1056049397
 20
4.9061730089
 30
0.0
 10
4.1237105617
 20
4.906878209
 30
0.0
 10
4.1437985849
 20
4.9075842737
 30
0.0
 10
4.1658207077
 20
4.908290978
 30
0.0
 10
4.189723586
 20
4.9089982837
 30
0.0
 10
4.2154496734
 20
4.9097059875
 30
0.0
 10
4.2429370875
 20
4.9104139249
 30
0.0
 10
4.2721194046
 20
4.9111221819
 30
0.0
 10
4.3142114749
 20
4.912090083
 30
0.0
 10
4.3705036355
 20
4.9132903826
 30
0.0
 10
4.4420797774
 20
4.9147004108
 30
0.0
 10
4.5185158756
 20
4.9161116437
 30
0.0
 10
4.5990745798
 20
4.9175237739
 30
0.0
 10
4.6829794934
 20
4.9189365845
 30
0.0
 10
4.7694301991
 20
4.9203499114
 30
0.0
 10
4.8575812638
 20
4.9217634316
 30
0.0
 10
4.9168256939
 20
4.9227043632
 30
0.0
 10
4.9465838509
 20
4.9231769912
 30
0.0
  0
SPLINE
  5
3C3
100
AcDbEntity
  8
ALL_ASSEMBLY_MEMBERS
100
AcDbSpline
 62
7
  6
CONTINUOUS
 70
0
 71
3
 72
32
 73
28
 74
0
 42
0.0000001
 43
0.0000001
 44
0.0000000001
 40
0.0
 40
0.0
 40
0.0
 40
0.0
 40
0.0017472257
 40
0.0024216231
 40
0.0032071753
 40
0.0051266458
 40
0.0075260703
 40
0.0104148045
 40
0.0137979367
 40
0.0176784276
 40
0.0220580672
 40
0.0269379506
 40
0.0382006109
 40
0.0514689695
 40
0.0667415949
 40
0.1032674717
 40
0.1477036123
 40
0.1999683333
 40
0.2599660864
 40
0.3275636902
 40
0.402619988
 40
0.4849908365
 40
0.5745024352
 40
0.6709617702
 40
0.7741752245
 40
0.8839339315
 40
1.0
 40
1.0
 40
1.0
 40
1.0
 10
4.035583851
 20
4.8095394912
 30
0.0
 10
4.035583846
 20
4.8096750177
 30
0.0
 10
4.0357527819
 20
4.8098326622
 30
0.0
 10
4.035960313
 20
4.8099576433
 30
0.0
 10
4.0361965608
 20
4.8100759722
 30
0.0
 10
4.0365659844
 20
4.8102173084
 30
0.0
 10
4.0371016302
 20
4.8103798184
 30
0.0
 10
4.0377543238
 20
4.8105425282
 30
0.0
 10
4.0385248291
 20
4.8107059515
 30
0.0
 10
4.0394130642
 20
4.8108696692
 30
0.0
 10
4.0404190703
 20
4.8110336839
 30
0.0
 10
4.0419942499
 20
4.811263753
 30
0.0
 10
4.0442581952
 20
4.8115464793
 30
0.0
 10
4.0473284239
 20
4.811872986
 30
0.0
 10
4.0523541588
 20
4.8123373993
 30
0.0
 10
4.0597977027
 20
4.8129031506
 30
0.0
 10
4.070111348
 20
4.8135530833
 30
0.0
 10
4.0822485632
 20
4.8142053809
 30
0.0
 10
4.0961844419
 20
4.8148595099
 30
0.0
 10
4.1118898445
 20
4.8155149051
 30
0.0
 10
4.12933196
 20
4.8161712433
 30
0.0
 10
4.1484749387
 20
4.8168281351
 30
0.0
 10
4.1692789563
 20
4.817485506
 30
0.0
 10
4.1917003965
 20
4.8181433097
 30
0.0
 10
4.2156929577
 20
4.8188013982
 30
0.0
 10
4.2412068782
 20
4.8194596686
 30
0.0
 10
4.2587181467
 20
4.8198870379
 30
0.0
 10
4.2677184533
 20
4.8201014014
 30
0.0
  0
LINE
  5
3C4
100
AcDbEntity
  8
ALL_ASSEMBLY_MEMBERS
100
AcDbLine
 62
7
  6
CONTINUOUS
 10
4.2702629633
 20
4.820161864
 11
4.3220430496
 21
4.8213377611
  0
LINE
  5
3C5
100
AcDbEntity
  8
ALL_ASSEMBLY_MEMBERS
100
AcDbLine
 62
7
  6
CONTINUOUS
 10
4.3220430496
 20
4.8213377611
 11
4.3714414359
 21
4.8223809223
  0
LINE
  5
3C6
100
AcDbEntity
  8
ALL_ASSEMBLY_MEMBERS
100
AcDbLine
 62
7
  6
CONTINUOUS
 10
4.3714414359
 20
4.8223809223
 11
4.3790543477
 21
4.8225361611
  0
LINE
  5
3C7
100
AcDbEntity
  8
ALL_ASSEMBLY_MEMBERS
100
AcDbLine
 62
7
  6
CONTINUOUS
 10
4.3790543477
 20
4.8225361611
 11
4.4519684747
 21
4.8239629124
  0
LINE
  5
3C8
100
AcDbEntity
  8
ALL_ASSEMBLY_MEMBERS
100
AcDbLine
 62
7
  6
CONTINUOUS
 10
4.4519684747
 20
4.8239629124
 11
4.5563464768
 21
4.8258619664
  0
LINE
  5
3C9
100
AcDbEntity
  8
ALL_ASSEMBLY_MEMBERS
100
AcDbLine
 62
7
  6
CONTINUOUS
 10
4.5563464768
 20
4.8258619664
 11
4.6413427518
 21
4.8273234312
  0
LINE
  5
3CA
100
AcDbEntity
  8
ALL_ASSEMBLY_MEMBERS
100
AcDbLine
 62
7
  6
CONTINUOUS
 10
4.6413427518
 20
4.8273234312
 11
4.7807550719
 21
4.8296184813
  0
LINE
  5
3CB
100
AcDbEntity
  8
ALL_ASSEMBLY_MEMBERS
100
AcDbLine
 62
7
  6
CONTINUOUS
 10
4.7807550719
 20
4.8296184813
 11
4.9465838509
 21
4.8322669912
  0
SPLINE
  5
3CC
100
AcDbEntity
  8
ALL_ASSEMBLY_MEMBERS
100
AcDbSpline
 62
7
  6
CONTINUOUS
 70
0
 71
3
 72
70
 73
66
 74
0
 42
0.0000001
 43
0.0000001
 44
0.0000000001
 40
0.0
 40
0.0
 40
0.0
 40
0.0
 40
0.0002516821
 40
0.0003491441
 40
0.0004627776
 40
0.0007407332
 40
0.0010884747
 40
0.0015073071
 40
0.0019979206
 40
0.0025606999
 40
0.0031958618
 40
0.0039035237
 40
0.0055364997
 40
0.0074596801
 40
0.0096727335
 40
0.0149651711
 40
0.02140162
 40
0.0289669582
 40
0.037645499
 40
0.0474170209
 40
0.0582571223
 40
0.0701411712
 40
0.0830424052
 40
0.0969288001
 40
0.1117675031
 40
0.1275250453
 40
0.1441633929
 40
0.1799218862
 40
0.2187073543
 40
0.2601521559
 40
0.303864941
 40
0.3494332547
 40
0.3964255296
 40
0.4443985976
 40
0.4928983957
 40
0.5414670689
 40
0.589645146
 40
0.6369779062
 40
0.6830173649
 40
0.7273289454
 40
0.7694940165
 40
0.8091132694
 40
0.8458141182
 40
0.8792477586
 40
0.8946407111
 40
0.9091004423
 40
0.9225937348
 40
0.9350897076
 40
0.9465576055
 40
0.9569701144
 40
0.9663044897
 40
0.9745383801
 40
0.9816511718
 40
0.9847825575
 40
0.9876284592
 40
0.9901873201
 40
0.9924576439
 40
0.9944380376
 40
0.9961276875
 40
0.99752675
 40
0.9986360494
 40
0.9990827215
 40
0.9994580779
 40
0.9997631596
 40
1.0
 40
1.0
 40
1.0
 40
1.0
 10
4.0847946163
 20
4.4174880831
 30
0.0
 10
4.0847943113
 20
4.4176327522
 30
0.0
 10
4.0849757606
 20
4.4178009048
 30
0.0
 10
4.085197976
 20
4.4179338312
 30
0.0
 10
4.0854517181
 20
4.4180600195
 30
0.0
 10
4.085848622
 20
4.418210644
 30
0.0
 10
4.0864242738
 20
4.4183838467
 30
0.0
 10
4.0871258686
 20
4.4185572627
 30
0.0
 10
4.087954173
 20
4.4187314509
 30
0.0
 10
4.0889090278
 20
4.4189059553
 30
0.0
 10
4.0899904122
 20
4.4190807794
 30
0.0
 10
4.0916833223
 20
4.4193259977
 30
0.0
 10
4.0941158513
 20
4.4196273373
 30
0.0
 10
4.0974138481
 20
4.4199753781
 30
0.0
 10
4.1028110171
 20
4.4204704728
 30
0.0
 10
4.1108027088
 20
4.4210734066
 30
0.0
 10
4.1218717261
 20
4.4217661001
 30
0.0
 10
4.1348901996
 20
4.4224614231
 30
0.0
 10
4.1498279255
 20
4.4231587394
 30
0.0
 10
4.1666497698
 20
4.4238572737
 30
0.0
 10
4.1853155446
 20
4.4245568604
 30
0.0
 10
4.2057814286
 20
4.4252571207
 30
0.0
 10
4.2279992757
 20
4.4259577995
 30
0.0
 10
4.2519162535
 20
4.4266589378
 30
0.0
 10
4.2774757127
 20
4.4273604241
 30
0.0
 10
4.3046175754
 20
4.4280621033
 30
0.0
 10
4.3437816726
 20
4.4290211506
 30
0.0
 10
4.3961807271
 20
4.4302106607
 30
0.0
 10
4.4628376255
 20
4.4316076587
 30
0.0
 10
4.5340676401
 20
4.4330058973
 30
0.0
 10
4.6091971905
 20
4.4344050618
 30
0.0
 10
4.6875160005
 20
4.43580483
 30
0.0
 10
4.768284032
 20
4.4372050872
 30
0.0
 10
4.8507373527
 20
4.4386055881
 30
0.0
 10
4.9340969287
 20
4.4400062646
 30
0.0
 10
5.0175743625
 20
4.4414069345
 30
0.0
 10
5.100380878
 20
4.442807524
 30
0.0
 10
5.1817333696
 20
4.4442078441
 30
0.0
 10
5.2608630304
 20
4.4456077966
 30
0.0
 10
5.3370217827
 20
4.4470071651
 30
0.0
 10
5.4094895026
 20
4.4484056898
 30
0.0
 10
5.4775816625
 20
4.4498031245
 30
0.0
 10
5.5406538111
 20
4.4511989264
 30
0.0
 10
5.5898014587
 20
4.4523907614
 30
0.0
 10
5.6261663657
 20
4.4533528976
 30
0.0
 10
5.6510722114
 20
4.4540542686
 30
0.0
 10
5.6743121513
 20
4.4547552835
 30
0.0
 10
5.6958315329
 20
4.4554557916
 30
0.0
 10
5.7155790564
 20
4.4561557378
 30
0.0
 10
5.7335080415
 20
4.4568550216
 30
0.0
 10
5.7495765874
 20
4.4575531139
 30
0.0
 10
5.7637464794
 20
4.4582497439
 30
0.0
 10
5.7743509889
 20
4.4588511561
 30
0.0
 10
5.7818594934
 20
4.4593392335
 30
0.0
 10
5.7867537011
 20
4.4596892321
 30
0.0
 10
5.7911516044
 20
4.4600387718
 30
0.0
 10
5.7950503247
 20
4.460387684
 30
0.0
 10
5.7984472214
 20
4.4607357934
 30
0.0
 10
5.8013405397
 20
4.4610824955
 30
0.0
 10
5.8037289907
 20
4.4614275663
 30
0.0
 10
5.8054013688
 20
4.4617294483
 30
0.0
 10
5.8064831638
 20
4.46197962
 30
0.0
 10
5.8071078459
 20
4.4621527788
 30
0.0
 10
5.8076064712
 20
4.4623249183
 30
0.0
 10
5.8078910646
 20
4.4624544244
 30
0.0
 10
5.8080089871
 20
4.462522453
 30
0.0
  0
SPLINE
  5
3CD
100
AcDbEntity
  8
ALL_ASSEMBLY_MEMBERS
100
AcDbSpline
 62
7
  6
CONTINUOUS
 70
0
 71
3
 72
25
 73
21
 74
0
 42
0.0000001
 43
0.0000001
 44
0.0000000001
 40
0.0
 40
0.0
 40
0.0
 40
0.0
 40
0.0014671887
 40
0.0030877763
 40
0.0049793678
 40
0.007217332
 40
0.0128924954
 40
0.02031721
 40
0.0295726268
 40
0.0406989164
 40
0.0537180976
 40
0.068643076
 40
0.1042375042
 40
0.1475174403
 40
0.1984936967
 40
0.2571668583
 40
0.3975630144
 40
0.5684388904
 40
0.7693901096
 40
1.0
 40
1.0
 40
1.0
 40
1.0
 10
4.0355847074
 20
4.7186294913
 30
0.0
 10
4.0355846317
 20
4.7186557017
 30
0.0
 10
4.0355943741
 20
4.7187112169
 30
0.0
 10
4.0356364306
 20
4.7187907646
 30
0.0
 10
4.0357042525
 20
4.7188687629
 30
0.0
 10
4.0358396827
 20
4.7189806849
 30
0.0
 10
4.0360803813
 20
4.7191151105
 30
0.0
 10
4.0364501309
 20
4.719266761
 30
0.0
 10
4.0369233612
 20
4.7194192038
 30
0.0
 10
4.0375002158
 20
4.7195723315
 30
0.0
 10
4.0381812117
 20
4.7197259435
 30
0.0
 10
4.0392952186
 20
4.7199442066
 30
0.0
 10
4.0409500278
 20
4.7202104275
 30
0.0
 10
4.0432496463
 20
4.720516173
 30
0.0
 10
4.0459644981
 20
4.7208230352
 30
0.0
 10
4.0504101127
 20
4.7212599143
 30
0.0
 10
4.0569979517
 20
4.7217918974
 30
0.0
 10
4.0661282434
 20
4.7224029576
 30
0.0
 10
4.0768730898
 20
4.7230161589
 30
0.0
 10
4.0845731809
 20
4.7233998406
 30
0.0
 10
4.088688311
 20
4.7235941075
 30
0.0
  0
SPLINE
  5
3CE
100
AcDbEntity
  8
ALL_ASSEMBLY_MEMBERS
100
AcDbSpline
 62
7
  6
CONTINUOUS
 70
0
 71
3
 72
43
 73
39
 74
0
 42
0.0000001
 43
0.0000001
 44
0.0000000001
 40
0.0
 40
0.0
 40
0.0
 40
0.0
 40
0.0000991837
 40
0.000211775
 40
0.0003472461
 40
0.0005111369
 40
0.0009350343
 40
0.0014967456
 40
0.00220128
 40
0.0030510476
 40
0.0040473396
 40
0.0051908934
 40
0.0064821438
 40
0.0079213463
 40
0.0112440584
 40
0.0151593846
 40
0.0196657386
 40
0.0247603193
 40
0.0304401152
 40
0.0435427118
 40
0.0589469909
 40
0.076615869
 40
0.0965051791
 40
0.1185701798
 40
0.1427585468
 40
0.1690092624
 40
0.197260753
 40
0.2274470139
 40
0.2594923712
 40
0.2933198493
 40
0.365996612
 40
0.4447741252
 40
0.5288976766
 40
0.6175606107
 40
0.7098994383
 40
0.8050294306
 40
0.9020663074
 40
1.0
 40
1.0
 40
1.0
 40
1.0
 10
4.0355838511
 20
4.6277194912
 30
0.0
 10
4.0355838481
 20
4.6277496328
 30
0.0
 10
4.0355973301
 20
4.6278144031
 30
0.0
 10
4.0356534335
 20
4.6279054154
 30
0.0
 10
4.0357426759
 20
4.6279942872
 30
0.0
 10
4.0359217098
 20
4.6281228531
 30
0.0
 10
4.0362376597
 20
4.6282761844
 30
0.0
 10
4.0367214558
 20
4.6284493737
 30
0.0
 10
4.0373409398
 20
4.6286235977
 30
0.0
 10
4.0380961451
 20
4.6287987703
 30
0.0
 10
4.0389876643
 20
4.6289745005
 30
0.0
 10
4.0400154544
 20
4.6291506403
 30
0.0
 10
4.041179516
 20
4.6293270813
 30
0.0
 10
4.0430023776
 20
4.6295746259
 30
0.0
 10
4.0456219871
 20
4.6298788049
 30
0.0
 10
4.0491738553
 20
4.6302299789
 30
0.0
 10
4.0532663839
 20
4.6305819673
 30
0.0
 10
4.0578967876
 20
4.630934697
 30
0.0
 10
4.0651360898
 20
4.6314294872
 30
0.0
 10
4.0755077351
 20
4.6320372708
 30
0.0
 10
4.0895229276
 20
4.6327392272
 30
0.0
 10
4.1056027432
 20
4.6334429178
 30
0.0
 10
4.123708357
 20
4.6341481313
 30
0.0
 10
4.1437965334
 20
4.6348542021
 30
0.0
 10
4.1658189765
 20
4.6355609235
 30
0.0
 10
4.1897223405
 20
4.6362682494
 30
0.0
 10
4.21544917
 20
4.6369759745
 30
0.0
 10
4.2429375859
 20
4.6376839354
 30
0.0
 10
4.2721210449
 20
4.6383922177
 30
0.0
 10
4.314214694
 20
4.639360157
 30
0.0
 10
4.3705084534
 20
4.6405604776
 30
0.0
 10
4.442085914
 20
4.6419705317
 30
0.0
 10
4.5185223749
 20
4.6433817577
 30
0.0
 10
4.5990807183
 20
4.6447938802
 30
0.0
 10
4.6829843616
 20
4.6462066646
 30
0.0
 10
4.7694331578
 20
4.6476199594
 30
0.0
 10
4.8575824332
 20
4.64903345
 30
0.0
 10
4.9168258767
 20
4.6499743661
 30
0.0
 10
4.9465838509
 20
4.6504469912
 30
0.0
  0
SPLINE
  5
3CF
100
AcDbEntity
  8
ALL_ASSEMBLY_MEMBERS
100
AcDbSpline
 62
7
  6
CONTINUOUS
 70
0
 71
3
 72
43
 73
39
 74
0
 42
0.0000001
 43
0.0000001
 44
0.0000000001
 40
0.0
 40
0.0
 40
0.0
 40
0.0
 40
0.0000991873
 40
0.0002117879
 40
0.000347271
 40
0.0005111747
 40
0.0009350975
 40
0.0014968318
 40
0.0022013867
 40
0.0030511726
 40
0.0040474813
 40
0.0051910511
 40
0.0064823174
 40
0.0079215365
 40
0.0112442872
 40
0.0151596732
 40
0.0196661366
 40
0.0247608588
 40
0.030440807
 40
0.0435436541
 40
0.0589480647
 40
0.0766171556
 40
0.0965066554
 40
0.1185717309
 40
0.1427602813
 40
0.1690112117
 40
0.1972627985
 40
0.2274491989
 40
0.2594947606
 40
0.2933223757
 40
0.3659994637
 40
0.44477708
 40
0.5289000867
 40
0.617560956
 40
0.7098978997
 40
0.8050277933
 40
0.9020657962
 40
1.0
 40
1.0
 40
1.0
 40
1.0
 10
4.0355838513
 20
4.5368094912
 30
0.0
 10
4.0355838547
 20
4.5368396339
 30
0.0
 10
4.035597351
 20
4.5369044048
 30
0.0
 10
4.0356534708
 20
4.5369954152
 30
0.0
 10
4.0357427279
 20
4.5370842866
 30
0.0
 10
4.0359217809
 20
4.5372128519
 30
0.0
 10
4.0362377505
 20
4.5373661841
 30
0.0
 10
4.0367215681
 20
4.5375393753
 30
0.0
 10
4.0373410709
 20
4.5377136016
 30
0.0
 10
4.038096293
 20
4.5378887767
 30
0.0
 10
4.0389878274
 20
4.5380645096
 30
0.0
 10
4.040015632
 20
4.5382406523
 30
0.0
 10
4.0411797079
 20
4.5384170963
 30
0.0
 10
4.0430025907
 20
4.5386646451
 30
0.0
 10
4.0456222346
 20
4.5389688301
 30
0.0
 10
4.0491741655
 20
4.5393200106
 30
0.0
 10
4.0532667884
 20
4.5396720024
 30
0.0
 10
4.0578973146
 20
4.5400247356
 30
0.0
 10
4.0651367821
 20
4.5405195283
 30
0.0
 10
4.0755085894
 20
4.5411273144
 30
0.0
 10
4.089523962
 20
4.5418292792
 30
0.0
 10
4.1056039396
 20
4.5425329667
 30
0.0
 10
4.1237096979
 20
4.5432381786
 30
0.0
 10
4.1437980097
 20
4.5439442538
 30
0.0
 10
4.1658205958
 20
4.5446509734
 30
0.0
 10
4.1897241093
 20
4.5453582977
 30
0.0
 10
4.2154510747
 20
4.5460660262
 30
0.0
 10
4.2429396233
 20
4.5467739873
 30
0.0
 10
4.2721232274
 20
4.5474822681
 30
0.0
 10
4.3142170776
 20
4.54845021
 30
0.0
 10
4.3705110067
 20
4.5496505289
 30
0.0
 10
4.4420884294
 20
4.5510605806
 30
0.0
 10
4.5185241259
 20
4.5524717874
 30
0.0
 10
4.599081101
 20
4.5538838884
 30
0.0
 10
4.6829835114
 20
4.5552966495
 30
0.0
 10
4.769432044
 20
4.5567099414
 30
0.0
 10
4.8575817837
 20
4.5581234397
 30
0.0
 10
4.9168257225
 20
4.5590643637
 30
0.0
 10
4.9465838509
 20
4.5595369912
 30
0.0
  0
SPLINE
  5
3D0
100
AcDbEntity
  8
ALL_ASSEMBLY_MEMBERS
100
AcDbSpline
 62
7
  6
CONTINUOUS
 70
0
 71
3
 72
43
 73
39
 74
0
 42
0.0000001
 43
0.0000001
 44
0.0000000001
 40
0.0
 40
0.0
 40
0.0
 40
0.0
 40
0.0000991875
 40
0.000211787
 40
0.0003472709
 40
0.0005111785
 40
0.0009351194
 40
0.0014968845
 40
0.0022014798
 40
0.0030513128
 40
0.0040476719
 40
0.0051912921
 40
0.0064826055
 40
0.007921865
 40
0.0112446634
 40
0.0151600548
 40
0.0196665617
 40
0.0247613543
 40
0.0304413753
 40
0.043544278
 40
0.0589485462
 40
0.0766174983
 40
0.0965068209
 40
0.1185716162
 40
0.1427598283
 40
0.169010395
 40
0.1972616073
 40
0.2274475334
 40
0.2594925551
 40
0.2933196744
 40
0.3659955842
 40
0.4447720246
 40
0.5288943908
 40
0.6175568163
 40
0.7098959911
 40
0.805027645
 40
0.9020660169
 40
1.0
 40
1.0
 40
1.0
 40
1.0
 10
4.035583851
 20
4.4458994912
 30
0.0
 10
4.03558385
 20
4.445929634
 30
0.0
 10
4.0355973385
 20
4.4459944069
 30
0.0
 10
4.0356534539
 20
4.4460854206
 30
0.0
 10
4.0357427107
 20
4.4461742941
 30
0.0
 10
4.0359217698
 20
4.4463028629
 30
0.0
 10
4.0362377562
 20
4.4464561977
 30
0.0
 10
4.0367216017
 20
4.4466293916
 30
0.0
 10
4.0373411411
 20
4.4468036205
 30
0.0
 10
4.0380964056
 20
4.446978798
 30
0.0
 10
4.0389879854
 20
4.4471545332
 30
0.0
 10
4.0400158352
 20
4.447330678
 30
0.0
 10
4.0411799533
 20
4.4475071238
 30
0.0
 10
4.0430028774
 20
4.4477546737
 30
0.0
 10
4.0456225497
 20
4.4480588602
 30
0.0
 10
4.0491745096
 20
4.4484100467
 30
0.0
 10
4.0532671691
 20
4.4487620375
 30
0.0
 10
4.0578977523
 20
4.4491147696
 30
0.0
 10
4.0651372808
 20
4.4496095582
 30
0.0
 10
4.0755090844
 20
4.4502173378
 30
0.0
 10
4.0895243885
 20
4.4509193026
 30
0.0
 10
4.1056042274
 20
4.4516229798
 30
0.0
 10
4.123709805
 20
4.452328182
 30
0.0
 10
4.1437978754
 20
4.4530342493
 30
0.0
 10
4.1658201635
 20
4.4537409607
 30
0.0
 10
4.1897233502
 20
4.4544482769
 30
0.0
 10
4.2154499477
 20
4.4551559955
 30
0.0
 10
4.2429380747
 20
4.4558639486
 30
0.0
 10
4.2721212204
 20
4.4565722222
 30
0.0
 10
4.3142143985
 20
4.4575401498
 30
0.0
 10
4.3705074625
 20
4.4587404577
 30
0.0
 10
4.4420839763
 20
4.460150494
 30
0.0
 10
4.5185195948
 20
4.4615617086
 30
0.0
 10
4.5990775273
 20
4.4629738249
 30
0.0
 10
4.6829816245
 20
4.4643866195
 30
0.0
 10
4.7694314834
 20
4.4657999321
 30
0.0
 10
4.8575818043
 20
4.4672134402
 30
0.0
 10
4.9168257891
 20
4.4681543647
 30
0.0
 10
4.9465838509
 20
4.4686269912
 30
0.0
  0
SPLINE
  5
3D1
100
AcDbEntity
  8
ALL_ASSEMBLY_MEMBERS
100
AcDbSpline
 62
7
  6
CONTINUOUS
 70
0
 71
3
 72
33
 73
29
 74
0
 42
0.0000001
 43
0.0000001
 44
0.0000000001
 40
0.0
 40
0.0
 40
0.0
 40
0.0
 40
0.0017188575
 40
0.0023896372
 40
0.0031725627
 40
0.0050892075
 40
0.0074884339
 40
0.0103792453
 40
0.0137665725
 40
0.0176533218
 40
0.0220412879
 40
0.0269316061
 40
0.0382217122
 40
0.0515243902
 40
0.0668334841
 40
0.084141176
 40
0.1034389441
 40
0.1479684275
 40
0.2003415668
 40
0.2604364496
 40
0.3281144967
 40
0.4032351854
 40
0.4856376319
 40
0.5751441126
 40
0.6715758109
 40
0.7747174217
 40
0.8842880818
 40
1.0
 40
1.0
 40
1.0
 40
1.0
 10
4.0355842164
 20
4.3549894923
 30
0.0
 10
4.0355844795
 20
4.355130702
 30
0.0
 10
4.0357657118
 20
4.3552925641
 30
0.0
 10
4.0359844575
 20
4.3554205225
 30
0.0
 10
4.0362355775
 20
4.3555425539
 30
0.0
 10
4.0366277723
 20
4.3556881728
 30
0.0
 10
4.0371964232
 20
4.3558556343
 30
0.0
 10
4.0378893476
 20
4.3560233024
 30
0.0
 10
4.0387074394
 20
4.356191723
 30
0.0
 10
4.0396506086
 20
4.3563604491
 30
0.0
 10
4.0407189328
 20
4.3565294847
 30
0.0
 10
4.0423920287
 20
4.3567666235
 30
0.0
 10
4.0447968033
 20
4.3570579997
 30
0.0
 10
4.0480576751
 20
4.3573943986
 30
0.0
 10
4.0518151037
 20
4.3577316075
 30
0.0
 10
4.0560667086
 20
4.3580695132
 30
0.0
 10
4.0627153989
 20
4.3585435521
 30
0.0
 10
4.0722441014
 20
4.3591258336
 30
0.0
 10
4.0851245388
 20
4.3597982508
 30
0.0
 10
4.099908873
 20
4.3604723775
 30
0.0
 10
4.1165636272
 20
4.3611479151
 30
0.0
 10
4.1350523392
 20
4.3618242442
 30
0.0
 10
4.1553353907
 20
4.3625012278
 30
0.0
 10
4.177370085
 20
4.3631788371
 30
0.0
 10
4.2011093016
 20
4.3638568936
 30
0.0
 10
4.2264974766
 20
4.3645352039
 30
0.0
 10
4.2534701122
 20
4.3652136554
 30
0.0
 10
4.2719725997
 20
4.3656541907
 30
0.0
 10
4.2814761587
 20
4.3658750687
 30
0.0
  0
SPLINE
  5
3D2
100
AcDbEntity
  8
ALL_ASSEMBLY_MEMBERS
100
AcDbSpline
 62
7
  6
CONTINUOUS
 70
0
 71
3
 72
43
 73
39
 74
0
 42
0.0000001
 43
0.0000001
 44
0.0000000001
 40
0.0
 40
0.0
 40
0.0
 40
0.0
 40
0.000099188
 40
0.0002117882
 40
0.0003472736
 40
0.0005111836
 40
0.0009351323
 40
0.0014969089
 40
0.0022015189
 40
0.0030513693
 40
0.0040477477
 40
0.0051913887
 40
0.0064827238
 40
0.0079220054
 40
0.0112448467
 40
0.0151602839
 40
0.0196668748
 40
0.024761778
 40
0.0304419183
 40
0.0435450118
 40
0.0589493557
 40
0.0766183922
 40
0.0965075979
 40
0.1185718448
 40
0.1427591697
 40
0.1690087435
 40
0.197259059
 40
0.2274440235
 40
0.2594881143
 40
0.2933146222
 40
0.3659896422
 40
0.4447662704
 40
0.5288895099
 40
0.6175530738
 40
0.7098930514
 40
0.8050258504
 40
0.9020655661
 40
1.0
 40
1.0
 40
1.0
 40
1.0
 10
4.0355838511
 20
4.2640794912
 30
0.0
 10
4.0355838495
 20
4.2641096341
 30
0.0
 10
4.0355973373
 20
4.2641744077
 30
0.0
 10
4.0356534531
 20
4.2642654222
 30
0.0
 10
4.0357427112
 20
4.2643542964
 30
0.0
 10
4.035921774
 20
4.2644828662
 30
0.0
 10
4.0362377673
 20
4.264636202
 30
0.0
 10
4.0367216233
 20
4.2648093971
 30
0.0
 10
4.0373411761
 20
4.2649836272
 30
0.0
 10
4.0380964564
 20
4.2651588061
 30
0.0
 10
4.0389880537
 20
4.2653345426
 30
0.0
 10
4.0400159224
 20
4.2655106888
 30
0.0
 10
4.0411800601
 20
4.265687136
 30
0.0
 10
4.0430030105
 20
4.2659346876
 30
0.0
 10
4.0456227164
 20
4.2662388769
 30
0.0
 10
4.0491747285
 20
4.2665900684
 30
0.0
 10
4.0532674612
 20
4.2669420614
 30
0.0
 10
4.0578981399
 20
4.2672947963
 30
0.0
 10
4.0651377964
 20
4.2677895873
 30
0.0
 10
4.0755097172
 20
4.2683973693
 30
0.0
 10
4.0895251277
 20
4.2690993404
 30
0.0
 10
4.1056049801
 20
4.2698030099
 30
0.0
 10
4.1237103815
 20
4.2705082006
 30
0.0
 10
4.1437979803
 20
4.2712142541
 30
0.0
 10
4.1658195307
 20
4.2719209454
 30
0.0
 10
4.1897218739
 20
4.2726282386
 30
0.0
 10
4.2154476053
 20
4.2733359306
 30
0.0
 10
4.2429348848
 20
4.2740438674
 30
0.0
 10
4.2721172696
 20
4.2747521316
 30
0.0
 10
4.3142097088
 20
4.2757200446
 30
0.0
 10
4.3705023734
 20
4.2769203564
 30
0.0
 10
4.4420789393
 20
4.2783303954
 30
0.0
 10
4.5185152259
 20
4.2797416321
 30
0.0
 10
4.5990740136
 20
4.281153764
 30
0.0
 10
4.6829790487
 20
4.2825665772
 30
0.0
 10
4.7694299078
 20
4.2839799067
 30
0.0
 10
4.857581122
 20
4.2853934294
 30
0.0
 10
4.9168256521
 20
4.2863343626
 30
0.0
 10
4.9465838509
 20
4.2868069912
 30
0.0
  0
SPLINE
  5
3D3
100
AcDbEntity
  8
ALL_ASSEMBLY_MEMBERS
100
AcDbSpline
 62
7
  6
CONTINUOUS
 70
0
 71
3
 72
32
 73
28
 74
0
 42
0.0000001
 43
0.0000001
 44
0.0000000001
 40
0.0
 40
0.0
 40
0.0
 40
0.0
 40
0.0017473915
 40
0.0024217888
 40
0.0032073236
 40
0.0051267124
 40
0.0075260015
 40
0.010414557
 40
0.0137974775
 40
0.0176777334
 40
0.0220571242
 40
0.0269367543
 40
0.0381989323
 40
0.0514669003
 40
0.0667389602
 40
0.103262848
 40
0.1476966708
 40
0.1999597062
 40
0.2599555662
 40
0.3275511079
 40
0.4026065421
 40
0.4849784454
 40
0.5744917411
 40
0.6709532179
 40
0.7741691848
 40
0.883930882
 40
1.0
 40
1.0
 40
1.0
 40
1.0
 10
4.0355838519
 20
4.1731694913
 30
0.0
 10
4.0355838699
 20
4.173304997
 30
0.0
 10
4.0357527502
 20
4.1734626093
 30
0.0
 10
4.0359602345
 20
4.1735875813
 30
0.0
 10
4.0361964085
 20
4.1737058914
 30
0.0
 10
4.0365657162
 20
4.1738472077
 30
0.0
 10
4.0371011919
 20
4.1740096941
 30
0.0
 10
4.0377536779
 20
4.1741723803
 30
0.0
 10
4.0385239391
 20
4.1743357796
 30
0.0
 10
4.0394118963
 20
4.1744994732
 30
0.0
 10
4.0404175926
 20
4.1746634637
 30
0.0
 10
4.0419923013
 20
4.1748934995
 30
0.0
 10
4.0442555941
 20
4.1751761849
 30
0.0
 10
4.0473249471
 20
4.1755026385
 30
0.0
 10
4.0523492036
 20
4.1759669791
 30
0.0
 10
4.0597905196
 20
4.1765326521
 30
0.0
 10
4.0701011396
 20
4.177182494
 30
0.0
 10
4.0822348867
 20
4.1778346885
 30
0.0
 10
4.0961668714
 20
4.1784887269
 30
0.0
 10
4.1118680054
 20
4.1791440414
 30
0.0
 10
4.1293056511
 20
4.1798003002
 30
0.0
 10
4.1484440306
 20
4.1804571112
 30
0.0
 10
4.1692432704
 20
4.1811144142
 30
0.0
 10
4.1916596454
 20
4.1817721511
 30
0.0
 10
4.2156468526
 20
4.1824301723
 30
0.0
 10
4.2411551128
 20
4.1830883691
 30
0.0
 10
4.2586625098
 20
4.1835156888
 30
0.0
 10
4.2676608224
 20
4.1837300273
 30
0.0
  0
LINE
  5
3D4
100
AcDbEntity
  8
ALL_ASSEMBLY_MEMBERS
100
AcDbLine
 62
7
  6
CONTINUOUS
 10
4.2676608224
 20
4.1837300273
 11
4.2696096522
 21
4.1837763653
  0
LINE
  5
3D5
100
AcDbEntity
  8
ALL_ASSEMBLY_MEMBERS
100
AcDbLine
 62
7
  6
CONTINUOUS
 10
4.2702649377
 20
4.1837919093
 11
4.3220097779
 21
4.1849670363
  0
LINE
  5
3D6
100
AcDbEntity
  8
ALL_ASSEMBLY_MEMBERS
100
AcDbLine
 62
7
  6
CONTINUOUS
 10
4.3220097779
 20
4.1849670363
 11
4.3731439307
 21
4.1860457549
  0
LINE
  5
3D7
100
AcDbEntity
  8
ALL_ASSEMBLY_MEMBERS
100
AcDbLine
 62
7
  6
CONTINUOUS
 10
4.3731439307
 20
4.1860457549
 11
4.3790545067
 21
4.1861661636
  0
LINE
  5
3D8
100
AcDbEntity
  8
ALL_ASSEMBLY_MEMBERS
100
AcDbLine
 62
7
  6
CONTINUOUS
 10
4.3790545067
 20
4.1861661636
 11
4.4497308473
 21
4.1875505541
  0
LINE
  5
3D9
100
AcDbEntity
  8
ALL_ASSEMBLY_MEMBERS
100
AcDbLine
 62
7
  6
CONTINUOUS
 10
4.4497308473
 20
4.1875505541
 11
4.4519719601
 21
4.187592979
  0
LINE
  5
3DA
100
AcDbEntity
  8
ALL_ASSEMBLY_MEMBERS
100
AcDbLine
 62
7
  6
CONTINUOUS
 10
4.4519719601
 20
4.187592979
 11
4.5563245295
 21
4.1894915811
  0
LINE
  5
3DB
100
AcDbEntity
  8
ALL_ASSEMBLY_MEMBERS
100
AcDbLine
 62
7
  6
CONTINUOUS
 10
4.5563245295
 20
4.1894915811
 11
4.6413246259
 21
4.1909531254
  0
LINE
  5
3DC
100
AcDbEntity
  8
ALL_ASSEMBLY_MEMBERS
100
AcDbLine
 62
7
  6
CONTINUOUS
 10
4.6413246259
 20
4.1909531254
 11
4.9465838509
 21
4.1958969912
  0
SPLINE
  5
3DD
100
AcDbEntity
  8
ALL_ASSEMBLY_MEMBERS
100
AcDbSpline
 62
7
  6
CONTINUOUS
 70
0
 71
3
 72
21
 73
17
 74
0
 42
0.0000001
 43
0.0000001
 44
0.0000000001
 40
0.0
 40
0.0
 40
0.0
 40
0.0
 40
0.0063876815
 40
0.0142922064
 40
0.0237583781
 40
0.0348114364
 40
0.0617313206
 40
0.0951224257
 40
0.135013162
 40
0.1814155254
 40
0.234333163
 40
0.2937648315
 40
0.4320869284
 40
0.5961095517
 40
0.7855204632
 40
1.0
 40
1.0
 40
1.0
 40
1.0
 10
4.0851578254
 20
4.6709587144
 30
0.0
 10
4.0852503177
 20
4.6710121485
 30
0.0
 10
4.0854665215
 20
4.671115529
 30
0.0
 10
4.0858386679
 20
4.6712552726
 30
0.0
 10
4.0862930569
 20
4.6713955527
 30
0.0
 10
4.0870606525
 20
4.6715964946
 30
0.0
 10
4.0882295081
 20
4.6718403072
 30
0.0
 10
4.0898818965
 20
4.6721194667
 30
0.0
 10
4.0918637853
 20
4.6723997805
 30
0.0
 10
4.0941747681
 20
4.6726810953
 30
0.0
 10
4.0968145501
 20
4.6729630465
 30
0.0
 10
4.1009876356
 20
4.6733599021
 30
0.0
 10
4.1070181105
 20
4.6738464146
 30
0.0
 10
4.1152224241
 20
4.6744075739
 30
0.0
 10
4.1247027571
 20
4.6749700973
 30
0.0
 10
4.1314475694
 20
4.6753239376
 30
0.0
 10
4.1350297374
 20
4.6755027008
 30
0.0
  0
SPLINE
  5
3DE
100
AcDbEntity
  8
ALL_ASSEMBLY_MEMBERS
100
AcDbSpline
 62
7
  6
CONTINUOUS
 70
0
 71
3
 72
40
 73
36
 74
0
 42
0.0000001
 43
0.0000001
 44
0.0000000001
 40
0.0
 40
0.0
 40
0.0
 40
0.0
 40
0.0002306758
 40
0.0003714713
 40
0.0005366098
 40
0.0009517452
 40
0.001491454
 40
0.0021620487
 40
0.0029667084
 40
0.0039072034
 40
0.0049845906
 40
0.0075523355
 40
0.0106730388
 40
0.01434786
 40
0.0185771358
 40
0.0286947088
 40
0.0410100311
 40
0.05550395
 40
0.0721563813
 40
0.0909417639
 40
0.1118264757
 40
0.1347760582
 40
0.1597557145
 40
0.1867245378
 40
0.2156351066
 40
0.2464396439
 40
0.2790899859
 40
0.3497053996
 40
0.4270087303
 40
0.5104914627
 40
0.5995973948
 40
0.6937398871
 40
0.7922967672
 40
0.8946127522
 40
1.0
 40
1.0
 40
1.0
 40
1.0
 10
4.0355838513
 20
4.0822594912
 30
0.0
 10
4.0355838454
 20
4.0823110498
 30
0.0
 10
4.0356150558
 20
4.0823941585
 30
0.0
 10
4.0356920108
 20
4.0824861245
 30
0.0
 10
4.035814038
 20
4.0825925157
 30
0.0
 10
4.0360311772
 20
4.0827200453
 30
0.0
 10
4.0363649839
 20
4.0828642779
 30
0.0
 10
4.0367918692
 20
4.0830090645
 30
0.0
 10
4.0373120184
 20
4.0831544962
 30
0.0
 10
4.0379259306
 20
4.0833003535
 30
0.0
 10
4.0389298205
 20
4.0835075366
 30
0.0
 10
4.0404212081
 20
4.083760286
 30
0.0
 10
4.0424939258
 20
4.0840505549
 30
0.0
 10
4.0449409587
 20
4.0843418553
 30
0.0
 10
4.0489477196
 20
4.0847564565
 30
0.0
 10
4.0548860101
 20
4.0852613867
 30
0.0
 10
4.0631193029
 20
4.0858414382
 30
0.0
 10
4.0728161548
 20
4.0864236317
 30
0.0
 10
4.0839612451
 20
4.0870075419
 30
0.0
 10
4.0965364235
 20
4.0875924321
 30
0.0
 10
4.1105203988
 20
4.0881781854
 30
0.0
 10
4.1258899356
 20
4.0887645463
 30
0.0
 10
4.1426202271
 20
4.0893512994
 30
0.0
 10
4.1606836095
 20
4.0899383557
 30
0.0
 10
4.1800495462
 20
4.0905257148
 30
0.0
 10
4.2006859041
 20
4.0911133296
 30
0.0
 10
4.2306413165
 20
4.0919181605
 30
0.0
 10
4.2709882266
 20
4.0929164641
 30
0.0
 10
4.3226958297
 20
4.0940869042
 30
0.0
 10
4.3785372252
 20
4.095258289
 30
0.0
 10
4.4381431124
 20
4.0964305684
 30
0.0
 10
4.5011188424
 20
4.0976034192
 30
0.0
 10
4.5670476441
 20
4.0987767704
 30
0.0
 10
4.6354901505
 20
4.0999504252
 30
0.0
 10
4.6819077166
 20
4.1007233069
 30
0.0
 10
4.7054597527
 20
4.1011111993
 30
0.0
  0
LINE
  5
3DF
100
AcDbEntity
  8
ALL_ASSEMBLY_MEMBERS
100
AcDbLine
 62
7
  6
CONTINUOUS
 10
4.7054597527
 20
4.1011111993
 11
4.7124544788
 21
4.1012262751
  0
LINE
  5
3E0
100
AcDbEntity
  8
ALL_ASSEMBLY_MEMBERS
100
AcDbLine
 62
7
  6
CONTINUOUS
 10
4.7140392641
 20
4.1012523137
 11
4.9465838509
 21
4.1049869912
  0
SPLINE
  5
3E1
100
AcDbEntity
  8
ALL_ASSEMBLY_MEMBERS
100
AcDbSpline
 62
7
  6
CONTINUOUS
 70
0
 71
3
 72
39
 73
35
 74
0
 42
0.0000001
 43
0.0000001
 44
0.0000000001
 40
0.0
 40
0.0
 40
0.0
 40
0.0
 40
0.0002485272
 40
0.0005631362
 40
0.0009797695
 40
0.0015142086
 40
0.0021738274
 40
0.0029623771
 40
0.0038819552
 40
0.0049338196
 40
0.0074371362
 40
0.0104759987
 40
0.0140517493
 40
0.0181647478
 40
0.0228148259
 40
0.0280015067
 40
0.0399813703
 40
0.0540907965
 40
0.0703099034
 40
0.0886181169
 40
0.1089945297
 40
0.1314146949
 40
0.1558464293
 40
0.1822564074
 40
0.2106112406
 40
0.2730119468
 40
0.3427139321
 40
0.4193576685
 40
0.5025331669
 40
0.5917943152
 40
0.6866815724
 40
0.7867186025
 40
0.8913748933
 40
1.0
 40
1.0
 40
1.0
 40
1.0
 10
4.0355845709
 20
3.9913494898
 30
0.0
 10
4.0355844771
 20
3.9913949832
 30
0.0
 10
4.0356183318
 20
3.9914982384
 30
0.0
 10
4.0357438279
 20
3.991630261
 30
0.0
 10
4.0359372335
 20
3.9917594562
 30
0.0
 10
4.0362031767
 20
3.9918882196
 30
0.0
 10
4.0365425566
 20
3.9920175409
 30
0.0
 10
4.0369563157
 20
3.992147258
 30
0.0
 10
4.0374446185
 20
3.9922773491
 30
0.0
 10
4.0382427653
 20
3.9924619965
 30
0.0
 10
4.0394290071
 20
3.9926873461
 30
0.0
 10
4.0410780235
 20
3.9929461781
 30
0.0
 10
4.0430246305
 20
3.9932058707
 30
0.0
 10
4.0452682935
 20
3.9934662822
 30
0.0
 10
4.0478085245
 20
3.9937271655
 30
0.0
 10
4.0517853423
 20
3.9940932786
 30
0.0
 10
4.0574930177
 20
3.9945428975
 30
0.0
 10
4.0652203367
 20
3.9950620963
 30
0.0
 10
4.0741082543
 20
3.9955826157
 30
0.0
 10
4.0841450069
 20
3.9961042021
 30
0.0
 10
4.0953182086
 20
3.9966264479
 30
0.0
 10
4.1076134148
 20
3.997149145
 30
0.0
 10
4.1210139695
 20
3.9976722602
 30
0.0
 10
4.1355016255
 20
3.9981957194
 30
0.0
 10
4.1569368949
 20
3.9989172343
 30
0.0
 10
4.1862954759
 20
3.9998102255
 30
0.0
 10
4.2244927628
 20
4.0008526965
 30
0.0
 10
4.2664941696
 20
4.0018963198
 30
0.0
 10
4.3120769039
 20
4.0029409872
 30
0.0
 10
4.3609999479
 20
4.0039863905
 30
0.0
 10
4.4130101769
 20
4.0050323528
 30
0.0
 10
4.4678390445
 20
4.0060789251
 30
0.0
 10
4.5251830868
 20
4.007125636
 30
0.0
 10
4.5642186614
 20
4.0078118543
 30
0.0
 10
4.584099734
 20
4.00815603
 30
0.0
  0
LINE
  5
3E2
100
AcDbEntity
  8
ALL_ASSEMBLY_MEMBERS
100
AcDbLine
 62
7
  6
CONTINUOUS
 10
4.0851591127
 20
4.5800487133
 11
4.0873497039
 21
4.5807426905
  0
SPLINE
  5
3E3
100
AcDbEntity
  8
ALL_ASSEMBLY_MEMBERS
100
AcDbSpline
 62
7
  6
CONTINUOUS
 70
0
 71
3
 72
29
 73
25
 74
0
 42
0.0000001
 43
0.0000001
 44
0.0000000001
 40
0.0
 40
0.0
 40
0.0
 40
0.0
 40
0.0022379954
 40
0.0049791182
 40
0.0082240831
 40
0.0119726444
 40
0.0209771456
 40
0.0319839635
 40
0.0449801526
 40
0.0599430334
 40
0.0768470308
 40
0.095666286
 40
0.1163730178
 40
0.1389310152
 40
0.1894456794
 40
0.2468862495
 40
0.3108669964
 40
0.3809731809
 40
0.4567360234
 40
0.5376615461
 40
0.623210554
 40
0.71282302
 40
0.8059036439
 40
1.0
 40
1.0
 40
1.0
 40
1.0
 10
4.0873497039
 20
4.5807426905
 30
0.0
 10
4.0878555957
 20
4.5808530551
 30
0.0
 10
4.088988222
 20
4.581065781
 30
0.0
 10
4.0908690069
 20
4.5813551341
 30
0.0
 10
4.0931025985
 20
4.5816457055
 30
0.0
 10
4.0967808227
 20
4.5820599933
 30
0.0
 10
4.1022553061
 20
4.5825641769
 30
0.0
 10
4.1098702352
 20
4.583142928
 30
0.0
 10
4.1188669532
 20
4.5837236845
 30
0.0
 10
4.1292303422
 20
4.584306351
 30
0.0
 10
4.1409427848
 20
4.5848901564
 30
0.0
 10
4.153985568
 20
4.5854747909
 30
0.0
 10
4.1683376426
 20
4.586059946
 30
0.0
 10
4.1900196085
 20
4.5868717338
 30
0.0
 10
4.2201991115
 20
4.5878734516
 30
0.0
 10
4.2599618383
 20
4.5890377711
 30
0.0
 10
4.3042589988
 20
4.5902043631
 30
0.0
 10
4.3527965507
 20
4.5913723709
 30
0.0
 10
4.4052555171
 20
4.5925416598
 30
0.0
 10
4.4612881978
 20
4.5937116417
 30
0.0
 10
4.5205258168
 20
4.5948823605
 30
0.0
 10
4.5825761958
 20
4.5960534719
 30
0.0
 10
4.6697371204
 20
4.5976376354
 30
0.0
 10
4.7361693787
 20
4.598791211
 30
0.0
 10
4.7810696154
 20
4.5995593563
 30
0.0
  0
LINE
  5
3E4
100
AcDbEntity
  8
ALL_ASSEMBLY_MEMBERS
100
AcDbLine
 62
7
  6
CONTINUOUS
 10
4.7810696154
 20
4.5995593563
 11
4.8679171098
 21
4.6010329877
  0
LINE
  5
3E5
100
AcDbEntity
  8
ALL_ASSEMBLY_MEMBERS
100
AcDbLine
 62
7
  6
CONTINUOUS
 10
5.0254024493
 20
4.6036807392
 11
5.1122561587
 21
4.6051545213
  0
LINE
  5
3E6
100
AcDbEntity
  8
ALL_ASSEMBLY_MEMBERS
100
AcDbLine
 62
7
  6
CONTINUOUS
 10
5.1122561587
 20
4.6051545213
 11
5.1162196026
 21
4.605222361
  0
LINE
  5
3E7
100
AcDbEntity
  8
ALL_ASSEMBLY_MEMBERS
100
AcDbLine
 62
7
  6
CONTINUOUS
 10
5.1162196026
 20
4.605222361
 11
5.2515910374
 21
4.6075898491
  0
LINE
  5
3E8
100
AcDbEntity
  8
ALL_ASSEMBLY_MEMBERS
100
AcDbLine
 62
7
  6
CONTINUOUS
 10
5.2515910374
 20
4.6075898491
 11
5.3365698279
 21
4.6091501305
  0
LINE
  5
3E9
100
AcDbEntity
  8
ALL_ASSEMBLY_MEMBERS
100
AcDbLine
 62
7
  6
CONTINUOUS
 10
5.3376616267
 20
4.6091706936
 11
5.4411676704
 21
4.6111998281
  0
LINE
  5
3EA
100
AcDbEntity
  8
ALL_ASSEMBLY_MEMBERS
100
AcDbLine
 62
7
  6
CONTINUOUS
 10
5.4411676704
 20
4.6111998281
 11
5.5140260985
 21
4.6127550731
  0
LINE
  5
3EB
100
AcDbEntity
  8
ALL_ASSEMBLY_MEMBERS
100
AcDbLine
 62
7
  6
CONTINUOUS
 10
5.5140260985
 20
4.6127550731
 11
5.5638841976
 21
4.6139086941
  0
LINE
  5
3EC
100
AcDbEntity
  8
ALL_ASSEMBLY_MEMBERS
100
AcDbLine
 62
7
  6
CONTINUOUS
 10
5.5638841976
 20
4.6139086941
 11
5.5708857313
 21
4.6140781798
  0
LINE
  5
3ED
100
AcDbEntity
  8
ALL_ASSEMBLY_MEMBERS
100
AcDbLine
 62
7
  6
CONTINUOUS
 10
5.6227348566
 20
4.6154069275
 11
5.6252258461
 21
4.6154745785
  0
SPLINE
  5
3EE
100
AcDbEntity
  8
ALL_ASSEMBLY_MEMBERS
100
AcDbSpline
 62
7
  6
CONTINUOUS
 70
0
 71
3
 72
32
 73
28
 74
0
 42
0.0000001
 43
0.0000001
 44
0.0000000001
 40
0.0
 40
0.0
 40
0.0
 40
0.0
 40
0.2270881492
 40
0.3305918966
 40
0.4271723571
 40
0.5166616995
 40
0.5988955412
 40
0.6737396969
 40
0.7410765346
 40
0.8007892122
 40
0.8527661163
 40
0.8969302293
 40
0.916064247
 40
0.9332236904
 40
0.9484024248
 40
0.9615953075
 40
0.9727992301
 40
0.9820181115
 40
0.9858871415
 40
0.9892658415
 40
0.9921585231
 40
0.9945722204
 40
0.9965193103
 40
0.9980239171
 40
0.9986263543
 40
0.9991433586
 40
1.0
 40
1.0
 40
1.0
 40
1.0
 10
5.6257192475
 20
4.6154880264
 30
0.0
 10
5.6395850754
 20
4.6158661704
 30
0.0
 10
5.6597700645
 20
4.6164435015
 30
0.0
 10
5.6858496144
 20
4.6172664051
 30
0.0
 10
5.7035272455
 20
4.6178640298
 30
0.0
 10
5.7199048883
 20
4.618461249
 30
0.0
 10
5.7349538972
 20
4.6190581062
 30
0.0
 10
5.7486486561
 20
4.6196543976
 30
0.0
 10
5.7609663824
 20
4.6202498741
 30
0.0
 10
5.7718855993
 20
4.6208440875
 30
0.0
 10
5.7813870721
 20
4.6214369714
 30
0.0
 10
5.7884097922
 20
4.6219503347
 30
0.0
 10
5.7933065554
 20
4.6223682398
 30
0.0
 10
5.7964364999
 20
4.6226660925
 30
0.0
 10
5.79920177
 20
4.6229633933
 30
0.0
 10
5.8016010268
 20
4.6232598411
 30
0.0
 10
5.8036331252
 20
4.623555326
 30
0.0
 10
5.8050948774
 20
4.6238126467
 30
0.0
 10
5.8060784459
 20
4.6240235508
 30
0.0
 10
5.8066799186
 20
4.6241720509
 30
0.0
 10
5.8071895024
 20
4.6243201284
 30
0.0
 10
5.8076077377
 20
4.6244675989
 30
0.0
 10
5.8079348794
 20
4.6246145364
 30
0.0
 10
5.8081474675
 20
4.6247444967
 30
0.0
 10
5.8082667654
 20
4.624852599
 30
0.0
 10
5.8083424238
 20
4.6249466875
 30
0.0
 10
5.8083726803
 20
4.6250307579
 30
0.0
 10
5.8083727814
 20
4.6250830831
 30
0.0
  0
SPLINE
  5
3EF
100
AcDbEntity
  8
ALL_ASSEMBLY_MEMBERS
100
AcDbSpline
 62
7
  6
CONTINUOUS
 70
0
 71
3
 72
11
 73
7
 74
0
 42
0.0000001
 43
0.0000001
 44
0.0000000001
 40
0.0
 40
0.0
 40
0.0
 40
0.0
 40
0.1633326845
 40
0.3835069867
 40
0.6621536658
 40
1.0
 40
1.0
 40
1.0
 40
1.0
 10
4.0851580357
 20
5.3073287142
 30
0.0
 10
4.0853081613
 20
5.3074154634
 30
0.0
 10
4.0856842517
 20
5.3075767732
 30
0.0
 10
4.0863549148
 20
5.3077876948
 30
0.0
 10
4.0872178454
 20
5.3080003481
 30
0.0
 10
4.087859323
 20
5.308130418
 30
0.0
 10
4.0882117484
 20
5.3081969123
 30
0.0
  0
SPLINE
  5
3F0
100
AcDbEntity
  8
ALL_ASSEMBLY_MEMBERS
100
AcDbSpline
 62
7
  6
CONTINUOUS
 70
0
 71
3
 72
19
 73
15
 74
0
 42
0.0000001
 43
0.0000001
 44
0.0000000001
 40
0.0
 40
0.0
 40
0.0
 40
0.0
 40
0.0090514677
 40
0.0195766561
 40
0.0450532713
 40
0.0764302092
 40
0.1136940289
 40
0.1568079562
 40
0.205722696
 40
0.3207501952
 40
0.4583320632
 40
0.617860866
 40
0.7986722858
 40
1.0
 40
1.0
 40
1.0
 40
1.0
 10
4.0882117484
 20
5.3081969123
 30
0.0
 10
4.0886668803
 20
5.3082827849
 30
0.0
 10
4.089654511
 20
5.308451249
 30
0.0
 10
4.0919356488
 20
5.3087855059
 30
0.0
 10
4.0953599716
 20
5.3091915534
 30
0.0
 10
4.1001535493
 20
5.3096571555
 30
0.0
 10
4.1058530696
 20
5.3101244773
 30
0.0
 10
4.1124523891
 20
5.310593457
 30
0.0
 10
4.1230267567
 20
5.3112563626
 30
0.0
 10
4.1384347334
 20
5.3120667777
 30
0.0
 10
4.159503255
 20
5.3129998364
 30
0.0
 10
4.1839406376
 20
5.3139360921
 30
0.0
 10
4.211641861
 20
5.3148747005
 30
0.0
 10
4.2311868191
 20
5.3154703078
 30
0.0
 10
4.2414843353
 20
5.3157710087
 30
0.0
  0
LINE
  5
3F1
100
AcDbEntity
  8
ALL_ASSEMBLY_MEMBERS
100
AcDbLine
 62
7
  6
CONTINUOUS
 10
4.2414843353
 20
5.3157710087
 11
4.2601763193
 21
5.3163030496
  0
LINE
  5
3F2
100
AcDbEntity
  8
ALL_ASSEMBLY_MEMBERS
100
AcDbLine
 62
7
  6
CONTINUOUS
 10
4.3358724567
 20
5.3182401084
 11
4.3493630795
 21
5.3185576635
  0
LINE
  5
3F3
100
AcDbEntity
  8
ALL_ASSEMBLY_MEMBERS
100
AcDbLine
 62
7
  6
CONTINUOUS
 10
4.3493630795
 20
5.3185576635
 11
4.3576433206
 21
5.3187492862
  0
LINE
  5
3F4
100
AcDbEntity
  8
ALL_ASSEMBLY_MEMBERS
100
AcDbLine
 62
7
  6
CONTINUOUS
 10
4.5186168888
 20
5.3221164413
 11
4.5246921527
 21
5.3222336825
  0
LINE
  5
3F5
100
AcDbEntity
  8
ALL_ASSEMBLY_MEMBERS
100
AcDbLine
 62
7
  6
CONTINUOUS
 10
4.5246921527
 20
5.3222336825
 11
4.7052425801
 21
5.3255287262
  0
LINE
  5
3F6
100
AcDbEntity
  8
ALL_ASSEMBLY_MEMBERS
100
AcDbLine
 62
7
  6
CONTINUOUS
 10
4.7052425801
 20
5.3255287262
 11
4.7139223243
 21
5.3256802992
  0
LINE
  5
3F7
100
AcDbEntity
  8
ALL_ASSEMBLY_MEMBERS
100
AcDbLine
 62
7
  6
CONTINUOUS
 10
4.7139223243
 20
5.3256802992
 11
4.7301410737
 21
5.3259623498
  0
LINE
  5
3F8
100
AcDbEntity
  8
ALL_ASSEMBLY_MEMBERS
100
AcDbLine
 62
7
  6
CONTINUOUS
 10
4.731330454
 20
5.3259829761
 11
4.9467273182
 21
5.3296379926
  0
SPLINE
  5
3F9
100
AcDbEntity
  8
ALL_ASSEMBLY_MEMBERS
100
AcDbSpline
 62
7
  6
CONTINUOUS
 70
0
 71
3
 72
10
 73
6
 74
0
 42
0.0000001
 43
0.0000001
 44
0.0000000001
 40
0.0
 40
0.0
 40
0.0
 40
0.0
 40
0.5182292034
 40
0.7658785736
 40
1.0
 40
1.0
 40
1.0
 40
1.0
 10
4.9467273182
 20
5.3296379926
 30
0.0
 10
5.022235143
 20
5.330905708
 30
0.0
 10
5.1338263963
 20
5.3327776243
 30
0.0
 10
5.2795276407
 20
5.3353571632
 30
0.0
 10
5.3497209804
 20
5.3366703063
 30
0.0
 10
5.3838316329
 20
5.337334883
 30
0.0
  0
LINE
  5
3FA
100
AcDbEntity
  8
ALL_ASSEMBLY_MEMBERS
100
AcDbLine
 62
7
  6
CONTINUOUS
 10
5.3838316329
 20
5.337334883
 11
5.3964805485
 21
5.3375825836
  0
LINE
  5
3FB
100
AcDbEntity
  8
ALL_ASSEMBLY_MEMBERS
100
AcDbLine
 62
7
  6
CONTINUOUS
 10
5.3964805485
 20
5.3375825836
 11
5.4017321436
 21
5.3376861874
  0
SPLINE
  5
3FC
100
AcDbEntity
  8
ALL_ASSEMBLY_MEMBERS
100
AcDbSpline
 62
7
  6
CONTINUOUS
 70
0
 71
3
 72
39
 73
35
 74
0
 42
0.0000001
 43
0.0000001
 44
0.0000000001
 40
0.0
 40
0.0
 40
0.0
 40
0.0
 40
0.111610155
 40
0.2182863433
 40
0.3195943109
 40
0.4151296746
 40
0.5045120698
 40
0.5873748161
 40
0.6633952078
 40
0.7322618222
 40
0.7937002143
 40
0.8215588456
 40
0.8474707644
 40
0.871407945
 40
0.8933491337
 40
0.9132749058
 40
0.9311660205
 40
0.9470035201
 40
0.96077034
 40
0.9724571646
 40
0.977518775
 40
0.9820584407
 40
0.9860759479
 40
0.9895715173
 40
0.9925461113
 40
0.9950020641
 40
0.9960371366
 40
0.996945019
 40
0.9977276358
 40
0.9983879991
 40
0.998931143
 40
0.99936617
 40
0.999710832
 40
1.0
 40
1.0
 40
1.0
 40
1.0
 10
5.4017321436
 20
5.3376861874
 30
0.0
 10
5.416881831
 20
5.3379857254
 30
0.0
 10
5.4465112605
 20
5.3385828282
 30
0.0
 10
5.489891055
 20
5.3394971986
 30
0.0
 10
5.5310879689
 20
5.3404113016
 30
0.0
 10
5.5699364066
 20
5.3413250278
 30
0.0
 10
5.6062799264
 20
5.342238149
 30
0.0
 10
5.6399731328
 20
5.3431507603
 30
0.0
 10
5.6708799638
 20
5.3440623262
 30
0.0
 10
5.6988767848
 20
5.3449728252
 30
0.0
 10
5.7203356108
 20
5.3457534908
 30
0.0
 10
5.7359641497
 20
5.3463840315
 30
0.0
 10
5.7465041783
 20
5.3468411438
 30
0.0
 10
5.7562400293
 20
5.3472980303
 30
0.0
 10
5.7651622249
 20
5.3477545895
 30
0.0
 10
5.7732624378
 20
5.348210682
 30
0.0
 10
5.7805325784
 20
5.3486661663
 30
0.0
 10
5.7869648056
 20
5.3491207185
 30
0.0
 10
5.7925523911
 20
5.3495742678
 30
0.0
 10
5.7966768443
 20
5.3499670421
 30
0.0
 10
5.7995493272
 20
5.3502867385
 30
0.0
 10
5.80138424
 20
5.3505145826
 30
0.0
 10
5.8030047672
 20
5.3507420239
 30
0.0
 10
5.8044105801
 20
5.3509688639
 30
0.0
 10
5.8056013034
 20
5.3511949861
 30
0.0
 10
5.806457177
 20
5.3513918251
 30
0.0
 10
5.8070323553
 20
5.3515529795
 30
0.0
 10
5.8073846106
 20
5.3516666876
 30
0.0
 10
5.8076831218
 20
5.3517801543
 30
0.0
 10
5.8079281497
 20
5.3518933951
 30
0.0
 10
5.8081203329
 20
5.3520065059
 30
0.0
 10
5.8082604698
 20
5.3521203078
 30
0.0
 10
5.808350035
 20
5.3522372598
 30
0.0
 10
5.8083725987
 20
5.3523238268
 30
0.0
 10
5.80837255
 20
5.3523630853
 30
0.0
  0
LINE
  5
3FD
100
AcDbEntity
  8
ALL_ASSEMBLY_MEMBERS
100
AcDbLine
 62
7
  6
CONTINUOUS
 10
4.8678099197
 20
5.0328534963
 11
4.5582450889
 21
5.0265368701
  0
LINE
  5
3FE
100
AcDbEntity
  8
ALL_ASSEMBLY_MEMBERS
100
AcDbLine
 62
7
  6
CONTINUOUS
 10
4.5566910151
 20
5.0265036755
 11
4.4521691377
 21
5.024203209
  0
SPLINE
  5
3FF
100
AcDbEntity
  8
ALL_ASSEMBLY_MEMBERS
100
AcDbSpline
 62
7
  6
CONTINUOUS
 70
0
 71
3
 72
30
 73
26
 74
0
 42
0.0000001
 43
0.0000001
 44
0.0000000001
 40
0.0
 40
0.0
 40
0.0
 40
0.0
 40
0.212754446
 40
0.3116567944
 40
0.4050869297
 40
0.4927108493
 40
0.5742025603
 40
0.64927294
 40
0.7176488977
 40
0.7790803874
 40
0.8333545594
 40
0.8802690785
 40
0.9009160316
 40
0.9196662686
 40
0.9365026922
 40
0.9514091157
 40
0.964374974
 40
0.975393229
 40
0.9844585294
 40
0.9882582021
 40
0.9915695176
 40
0.9943937608
 40
0.9967343947
 40
0.9985984229
 40
1.0
 40
1.0
 40
1.0
 40
1.0
 10
4.4521691377
 20
5.024203209
 30
0.0
 10
4.4228523987
 20
5.023535701
 30
0.0
 10
4.3799079902
 20
5.0225264883
 30
0.0
 10
4.3240918356
 20
5.0211193056
 30
0.0
 10
4.2855185224
 20
5.0200946174
 30
0.0
 10
4.2493457032
 20
5.0190750319
 30
0.0
 10
4.2157043687
 20
5.0180603324
 30
0.0
 10
4.1847171449
 20
5.0170508405
 30
0.0
 10
4.1564962636
 20
5.0160467248
 30
0.0
 10
4.1311435267
 20
5.0150482342
 30
0.0
 10
4.1087511592
 20
5.0140560435
 30
0.0
 10
4.0919798051
 20
5.0132029715
 30
0.0
 10
4.0801033024
 20
5.0125125659
 30
0.0
 10
4.0723682287
 20
5.0120185561
 30
0.0
 10
4.0654260344
 20
5.0115262514
 30
0.0
 10
4.059283211
 20
5.0110357219
 30
0.0
 10
4.0539449544
 20
5.0105475374
 30
0.0
 10
4.0494154622
 20
5.0100619781
 30
0.0
 10
4.0461502213
 20
5.009640047
 30
0.0
 10
4.0439474176
 20
5.0092945164
 30
0.0
 10
4.0425995581
 20
5.0090516382
 30
0.0
 10
4.0414564041
 20
5.0088098016
 30
0.0
 10
4.0405172663
 20
5.008569444
 30
0.0
 10
4.0397819977
 20
5.0083310658
 30
0.0
 10
4.0393677069
 20
5.0081497589
 30
0.0
 10
4.0392004586
 20
5.0080530776
 30
0.0
  0
SPLINE
  5
400
100
AcDbEntity
  8
ALL_ASSEMBLY_MEMBERS
100
AcDbSpline
 62
7
  6
CONTINUOUS
 70
0
 71
3
 72
11
 73
7
 74
0
 42
0.0000001
 43
0.0000001
 44
0.0000000001
 40
0.0
 40
0.0
 40
0.0
 40
0.0
 40
0.1605688411
 40
0.3797353626
 40
0.6592691915
 40
1.0
 40
1.0
 40
1.0
 40
1.0
 10
4.085161148
 20
5.0345987114
 30
0.0
 10
4.0853215429
 20
5.0346914261
 30
0.0
 10
4.0857275263
 20
5.0348625949
 30
0.0
 10
4.0864548457
 20
5.0350855605
 30
0.0
 10
4.0873975771
 20
5.0353104787
 30
0.0
 10
4.0881000244
 20
5.0354477797
 30
0.0
 10
4.0884868288
 20
5.0355180377
 30
0.0
  0
SPLINE
  5
401
100
AcDbEntity
  8
ALL_ASSEMBLY_MEMBERS
100
AcDbSpline
 62
7
  6
CONTINUOUS
 70
0
 71
3
 72
22
 73
18
 74
0
 42
0.0000001
 43
0.0000001
 44
0.0000000001
 40
0.0
 40
0.0
 40
0.0
 40
0.0
 40
0.0078745602
 40
0.0173412657
 40
0.0283991258
 40
0.0410452154
 40
0.0710851958
 40
0.1074232259
 40
0.1500014948
 40
0.1987355728
 40
0.2535375164
 40
0.3143171205
 40
0.3809615003
 40
0.4533409176
 40
0.6147784888
 40
0.7974463891
 40
1.0
 40
1.0
 40
1.0
 40
1.0
 10
4.0884868288
 20
5.0355180377
 30
0.0
 10
4.0891215263
 20
5.0356333221
 30
0.0
 10
4.0905247195
 20
5.0358569956
 30
0.0
 10
4.0928310064
 20
5.0361636566
 30
0.0
 10
4.0955309963
 20
5.0364713518
 30
0.0
 10
4.0999120842
 20
5.0369080129
 30
0.0
 10
4.1063641613
 20
5.0374408496
 30
0.0
 10
4.1152689432
 20
5.0380533725
 30
0.0
 10
4.1257081039
 20
5.0386679147
 30
0.0
 10
4.1376619515
 20
5.0392843111
 30
0.0
 10
4.1511085431
 20
5.0399018164
 30
0.0
 10
4.16602369
 20
5.0405200191
 30
0.0
 10
4.1823798765
 20
5.0411387991
 30
0.0
 10
4.2069787132
 20
5.0419960202
 30
0.0
 10
4.2410807874
 20
5.043054045
 30
0.0
 10
4.2858461245
 20
5.0442853411
 30
0.0
 10
4.3173937002
 20
5.0450690953
 30
0.0
 10
4.3339821294
 20
5.0454650599
 30
0.0
  0
LINE
  5
402
100
AcDbEntity
  8
ALL_ASSEMBLY_MEMBERS
100
AcDbLine
 62
7
  6
CONTINUOUS
 10
4.3339821294
 20
5.0454650599
 11
4.3631701867
 21
5.0461458577
  0
LINE
  5
403
100
AcDbEntity
  8
ALL_ASSEMBLY_MEMBERS
100
AcDbLine
 62
7
  6
CONTINUOUS
 10
4.6666402761
 20
5.0521187
 11
4.7539145228
 21
5.0536432445
  0
LINE
  5
404
100
AcDbEntity
  8
ALL_ASSEMBLY_MEMBERS
100
AcDbLine
 62
7
  6
CONTINUOUS
 10
4.7539145228
 20
5.0536432445
 11
5.1390393565
 21
5.060164242
  0
SPLINE
  5
405
100
AcDbEntity
  8
ALL_ASSEMBLY_MEMBERS
100
AcDbSpline
 62
7
  6
CONTINUOUS
 70
0
 71
3
 72
40
 73
36
 74
0
 42
0.0000001
 43
0.0000001
 44
0.0000000001
 40
0.0
 40
0.0
 40
0.0
 40
0.0
 40
0.1043118159
 40
0.2058570977
 40
0.3039170048
 40
0.3978007006
 40
0.4868421078
 40
0.5704159293
 40
0.6479272818
 40
0.7188343684
 40
0.7826305076
 40
0.8117223528
 40
0.8388726588
 40
0.8640315295
 40
0.8871577691
 40
0.9082117591
 40
0.9271540942
 40
0.9439509413
 40
0.9585768225
 40
0.9710073986
 40
0.9763921191
 40
0.9812198186
 40
0.9854895438
 40
0.9892008039
 40
0.9923535685
 40
0.9949486656
 40
0.9960378879
 40
0.9969889679
 40
0.9978029718
 40
0.9984817182
 40
0.9990285089
 40
0.9994499857
 40
0.9996182399
 40
0.9997622562
 40
1.0
 40
1.0
 40
1.0
 40
1.0
 10
5.1390393565
 20
5.060164242
 30
0.0
 10
5.1623331941
 20
5.0605654574
 30
0.0
 10
5.2083029467
 20
5.0613647589
 30
0.0
 10
5.2761698034
 20
5.0625766839
 30
0.0
 10
5.3417072381
 20
5.0637882993
 30
0.0
 10
5.4044515373
 20
5.0649993924
 30
0.0
 10
5.4639598542
 20
5.0662099345
 30
0.0
 10
5.5198107466
 20
5.0674195438
 30
0.0
 10
5.5716104816
 20
5.0686281141
 30
0.0
 10
5.6189917501
 20
5.0698350506
 30
0.0
 10
5.6555596796
 20
5.0708682904
 30
0.0
 10
5.6823563897
 20
5.0717029209
 30
0.0
 10
5.7005266275
 20
5.0723091914
 30
0.0
 10
5.7173637058
 20
5.0729151708
 30
0.0
 10
5.732838282
 20
5.0735206902
 30
0.0
 10
5.7469233128
 20
5.0741255543
 30
0.0
 10
5.7595933218
 20
5.0747296439
 30
0.0
 10
5.770825916
 20
5.0753326323
 30
0.0
 10
5.7806018565
 20
5.0759341078
 30
0.0
 10
5.7878288629
 20
5.0764548028
 30
0.0
 10
5.7928682703
 20
5.0768787652
 30
0.0
 10
5.7960886691
 20
5.0771809626
 30
0.0
 10
5.7989335301
 20
5.07748261
 30
0.0
 10
5.8014020646
 20
5.07778341
 30
0.0
 10
5.8034934714
 20
5.0780831964
 30
0.0
 10
5.8049984532
 20
5.07834421
 30
0.0
 10
5.8060115042
 20
5.0785581568
 30
0.0
 10
5.8066310808
 20
5.0787087979
 30
0.0
 10
5.8071559847
 20
5.0788590022
 30
0.0
 10
5.8075866951
 20
5.0790085654
 30
0.0
 10
5.8079234004
 20
5.07915757
 30
0.0
 10
5.8081421507
 20
5.0792893854
 30
0.0
 10
5.8082648106
 20
5.0793991629
 30
0.0
 10
5.8083423446
 20
5.0794944709
 30
0.0
 10
5.8083733161
 20
5.0795799874
 30
0.0
 10
5.8083732141
 20
5.0796330856
 30
0.0
  0
LINE
  5
406
100
AcDbEntity
  8
ALL_ASSEMBLY_MEMBERS
100
AcDbLine
 62
7
  6
CONTINUOUS
 10
4.0851592768
 20
4.4891387158
 11
4.0878215174
 21
4.4899310128
  0
SPLINE
  5
407
100
AcDbEntity
  8
ALL_ASSEMBLY_MEMBERS
100
AcDbSpline
 62
7
  6
CONTINUOUS
 70
0
 71
3
 72
64
 73
60
 74
0
 42
0.0000001
 43
0.0000001
 44
0.0000000001
 40
0.0
 40
0.0
 40
0.0
 40
0.0
 40
0.0011605871
 40
0.0026017843
 40
0.00432427
 40
0.0063275873
 40
0.0086106615
 40
0.011172276
 40
0.0171258464
 40
0.024177297
 40
0.0323114516
 40
0.0415084752
 40
0.0517481463
 40
0.0630088227
 40
0.0752634931
 40
0.102641105
 40
0.1336339719
 40
0.1679588562
 40
0.2053026327
 40
0.2453260926
 40
0.2876626054
 40
0.3319276788
 40
0.377716402
 40
0.4246118154
 40
0.4721859274
 40
0.5200048918
 40
0.5676324414
 40
0.6146343038
 40
0.660581699
 40
0.7050553234
 40
0.7476503353
 40
0.7879768705
 40
0.8256690356
 40
0.8603813411
 40
0.8765210567
 40
0.891798725
 40
0.9061806557
 40
0.9196347475
 40
0.932129035
 40
0.9436350038
 40
0.9541280439
 40
0.963583798
 40
0.9719794691
 40
0.9792978848
 40
0.9855233328
 40
0.9906407666
 40
0.9927807437
 40
0.9946406735
 40
0.9962201326
 40
0.9969046575
 40
0.9975190818
 40
0.9980635116
 40
0.9985381529
 40
0.9989433799
 40
0.9992798804
 40
0.9995490331
 40
0.9996592103
 40
0.9997538443
 40
1.0
 40
1.0
 40
1.0
 40
1.0
 10
4.0878215174
 20
4.4899310128
 30
0.0
 10
4.0884745503
 20
4.4900619947
 30
0.0
 10
4.0899469743
 20
4.4903130235
 30
0.0
 10
4.0924054258
 20
4.4906526022
 30
0.0
 10
4.0953511904
 20
4.4909936839
 30
0.0
 10
4.0987826401
 20
4.4913359393
 30
0.0
 10
4.1026976589
 20
4.4916789811
 30
0.0
 10
4.1088758242
 20
4.4921616021
 30
0.0
 10
4.1177898668
 20
4.4927534938
 30
0.0
 10
4.1299021331
 20
4.493436224
 30
0.0
 10
4.1438782171
 20
4.4941207127
 30
0.0
 10
4.1596857862
 20
4.4948068284
 30
0.0
 10
4.1772890725
 20
4.4954939183
 30
0.0
 10
4.1966482634
 20
4.4961816587
 30
0.0
 10
4.2258392448
 20
4.4971350273
 30
0.0
 10
4.2663527575
 20
4.498310881
 30
0.0
 10
4.3195313547
 20
4.4996788559
 30
0.0
 10
4.3784309851
 20
4.5010492873
 30
0.0
 10
4.4425143304
 20
4.5024216633
 30
0.0
 10
4.5111963496
 20
4.5037952436
 30
0.0
 10
4.5838510954
 20
4.5051698523
 30
0.0
 10
4.6598149689
 20
4.5065450575
 30
0.0
 10
4.7383955122
 20
4.5079207867
 30
0.0
 10
4.8188753281
 20
4.509296805
 30
0.0
 10
4.9005204247
 20
4.5106730177
 30
0.0
 10
4.9825857387
 20
4.5120492886
 30
0.0
 10
5.064322604
 20
4.5134255149
 30
0.0
 10
5.1449852605
 20
4.5148015704
 30
0.0
 10
5.2238376761
 20
4.51617732
 30
0.0
 10
5.3001606958
 20
4.517552646
 30
0.0
 10
5.3732574798
 20
4.5189272714
 30
0.0
 10
5.4424618084
 20
4.5203010703
 30
0.0
 10
5.50714148
 20
4.5216735745
 30
0.0
 10
5.557941922
 20
4.5228425233
 30
0.0
 10
5.5958808172
 20
4.5237849149
 30
0.0
 10
5.6221551515
 20
4.5244743191
 30
0.0
 10
5.6468877032
 20
4.525163454
 30
0.0
 10
5.670022277
 20
4.5258522244
 30
0.0
 10
5.6915056196
 20
4.5265406343
 30
0.0
 10
5.7112887462
 20
4.5272286041
 30
0.0
 10
5.7293269974
 20
4.527915843
 30
0.0
 10
5.7455789319
 20
4.5286020832
 30
0.0
 10
5.7600072505
 20
4.5292872343
 30
0.0
 10
5.7725795429
 20
4.5299702939
 30
0.0
 10
5.7832674305
 20
4.5306507153
 30
0.0
 10
5.790982712
 20
4.5312431773
 30
0.0
 10
5.7961924599
 20
4.5317295743
 30
0.0
 10
5.7993761562
 20
4.532071488
 30
0.0
 10
5.8017244441
 20
4.5323675174
 30
0.0
 10
5.8033587077
 20
4.5326084139
 30
0.0
 10
5.8044026189
 20
4.532780162
 30
0.0
 10
5.805324316
 20
4.5329515971
 30
0.0
 10
5.8061237515
 20
4.5331227214
 30
0.0
 10
5.8068007718
 20
4.5332930955
 30
0.0
 10
5.8073561096
 20
4.5334632748
 30
0.0
 10
5.8077389147
 20
4.5336113146
 30
0.0
 10
5.8079834474
 20
4.5337352237
 30
0.0
 10
5.8081988167
 20
4.5338664126
 30
0.0
 10
5.8083727557
 20
4.5340318217
 30
0.0
 10
5.8083725353
 20
4.5341730856
 30
0.0
  0
SPLINE
  5
408
100
AcDbEntity
  8
ALL_ASSEMBLY_MEMBERS
100
AcDbSpline
 62
7
  6
CONTINUOUS
 70
0
 71
3
 72
13
 73
9
 74
0
 42
0.0000001
 43
0.0000001
 44
0.0000000001
 40
0.0
 40
0.0
 40
0.0
 40
0.0
 40
0.2806837853
 40
0.5486879601
 40
0.6741775098
 40
0.7920888983
 40
0.9011027676
 40
1.0
 40
1.0
 40
1.0
 40
1.0
 10
4.9465838509
 20
5.0117712604
 30
0.0
 10
5.0098896293
 20
5.0126718392
 30
0.0
 10
5.1336414907
 20
5.0144264539
 30
0.0
 10
5.2856953129
 20
5.0166627775
 30
0.0
 10
5.4010357034
 20
5.018476038
 30
0.0
 10
5.4805168189
 20
5.0198001122
 30
0.0
 10
5.5539988827
 20
5.0211177714
 30
0.0
 10
5.6008871457
 20
5.0220394224
 30
0.0
 10
5.6231899301
 20
5.0225060139
 30
0.0
  0
LINE
  5
409
100
AcDbEntity
  8
ALL_ASSEMBLY_MEMBERS
100
AcDbLine
 62
7
  6
CONTINUOUS
 10
5.6231899301
 20
5.0225060139
 11
5.6258039953
 21
5.022560835
  0
SPLINE
  5
40A
100
AcDbEntity
  8
ALL_ASSEMBLY_MEMBERS
100
AcDbSpline
 62
7
  6
CONTINUOUS
 70
0
 71
3
 72
29
 73
25
 74
0
 42
0.0000001
 43
0.0000001
 44
0.0000000001
 40
0.0
 40
0.0
 40
0.0
 40
0.0
 40
0.2195411743
 40
0.3201800536
 40
0.4144783378
 40
0.5022629929
 40
0.5833612128
 40
0.6576149838
 40
0.7248949214
 40
0.7850751836
 40
0.8380325511
 40
0.8836718946
 40
0.9037237856
 40
0.921918198
 40
0.9382461953
 40
0.952699178
 40
0.9652703915
 40
0.975958232
 40
0.9847636429
 40
0.9916910954
 40
0.9944545191
 40
0.9967550657
 40
0.9985991697
 40
1.0
 40
1.0
 40
1.0
 40
1.0
 10
5.6258039953
 20
5.022560835
 30
0.0
 10
5.6420863532
 20
5.0229031335
 30
0.0
 10
5.6658321863
 20
5.0234245312
 30
0.0
 10
5.6965700725
 20
5.0241628061
 30
0.0
 10
5.7175360269
 20
5.0246993464
 30
0.0
 10
5.7370519431
 20
5.0252347986
 30
0.0
 10
5.755080353
 20
5.0257691472
 30
0.0
 10
5.7715870003
 20
5.0263023544
 30
0.0
 10
5.7865410791
 20
5.0268341897
 30
0.0
 10
5.7999143218
 20
5.0273643374
 30
0.0
 10
5.8116808812
 20
5.0278927421
 30
0.0
 10
5.8204707617
 20
5.0283484145
 30
0.0
 10
5.8266825992
 20
5.0287178905
 30
0.0
 10
5.8307223942
 20
5.028982454
 30
0.0
 10
5.8343459088
 20
5.029246471
 30
0.0
 10
5.837551115
 20
5.0295098129
 30
0.0
 10
5.8403363852
 20
5.029772371
 30
0.0
 10
5.8427007822
 20
5.0300335579
 30
0.0
 10
5.8446435614
 20
5.0302932596
 30
0.0
 10
5.84599735
 20
5.0305204356
 30
0.0
 10
5.8468668012
 20
5.0307091016
 30
0.0
 10
5.8473628148
 20
5.0308390776
 30
0.0
 10
5.8477535878
 20
5.030968089
 30
0.0
 10
5.8479746844
 20
5.0310659187
 30
0.0
 10
5.8480647002
 20
5.0311178389
 30
0.0
  0
SPLINE
  5
40B
100
AcDbEntity
  8
ALL_ASSEMBLY_MEMBERS
100
AcDbSpline
 62
7
  6
CONTINUOUS
 70
0
 71
3
 72
11
 73
7
 74
0
 42
0.0000001
 43
0.0000001
 44
0.0000000001
 40
0.0
 40
0.0
 40
0.0
 40
0.0
 40
0.1620753969
 40
0.3818250007
 40
0.6608930117
 40
1.0
 40
1.0
 40
1.0
 40
1.0
 10
4.0851580421
 20
4.3982287142
 30
0.0
 10
4.0853127163
 20
4.3983180956
 30
0.0
 10
4.0857020678
 20
4.3984837295
 30
0.0
 10
4.0863978086
 20
4.3986999068
 30
0.0
 10
4.0872959127
 20
4.3989179258
 30
0.0
 10
4.0879642057
 20
4.3990511831
 30
0.0
 10
4.0883317093
 20
4.3991193387
 30
0.0
  0
SPLINE
  5
40C
100
AcDbEntity
  8
ALL_ASSEMBLY_MEMBERS
100
AcDbSpline
 62
7
  6
CONTINUOUS
 70
0
 71
3
 72
63
 73
59
 74
0
 42
0.0000001
 43
0.0000001
 44
0.0000000001
 40
0.0
 40
0.0
 40
0.0
 40
0.0
 40
0.0012381928
 40
0.0027556509
 40
0.0045525286
 40
0.0066285929
 40
0.0116158542
 40
0.0177071898
 40
0.0248884654
 40
0.0331451052
 40
0.0424595836
 40
0.0528092742
 40
0.0641709538
 40
0.0765205921
 40
0.1040657491
 40
0.1351955663
 40
0.1696262633
 40
0.2070475533
 40
0.2471176395
 40
0.2894743703
 40
0.3337322892
 40
0.379489745
 40
0.4263315208
 40
0.4738318225
 40
0.5215597099
 40
0.5690814676
 40
0.6159658964
 40
0.6617867122
 40
0.7061287781
 40
0.748588137
 40
0.7887807627
 40
0.826340595
 40
0.8609271961
 40
0.8770062948
 40
0.8922273285
 40
0.9065543613
 40
0.9199553781
 40
0.9324011901
 40
0.9438627009
 40
0.9543130202
 40
0.9637302753
 40
0.9720933527
 40
0.9793818568
 40
0.9855807521
 40
0.9906779661
 40
0.992809899
 40
0.9946623441
 40
0.9962348696
 40
0.9969162628
 40
0.9975278483
 40
0.9980697846
 40
0.9985423288
 40
0.9989459053
 40
0.9992812412
 40
0.9995496706
 40
0.9996596201
 40
0.9997540976
 40
1.0
 40
1.0
 40
1.0
 40
1.0
 10
4.0883317093
 20
4.3991193387
 30
0.0
 10
4.0890301611
 20
4.3992488704
 30
0.0
 10
4.0905917332
 20
4.3994984071
 30
0.0
 10
4.0931815755
 20
4.3998377781
 30
0.0
 10
4.0962554268
 20
4.4001785959
 30
0.0
 10
4.1013154399
 20
4.4006645505
 30
0.0
 10
4.1088396795
 20
4.401255624
 30
0.0
 10
4.1192936702
 20
4.40193426
 30
0.0
 10
4.1316265321
 20
4.4026155801
 30
0.0
 10
4.1458108097
 20
4.4032990168
 30
0.0
 10
4.1618146349
 20
4.403983621
 30
0.0
 10
4.1796012512
 20
4.4046692759
 30
0.0
 10
4.1991303051
 20
4.4053556973
 30
0.0
 10
4.2285212265
 20
4.4063064196
 30
0.0
 10
4.2692518665
 20
4.4074794671
 30
0.0
 10
4.3226499716
 20
4.4088446085
 30
0.0
 10
4.3817156995
 20
4.4102122398
 30
0.0
 10
4.4459117423
 20
4.4115815915
 30
0.0
 10
4.5146559464
 20
4.4129523047
 30
0.0
 10
4.5873230959
 20
4.4143238617
 30
0.0
 10
4.6632536758
 20
4.4156961081
 30
0.0
 10
4.7417577588
 20
4.4170688126
 30
0.0
 10
4.8221222946
 20
4.4184418102
 30
0.0
 10
4.9036174417
 20
4.4198150031
 30
0.0
 10
4.9855027541
 20
4.4211882377
 30
0.0
 10
5.0670346862
 20
4.4225614362
 30
0.0
 10
5.1474723624
 20
4.4239344399
 30
0.0
 10
5.2260855576
 20
4.4253071831
 30
0.0
 10
5.3021596658
 20
4.4266794133
 30
0.0
 10
5.3750043007
 20
4.4280510763
 30
0.0
 10
5.4439572105
 20
4.4294217503
 30
0.0
 10
5.5083925292
 20
4.4307912988
 30
0.0
 10
5.5589948509
 20
4.4319576078
 30
0.0
 10
5.5967829252
 20
4.4328980294
 30
0.0
 10
5.6229505799
 20
4.4335858315
 30
0.0
 10
5.6475812417
 20
4.4342734242
 30
0.0
 10
5.6706190847
 20
4.4349607435
 30
0.0
 10
5.692012186
 20
4.4356476113
 30
0.0
 10
5.7117115268
 20
4.4363339525
 30
0.0
 10
5.7296722346
 20
4.4370197403
 30
0.0
 10
5.7458539684
 20
4.4377045518
 30
0.0
 10
5.7602199963
 20
4.4383880163
 30
0.0
 10
5.7727374038
 20
4.4390695477
 30
0.0
 10
5.7833780576
 20
4.4397486557
 30
0.0
 10
5.7910595607
 20
4.4403397629
 30
0.0
 10
5.7962472385
 20
4.4408249573
 30
0.0
 10
5.7994170875
 20
4.4411660915
 30
0.0
 10
5.8017545871
 20
4.4414615013
 30
0.0
 10
5.8033809399
 20
4.4417018857
 30
0.0
 10
5.8044196684
 20
4.4418732591
 30
0.0
 10
5.8053368116
 20
4.4420443236
 30
0.0
 10
5.8061324115
 20
4.4422150813
 30
0.0
 10
5.8068063971
 20
4.4423851021
 30
0.0
 10
5.8073595376
 20
4.4425549129
 30
0.0
 10
5.8077410394
 20
4.4427026123
 30
0.0
 10
5.8079849151
 20
4.4428262068
 30
0.0
 10
5.8081999271
 20
4.442957179
 30
0.0
 10
5.8083737335
 20
4.443122008
 30
0.0
 10
5.8083738249
 20
4.4432630842
 30
0.0
  0
SPLINE
  5
40D
100
AcDbEntity
  8
ALL_ASSEMBLY_MEMBERS
100
AcDbSpline
 62
7
  6
CONTINUOUS
 70
0
 71
3
 72
38
 73
34
 74
0
 42
0.0000001
 43
0.0000001
 44
0.0000000001
 40
0.0
 40
0.0
 40
0.0
 40
0.0
 40
0.0968735569
 40
0.1928327138
 40
0.2869100346
 40
0.3782654449
 40
0.4660645114
 40
0.5494806499
 40
0.6277423871
 40
0.7001207217
 40
0.7659374817
 40
0.7961903496
 40
0.8245769464
 40
0.8510276802
 40
0.8754825967
 40
0.897884491
 40
0.9181769649
 40
0.9363129739
 40
0.9522517029
 40
0.9659527134
 40
0.9719530354
 40
0.9773824525
 40
0.9822381085
 40
0.9865172102
 40
0.990217067
 40
0.9933351698
 40
0.99586987
 40
0.9969186377
 40
0.9978219909
 40
0.9985803956
 40
0.9991946974
 40
0.999666583
 40
1.0
 40
1.0
 40
1.0
 40
1.0
 10
4.9465838509
 20
5.0840508177
 30
0.0
 10
4.9744240952
 20
5.0843743806
 30
0.0
 10
5.0298418057
 20
5.085017683
 30
0.0
 10
5.1122960863
 20
5.0859813207
 30
0.0
 10
5.1931643423
 20
5.0869417312
 30
0.0
 10
5.2716872052
 20
5.0878986828
 30
0.0
 10
5.3471457815
 20
5.0888520534
 30
0.0
 10
5.4188408809
 20
5.0898017765
 30
0.0
 10
5.4861036028
 20
5.0907474863
 30
0.0
 10
5.5483076692
 20
5.0916890055
 30
0.0
 10
5.5967141602
 20
5.0924904853
 30
0.0
 10
5.6324779139
 20
5.0931359899
 30
0.0
 10
5.6569289216
 20
5.0936053844
 30
0.0
 10
5.6797132514
 20
5.0940737772
 30
0.0
 10
5.7007771711
 20
5.0945410515
 30
0.0
 10
5.7200707243
 20
5.0950070588
 30
0.0
 10
5.7375476346
 20
5.0954717876
 30
0.0
 10
5.7531663116
 20
5.0959349444
 30
0.0
 10
5.7668896778
 20
5.0963962268
 30
0.0
 10
5.7771252294
 20
5.096794032
 30
0.0
 10
5.7843407833
 20
5.0971168204
 30
0.0
 10
5.7890156429
 20
5.0973476337
 30
0.0
 10
5.7931951781
 20
5.0975778941
 30
0.0
 10
5.7968768173
 20
5.0978075195
 30
0.0
 10
5.8000580556
 20
5.0980361916
 30
0.0
 10
5.8027364919
 20
5.0982637867
 30
0.0
 10
5.8046525605
 20
5.0984621506
 30
0.0
 10
5.8059317997
 20
5.0986252456
 30
0.0
 10
5.8067025258
 20
5.0987393119
 30
0.0
 10
5.8073467899
 20
5.0988528131
 30
0.0
 10
5.8078652969
 20
5.0989652799
 30
0.0
 10
5.8082577045
 20
5.0990765417
 30
0.0
 10
5.8084742399
 20
5.0991626983
 30
0.0
 10
5.8085572715
 20
5.099210536
 30
0.0
  0
LINE
  5
40E
100
AcDbEntity
  8
ALL_ASSEMBLY_MEMBERS
100
AcDbLine
 62
7
  6
CONTINUOUS
 10
4.9007715138
 20
5.3161056023
 11
4.7302777558
 21
5.314014699
  0
LINE
  5
40F
100
AcDbEntity
  8
ALL_ASSEMBLY_MEMBERS
100
AcDbLine
 62
7
  6
CONTINUOUS
 10
4.7302777558
 20
5.314014699
 11
4.524795438
 21
5.3113497645
  0
LINE
  5
410
100
AcDbEntity
  8
ALL_ASSEMBLY_MEMBERS
100
AcDbLine
 62
7
  6
CONTINUOUS
 10
4.358763695
 20
5.3089076131
 11
4.3495720674
 21
5.3087589288
  0
SPLINE
  5
411
100
AcDbEntity
  8
ALL_ASSEMBLY_MEMBERS
100
AcDbSpline
 62
7
  6
CONTINUOUS
 70
0
 71
3
 72
30
 73
26
 74
0
 42
0.0000001
 43
0.0000001
 44
0.0000000001
 40
0.0
 40
0.0
 40
0.0
 40
0.0
 40
0.2188437543
 40
0.3195482517
 40
0.4141021445
 40
0.5022629398
 40
0.5838199551
 40
0.6585683088
 40
0.7263116946
 40
0.786889499
 40
0.8401506966
 40
0.8859507933
 40
0.9060187721
 40
0.9241834114
 40
0.9404334274
 40
0.9547577541
 40
0.96714579
 40
0.9775908916
 40
0.9860915008
 40
0.9896129725
 40
0.9926492252
 40
0.9952015644
 40
0.9972725868
 40
0.9988677298
 40
1.0
 40
1.0
 40
1.0
 40
1.0
 10
4.3495720674
 20
5.3087589288
 30
0.0
 10
4.3294195332
 20
5.3084308432
 30
0.0
 10
4.2999937969
 20
5.3079317775
 30
0.0
 10
4.2618620648
 20
5.30722745
 30
0.0
 10
4.235764576
 20
5.3067150322
 30
0.0
 10
4.2114308841
 20
5.3062036604
 30
0.0
 10
4.1889216601
 20
5.3056934821
 30
0.0
 10
4.1682933403
 20
5.3051846266
 30
0.0
 10
4.1495977834
 20
5.3046770982
 30
0.0
 10
4.1328819129
 20
5.3041712897
 30
0.0
 10
4.118187966
 20
5.3036674675
 30
0.0
 10
4.1072248481
 20
5.3032328424
 30
0.0
 10
4.099493567
 20
5.3028802202
 30
0.0
 10
4.0944821122
 20
5.3026280204
 30
0.0
 10
4.0900003439
 20
5.3023764203
 30
0.0
 10
4.0860514903
 20
5.3021255207
 30
0.0
 10
4.0826383919
 20
5.3018756394
 30
0.0
 10
4.0797632605
 20
5.3016268852
 30
0.0
 10
4.0777051873
 20
5.3014101893
 30
0.0
 10
4.0763297641
 20
5.3012320738
 30
0.0
 10
4.075499943
 20
5.3011074358
 30
0.0
 10
4.0748054542
 20
5.3009834009
 30
0.0
 10
4.0742456395
 20
5.3008604523
 30
0.0
 10
4.0738209061
 20
5.3007387902
 30
0.0
 10
4.0735861933
 20
5.3006446614
 30
0.0
 10
4.0734958596
 20
5.300592563
 30
0.0
  0
SPLINE
  5
412
100
AcDbEntity
  8
ALL_ASSEMBLY_MEMBERS
100
AcDbSpline
 62
7
  6
CONTINUOUS
 70
0
 71
3
 72
13
 73
9
 74
0
 42
0.0000001
 43
0.0000001
 44
0.0000000001
 40
0.0
 40
0.0
 40
0.0
 40
0.0
 40
0.1250051168
 40
0.2500099383
 40
0.3750146528
 40
0.5000196154
 40
0.7500095603
 40
1.0
 40
1.0
 40
1.0
 40
1.0
 10
4.8042813562
 20
3.2387228798
 30
0.0
 10
4.7870806594
 20
3.2390796128
 30
0.0
 10
4.7526856951
 20
3.2401778115
 30
0.0
 10
4.7011497578
 20
3.2430919523
 30
0.0
 10
4.6497038192
 20
3.2473157137
 30
0.0
 10
4.5812818625
 20
3.2547185618
 30
0.0
 10
4.4961515638
 20
3.2673162048
 30
0.0
 10
4.428668702
 20
3.2809628634
 30
0.0
 10
4.3951368907
 20
3.2886696833
 30
0.0
  0
LINE
  5
413
100
AcDbEntity
  8
ALL_ASSEMBLY_MEMBERS
100
AcDbLine
 62
7
  6
CONTINUOUS
 10
4.8207801962
 20
3.2385209803
 11
4.8042813562
 21
3.2387228798
  0
SPLINE
  5
414
100
AcDbEntity
  8
ALL_ASSEMBLY_MEMBERS
100
AcDbSpline
 62
7
  6
CONTINUOUS
 70
0
 71
3
 72
43
 73
39
 74
0
 42
0.0000001
 43
0.0000001
 44
0.0000000001
 40
0.0
 40
0.0
 40
0.0
 40
0.0
 40
0.0000991469
 40
0.0002116143
 40
0.0003469022
 40
0.0005105917
 40
0.0009341801
 40
0.0014958118
 40
0.0022004706
 40
0.0030505177
 40
0.0040471905
 40
0.0051911709
 40
0.0064828374
 40
0.0079223889
 40
0.0112453712
 40
0.0151601131
 40
0.0196658947
 40
0.0247607397
 40
0.0304412931
 40
0.043545197
 40
0.0589484671
 40
0.0766176945
 40
0.0965079479
 40
0.1185719076
 40
0.1427597565
 40
0.1690108255
 40
0.1972613388
 40
0.2274461727
 40
0.2594909607
 40
0.293317358
 40
0.3659915042
 40
0.4447674498
 40
0.5288908156
 40
0.6175538668
 40
0.7098944635
 40
0.8050264738
 40
0.9020639343
 40
1.0
 40
1.0
 40
1.0
 40
1.0
 10
5.8575832814
 20
4.9603116788
 30
0.0
 10
5.8575833389
 20
4.9602815484
 30
0.0
 10
5.857570015
 20
4.9602167992
 30
0.0
 10
5.8575141487
 20
4.9601257583
 30
0.0
 10
5.8574251368
 20
4.9600368687
 30
0.0
 10
5.8572463852
 20
4.9599082652
 30
0.0
 10
5.8569306277
 20
4.9597549218
 30
0.0
 10
5.8564469119
 20
4.9595817507
 30
0.0
 10
5.855827322
 20
4.9594075334
 30
0.0
 10
5.8550718717
 20
4.9592323635
 30
0.0
 10
5.854180016
 20
4.9590566327
 30
0.0
 10
5.8531518493
 20
4.9588804906
 30
0.0
 10
5.8519874222
 20
4.9587040464
 30
0.0
 10
5.8501642423
 20
4.9584565107
 30
0.0
 10
5.8475446221
 20
4.9581523423
 30
0.0
 10
5.8439930315
 20
4.9578011062
 30
0.0
 10
5.8399007784
 20
4.9574490839
 30
0.0
 10
5.835270237
 20
4.9570963708
 30
0.0
 10
5.8280302254
 20
4.9566015982
 30
0.0
 10
5.8176582575
 20
4.9559938722
 30
0.0
 10
5.8036428764
 20
4.9552917983
 30
0.0
 10
5.7875629747
 20
4.9545881557
 30
0.0
 10
5.7694572854
 20
4.9538829988
 30
0.0
 10
5.7493693012
 20
4.9531768842
 30
0.0
 10
5.7273472277
 20
4.9524701797
 30
0.0
 10
5.7034442135
 20
4.9517629054
 30
0.0
 10
5.6777180118
 20
4.9510551813
 30
0.0
 10
5.6502305044
 20
4.9503472255
 30
0.0
 10
5.6210479846
 20
4.9496389881
 30
0.0
 10
5.5789556389
 20
4.9486710733
 30
0.0
 10
5.5226634889
 20
4.9474707763
 30
0.0
 10
5.4510873681
 20
4.9460607405
 30
0.0
 10
5.3746514172
 20
4.9446495238
 30
0.0
 10
5.2940925707
 20
4.9432373815
 30
0.0
 10
5.2101877552
 20
4.941824578
 30
0.0
 10
5.1237376455
 20
4.9404112598
 30
0.0
 10
5.0355868733
 20
4.938997744
 30
0.0
 10
4.9763425412
 20
4.9380568142
 30
0.0
 10
4.9465838509
 20
4.9375841777
 30
0.0
  0
SPLINE
  5
415
100
AcDbEntity
  8
ALL_ASSEMBLY_MEMBERS
100
AcDbSpline
 62
7
  6
CONTINUOUS
 70
0
 71
3
 72
43
 73
39
 74
0
 42
0.0000001
 43
0.0000001
 44
0.0000000001
 40
0.0
 40
0.0
 40
0.0
 40
0.0
 40
0.0000991854
 40
0.0002117807
 40
0.0003472599
 40
0.0005111631
 40
0.000935097
 40
0.0014968578
 40
0.0022014512
 40
0.0030512838
 40
0.0040476433
 40
0.005191264
 40
0.0064825771
 40
0.0079218347
 40
0.0112446214
 40
0.0151599908
 40
0.0196664906
 40
0.0247612898
 40
0.030441326
 40
0.0435442635
 40
0.0589485691
 40
0.0766176407
 40
0.0965071018
 40
0.1185719976
 40
0.1427603971
 40
0.1690111806
 40
0.1972625328
 40
0.2274486509
 40
0.259493942
 40
0.2933213102
 40
0.3659978724
 40
0.4447744872
 40
0.5288964074
 40
0.6175579288
 40
0.7098963496
 40
0.8050275092
 40
0.9020658478
 40
1.0
 40
1.0
 40
1.0
 40
1.0
 10
5.85758385
 20
4.8694016778
 30
0.0
 10
5.8575838539
 20
4.8693715357
 30
0.0
 10
5.8575703716
 20
4.8693067632
 30
0.0
 10
5.8575142627
 20
4.869215749
 30
0.0
 10
5.8574250112
 20
4.8691268758
 30
0.0
 10
5.857245958
 20
4.8689983071
 30
0.0
 10
5.8569299763
 20
4.8688449731
 30
0.0
 10
5.8564461348
 20
4.8686717801
 30
0.0
 10
5.8558265972
 20
4.8684975519
 30
0.0
 10
5.8550713331
 20
4.8683223751
 30
0.0
 10
5.854179753
 20
4.8681466404
 30
0.0
 10
5.853151903
 20
4.867970496
 30
0.0
 10
5.8519877854
 20
4.8677940506
 30
0.0
 10
5.8501648654
 20
4.8675465013
 30
0.0
 10
5.8475452039
 20
4.8672423151
 30
0.0
 10
5.8439932566
 20
4.8668911273
 30
0.0
 10
5.8399006039
 20
4.8665391367
 30
0.0
 10
5.8352700162
 20
4.8661864042
 30
0.0
 10
5.8280304704
 20
4.8656916147
 30
0.0
 10
5.8176586402
 20
4.8650838333
 30
0.0
 10
5.8036432778
 20
4.8643818633
 30
0.0
 10
5.787563349
 20
4.8636781846
 30
0.0
 10
5.7694576622
 20
4.8629729796
 30
0.0
 10
5.7493694622
 20
4.862266906
 30
0.0
 10
5.7273470204
 20
4.8615601923
 30
0.0
 10
5.703443668
 20
4.8608528741
 30
0.0
 10
5.6777169036
 20
4.86014515
 30
0.0
 10
5.6502285935
 20
4.8594371937
 30
0.0
 10
5.6210452316
 20
4.8587289182
 30
0.0
 10
5.5789516973
 20
4.8577609831
 30
0.0
 10
5.5226583057
 20
4.8565606733
 30
0.0
 10
5.4510816753
 20
4.8551506343
 30
0.0
 10
5.3746464131
 20
4.853739431
 30
0.0
 10
5.294089119
 20
4.8523273254
 30
0.0
 10
5.2101856748
 20
4.8509145431
 30
0.0
 10
5.1237362042
 20
4.8495012365
 30
0.0
 10
5.0355859912
 20
4.8480877303
 30
0.0
 10
4.9763419645
 20
4.847146805
 30
0.0
 10
4.9465838509
 20
4.8466741777
 30
0.0
  0
SPLINE
  5
416
100
AcDbEntity
  8
ALL_ASSEMBLY_MEMBERS
100
AcDbSpline
 62
7
  6
CONTINUOUS
 70
0
 71
3
 72
43
 73
39
 74
0
 42
0.0000001
 43
0.0000001
 44
0.0000000001
 40
0.0
 40
0.0
 40
0.0
 40
0.0
 40
0.0000991857
 40
0.0002117825
 40
0.0003472604
 40
0.0005111577
 40
0.0009350655
 40
0.0014967833
 40
0.0022013206
 40
0.0030510887
 40
0.0040473799
 40
0.005190933
 40
0.0064821839
 40
0.0079213894
 40
0.0112441202
 40
0.015159491
 40
0.0196659175
 40
0.0247605881
 40
0.0304404804
 40
0.0435432444
 40
0.058947636
 40
0.0766166792
 40
0.096506143
 40
0.1185712351
 40
0.1427597778
 40
0.169010694
 40
0.1972623046
 40
0.2274487294
 40
0.2594943031
 40
0.2933219429
 40
0.3659990875
 40
0.4447768429
 40
0.5289002319
 40
0.6175619088
 40
0.7098992258
 40
0.8050283673
 40
0.9020657899
 40
1.0
 40
1.0
 40
1.0
 40
1.0
 10
5.8575838508
 20
4.7784916777
 30
0.0
 10
5.8575838491
 20
4.7784615355
 30
0.0
 10
5.8575703572
 20
4.7783967653
 30
0.0
 10
5.8575142434
 20
4.7783057549
 30
0.0
 10
5.8574249925
 20
4.7782168838
 30
0.0
 10
5.857245949
 20
4.7780883191
 30
0.0
 10
5.8569299916
 20
4.7779349878
 30
0.0
 10
5.8564461893
 20
4.777761798
 30
0.0
 10
5.8558267025
 20
4.7775875731
 30
0.0
 10
5.8550714965
 20
4.7774123997
 30
0.0
 10
5.8541799778
 20
4.7772366683
 30
0.0
 10
5.8531521883
 20
4.7770605271
 30
0.0
 10
5.8519881261
 20
4.7768840846
 30
0.0
 10
5.8501652581
 20
4.7766365375
 30
0.0
 10
5.8475456288
 20
4.7763323549
 30
0.0
 10
5.8439937196
 20
4.7759811776
 30
0.0
 10
5.8399011282
 20
4.7756291863
 30
0.0
 10
5.8352706459
 20
4.7752764537
 30
0.0
 10
5.8280312364
 20
4.7747816603
 30
0.0
 10
5.8176594771
 20
4.774173873
 30
0.0
 10
5.8036441498
 20
4.7734719102
 30
0.0
 10
5.7875642033
 20
4.7727682202
 30
0.0
 10
5.7694584653
 20
4.7720630065
 30
0.0
 10
5.7493701615
 20
4.7713569317
 30
0.0
 10
5.7273475768
 20
4.7706502103
 30
0.0
 10
5.7034440625
 20
4.7699428841
 30
0.0
 10
5.6777170864
 20
4.7692351551
 30
0.0
 10
5.6502285192
 20
4.7685271929
 30
0.0
 10
5.6210448962
 20
4.7678189107
 30
0.0
 10
5.5789510171
 20
4.7668509676
 30
0.0
 10
5.5226570203
 20
4.7656506466
 30
0.0
 10
5.4510794211
 20
4.7642405912
 30
0.0
 10
5.3746433198
 20
4.7628293766
 30
0.0
 10
5.2940858687
 20
4.7614172685
 30
0.0
 10
5.2101833269
 20
4.7600045048
 30
0.0
 10
5.1237350846
 20
4.7585912181
 30
0.0
 10
5.0355857468
 20
4.7571777267
 30
0.0
 10
4.9763419817
 20
4.7562368053
 30
0.0
 10
4.9465838509
 20
4.7557641777
 30
0.0
  0
SPLINE
  5
417
100
AcDbEntity
  8
ALL_ASSEMBLY_MEMBERS
100
AcDbSpline
 62
7
  6
CONTINUOUS
 70
0
 71
3
 72
37
 73
33
 74
0
 42
0.0000001
 43
0.0000001
 44
0.0000000001
 40
0.0
 40
0.0
 40
0.0
 40
0.0
 40
0.0004475327
 40
0.0010296232
 40
0.0017502791
 40
0.0026115069
 40
0.0047594777
 40
0.0074781805
 40
0.0107690808
 40
0.0146324043
 40
0.0190665969
 40
0.0240689772
 40
0.0296366701
 40
0.0357666891
 40
0.0497013842
 40
0.0658447293
 40
0.084156811
 40
0.1045952055
 40
0.1271159559
 40
0.1516650566
 40
0.1781840861
 40
0.2066141646
 40
0.2368891269
 40
0.3026832127
 40
0.3749591535
 40
0.4530423346
 40
0.5362089418
 40
0.6236889166
 40
0.7146590232
 40
0.8082818047
 40
0.9037175337
 40
1.0
 40
1.0
 40
1.0
 40
1.0
 10
5.8572388467
 20
4.9455065697
 30
0.0
 10
5.8571211132
 20
4.9454386462
 30
0.0
 10
5.8568347382
 20
4.9453099224
 30
0.0
 10
5.8563309906
 20
4.9451394653
 30
0.0
 10
5.8556961541
 20
4.9449679074
 30
0.0
 10
5.854590705
 20
4.9447195638
 30
0.0
 10
5.8528761667
 20
4.9444202583
 30
0.0
 10
5.8504221402
 20
4.9440782275
 30
0.0
 10
5.8474431155
 20
4.943734533
 30
0.0
 10
5.8439404165
 20
4.9433893847
 30
0.0
 10
5.8399158097
 20
4.943043424
 30
0.0
 10
5.8353719522
 20
4.942696826
 30
0.0
 10
5.8303117485
 20
4.9423497649
 30
0.0
 10
5.8225418568
 20
4.9418656433
 30
0.0
 10
5.8115609875
 20
4.941269207
 30
0.0
 10
5.7968803949
 20
4.9405784266
 30
0.0
 10
5.7802226861
 20
4.9398861676
 30
0.0
 10
5.7616266417
 20
4.9391927344
 30
0.0
 10
5.7411351652
 20
4.9384986569
 30
0.0
 10
5.7187959715
 20
4.9378039734
 30
0.0
 10
5.6946612494
 20
4.9371087939
 30
0.0
 10
5.6687868429
 20
4.9364133022
 30
0.0
 10
5.6309867536
 20
4.9354589725
 30
0.0
 10
5.5798716431
 20
4.934276894
 30
0.0
 10
5.5142374648
 20
4.9328926721
 30
0.0
 10
5.4433259618
 20
4.9315068863
 30
0.0
 10
5.3677959852
 20
4.9301199175
 30
0.0
 10
5.2883514601
 20
4.9287322011
 30
0.0
 10
5.2057307974
 20
4.9273438613
 30
0.0
 10
5.12069354
 20
4.9259550372
 30
0.0
 10
5.034042638
 20
4.9245660329
 30
0.0
 10
4.9758224911
 20
4.9236413681
 30
0.0
 10
4.9465838509
 20
4.9231769912
 30
0.0
  0
SPLINE
  5
418
100
AcDbEntity
  8
ALL_ASSEMBLY_MEMBERS
100
AcDbSpline
 62
7
  6
CONTINUOUS
 70
0
 71
3
 72
33
 73
29
 74
0
 42
0.0000001
 43
0.0000001
 44
0.0000000001
 40
0.0
 40
0.0
 40
0.0
 40
0.0
 40
0.0003721885
 40
0.0007855172
 40
0.0012707302
 40
0.0018471458
 40
0.0033138769
 40
0.0052367371
 40
0.0076359403
 40
0.0105214752
 40
0.0138988198
 40
0.0177711925
 40
0.0221405648
 40
0.0270081668
 40
0.0382406104
 40
0.0514717388
 40
0.0667011296
 40
0.1031271104
 40
0.1474502727
 40
0.1995943504
 40
0.2594739464
 40
0.3269675632
 40
0.4019413638
 40
0.4842606627
 40
0.5737714521
 40
0.6702905794
 40
0.7736323015
 40
1.0
 40
1.0
 40
1.0
 40
1.0
 10
5.8575838509
 20
4.6875816777
 30
0.0
 10
5.8575838503
 20
4.6875547769
 30
0.0
 10
5.8575733449
 20
4.6874976626
 30
0.0
 10
5.8575287522
 20
4.6874161316
 30
0.0
 10
5.8574571709
 20
4.6873362469
 30
0.0
 10
5.8573142781
 20
4.6872214534
 30
0.0
 10
5.8570609189
 20
4.6870837427
 30
0.0
 10
5.8566721611
 20
4.6869283382
 30
0.0
 10
5.8561747364
 20
4.6867721015
 30
0.0
 10
5.8555685109
 20
4.6866151326
 30
0.0
 10
5.8548529416
 20
4.6864576882
 30
0.0
 10
5.8540280226
 20
4.6862998997
 30
0.0
 10
5.853093727
 20
4.6861418506
 30
0.0
 10
5.8516308966
 20
4.6859201563
 30
0.0
 10
5.8495282664
 20
4.6856477128
 30
0.0
 10
5.8466765596
 20
4.6853330682
 30
0.0
 10
5.8420080031
 20
4.6848855173
 30
0.0
 10
5.8350919604
 20
4.6843403126
 30
0.0
 10
5.825507065
 20
4.6837140078
 30
0.0
 10
5.814224066
 20
4.6830853934
 30
0.0
 10
5.8012642559
 20
4.682455014
 30
0.0
 10
5.7866527096
 20
4.6818234375
 30
0.0
 10
5.7704179695
 20
4.6811909364
 30
0.0
 10
5.7525908144
 20
4.6805578495
 30
0.0
 10
5.7332055356
 20
4.6799243569
 30
0.0
 10
5.7123000747
 20
4.6792904259
 30
0.0
 10
5.6815056877
 20
4.6784180407
 30
0.0
 10
5.6576829531
 20
4.6778052555
 30
0.0
 10
5.6413265951
 20
4.6774036557
 30
0.0
  0
LINE
  5
419
100
AcDbEntity
  8
ALL_ASSEMBLY_MEMBERS
100
AcDbLine
 62
7
  6
CONTINUOUS
 10
5.6413265951
 20
4.6774036557
 11
5.6233878194
 21
4.6769707643
  0
LINE
  5
41A
100
AcDbEntity
  8
ALL_ASSEMBLY_MEMBERS
100
AcDbLine
 62
7
  6
CONTINUOUS
 10
5.6233878194
 20
4.6769707643
 11
5.6166227331
 21
4.6768112167
  0
SPLINE
  5
41B
100
AcDbEntity
  8
ALL_ASSEMBLY_MEMBERS
100
AcDbSpline
 62
7
  6
CONTINUOUS
 70
0
 71
3
 72
13
 73
9
 74
0
 42
0.0000001
 43
0.0000001
 44
0.0000000001
 40
0.0
 40
0.0
 40
0.0
 40
0.0
 40
0.1003295818
 40
0.2102440652
 40
0.3285769715
 40
0.454070025
 40
0.7210986512
 40
1.0
 40
1.0
 40
1.0
 40
1.0
 10
5.6166227331
 20
4.6768112167
 30
0.0
 10
5.5942170358
 20
4.6762859729
 30
0.0
 10
5.5472636315
 20
4.675249104
 30
0.0
 10
5.4738802842
 20
4.6737672598
 30
0.0
 10
5.394874836
 20
4.6722837326
 30
0.0
 10
5.2807768558
 20
4.6702621205
 30
0.0
 10
5.1308133349
 20
4.6677800985
 30
0.0
 10
5.00887762
 20
4.6658435461
 30
0.0
 10
4.9465838509
 20
4.6648541777
 30
0.0
  0
SPLINE
  5
41C
100
AcDbEntity
  8
ALL_ASSEMBLY_MEMBERS
100
AcDbSpline
 62
7
  6
CONTINUOUS
 70
0
 71
3
 72
43
 73
39
 74
0
 42
0.0000001
 43
0.0000001
 44
0.0000000001
 40
0.0
 40
0.0
 40
0.0
 40
0.0
 40
0.0000991864
 40
0.0002117833
 40
0.0003472644
 40
0.00051117
 40
0.0009351098
 40
0.0014968781
 40
0.0022014805
 40
0.0030513237
 40
0.0040476952
 40
0.0051913295
 40
0.0064826578
 40
0.0079219321
 40
0.0112447573
 40
0.0151601748
 40
0.0196667424
 40
0.0247616159
 40
0.0304417161
 40
0.0435446842
 40
0.0589488072
 40
0.0766175493
 40
0.0965065885
 40
0.1185709878
 40
0.1427586818
 40
0.1690087204
 40
0.1972595134
 40
0.2274449809
 40
0.2594895303
 40
0.2933163314
 40
0.3659917223
 40
0.4447683198
 40
0.5288913465
 40
0.6175545774
 40
0.7098943256
 40
0.8050266812
 40
0.9020657648
 40
1.0
 40
1.0
 40
1.0
 40
1.0
 10
5.8575838502
 20
4.5966716778
 30
0.0
 10
5.8575838537
 20
4.5966415353
 30
0.0
 10
5.8575703705
 20
4.5965767623
 30
0.0
 10
5.8575142599
 20
4.5964857475
 30
0.0
 10
5.8574250065
 20
4.5963968737
 30
0.0
 10
5.85724595
 20
4.5962683041
 30
0.0
 10
5.8569299635
 20
4.596114969
 30
0.0
 10
5.8564461152
 20
4.5959417749
 30
0.0
 10
5.8558265694
 20
4.5957675456
 30
0.0
 10
5.8550712957
 20
4.5955923677
 30
0.0
 10
5.8541797047
 20
4.595416632
 30
0.0
 10
5.8531518422
 20
4.5952404866
 30
0.0
 10
5.8519877107
 20
4.5950640402
 30
0.0
 10
5.8501647694
 20
4.5948164896
 30
0.0
 10
5.8475450765
 20
4.5945123015
 30
0.0
 10
5.8439930823
 20
4.5941611111
 30
0.0
 10
5.8399003717
 20
4.5938091192
 30
0.0
 10
5.8352697212
 20
4.5934563854
 30
0.0
 10
5.828030124
 20
4.5929615966
 30
0.0
 10
5.8176583204
 20
4.5923538185
 30
0.0
 10
5.8036431044
 20
4.5916518526
 30
0.0
 10
5.7875634591
 20
4.5909481857
 30
0.0
 10
5.7694581514
 20
4.5902429959
 30
0.0
 10
5.7493704445
 20
4.5895369414
 30
0.0
 10
5.7273485943
 20
4.58883024
 30
0.0
 10
5.7034458526
 20
4.5881229329
 30
0.0
 10
5.677719682
 20
4.587415226
 30
0.0
 10
5.650231965
 20
4.5867072795
 30
0.0
 10
5.6210491986
 20
4.5859990092
 30
0.0
 10
5.5789564179
 20
4.5850310888
 30
0.0
 10
5.5226635602
 20
4.5838307774
 30
0.0
 10
5.4510869548
 20
4.5824207381
 30
0.0
 10
5.3746508426
 20
4.5810095083
 30
0.0
 10
5.2940922896
 20
4.5795973807
 30
0.0
 10
5.2101875593
 20
4.5781845738
 30
0.0
 10
5.1237370958
 20
4.576771251
 30
0.0
 10
5.0355862679
 20
4.5753577346
 30
0.0
 10
4.9763419897
 20
4.5744168054
 30
0.0
 10
4.9465838509
 20
4.5739441777
 30
0.0
  0
SPLINE
  5
41D
100
AcDbEntity
  8
ALL_ASSEMBLY_MEMBERS
100
AcDbSpline
 62
7
  6
CONTINUOUS
 70
0
 71
3
 72
43
 73
39
 74
0
 42
0.0000001
 43
0.0000001
 44
0.0000000001
 40
0.0
 40
0.0
 40
0.0
 40
0.0
 40
0.0000991889
 40
0.0002117908
 40
0.0003472781
 40
0.0005111899
 40
0.0009351412
 40
0.001496919
 40
0.0022015291
 40
0.0030513788
 40
0.0040477562
 40
0.0051913962
 40
0.0064827308
 40
0.0079220126
 40
0.0112448588
 40
0.0151603067
 40
0.0196669034
 40
0.0247618093
 40
0.0304419527
 40
0.0435450694
 40
0.0589494776
 40
0.0766186122
 40
0.0965079594
 40
0.1185724105
 40
0.1427600091
 40
0.1690097703
 40
0.1972600107
 40
0.2274446784
 40
0.2594883982
 40
0.2933145709
 40
0.365989214
 40
0.4447657981
 40
0.5288890982
 40
0.6175527557
 40
0.7098927861
 40
0.8050256855
 40
0.9020655413
 40
1.0
 40
1.0
 40
1.0
 40
1.0
 10
5.8575838509
 20
4.5057616777
 30
0.0
 10
5.8575838511
 20
4.5057315345
 30
0.0
 10
5.8575703606
 20
4.5056667609
 30
0.0
 10
5.857514242
 20
4.5055757466
 30
0.0
 10
5.8574249816
 20
4.5054868724
 30
0.0
 10
5.8572459165
 20
4.5053583027
 30
0.0
 10
5.8569299215
 20
4.5052049666
 30
0.0
 10
5.8564460643
 20
4.5050317712
 30
0.0
 10
5.8558265114
 20
4.5048575408
 30
0.0
 10
5.8550712318
 20
4.5046823617
 30
0.0
 10
5.8541796353
 20
4.504506625
 30
0.0
 10
5.8531517675
 20
4.5043304786
 30
0.0
 10
5.8519876302
 20
4.5041540312
 30
0.0
 10
5.8501646784
 20
4.5039064793
 30
0.0
 10
5.8475449677
 20
4.5036022897
 30
0.0
 10
5.843992949
 20
4.5032510987
 30
0.0
 10
5.8399002106
 20
4.5028991053
 30
0.0
 10
5.8352695284
 20
4.5025463703
 30
0.0
 10
5.8280298631
 20
4.5020515786
 30
0.0
 10
5.8176579148
 20
4.5014437954
 30
0.0
 10
5.803642448
 20
4.500741823
 30
0.0
 10
5.7875625033
 20
4.5000381503
 30
0.0
 10
5.7694569673
 20
4.4993329554
 30
0.0
 10
5.7493691804
 20
4.4986268964
 30
0.0
 10
5.727347428
 20
4.497920202
 30
0.0
 10
5.7034449676
 20
4.4972129078
 30
0.0
 10
5.6777192924
 20
4.4965052162
 30
0.0
 10
5.6502322388
 20
4.4957972852
 30
0.0
 10
5.6210501589
 20
4.4950890297
 30
0.0
 10
5.5789580489
 20
4.4941211266
 30
0.0
 10
5.5226656144
 20
4.4929208185
 30
0.0
 10
5.4510891584
 20
4.4915107812
 30
0.0
 10
5.3746528388
 20
4.4900995431
 30
0.0
 10
5.2940939886
 20
4.4886874102
 30
0.0
 10
5.2101888791
 20
4.4872745954
 30
0.0
 10
5.1237379313
 20
4.4858612644
 30
0.0
 10
5.035586637
 20
4.4844477405
 30
0.0
 10
4.9763420571
 20
4.4835068065
 30
0.0
 10
4.9465838509
 20
4.4830341777
 30
0.0
  0
SPLINE
  5
41E
100
AcDbEntity
  8
ALL_ASSEMBLY_MEMBERS
100
AcDbSpline
 62
7
  6
CONTINUOUS
 70
0
 71
3
 72
37
 73
33
 74
0
 42
0.0000001
 43
0.0000001
 44
0.0000000001
 40
0.0
 40
0.0
 40
0.0
 40
0.0
 40
0.096281671
 40
0.1917151881
 40
0.2853367897
 40
0.3763073308
 40
0.4637877137
 40
0.5469540267
 40
0.6250368773
 40
0.6973134607
 40
0.7631091334
 40
0.7933851943
 40
0.8218161942
 40
0.8483359292
 40
0.8728855593
 40
0.8954066816
 40
0.9158450727
 40
0.934156863
 40
0.9502999029
 40
0.9642343233
 40
0.970364162
 40
0.9759316684
 40
0.9809338737
 40
0.9853679201
 40
0.9892311419
 40
0.9925219744
 40
0.9952406299
 40
0.9973885649
 40
0.9982497763
 40
0.9989704153
 40
0.9995524875
 40
1.0
 40
1.0
 40
1.0
 40
1.0
 10
4.9465838509
 20
4.0284841777
 30
0.0
 10
4.9173454503
 20
4.0280198047
 30
0.0
 10
4.8591262128
 20
4.0270951544
 30
0.0
 10
4.7724765764
 20
4.0257061706
 30
0.0
 10
4.6874402113
 20
4.0243173627
 30
0.0
 10
4.6048196455
 20
4.0229290257
 30
0.0
 10
4.5253749486
 20
4.0215413084
 30
0.0
 10
4.4498450325
 20
4.0201543467
 30
0.0
 10
4.3789335193
 20
4.0187685612
 30
0.0
 10
4.3132987597
 20
4.0173843381
 30
0.0
 10
4.2621826354
 20
4.016202234
 30
0.0
 10
4.2243814483
 20
4.0152478832
 30
0.0
 10
4.1985062126
 20
4.0145523683
 30
0.0
 10
4.1743708343
 20
4.0138571665
 30
0.0
 10
4.1520311515
 20
4.0131624634
 30
0.0
 10
4.131539401
 20
4.0124683776
 30
0.0
 10
4.1129433322
 20
4.0117749385
 30
0.0
 10
4.0962858049
 20
4.0110826746
 30
0.0
 10
4.081605476
 20
4.0103918973
 30
0.0
 10
4.0706248366
 20
4.0097954713
 30
0.0
 10
4.0628551394
 20
4.009311354
 30
0.0
 10
4.0577951
 20
4.0089642978
 30
0.0
 10
4.0532513964
 20
4.0086177048
 30
0.0
 10
4.0492269178
 20
4.0082717491
 30
0.0
 10
4.0457243143
 20
4.0079266071
 30
0.0
 10
4.0427453549
 20
4.0075829192
 30
0.0
 10
4.0402913737
 20
4.0072408948
 30
0.0
 10
4.0385768649
 20
4.0069415948
 30
0.0
 10
4.0374714364
 20
4.006693255
 30
0.0
 10
4.0368366153
 20
4.0065216998
 30
0.0
 10
4.0363328846
 20
4.0063512454
 30
0.0
 10
4.0360465216
 20
4.0062225227
 30
0.0
 10
4.0359287952
 20
4.0061545992
 30
0.0
  0
SPLINE
  5
41F
100
AcDbEntity
  8
ALL_ASSEMBLY_MEMBERS
100
AcDbSpline
 62
7
  6
CONTINUOUS
 70
0
 71
3
 72
32
 73
28
 74
0
 42
0.0000001
 43
0.0000001
 44
0.0000000001
 40
0.0
 40
0.0
 40
0.0
 40
0.0
 40
0.001746806
 40
0.0024211388
 40
0.0032066346
 40
0.0051260084
 40
0.0075253503
 40
0.0104140142
 40
0.0137970898
 40
0.0176775411
 40
0.0220571623
 40
0.0269370532
 40
0.0381998276
 40
0.0514684682
 40
0.066741363
 40
0.103267429
 40
0.1477037138
 40
0.1999690361
 40
0.2599672352
 40
0.3275650459
 40
0.4026220875
 40
0.4849946229
 40
0.5745078199
 40
0.6709679949
 40
0.7741809488
 40
0.8839377792
 40
1.0
 40
1.0
 40
1.0
 40
1.0
 10
5.8575838503
 20
4.4148516777
 30
0.0
 10
5.8575838362
 20
4.414716063
 30
0.0
 10
5.8574147162
 20
4.4145583627
 30
0.0
 10
5.8572070143
 20
4.4144333344
 30
0.0
 10
5.8569705483
 20
4.4143149511
 30
0.0
 10
5.8566007929
 20
4.4141735509
 30
0.0
 10
5.8560646683
 20
4.4140109672
 30
0.0
 10
5.8554113924
 20
4.4138481835
 30
0.0
 10
5.8546401988
 20
4.413684686
 30
0.0
 10
5.8537511682
 20
4.4135208938
 30
0.0
 10
5.852744258
 20
4.4133568044
 30
0.0
 10
5.8511676522
 20
4.4131266299
 30
0.0
 10
5.848901643
 20
4.4128437742
 30
0.0
 10
5.8458286111
 20
4.412517122
 30
0.0
 10
5.8407983214
 20
4.4120525004
 30
0.0
 10
5.8333480799
 20
4.4114864886
 30
0.0
 10
5.8230251543
 20
4.4108362569
 30
0.0
 10
5.8108770161
 20
4.4101836664
 30
0.0
 10
5.7969286092
 20
4.4095292359
 30
0.0
 10
5.7812090922
 20
4.4088735315
 30
0.0
 10
5.7637512197
 20
4.4082168815
 30
0.0
 10
5.7445908612
 20
4.4075596777
 30
0.0
 10
5.7237679773
 20
4.4069019867
 30
0.0
 10
5.7013264
 20
4.4062438622
 30
0.0
 10
5.6773125721
 20
4.4055854531
 30
0.0
 10
5.6517763937
 20
4.4049268701
 30
0.0
 10
5.6342499619
 20
4.4044992971
 30
0.0
 10
5.6252419322
 20
4.4042848318
 30
0.0
  0
LINE
  5
420
100
AcDbEntity
  8
ALL_ASSEMBLY_MEMBERS
100
AcDbLine
 62
7
  6
CONTINUOUS
 10
5.6252419322
 20
4.4042848318
 11
5.6234469799
 21
4.4042421673
  0
LINE
  5
421
100
AcDbEntity
  8
ALL_ASSEMBLY_MEMBERS
100
AcDbLine
 62
7
  6
CONTINUOUS
 10
5.6226604121
 20
4.4042235151
 11
5.5709197363
 21
4.4030489369
  0
LINE
  5
422
100
AcDbEntity
  8
ALL_ASSEMBLY_MEMBERS
100
AcDbLine
 62
7
  6
CONTINUOUS
 10
5.5709197363
 20
4.4030489369
 11
5.5206616644
 21
4.4019884564
  0
LINE
  5
423
100
AcDbEntity
  8
ALL_ASSEMBLY_MEMBERS
100
AcDbLine
 62
7
  6
CONTINUOUS
 10
5.5206616644
 20
4.4019884564
 11
5.5139105143
 21
4.4018508896
  0
LINE
  5
424
100
AcDbEntity
  8
ALL_ASSEMBLY_MEMBERS
100
AcDbLine
 62
7
  6
CONTINUOUS
 10
5.5139105143
 20
4.4018508896
 11
5.4410123541
 21
4.4004247227
  0
LINE
  5
425
100
AcDbEntity
  8
ALL_ASSEMBLY_MEMBERS
100
AcDbLine
 62
7
  6
CONTINUOUS
 10
5.4410123541
 20
4.4004247227
 11
5.3366541146
 21
4.3985262651
  0
LINE
  5
426
100
AcDbEntity
  8
ALL_ASSEMBLY_MEMBERS
100
AcDbLine
 62
7
  6
CONTINUOUS
 10
5.3366541146
 20
4.3985262651
 11
5.2516638492
 21
4.3970650223
  0
LINE
  5
427
100
AcDbEntity
  8
ALL_ASSEMBLY_MEMBERS
100
AcDbLine
 62
7
  6
CONTINUOUS
 10
5.2516638492
 20
4.3970650223
 11
5.1122583929
 21
4.3947701964
  0
LINE
  5
428
100
AcDbEntity
  8
ALL_ASSEMBLY_MEMBERS
100
AcDbLine
 62
7
  6
CONTINUOUS
 10
5.1122583929
 20
4.3947701964
 11
5.0253822926
 21
4.3933772457
  0
SPLINE
  5
429
100
AcDbEntity
  8
ALL_ASSEMBLY_MEMBERS
100
AcDbSpline
 62
7
  6
CONTINUOUS
 70
0
 71
3
 72
33
 73
29
 74
0
 42
0.0000001
 43
0.0000001
 44
0.0000000001
 40
0.0
 40
0.0
 40
0.0
 40
0.0
 40
0.0003720545
 40
0.0007852628
 40
0.0012703787
 40
0.0018467217
 40
0.0033133714
 40
0.0052362172
 40
0.0076354582
 40
0.0105210724
 40
0.0138985299
 40
0.0177710426
 40
0.0221405763
 40
0.027008356
 40
0.038241185
 40
0.0514727087
 40
0.0667026224
 40
0.1031304723
 40
0.1474557944
 40
0.1996013373
 40
0.2594818731
 40
0.3269768202
 40
0.4019515092
 40
0.4842705364
 40
0.5737810212
 40
0.6702995548
 40
0.7736394691
 40
1.0
 40
1.0
 40
1.0
 40
1.0
 10
5.8575838509
 20
4.3239416777
 30
0.0
 10
5.8575838519
 20
4.3239147663
 30
0.0
 10
5.8575733403
 20
4.3238576268
 30
0.0
 10
5.8575287132
 20
4.3237760633
 30
0.0
 10
5.8574570765
 20
4.3236961482
 30
0.0
 10
5.8573140677
 20
4.323581308
 30
0.0
 10
5.8570605047
 20
4.3234435447
 30
0.0
 10
5.8566714365
 20
4.3232880802
 30
0.0
 10
5.8561736121
 20
4.3231317826
 30
0.0
 10
5.8555668988
 20
4.3229747518
 30
0.0
 10
5.8548507541
 20
4.3228172449
 30
0.0
 10
5.8540251731
 20
4.3226593936
 30
0.0
 10
5.8530901298
 20
4.3225012813
 30
0.0
 10
5.8516261337
 20
4.3222794984
 30
0.0
 10
5.8495218389
 20
4.3220069458
 30
0.0
 10
5.8466678792
 20
4.3216921724
 30
0.0
 10
5.8419955921
 20
4.3212444362
 30
0.0
 10
5.8350739988
 20
4.3206990175
 30
0.0
 10
5.8254814771
 20
4.3200724649
 30
0.0
 10
5.8141896436
 20
4.3194435964
 30
0.0
 10
5.8012197987
 20
4.3188129635
 30
0.0
 10
5.7865970168
 20
4.3181811472
 30
0.0
 10
5.7703499083
 20
4.3175484045
 30
0.0
 10
5.7525093058
 20
4.3169150672
 30
0.0
 10
5.7331095145
 20
4.3162813306
 30
0.0
 10
5.7121885087
 20
4.3156471562
 30
0.0
 10
5.681371629
 20
4.3147744354
 30
0.0
 10
5.6575316091
 20
4.3141614072
 30
0.0
 10
5.6411634562
 20
4.31375965
 30
0.0
  0
LINE
  5
42A
100
AcDbEntity
  8
ALL_ASSEMBLY_MEMBERS
100
AcDbLine
 62
7
  6
CONTINUOUS
 10
5.6411634562
 20
4.31375965
 11
5.6218105807
 21
4.3132933942
  0
LINE
  5
42B
100
AcDbEntity
  8
ALL_ASSEMBLY_MEMBERS
100
AcDbLine
 62
7
  6
CONTINUOUS
 10
5.6218105807
 20
4.3132933942
 11
5.6164503793
 21
4.3131671778
  0
SPLINE
  5
42C
100
AcDbEntity
  8
ALL_ASSEMBLY_MEMBERS
100
AcDbSpline
 62
7
  6
CONTINUOUS
 70
0
 71
3
 72
13
 73
9
 74
0
 42
0.0000001
 43
0.0000001
 44
0.0000000001
 40
0.0
 40
0.0
 40
0.0
 40
0.0
 40
0.1003479627
 40
0.2102739719
 40
0.3286109087
 40
0.4541016201
 40
0.7211160958
 40
1.0
 40
1.0
 40
1.0
 40
1.0
 10
5.6164503793
 20
4.3131671778
 30
0.0
 10
5.5940463385
 20
4.3126421327
 30
0.0
 10
5.5470983306
 20
4.3116056365
 30
0.0
 10
5.4737262791
 20
4.3101242806
 30
0.0
 10
5.394738202
 20
4.3086412556
 30
0.0
 10
5.2806723545
 20
4.3066203644
 30
0.0
 10
5.13075499
 20
4.3041391723
 30
0.0
 10
5.0088576991
 20
4.3022032297
 30
0.0
 10
4.9465838509
 20
4.3012141777
 30
0.0
  0
LINE
  5
42D
100
AcDbEntity
  8
ALL_ASSEMBLY_MEMBERS
100
AcDbLine
 62
7
  6
CONTINUOUS
 10
5.0330005176
 20
3.2385209803
 11
5.0243338509
 21
3.2387221513
  0
SPLINE
  5
42E
100
AcDbEntity
  8
ALL_ASSEMBLY_MEMBERS
100
AcDbSpline
 62
7
  6
CONTINUOUS
 70
0
 71
3
 72
43
 73
39
 74
0
 42
0.0000001
 43
0.0000001
 44
0.0000000001
 40
0.0
 40
0.0
 40
0.0
 40
0.0
 40
0.0000991846
 40
0.0002117787
 40
0.0003472531
 40
0.0005111466
 40
0.0009350468
 40
0.0014967575
 40
0.0022012885
 40
0.0030510511
 40
0.0040473374
 40
0.0051908861
 40
0.0064821331
 40
0.007921335
 40
0.0112440591
 40
0.0151594213
 40
0.0196658318
 40
0.0247604815
 40
0.0304403511
 40
0.0435430771
 40
0.0589474491
 40
0.0766164644
 40
0.0965059049
 40
0.1185709898
 40
0.1427595142
 40
0.1690104092
 40
0.197262013
 40
0.2274484284
 40
0.2594939872
 40
0.2933216212
 40
0.3659987562
 40
0.4447765135
 40
0.5288999964
 40
0.6175620317
 40
0.7098996083
 40
0.8050285869
 40
0.9020658062
 40
1.0
 40
1.0
 40
1.0
 40
1.0
 10
5.8575838509
 20
4.2330316777
 30
0.0
 10
5.857583851
 20
4.2330015359
 30
0.0
 10
5.857570363
 20
4.2329367659
 30
0.0
 10
5.8575142539
 20
4.232845755
 30
0.0
 10
5.8574250072
 20
4.2327568839
 30
0.0
 10
5.8572459694
 20
4.2326283191
 30
0.0
 10
5.8569300179
 20
4.2324749881
 30
0.0
 10
5.8564462221
 20
4.2323017989
 30
0.0
 10
5.855826741
 20
4.2321275748
 30
0.0
 10
5.8550715401
 20
4.231952402
 30
0.0
 10
5.8541800259
 20
4.2317766713
 30
0.0
 10
5.8531522403
 20
4.2316005308
 30
0.0
 10
5.8519881816
 20
4.2314240891
 30
0.0
 10
5.8501653178
 20
4.2311765429
 30
0.0
 10
5.8475456941
 20
4.2308723615
 30
0.0
 10
5.8439937943
 20
4.2305211854
 30
0.0
 10
5.8399012167
 20
4.2301691945
 30
0.0
 10
5.8352707525
 20
4.2298164622
 30
0.0
 10
5.8280313678
 20
4.2293216688
 30
0.0
 10
5.8176596328
 20
4.2287138811
 30
0.0
 10
5.8036443314
 20
4.228011919
 30
0.0
 10
5.7875644063
 20
4.2273082283
 30
0.0
 10
5.7694586859
 20
4.2266030143
 30
0.0
 10
5.7493703967
 20
4.2258969399
 30
0.0
 10
5.7273478259
 20
4.225190218
 30
0.0
 10
5.7034443255
 20
4.2244828914
 30
0.0
 10
5.6777173605
 20
4.2237751625
 30
0.0
 10
5.6502288025
 20
4.2230672001
 30
0.0
 10
5.6210451883
 20
4.2223589174
 30
0.0
 10
5.578951318
 20
4.2213909743
 30
0.0
 10
5.5226573248
 20
4.2201906528
 30
0.0
 10
5.4510796987
 20
4.2187805965
 30
0.0
 10
5.3746434586
 20
4.2173693789
 30
0.0
 10
5.2940857903
 20
4.2159572674
 30
0.0
 10
5.2101831094
 20
4.2145445011
 30
0.0
 10
5.1237348986
 20
4.213131215
 30
0.0
 10
5.0355856761
 20
4.2117177256
 30
0.0
 10
4.976341977
 20
4.2107768052
 30
0.0
 10
4.9465838509
 20
4.2103041777
 30
0.0
  0
LINE
  5
42F
100
AcDbEntity
  8
ALL_ASSEMBLY_MEMBERS
100
AcDbLine
 62
7
  6
CONTINUOUS
 10
5.0888863457
 20
3.2387228798
 11
5.0723875057
 21
3.2385209803
  0
SPLINE
  5
430
100
AcDbEntity
  8
ALL_ASSEMBLY_MEMBERS
100
AcDbSpline
 62
7
  6
CONTINUOUS
 70
0
 71
3
 72
48
 73
44
 74
0
 42
0.0000001
 43
0.0000001
 44
0.0000000001
 40
0.0
 40
0.0
 40
0.0
 40
0.0
 40
0.0000938388
 40
0.0002111114
 40
0.0003648384
 40
0.0005608807
 40
0.0008020118
 40
0.0010896856
 40
0.0014247353
 40
0.0018076711
 40
0.0027183505
 40
0.0038233303
 40
0.0051233079
 40
0.0066185964
 40
0.0083092966
 40
0.0101951555
 40
0.0145496194
 40
0.0196760943
 40
0.0255681989
 40
0.032219325
 40
0.0396213321
 40
0.0477632088
 40
0.0566335624
 40
0.0662209651
 40
0.076513604
 40
0.0991553656
 40
0.1244342712
 40
0.1522161731
 40
0.1823473856
 40
0.2146675047
 40
0.2489985899
 40
0.2851562754
 40
0.3229431928
 40
0.3621546406
 40
0.4025780546
 40
0.443993313
 40
0.5288978338
 40
0.6150270875
 40
0.70051331
 40
0.7835027737
 40
0.8621960437
 40
0.9348870219
 40
1.0
 40
1.0
 40
1.0
 40
1.0
 10
4.0847938713
 20
4.9629480847
 30
0.0
 10
4.0847938979
 20
4.9629941731
 30
0.0
 10
4.0848266855
 20
4.9630980733
 30
0.0
 10
4.0849492694
 20
4.9632325587
 30
0.0
 10
4.0851384687
 20
4.9633639345
 30
0.0
 10
4.085398208
 20
4.9634948214
 30
0.0
 10
4.0857293902
 20
4.9636261908
 30
0.0
 10
4.0861329061
 20
4.9637579346
 30
0.0
 10
4.0866089601
 20
4.9638900355
 30
0.0
 10
4.0873867204
 20
4.9640774718
 30
0.0
 10
4.0885427756
 20
4.964306279
 30
0.0
 10
4.0901500453
 20
4.9645690889
 30
0.0
 10
4.0920475455
 20
4.9648327607
 30
0.0
 10
4.0942349621
 20
4.9650971541
 30
0.0
 10
4.0967119142
 20
4.9653620057
 30
0.0
 10
4.1005894828
 20
4.9657336171
 30
0.0
 10
4.1061537651
 20
4.9661900689
 30
0.0
 10
4.1136858246
 20
4.9667172605
 30
0.0
 10
4.1223481827
 20
4.9672457663
 30
0.0
 10
4.1321299031
 20
4.9677752893
 30
0.0
 10
4.1430179961
 20
4.9683054216
 30
0.0
 10
4.1549971854
 20
4.9688361228
 30
0.0
 10
4.1680506611
 20
4.9693672316
 30
0.0
 10
4.1821612614
 20
4.9698986821
 30
0.0
 10
4.2030327686
 20
4.970631001
 30
0.0
 10
4.231609593
 20
4.9715375474
 30
0.0
 10
4.2687754423
 20
4.9725958397
 30
0.0
 10
4.3096210098
 20
4.9736552523
 30
0.0
 10
4.3539258575
 20
4.9747158966
 30
0.0
 10
4.4014481377
 20
4.9757771276
 30
0.0
 10
4.4519309591
 20
4.9768390618
 30
0.0
 10
4.5050993197
 20
4.9779013539
 30
0.0
 10
4.5606650894
 20
4.9789640317
 30
0.0
 10
4.618326309
 20
4.9800269643
 30
0.0
 10
4.6777698557
 20
4.9810900943
 30
0.0
 10
4.7596523128
 20
4.9825196319
 30
0.0
 10
4.8639803566
 20
4.9842915437
 30
0.0
 10
4.9899509673
 20
4.9864014009
 30
0.0
 10
5.1149808854
 20
4.9885108757
 30
0.0
 10
5.2363581581
 20
4.9906189977
 30
0.0
 10
5.3514501953
 20
4.9927243659
 30
0.0
 10
5.4577608088
 20
4.9948254252
 30
0.0
 10
5.5254261785
 20
4.9963125814
 30
0.0
 10
5.557396979
 20
4.9970734873
 30
0.0
  0
SPLINE
  5
431
100
AcDbEntity
  8
ALL_ASSEMBLY_MEMBERS
100
AcDbSpline
 62
7
  6
CONTINUOUS
 70
0
 71
3
 72
29
 73
25
 74
0
 42
0.0000001
 43
0.0000001
 44
0.0000000001
 40
0.0
 40
0.0
 40
0.0
 40
0.0
 40
0.2171926183
 40
0.3170764069
 40
0.4108589841
 40
0.4983351997
 40
0.5793015002
 40
0.6535806581
 40
0.7210181497
 40
0.7814605438
 40
0.8347666016
 40
0.8808322474
 40
0.9011200923
 40
0.919562272
 40
0.9361473902
 40
0.950866578
 40
0.9637160958
 40
0.9746938588
 40
0.9837997621
 40
0.9910377398
 40
0.9939603015
 40
0.9964227299
 40
0.9984316362
 40
1.0
 40
1.0
 40
1.0
 40
1.0
 10
5.557396979
 20
4.9970734873
 30
0.0
 10
5.5755645797
 20
4.9975058768
 30
0.0
 10
5.6020865707
 20
4.9981647337
 30
0.0
 10
5.6364509503
 20
4.9990974927
 30
0.0
 10
5.6599646549
 20
4.9997770996
 30
0.0
 10
5.6818948205
 20
5.0004562924
 30
0.0
 10
5.7021922866
 20
5.0011351172
 30
0.0
 10
5.7208120965
 20
5.0018134335
 30
0.0
 10
5.7377134364
 20
5.0024909537
 30
0.0
 10
5.7528584386
 20
5.0031673396
 30
0.0
 10
5.7662132853
 20
5.0038425684
 30
0.0
 10
5.7762085282
 20
5.0044252725
 30
0.0
 10
5.7832877419
 20
5.0048981238
 30
0.0
 10
5.7879036218
 20
5.0052372477
 30
0.0
 10
5.7920522167
 20
5.0055759424
 30
0.0
 10
5.7957311932
 20
5.0059141051
 30
0.0
 10
5.7989388255
 20
5.0062514997
 30
0.0
 10
5.8016740563
 20
5.0065875044
 30
0.0
 10
5.8039356824
 20
5.0069219501
 30
0.0
 10
5.8055217706
 20
5.0072144656
 30
0.0
 10
5.8065499955
 20
5.0074566932
 30
0.0
 10
5.807145795
 20
5.0076245612
 30
0.0
 10
5.8076230355
 20
5.0077914872
 30
0.0
 10
5.8078960458
 20
5.007916799
 30
0.0
 10
5.808009667
 20
5.0079824547
 30
0.0
  0
SPLINE
  5
432
100
AcDbEntity
  8
ALL_ASSEMBLY_MEMBERS
100
AcDbSpline
 62
7
  6
CONTINUOUS
 70
0
 71
3
 72
43
 73
39
 74
0
 42
0.0000001
 43
0.0000001
 44
0.0000000001
 40
0.0
 40
0.0
 40
0.0
 40
0.0
 40
0.0000991882
 40
0.0002117893
 40
0.0003472733
 40
0.0005111786
 40
0.0009351072
 40
0.0014968502
 40
0.0022014156
 40
0.0030512127
 40
0.0040475321
 40
0.0051911109
 40
0.0064823833
 40
0.0079216043
 40
0.0112443418
 40
0.0151596799
 40
0.0196660484
 40
0.0247606448
 40
0.0304404547
 40
0.0435430603
 40
0.0589473008
 40
0.0766160901
 40
0.0965052916
 40
0.1185701801
 40
0.1427583612
 40
0.1690088628
 40
0.1972601759
 40
0.227446187
 40
0.2594912329
 40
0.2933184383
 40
0.3659945236
 40
0.4447714802
 40
0.528894634
 40
0.6175576628
 40
0.7098971112
 40
0.8050286238
 40
0.9020663933
 40
1.0
 40
1.0
 40
1.0
 40
1.0
 10
5.8575838506
 20
4.1421216777
 30
0.0
 10
5.8575838483
 20
4.1420915347
 30
0.0
 10
5.8575703541
 20
4.1420267628
 30
0.0
 10
5.8575142352
 20
4.1419357508
 30
0.0
 10
5.8574249779
 20
4.1418468782
 30
0.0
 10
5.857245923
 20
4.1417183113
 30
0.0
 10
5.8569299484
 20
4.1415649779
 30
0.0
 10
5.8564461231
 20
4.1413917855
 30
0.0
 10
5.855826611
 20
4.1412175585
 30
0.0
 10
5.8550713789
 20
4.141042383
 30
0.0
 10
5.8541798349
 20
4.14086665
 30
0.0
 10
5.8531520223
 20
4.1406905076
 30
0.0
 10
5.851987941
 20
4.1405140643
 30
0.0
 10
5.8501650596
 20
4.1402665173
 30
0.0
 10
5.8475454334
 20
4.1399623356
 30
0.0
 10
5.8439935498
 20
4.1396111594
 30
0.0
 10
5.8399010084
 20
4.1392591716
 30
0.0
 10
5.8352705912
 20
4.1389064435
 30
0.0
 10
5.8280312772
 20
4.1384116574
 30
0.0
 10
5.8176596367
 20
4.1378038802
 30
0.0
 10
5.8036444804
 20
4.1371019294
 30
0.0
 10
5.7875647368
 20
4.1363982424
 30
0.0
 10
5.7694592177
 20
4.1356930325
 30
0.0
 10
5.7493711653
 20
4.1349869674
 30
0.0
 10
5.7273488785
 20
4.1342802497
 30
0.0
 10
5.7034456907
 20
4.1335729277
 30
0.0
 10
5.6777190568
 20
4.1328652092
 30
0.0
 10
5.6502308663
 20
4.1321572528
 30
0.0
 10
5.6210476616
 20
4.1314489739
 30
0.0
 10
5.578954397
 20
4.1304810433
 30
0.0
 10
5.5226610974
 20
4.129280728
 30
0.0
 10
5.4510841347
 20
4.1278706834
 30
0.0
 10
5.3746479375
 20
4.126459457
 30
0.0
 10
5.2940894999
 20
4.1250473325
 30
0.0
 10
5.21018518
 20
4.1236345345
 30
0.0
 10
5.1237354647
 20
4.1222212247
 30
0.0
 10
5.0355854849
 20
4.1208077221
 30
0.0
 10
4.9763417981
 20
4.1198668024
 30
0.0
 10
4.9465838509
 20
4.1193941777
 30
0.0
  0
SPLINE
  5
433
100
AcDbEntity
  8
ALL_ASSEMBLY_MEMBERS
100
AcDbSpline
 62
7
  6
CONTINUOUS
 70
0
 71
3
 72
13
 73
9
 74
0
 42
0.0000001
 43
0.0000001
 44
0.0000000001
 40
0.0
 40
0.0
 40
0.0
 40
0.0
 40
0.2499902621
 40
0.4999801947
 40
0.6249852425
 40
0.7499900128
 40
0.8749948619
 40
1.0
 40
1.0
 40
1.0
 40
1.0
 10
5.4980308112
 20
3.2886696833
 30
0.0
 10
5.4644990237
 20
3.2809628689
 30
0.0
 10
5.397016188
 20
3.2673162129
 30
0.0
 10
5.3118859037
 20
3.2547185717
 30
0.0
 10
5.2434639298
 20
3.2473157175
 30
0.0
 10
5.192017968
 20
3.243091954
 30
0.0
 10
5.1404820164
 20
3.2401778118
 30
0.0
 10
5.1060870454
 20
3.2390796129
 30
0.0
 10
5.0888863457
 20
3.2387228798
 30
0.0
  0
SPLINE
  5
434
100
AcDbEntity
  8
ALL_ASSEMBLY_MEMBERS
100
AcDbSpline
 62
7
  6
CONTINUOUS
 70
0
 71
3
 72
33
 73
29
 74
0
 42
0.0000001
 43
0.0000001
 44
0.0000000001
 40
0.0
 40
0.0
 40
0.0
 40
0.0
 40
0.0003721672
 40
0.0007854752
 40
0.0012706786
 40
0.0018471002
 40
0.0033138927
 40
0.005236876
 40
0.0076362554
 40
0.0105220108
 40
0.0138996115
 40
0.0177722675
 40
0.022141942
 40
0.0270098568
 40
0.0382429255
 40
0.0514746242
 40
0.0667047177
 40
0.1031333459
 40
0.1474594907
 40
0.1996052535
 40
0.2594853305
 40
0.3269797954
 40
0.4019538002
 40
0.4842717297
 40
0.5737806045
 40
0.670297729
 40
0.7736373096
 40
1.0
 40
1.0
 40
1.0
 40
1.0
 10
5.8575838504
 20
4.0512116778
 30
0.0
 10
5.857583853
 20
4.0511847748
 30
0.0
 10
5.8575733514
 20
4.0511276542
 30
0.0
 10
5.8575287546
 20
4.0510461146
 30
0.0
 10
5.8574571622
 20
4.0509662224
 30
0.0
 10
5.8573142411
 20
4.050851417
 30
0.0
 10
5.8570608279
 20
4.0507136938
 30
0.0
 10
5.856671986
 20
4.0505582749
 30
0.0
 10
5.8561744515
 20
4.0504020235
 30
0.0
 10
5.8555680924
 20
4.0502450395
 30
0.0
 10
5.8548523672
 20
4.0500875796
 30
0.0
 10
5.8540272718
 20
4.0499297756
 30
0.0
 10
5.853092781
 20
4.0497717108
 30
0.0
 10
5.8516296577
 20
4.049549995
 30
0.0
 10
5.8495266274
 20
4.0492775251
 30
0.0
 10
5.84667439
 20
4.0489628455
 30
0.0
 10
5.8420049067
 20
4.0485152413
 30
0.0
 10
5.8350874523
 20
4.0479699928
 30
0.0
 10
5.8255007083
 20
4.047343636
 30
0.0
 10
5.8142157852
 20
4.0467149641
 30
0.0
 10
5.8012539753
 20
4.0460845302
 30
0.0
 10
5.7866403086
 20
4.0454529245
 30
0.0
 10
5.7704033592
 20
4.0448203951
 30
0.0
 10
5.7525739765
 20
4.0441872739
 30
0.0
 10
5.7331864155
 20
4.0435537518
 30
0.0
 10
5.7122785194
 20
4.0429197921
 30
0.0
 10
5.6814805623
 20
4.0420473661
 30
0.0
 10
5.6576550712
 20
4.0414345468
 30
0.0
 10
5.6412968279
 20
4.0410329239
 30
0.0
  0
LINE
  5
435
100
AcDbEntity
  8
ALL_ASSEMBLY_MEMBERS
100
AcDbLine
 62
7
  6
CONTINUOUS
 10
5.6412968279
 20
4.0410329239
 11
5.6242285646
 21
4.0406207273
  0
LINE
  5
436
100
AcDbEntity
  8
ALL_ASSEMBLY_MEMBERS
100
AcDbLine
 62
7
  6
CONTINUOUS
 10
5.6242285646
 20
4.0406207273
 11
5.6166090909
 21
4.0404408955
  0
SPLINE
  5
437
100
AcDbEntity
  8
ALL_ASSEMBLY_MEMBERS
100
AcDbSpline
 62
7
  6
CONTINUOUS
 70
0
 71
3
 72
12
 73
8
 74
0
 42
0.0000001
 43
0.0000001
 44
0.0000000001
 40
0.0
 40
0.0
 40
0.0
 40
0.0
 40
0.1057253129
 40
0.2189881543
 40
0.464257778
 40
0.7275397545
 40
1.0
 40
1.0
 40
1.0
 40
1.0
 10
5.5573480343
 20
4.0391157306
 30
0.0
 10
5.5358252682
 20
4.0386550332
 30
0.0
 10
5.4912444317
 20
4.037741316
 30
0.0
 10
5.3967299655
 20
4.0359319587
 30
0.0
 10
5.2701361213
 20
4.0337078015
 30
0.0
 10
5.1111285877
 20
4.0310973004
 30
0.0
 10
5.002054973
 20
4.0293651868
 30
0.0
 10
4.9465838509
 20
4.0284841777
 30
0.0
  0
LINE
  5
438
100
AcDbEntity
  8
ALL_ASSEMBLY_MEMBERS
100
AcDbLine
 62
7
  6
CONTINUOUS
 10
4.584099734
 20
4.00815603
 11
4.9465838509
 21
4.0140769912
  0
SPLINE
  5
439
100
AcDbEntity
  8
ALL_ASSEMBLY_MEMBERS
100
AcDbSpline
 62
7
  6
CONTINUOUS
 70
0
 71
3
 72
32
 73
28
 74
0
 42
0.0000001
 43
0.0000001
 44
0.0000000001
 40
0.0
 40
0.0
 40
0.0
 40
0.0
 40
0.0017809374
 40
0.0024611428
 40
0.003251916
 40
0.0051808353
 40
0.0075893988
 40
0.0104878122
 40
0.0138818214
 40
0.0177749402
 40
0.0221693947
 40
0.0270661128
 40
0.0383664014
 40
0.0516740217
 40
0.0669843297
 40
0.1035879473
 40
0.1481212245
 40
0.2004929939
 40
0.260576187
 40
0.3282405026
 40
0.4033487158
 40
0.4857358147
 40
0.5752288576
 40
0.6716525687
 40
0.7747786536
 40
0.8843233023
 40
1.0
 40
1.0
 40
1.0
 40
1.0
 10
4.0847954346
 20
4.3265780857
 30
0.0
 10
4.0847955822
 20
4.3267165264
 30
0.0
 10
4.0849634306
 20
4.3268793028
 30
0.0
 10
4.0851731156
 20
4.3270089814
 30
0.0
 10
4.0854098984
 20
4.3271308536
 30
0.0
 10
4.0857806253
 20
4.3272765821
 30
0.0
 10
4.0863182858
 20
4.3274440972
 30
0.0
 10
4.0869736202
 20
4.3276118187
 30
0.0
 10
4.0877474355
 20
4.327780256
 30
0.0
 10
4.0886397609
 20
4.3279489936
 30
0.0
 10
4.0896506697
 20
4.3281180223
 30
0.0
 10
4.0912337456
 20
4.3283551116
 30
0.0
 10
4.0935089421
 20
4.3286464427
 30
0.0
 10
4.096593789
 20
4.3289829281
 30
0.0
 10
4.1016412618
 20
4.3294615659
 30
0.0
 10
4.1091162815
 20
4.3300447874
 30
0.0
 10
4.1194730722
 20
4.3307145532
 30
0.0
 10
4.1316581429
 20
4.331386685
 30
0.0
 10
4.1456435079
 20
4.3320609713
 30
0.0
 10
4.1613980381
 20
4.3327364777
 30
0.0
 10
4.1788877426
 20
4.3334127701
 30
0.0
 10
4.1980754186
 20
4.3340897836
 30
0.0
 10
4.2189209708
 20
4.3347674371
 30
0.0
 10
4.2413794363
 20
4.3354455057
 30
0.0
 10
4.2653972616
 20
4.3361238444
 30
0.0
 10
4.2909122694
 20
4.3368022893
 30
0.0
 10
4.3084142651
 20
4.3372428038
 30
0.0
 10
4.3174036555
 20
4.337463662
 30
0.0
  0
LINE
  5
43A
100
AcDbEntity
  8
ALL_ASSEMBLY_MEMBERS
100
AcDbLine
 62
7
  6
CONTINUOUS
 10
4.5091871625
 20
4.1121481999
 11
4.4932273173
 21
4.1118576143
  0
LINE
  5
43B
100
AcDbEntity
  8
ALL_ASSEMBLY_MEMBERS
100
AcDbLine
 62
7
  6
CONTINUOUS
 10
4.3573762003
 20
4.1092176605
 11
4.3371129738
 21
4.1087902849
  0
LINE
  5
43C
100
AcDbEntity
  8
ALL_ASSEMBLY_MEMBERS
100
AcDbLine
 62
7
  6
CONTINUOUS
 10
4.3358976975
 20
4.1087642956
 11
4.2766700953
 21
4.1074400722
  0
LINE
  5
43D
100
AcDbEntity
  8
ALL_ASSEMBLY_MEMBERS
100
AcDbLine
 62
7
  6
CONTINUOUS
 10
4.2766700953
 20
4.1074400722
 11
4.2696096522
 21
4.1072735518
  0
LINE
  5
43E
100
AcDbEntity
  8
ALL_ASSEMBLY_MEMBERS
100
AcDbLine
 62
7
  6
CONTINUOUS
 10
4.2696096522
 20
4.1072735518
 11
4.2519790364
 21
4.1068480864
  0
SPLINE
  5
43F
100
AcDbEntity
  8
ALL_ASSEMBLY_MEMBERS
100
AcDbSpline
 62
7
  6
CONTINUOUS
 70
0
 71
3
 72
29
 73
25
 74
0
 42
0.0000001
 43
0.0000001
 44
0.0000000001
 40
0.0
 40
0.0
 40
0.0
 40
0.0
 40
0.218553828
 40
0.3187396073
 40
0.4126305533
 40
0.5000612551
 40
0.5808671392
 40
0.6549040788
 40
0.7220510066
 40
0.7821884539
 40
0.8352009523
 40
0.8810027241
 40
0.9011778169
 40
0.919524364
 40
0.9360342246
 40
0.9506996972
 40
0.9635152362
 40
0.9744804181
 40
0.9835975573
 40
0.9908731455
 40
0.9938252597
 40
0.9963248515
 40
0.9983787982
 40
1.0
 40
1.0
 40
1.0
 40
1.0
 10
4.2519790364
 20
4.1068480864
 30
0.0
 10
4.2362171593
 20
4.1064611895
 30
0.0
 10
4.2132305964
 20
4.1058710111
 30
0.0
 10
4.183474915
 20
4.1050334354
 30
0.0
 10
4.1631759098
 20
4.1044238784
 30
0.0
 10
4.144275645
 20
4.103814685
 30
0.0
 10
4.1268084489
 20
4.103205842
 30
0.0
 10
4.1108054825
 20
4.1025974448
 30
0.0
 10
4.0962947003
 20
4.1019897378
 30
0.0
 10
4.0833020478
 20
4.1013830582
 30
0.0
 10
4.0718510841
 20
4.1007774485
 30
0.0
 10
4.0632828802
 20
4.1002547514
 30
0.0
 10
4.0572144924
 20
4.0998306746
 30
0.0
 10
4.0532561126
 20
4.0995265003
 30
0.0
 10
4.0496964589
 20
4.0992227111
 30
0.0
 10
4.0465373721
 20
4.0989194289
 30
0.0
 10
4.0437803033
 20
4.0986167743
 30
0.0
 10
4.0414260395
 20
4.0983153028
 30
0.0
 10
4.0394751933
 20
4.0980151745
 30
0.0
 10
4.0381038224
 20
4.0977527575
 30
0.0
 10
4.0372114952
 20
4.0975357668
 30
0.0
 10
4.0366911289
 20
4.0973850577
 30
0.0
 10
4.0362714354
 20
4.0972351018
 30
0.0
 10
4.0360301871
 20
4.0971230425
 30
0.0
 10
4.0359288817
 20
4.0970645994
 30
0.0
  0
SPLINE
  5
440
100
AcDbEntity
  8
ALL_ASSEMBLY_MEMBERS
100
AcDbSpline
 62
7
  6
CONTINUOUS
 70
0
 71
3
 72
41
 73
37
 74
0
 42
0.0000001
 43
0.0000001
 44
0.0000000001
 40
0.0
 40
0.0
 40
0.0
 40
0.0
 40
0.0002445148
 40
0.000390894
 40
0.0005606702
 40
0.0009827011
 40
0.0015269579
 40
0.0022003782
 40
0.0030065156
 40
0.0050238961
 40
0.0062373755
 40
0.0075880479
 40
0.009076244
 40
0.0107021827
 40
0.0143677574
 40
0.0185853923
 40
0.0233547357
 40
0.0286739529
 40
0.0409528786
 40
0.0554031693
 40
0.0720047268
 40
0.0907347302
 40
0.1115607286
 40
0.1344476228
 40
0.1593601905
 40
0.186261475
 40
0.2151058498
 40
0.2784299467
 40
0.348932176
 40
0.4261497071
 40
0.5095904316
 40
0.5987089718
 40
0.6929344424
 40
0.7916531678
 40
0.8942303974
 40
1.0
 40
1.0
 40
1.0
 40
1.0
 10
4.0847938731
 20
4.2356680848
 30
0.0
 10
4.0847939036
 20
4.2357187315
 30
0.0
 10
4.0848220706
 20
4.235799989
 30
0.0
 10
4.084893512
 20
4.2358916303
 30
0.0
 10
4.0850057834
 20
4.2359964112
 30
0.0
 10
4.0852061524
 20
4.2361226317
 30
0.0
 10
4.0855147574
 20
4.2362653146
 30
0.0
 10
4.0859091678
 20
4.2364085301
 30
0.0
 10
4.0866033948
 20
4.2366159736
 30
0.0
 10
4.0874191416
 20
4.2368031698
 30
0.0
 10
4.0883504052
 20
4.2369854707
 30
0.0
 10
4.0891772824
 20
4.2371301741
 30
0.0
 10
4.0900906808
 20
4.2372751093
 30
0.0
 10
4.0914804832
 20
4.2374765829
 30
0.0
 10
4.0934344932
 20
4.2377253742
 30
0.0
 10
4.0960393769
 20
4.2380139704
 30
0.0
 10
4.0989885758
 20
4.2383030321
 30
0.0
 10
4.1036038606
 20
4.2387086352
 30
0.0
 10
4.1102236219
 20
4.2392068331
 30
0.0
 10
4.1191804363
 20
4.2397822964
 30
0.0
 10
4.1294757784
 20
4.2403591634
 30
0.0
 10
4.1410934785
 20
4.2409370592
 30
0.0
 10
4.1540144688
 20
4.2415157481
 30
0.0
 10
4.1682171947
 20
4.242095049
 30
0.0
 10
4.183679242
 20
4.2426747861
 30
0.0
 10
4.2003760603
 20
4.2432547983
 30
0.0
 10
4.2250262541
 20
4.2440535927
 30
0.0
 10
4.2587060655
 20
4.2450425201
 30
0.0
 10
4.3024047152
 20
4.2461972804
 30
0.0
 10
4.3502714353
 20
4.2473536461
 30
0.0
 10
4.4019951897
 20
4.2485109798
 30
0.0
 10
4.4572426262
 20
4.2496692502
 30
0.0
 10
4.515655263
 20
4.2508280263
 30
0.0
 10
4.5768561304
 20
4.2519873477
 30
0.0
 10
4.6404485579
 20
4.2531469575
 30
0.0
 10
4.6835970329
 20
4.2539101995
 30
0.0
 10
4.705501916
 20
4.2542932635
 30
0.0
  0
LINE
  5
441
100
AcDbEntity
  8
ALL_ASSEMBLY_MEMBERS
100
AcDbLine
 62
7
  6
CONTINUOUS
 10
4.705501916
 20
4.2542932635
 11
4.7140882374
 21
4.2544431939
  0
LINE
  5
442
100
AcDbEntity
  8
ALL_ASSEMBLY_MEMBERS
100
AcDbLine
 62
7
  6
CONTINUOUS
 10
4.7140882374
 20
4.2544431939
 11
4.946630595
 21
4.2583963683
  0
LINE
  5
443
100
AcDbEntity
  8
ALL_ASSEMBLY_MEMBERS
100
AcDbLine
 62
7
  6
CONTINUOUS
 10
4.952623522
 20
4.2584969856
 11
5.1791738492
 21
4.2623496267
  0
LINE
  5
444
100
AcDbEntity
  8
ALL_ASSEMBLY_MEMBERS
100
AcDbLine
 62
7
  6
CONTINUOUS
 10
5.1791738492
 20
4.2623496267
 11
5.1846569536
 21
4.2624453217
  0
LINE
  5
445
100
AcDbEntity
  8
ALL_ASSEMBLY_MEMBERS
100
AcDbLine
 62
7
  6
CONTINUOUS
 10
5.1846569536
 20
4.2624453217
 11
5.1877070346
 21
4.2624986324
  0
SPLINE
  5
446
100
AcDbEntity
  8
ALL_ASSEMBLY_MEMBERS
100
AcDbSpline
 62
7
  6
CONTINUOUS
 70
0
 71
3
 72
36
 73
32
 74
0
 42
0.0000001
 43
0.0000001
 44
0.0000000001
 40
0.0
 40
0.0
 40
0.0
 40
0.0
 40
0.1035120498
 40
0.2039831501
 40
0.3007952221
 40
0.3933478144
 40
0.4810712695
 40
0.5634223988
 40
0.6398933386
 40
0.7100123582
 40
0.7733454557
 40
0.8023457135
 40
0.8295047875
 40
0.8547819355
 40
0.8781409361
 40
0.8995457104
 40
0.9189605342
 40
0.9363559656
 40
0.9517089891
 40
0.9649972063
 40
0.976198905
 40
0.9810119949
 40
0.9852986782
 40
0.9890584841
 40
0.9922913204
 40
0.9949977707
 40
0.9971797478
 40
0.9980755441
 40
0.9988425835
 40
0.9994828671
 40
1.0
 40
1.0
 40
1.0
 40
1.0
 10
5.1877070346
 20
4.2624986324
 30
0.0
 10
5.2091230235
 20
4.2628731505
 30
0.0
 10
5.2513257042
 20
4.2636194633
 30
0.0
 10
5.3135575292
 20
4.2647530929
 30
0.0
 10
5.3735211837
 20
4.2658863572
 30
0.0
 10
5.4308465452
 20
4.2670192514
 30
0.0
 10
5.4851789715
 20
4.2681515663
 30
0.0
 10
5.5361829481
 20
4.2692831891
 30
0.0
 10
5.5835431899
 20
4.2704138279
 30
0.0
 10
5.6269669376
 20
4.2715431998
 30
0.0
 10
5.6605686328
 20
4.2725090568
 30
0.0
 10
5.6852823667
 20
4.2732885395
 30
0.0
 10
5.7021241046
 20
4.2738556734
 30
0.0
 10
5.7177978261
 20
4.2744225423
 30
0.0
 10
5.7322800153
 20
4.2749890425
 30
0.0
 10
5.7455481579
 20
4.2755550487
 30
0.0
 10
5.7575810902
 20
4.2761204885
 30
0.0
 10
5.7683602722
 20
4.2766852022
 30
0.0
 10
5.7778698532
 20
4.2772486356
 30
0.0
 10
5.786095317
 20
4.2778104894
 30
0.0
 10
5.7921395267
 20
4.2782976571
 30
0.0
 10
5.7963216477
 20
4.2786950476
 30
0.0
 10
5.7989676783
 20
4.278977378
 30
0.0
 10
5.8012846878
 20
4.2792590981
 30
0.0
 10
5.8032721458
 20
4.2795398326
 30
0.0
 10
5.8049294057
 20
4.279819422
 30
0.0
 10
5.8061017784
 20
4.2800636136
 30
0.0
 10
5.8068716555
 20
4.280264885
 30
0.0
 10
5.807327294
 20
4.2804053872
 30
0.0
 10
5.8077003433
 20
4.2805453453
 30
0.0
 10
5.8079170133
 20
4.2806489157
 30
0.0
 10
5.8080096646
 20
4.2807024547
 30
0.0
  0
SPLINE
  5
447
100
AcDbEntity
  8
ALL_ASSEMBLY_MEMBERS
100
AcDbSpline
 62
7
  6
CONTINUOUS
 70
0
 71
3
 72
47
 73
43
 74
0
 42
0.0000001
 43
0.0000001
 44
0.0000000001
 40
0.0
 40
0.0
 40
0.0
 40
0.0
 40
0.0000958452
 40
0.0002085804
 40
0.0003491832
 40
0.0005234476
 40
0.0007344169
 40
0.0009837984
 40
0.0012726224
 40
0.0016015509
 40
0.0023811962
 40
0.0033247353
 40
0.0044330341
 40
0.0057064842
 40
0.0071452199
 40
0.0087492246
 40
0.0124524972
 40
0.0168148339
 40
0.0218339999
 40
0.0275055635
 40
0.0338238273
 40
0.0407829818
 40
0.0483771531
 40
0.0654457245
 40
0.0849669302
 40
0.1068683386
 40
0.1310740872
 40
0.1574931602
 40
0.1860298505
 40
0.2165824044
 40
0.2490364851
 40
0.2832757736
 40
0.3191756249
 40
0.3566033389
 40
0.395424715
 40
0.4766737087
 40
0.561739393
 40
0.6493812872
 40
0.7383223812
 40
0.827267084
 40
0.9149187069
 40
1.0
 40
1.0
 40
1.0
 40
1.0
 10
4.0847951761
 20
4.1447580834
 30
0.0
 10
4.0847951187
 20
4.1447953942
 30
0.0
 10
4.0848152083
 20
4.1448771197
 30
0.0
 10
4.084896199
 20
4.1449887791
 30
0.0
 10
4.0850234922
 20
4.1450974436
 30
0.0
 10
4.0851980408
 20
4.1452053658
 30
0.0
 10
4.0854205556
 20
4.1453133386
 30
0.0
 10
4.0856915965
 20
4.1454214921
 30
0.0
 10
4.0860114146
 20
4.1455298552
 30
0.0
 10
4.0865334073
 20
4.1456833608
 30
0.0
 10
4.0873103574
 20
4.1458709143
 30
0.0
 10
4.0883915005
 20
4.1460863833
 30
0.0
 10
4.0896679544
 20
4.1463025248
 30
0.0
 10
4.0911394119
 20
4.1465192301
 30
0.0
 10
4.0928056109
 20
4.1467363155
 30
0.0
 10
4.0954140531
 20
4.1470409057
 30
0.0
 10
4.0991598571
 20
4.1474151312
 30
0.0
 10
4.1042352782
 20
4.1478472834
 30
0.0
 10
4.1100792446
 20
4.1482803908
 30
0.0
 10
4.116686373
 20
4.1487143486
 30
0.0
 10
4.1240501176
 20
4.1491488865
 30
0.0
 10
4.1321634449
 20
4.149583892
 30
0.0
 10
4.144458496
 20
4.1501881352
 30
0.0
 10
4.1616425104
 20
4.1509337016
 30
0.0
 10
4.1843957148
 20
4.1517996212
 30
0.0
 10
4.2099290245
 20
4.1526671576
 30
0.0
 10
4.238148904
 20
4.1535357154
 30
0.0
 10
4.2689528685
 20
4.1544052089
 30
0.0
 10
4.3022284205
 20
4.1552753588
 30
0.0
 10
4.3378540323
 20
4.1561458923
 30
0.0
 10
4.3757001758
 20
4.1570169089
 30
0.0
 10
4.4156284438
 20
4.1578881835
 30
0.0
 10
4.4574932943
 20
4.1587596684
 30
0.0
 10
4.5011422359
 20
4.1596314276
 30
0.0
 10
4.5624421538
 20
4.1608118473
 30
0.0
 10
4.6422846399
 20
4.1622771337
 30
0.0
 10
4.7411303346
 20
4.1640111801
 30
0.0
 10
4.8429708616
 20
4.1657459947
 30
0.0
 10
4.9463216303
 20
4.167481197
 30
0.0
 10
5.0496761873
 20
4.1692163815
 30
0.0
 10
5.151527983
 20
4.1709512127
 30
0.0
 10
5.2187595831
 20
4.1721304096
 30
0.0
 10
5.2518749213
 20
4.1727249467
 30
0.0
  0
LINE
  5
448
100
AcDbEntity
  8
ALL_ASSEMBLY_MEMBERS
100
AcDbLine
 62
7
  6
CONTINUOUS
 10
5.2518749213
 20
4.1727249467
 11
5.3368746453
 21
4.1742858735
  0
LINE
  5
449
100
AcDbEntity
  8
ALL_ASSEMBLY_MEMBERS
100
AcDbLine
 62
7
  6
CONTINUOUS
 10
5.3368746453
 20
4.1742858735
 11
5.441223409
 21
4.1763309674
  0
LINE
  5
44A
100
AcDbEntity
  8
ALL_ASSEMBLY_MEMBERS
100
AcDbLine
 62
7
  6
CONTINUOUS
 10
5.441223409
 20
4.1763309674
 11
5.4432054394
 21
4.1763716445
  0
LINE
  5
44B
100
AcDbEntity
  8
ALL_ASSEMBLY_MEMBERS
100
AcDbLine
 62
7
  6
CONTINUOUS
 10
5.4432054394
 20
4.1763716445
 11
5.5140975194
 21
4.177886662
  0
LINE
  5
44C
100
AcDbEntity
  8
ALL_ASSEMBLY_MEMBERS
100
AcDbLine
 62
7
  6
CONTINUOUS
 10
5.5140975194
 20
4.177886662
 11
5.5169748005
 21
4.1779509769
  0
LINE
  5
44D
100
AcDbEntity
  8
ALL_ASSEMBLY_MEMBERS
100
AcDbLine
 62
7
  6
CONTINUOUS
 10
5.5169748005
 20
4.1779509769
 11
5.5711940879
 21
4.1792157024
  0
LINE
  5
44E
100
AcDbEntity
  8
ALL_ASSEMBLY_MEMBERS
100
AcDbLine
 62
7
  6
CONTINUOUS
 10
5.6231110347
 20
4.1805471063
 11
5.6257089086
 21
4.1806177318
  0
SPLINE
  5
44F
100
AcDbEntity
  8
ALL_ASSEMBLY_MEMBERS
100
AcDbSpline
 62
7
  6
CONTINUOUS
 70
0
 71
3
 72
28
 73
24
 74
0
 42
0.0000001
 43
0.0000001
 44
0.0000000001
 40
0.0
 40
0.0
 40
0.0
 40
0.0
 40
0.2183724878
 40
0.3183730657
 40
0.4120450861
 40
0.4992361437
 40
0.5798013856
 40
0.6536247984
 40
0.720597606
 40
0.7806114961
 40
0.8335640789
 40
0.879384071
 40
0.9180129199
 40
0.934613578
 40
0.949396575
 40
0.9623566596
 40
0.9734927132
 40
0.9828087817
 40
0.9903135909
 40
0.9933925425
 40
0.9960275893
 40
0.9982258688
 40
1.0
 40
1.0
 40
1.0
 40
1.0
 10
5.6257089086
 20
4.1806177318
 30
0.0
 10
5.6390012709
 20
4.1809802239
 30
0.0
 10
5.658380034
 20
4.181533522
 30
0.0
 10
5.6834583038
 20
4.1823193004
 30
0.0
 10
5.700551327
 20
4.1828909389
 30
0.0
 10
5.716460183
 20
4.1834622648
 30
0.0
 10
5.7311595757
 20
4.184033326
 30
0.0
 10
5.7446268371
 20
4.1846039268
 30
0.0
 10
5.756841476
 20
4.185173882
 30
0.0
 10
5.7677837486
 20
4.1857429765
 30
0.0
 10
5.777436106
 20
4.1863109276
 30
0.0
 10
5.7857837801
 20
4.1868773759
 30
0.0
 10
5.7919176124
 20
4.1873684679
 30
0.0
 10
5.7961620838
 20
4.1877689708
 30
0.0
 10
5.7988473412
 20
4.1880535134
 30
0.0
 10
5.8011978076
 20
4.1883374536
 30
0.0
 10
5.8032127982
 20
4.1886204291
 30
0.0
 10
5.8048918717
 20
4.1889022493
 30
0.0
 10
5.806079011
 20
4.1891484199
 30
0.0
 10
5.806858111
 20
4.1893513473
 30
0.0
 10
5.8073188773
 20
4.1894929674
 30
0.0
 10
5.8076959194
 20
4.1896340376
 30
0.0
 10
5.8079148449
 20
4.189738458
 30
0.0
 10
5.8080084151
 20
4.1897924532
 30
0.0
  0
LINE
  5
450
100
AcDbEntity
  8
ALL_ASSEMBLY_MEMBERS
100
AcDbLine
 62
7
  6
CONTINUOUS
 10
4.8688338509
 20
3.2387221513
 11
4.8601671843
 21
3.2385209803
  0
SPLINE
  5
451
100
AcDbEntity
  8
ALL_ASSEMBLY_MEMBERS
100
AcDbSpline
 62
7
  6
CONTINUOUS
 70
0
 71
3
 72
37
 73
33
 74
0
 42
0.0000001
 43
0.0000001
 44
0.0000000001
 40
0.0
 40
0.0
 40
0.0
 40
0.0
 40
0.0962821816
 40
0.1917184794
 40
0.2853436459
 40
0.3763159477
 40
0.4637972002
 40
0.5469633262
 40
0.6250453085
 40
0.6973199851
 40
0.7631134501
 40
0.7933881273
 40
0.8218178842
 40
0.8483363979
 40
0.8728848705
 40
0.8954050139
 40
0.9158430032
 40
0.9341548223
 40
0.9502979017
 40
0.9642325068
 40
0.9703626115
 40
0.9759304214
 40
0.9809329079
 40
0.9853671539
 40
0.9892304555
 40
0.9925213926
 40
0.9952401965
 40
0.9973882963
 40
0.9982495877
 40
0.9989703005
 40
0.9995524368
 40
1.0
 40
1.0
 40
1.0
 40
1.0
 10
4.9465838509
 20
4.2103041777
 30
0.0
 10
4.9173452971
 20
4.2098398022
 30
0.0
 10
4.8591250635
 20
4.2089151364
 30
0.0
 10
4.7724733503
 20
4.2075261183
 30
0.0
 10
4.6874345287
 20
4.2061372692
 30
0.0
 10
4.6048120867
 20
4.2047488956
 30
0.0
 10
4.5253666526
 20
4.2033611627
 30
0.0
 10
4.4498367978
 20
4.2019741872
 30
0.0
 10
4.3789261884
 20
4.2005884171
 30
0.0
 10
4.3132929462
 20
4.1992042052
 30
0.0
 10
4.2621784945
 20
4.1980221372
 30
0.0
 10
4.2243787777
 20
4.1970678106
 30
0.0
 10
4.1985047119
 20
4.196372328
 30
0.0
 10
4.1743704345
 20
4.1956771591
 30
0.0
 10
4.1520317724
 20
4.1949824888
 30
0.0
 10
4.1315407937
 20
4.1942884236
 30
0.0
 10
4.1129451361
 20
4.1935950062
 30
0.0
 10
4.0962877103
 20
4.1929027647
 30
0.0
 10
4.0816073051
 20
4.1922119922
 30
0.0
 10
4.0706265177
 20
4.1916155596
 30
0.0
 10
4.0628565912
 20
4.1911314466
 30
0.0
 10
4.0577962933
 20
4.190784388
 30
0.0
 10
4.0532523513
 20
4.1904377909
 30
0.0
 10
4.0492277024
 20
4.1900918314
 30
0.0
 10
4.0457249836
 20
4.1897466723
 30
0.0
 10
4.0427459242
 20
4.1894029712
 30
0.0
 10
4.0402918167
 20
4.1890609344
 30
0.0
 10
4.0385771888
 20
4.1887616239
 30
0.0
 10
4.0374716631
 20
4.1885132757
 30
0.0
 10
4.0368367754
 20
4.1883417138
 30
0.0
 10
4.0363329865
 20
4.1881712528
 30
0.0
 10
4.0360465874
 20
4.1880425255
 30
0.0
 10
4.0359288448
 20
4.1879745994
 30
0.0
  0
SPLINE
  5
452
100
AcDbEntity
  8
ALL_ASSEMBLY_MEMBERS
100
AcDbSpline
 62
7
  6
CONTINUOUS
 70
0
 71
3
 72
70
 73
66
 74
0
 42
0.0000001
 43
0.0000001
 44
0.0000000001
 40
0.0
 40
0.0
 40
0.0
 40
0.0
 40
0.0002520745
 40
0.0003496045
 40
0.0004632615
 40
0.000741108
 40
0.0010885734
 40
0.0015070303
 40
0.0019972408
 40
0.0025596629
 40
0.0031945868
 40
0.0039022029
 40
0.0055356654
 40
0.0074596461
 40
0.0096732358
 40
0.0149647244
 40
0.0214004085
 40
0.028967109
 40
0.0376456362
 40
0.0474158724
 40
0.0582567404
 40
0.0701416261
 40
0.0830417077
 40
0.0969279875
 40
0.1117678575
 40
0.1275248892
 40
0.1441624576
 40
0.1799221091
 40
0.2187069711
 40
0.2601518778
 40
0.3038650432
 40
0.3494328445
 40
0.3964256459
 40
0.4443984062
 40
0.4928984495
 40
0.5414669384
 40
0.5896453454
 40
0.6369777553
 40
0.683017531
 40
0.7273291335
 40
0.7694937727
 40
0.8091139633
 40
0.8458136463
 40
0.879248336
 40
0.8946401847
 40
0.9091005495
 40
0.9225946819
 40
0.9350895033
 40
0.9465572011
 40
0.9569710358
 40
0.9663048387
 40
0.9745376691
 40
0.9816516677
 40
0.9847836089
 40
0.9876293426
 40
0.9901874763
 40
0.992457083
 40
0.9944373371
 40
0.9961275743
 40
0.9975274278
 40
0.9986371423
 40
0.999083722
 40
0.9994588135
 40
0.9997635348
 40
1.0
 40
1.0
 40
1.0
 40
1.0
 10
4.0847949086
 20
4.0538480858
 30
0.0
 10
4.0847951903
 20
4.0539929804
 30
0.0
 10
4.0849770434
 20
4.0541607775
 30
0.0
 10
4.0851995423
 20
4.0542938234
 30
0.0
 10
4.0854532815
 20
4.0544199695
 30
0.0
 10
4.085849954
 20
4.0545706214
 30
0.0
 10
4.0864251427
 20
4.0547438405
 30
0.0
 10
4.0871261089
 20
4.0549172736
 30
0.0
 10
4.0879537444
 20
4.0550914702
 30
0.0
 10
4.0889080145
 20
4.0552659811
 30
0.0
 10
4.0899890246
 20
4.0554408099
 30
0.0
 10
4.0916820484
 20
4.0556860529
 30
0.0
 10
4.0941153005
 20
4.0559873534
 30
0.0
 10
4.0974143534
 20
4.056335348
 30
0.0
 10
4.1028117516
 20
4.0568303414
 30
0.0
 10
4.1108027438
 20
4.0574334657
 30
0.0
 10
4.1218715505
 20
4.0581262197
 30
0.0
 10
4.1348903633
 20
4.0588213356
 30
0.0
 10
4.149828114
 20
4.0595186967
 30
0.0
 10
4.1666496367
 20
4.0602173667
 30
0.0
 10
4.1853155873
 20
4.0609168552
 30
0.0
 10
4.2057817207
 20
4.0616170558
 30
0.0
 10
4.2279993038
 20
4.0623178419
 30
0.0
 10
4.25191621
 20
4.0630189753
 30
0.0
 10
4.277475968
 20
4.0637203764
 30
0.0
 10
4.304617743
 20
4.0644221048
 30
0.0
 10
4.3437817406
 20
4.0653812063
 30
0.0
 10
4.3961806366
 20
4.066570607
 30
0.0
 10
4.4628378723
 20
4.0679676864
 30
0.0
 10
4.5340677766
 20
4.0693659027
 30
0.0
 10
4.6091972682
 20
4.070765045
 30
0.0
 10
4.6875162586
 20
4.0721648567
 30
0.0
 10
4.7682840752
 20
4.0735650698
 30
0.0
 10
4.8507376141
 20
4.0749656051
 30
0.0
 10
4.9340970002
 20
4.0763662558
 30
0.0
 10
5.0175746097
 20
4.0777669501
 30
0.0
 10
5.1003809598
 20
4.0791675111
 30
0.0
 10
5.1817335743
 20
4.0805678609
 30
0.0
 10
5.2608631828
 20
4.0819677954
 30
0.0
 10
5.3370218377
 20
4.0833671517
 30
0.0
 10
5.4094898177
 20
4.0847657349
 30
0.0
 10
5.4775815609
 20
4.0861630596
 30
0.0
 10
5.5406541414
 20
4.087559014
 30
0.0
 10
5.5898010631
 20
4.0887506775
 30
0.0
 10
5.6261662783
 20
4.0897129496
 30
0.0
 10
5.6510723231
 20
4.0904142838
 30
0.0
 10
5.6743124372
 20
4.0911152181
 30
0.0
 10
5.6958315091
 20
4.0918158206
 30
0.0
 10
5.7155790046
 20
4.0925158089
 30
0.0
 10
5.7335083031
 20
4.0932149485
 30
0.0
 10
5.7495766624
 20
4.0939130742
 30
0.0
 10
5.7637462926
 20
4.0946098731
 30
0.0
 10
5.7743512062
 20
4.0952111693
 30
0.0
 10
5.7818606284
 20
4.0956991928
 30
0.0
 10
5.7867546377
 20
4.0960491928
 30
0.0
 10
5.7911516063
 20
4.0963987662
 30
0.0
 10
5.7950494059
 20
4.0967477267
 30
0.0
 10
5.7984461401
 20
4.0970958743
 30
0.0
 10
5.8013401777
 20
4.0974425387
 30
0.0
 10
5.803729675
 20
4.0977875522
 30
0.0
 10
5.8054027185
 20
4.0980893656
 30
0.0
 10
5.8064845388
 20
4.0983395789
 30
0.0
 10
5.8071087938
 20
4.0985127406
 30
0.0
 10
5.8076068104
 20
4.0986848846
 30
0.0
 10
5.8078909332
 20
4.0988144171
 30
0.0
 10
5.8080086008
 20
4.0988824557
 30
0.0
  0
SPLINE
  5
453
100
AcDbEntity
  8
ALL_ASSEMBLY_MEMBERS
100
AcDbSpline
 62
7
  6
CONTINUOUS
 70
0
 71
3
 72
29
 73
25
 74
0
 42
0.0000001
 43
0.0000001
 44
0.0000000001
 40
0.0
 40
0.0
 40
0.0
 40
0.0
 40
0.2179579706
 40
0.3181244502
 40
0.4120755498
 40
0.4996095039
 40
0.5805653169
 40
0.6547832467
 40
0.7221130081
 40
0.7824264462
 40
0.8355990863
 40
0.8815116767
 40
0.9017182588
 40
0.9200805741
 40
0.936590639
 40
0.951240867
 40
0.9640243041
 40
0.9749354783
 40
0.9839747722
 40
0.9911486993
 40
0.9940409645
 40
0.996474635
 40
0.9984565804
 40
1.0
 40
1.0
 40
1.0
 40
1.0
 10
4.2814761587
 20
4.2893722553
 30
0.0
 10
4.2636137373
 20
4.2889571037
 30
0.0
 10
4.2375429278
 20
4.2883239322
 30
0.0
 10
4.2037746701
 20
4.2874268527
 30
0.0
 10
4.1806953398
 20
4.2867733642
 30
0.0
 10
4.1591914784
 20
4.2861202558
 30
0.0
 10
4.1393060401
 20
4.2854676709
 30
0.0
 10
4.1210777966
 20
4.2848156602
 30
0.0
 10
4.104542884
 20
4.2841642506
 30
0.0
 10
4.0897345955
 20
4.2835139001
 30
0.0
 10
4.0766838329
 20
4.2828649156
 30
0.0
 10
4.0669207126
 20
4.2823046291
 30
0.0
 10
4.0600101938
 20
4.2818499038
 30
0.0
 10
4.0555068081
 20
4.2815238557
 30
0.0
 10
4.0514601889
 20
4.2811982304
 30
0.0
 10
4.0478724865
 20
4.2808731748
 30
0.0
 10
4.0447458181
 20
4.2805488869
 30
0.0
 10
4.042081714
 20
4.2802259099
 30
0.0
 10
4.0398813583
 20
4.2799044061
 30
0.0
 10
4.0383398555
 20
4.2796231572
 30
0.0
 10
4.0373418184
 20
4.2793901744
 30
0.0
 10
4.0367645439
 20
4.2792288186
 30
0.0
 10
4.0363029013
 20
4.2790683837
 30
0.0
 10
4.0360390835
 20
4.2789478324
 30
0.0
 10
4.035929495
 20
4.2788845996
 30
0.0
  0
SPLINE
  5
454
100
AcDbEntity
  8
ALL_ASSEMBLY_MEMBERS
100
AcDbSpline
 62
7
  6
CONTINUOUS
 70
0
 71
3
 72
41
 73
37
 74
0
 42
0.0000001
 43
0.0000001
 44
0.0000000001
 40
0.0
 40
0.0
 40
0.0
 40
0.0
 40
0.0002443242
 40
0.0003904488
 40
0.0005598897
 40
0.0009811138
 40
0.0015245509
 40
0.002197313
 40
0.0030031118
 40
0.005020896
 40
0.0062349698
 40
0.0075863867
 40
0.0090753923
 40
0.0107021197
 40
0.0143688645
 40
0.018586551
 40
0.0233545423
 40
0.0286719125
 40
0.0409498363
 40
0.0554029402
 40
0.0720060401
 40
0.0907331705
 40
0.1115578574
 40
0.1344473038
 40
0.1593616218
 40
0.1862604625
 40
0.2151033012
 40
0.278431428
 40
0.3489300447
 40
0.4261511252
 40
0.5095887371
 40
0.5987101608
 40
0.6929331124
 40
0.7916539043
 40
0.8942292561
 40
1.0
 40
1.0
 40
1.0
 40
1.0
 10
4.0847951809
 20
4.8720380834
 30
0.0
 10
4.0847951034
 20
4.8720886913
 30
0.0
 10
4.0848229894
 20
4.8721699363
 30
0.0
 10
4.0848941235
 20
4.8722616242
 30
0.0
 10
4.0850059903
 20
4.8723664179
 30
0.0
 10
4.0852058773
 20
4.8724926666
 30
0.0
 10
4.0855139655
 20
4.8726353559
 30
0.0
 10
4.0859079834
 20
4.8727785759
 30
0.0
 10
4.0866020842
 20
4.8729860548
 30
0.0
 10
4.087417998
 20
4.8731732036
 30
0.0
 10
4.0883496462
 20
4.8733554856
 30
0.0
 10
4.0891769884
 20
4.8735001845
 30
0.0
 10
4.0900908917
 20
4.8736451176
 30
0.0
 10
4.0914812959
 20
4.8738465771
 30
0.0
 10
4.0934357564
 20
4.8740953452
 30
0.0
 10
4.0960406499
 20
4.8743839453
 30
0.0
 10
4.0989892322
 20
4.8746730466
 30
0.0
 10
4.103603703
 20
4.8750787327
 30
0.0
 10
4.1102235526
 20
4.8755769422
 30
0.0
 10
4.1191811992
 20
4.8761522912
 30
0.0
 10
4.1294769983
 20
4.8767291221
 30
0.0
 10
4.1410943109
 20
4.8773071423
 30
0.0
 10
4.1540151477
 20
4.8778858521
 30
0.0
 10
4.1682187001
 20
4.8784650876
 30
0.0
 10
4.1836813557
 20
4.8790447916
 30
0.0
 10
4.2003779486
 20
4.8796248804
 30
0.0
 10
4.2250285047
 20
4.8804237262
 30
0.0
 10
4.2587085717
 20
4.8814124938
 30
0.0
 10
4.302408664
 20
4.882567467
 30
0.0
 10
4.3502754163
 20
4.8837236636
 30
0.0
 10
4.4020005962
 20
4.8848811606
 30
0.0
 10
4.4572482577
 20
4.8860393123
 30
0.0
 10
4.5156622329
 20
4.8871982051
 30
0.0
 10
4.5768634958
 20
4.8883574503
 30
0.0
 10
4.6404571087
 20
4.8895171372
 30
0.0
 10
4.6836060498
 20
4.890280357
 30
0.0
 10
4.7055114831
 20
4.8906634249
 30
0.0
  0
LINE
  5
455
100
AcDbEntity
  8
ALL_ASSEMBLY_MEMBERS
100
AcDbLine
 62
7
  6
CONTINUOUS
 10
4.7055114831
 20
4.8906634249
 11
4.7140812702
 21
4.8908130652
  0
LINE
  5
456
100
AcDbEntity
  8
ALL_ASSEMBLY_MEMBERS
100
AcDbLine
 62
7
  6
CONTINUOUS
 10
4.7140812702
 20
4.8908130652
 11
4.9466495823
 21
4.8947666894
  0
LINE
  5
457
100
AcDbEntity
  8
ALL_ASSEMBLY_MEMBERS
100
AcDbLine
 62
7
  6
CONTINUOUS
 10
4.9466495823
 20
4.8947666894
 11
5.1792214977
 21
4.8987204509
  0
LINE
  5
458
100
AcDbEntity
  8
ALL_ASSEMBLY_MEMBERS
100
AcDbLine
 62
7
  6
CONTINUOUS
 10
5.1792214977
 20
4.8987204509
 11
5.1877251665
 21
4.8988689416
  0
LINE
  5
459
100
AcDbEntity
  8
ALL_ASSEMBLY_MEMBERS
100
AcDbLine
 62
7
  6
CONTINUOUS
 10
5.1877251665
 20
4.8988689416
 11
5.1904561041
 21
4.8989167228
  0
SPLINE
  5
45A
100
AcDbEntity
  8
ALL_ASSEMBLY_MEMBERS
100
AcDbSpline
 62
7
  6
CONTINUOUS
 70
0
 71
3
 72
36
 73
32
 74
0
 42
0.0000001
 43
0.0000001
 44
0.0000000001
 40
0.0
 40
0.0
 40
0.0
 40
0.0
 40
0.1035844996
 40
0.2041088921
 40
0.3009512715
 40
0.3935213804
 40
0.4812451968
 40
0.5635892913
 40
0.640042417
 40
0.7101403714
 40
0.7734481985
 40
0.8024336831
 40
0.8295817844
 40
0.8548488899
 40
0.8781943205
 40
0.8995854846
 40
0.9189912646
 40
0.9363806799
 40
0.951724824
 40
0.9650038501
 40
0.9762010597
 40
0.9810141197
 40
0.9853010739
 40
0.9890604518
 40
0.9922920241
 40
0.9949970028
 40
0.9971779557
 40
0.9980736103
 40
0.9988408592
 40
0.9994817739
 40
1.0
 40
1.0
 40
1.0
 40
1.0
 10
5.1904561041
 20
4.8989167228
 30
0.0
 10
5.2117921135
 20
4.8992902052
 30
0.0
 10
5.2538336753
 20
4.9000345101
 30
0.0
 10
5.3158218625
 20
4.9011650904
 30
0.0
 10
5.3755406074
 20
4.9022954424
 30
0.0
 10
5.4326218449
 20
4.9034252794
 30
0.0
 10
5.4867157098
 20
4.9045546856
 30
0.0
 10
5.5374885938
 20
4.9056832609
 30
0.0
 10
5.5846294672
 20
4.9068109746
 30
0.0
 10
5.6278475284
 20
4.907937348
 30
0.0
 10
5.6612876887
 20
4.9089006332
 30
0.0
 10
5.6858813516
 20
4.9096781605
 30
0.0
 10
5.7026410521
 20
4.9102437666
 30
0.0
 10
5.7182381583
 20
4.9108090723
 30
0.0
 10
5.7326484606
 20
4.9113741155
 30
0.0
 10
5.7458502955
 20
4.9119386961
 30
0.0
 10
5.7578239484
 20
4.9125026392
 30
0.0
 10
5.7685503821
 20
4.913065739
 30
0.0
 10
5.7780127937
 20
4.9136277172
 30
0.0
 10
5.7861970756
 20
4.9141882025
 30
0.0
 10
5.7922115963
 20
4.9146741094
 30
0.0
 10
5.7963742475
 20
4.9150703613
 30
0.0
 10
5.7990084648
 20
4.9153519094
 30
0.0
 10
5.8013148542
 20
4.9156328683
 30
0.0
 10
5.8032927748
 20
4.9159128798
 30
0.0
 10
5.8049418185
 20
4.9161917576
 30
0.0
 10
5.806108345
 20
4.916435334
 30
0.0
 10
5.8068745144
 20
4.9166360686
 30
0.0
 10
5.8073282005
 20
4.9167762174
 30
0.0
 10
5.8076999175
 20
4.9169158346
 30
0.0
 10
5.8079159425
 20
4.9170190939
 30
0.0
 10
5.8080084101
 20
4.9170724532
 30
0.0
  0
SPLINE
  5
45B
100
AcDbEntity
  8
ALL_ASSEMBLY_MEMBERS
100
AcDbSpline
 62
7
  6
CONTINUOUS
 70
0
 71
3
 72
42
 73
38
 74
0
 42
0.0000001
 43
0.0000001
 44
0.0000000001
 40
0.0
 40
0.0
 40
0.0
 40
0.0
 40
0.0000970588
 40
0.0002212361
 40
0.0005653303
 40
0.0010477363
 40
0.0016732351
 40
0.0024439529
 40
0.0033610092
 40
0.0056363518
 40
0.0085009527
 40
0.0119539133
 40
0.0159937004
 40
0.0206184788
 40
0.0258262486
 40
0.0316148518
 40
0.0379810156
 40
0.0449205339
 40
0.0524291437
 40
0.0605025619
 40
0.0783265651
 40
0.0983527402
 40
0.1205311473
 40
0.144810638
 40
0.1711356696
 40
0.1994409339
 40
0.2296597751
 40
0.2617222478
 40
0.2955491866
 40
0.3681710162
 40
0.4468295514
 40
0.5307714601
 40
0.6191882327
 40
0.7112218712
 40
0.8059804748
 40
0.902574399
 40
1.0
 40
1.0
 40
1.0
 40
1.0
 10
4.0610626873
 20
5.0675606511
 30
0.0
 10
4.0610771455
 20
5.0675853974
 30
0.0
 10
4.0611214288
 20
5.067634985
 30
0.0
 10
4.0612576828
 20
5.0677323507
 30
0.0
 10
4.0615168441
 20
5.0678457719
 30
0.0
 10
4.0619260429
 20
5.0679734263
 30
0.0
 10
4.0624661505
 20
5.068102155
 30
0.0
 10
4.0631368419
 20
5.0682319427
 30
0.0
 10
4.0642921803
 20
5.0684193237
 30
0.0
 10
4.0660668076
 20
5.068645294
 30
0.0
 10
4.0685911526
 20
5.0689034833
 30
0.0
 10
4.0716386875
 20
5.0691627017
 30
0.0
 10
4.0752074597
 20
5.0694228048
 30
0.0
 10
4.0792955728
 20
5.0696833004
 30
0.0
 10
4.0839009928
 20
5.0699440496
 30
0.0
 10
4.089021355
 20
5.0702048922
 30
0.0
 10
4.0946536801
 20
5.0704657676
 30
0.0
 10
4.1007944017
 20
5.0707266319
 30
0.0
 10
4.1074396774
 20
5.0709874525
 30
0.0
 10
4.1172975893
 20
5.0713470794
 30
0.0
 10
4.1308511057
 20
5.0717918882
 30
0.0
 10
4.1485693966
 20
5.0723096377
 30
0.0
 10
4.16819466
 20
5.0728272672
 30
0.0
 10
4.1896805027
 20
5.0733445923
 30
0.0
 10
4.2129760348
 20
5.0738614164
 30
0.0
 10
4.2380258045
 20
5.0743777682
 30
0.0
 10
4.2647701283
 20
5.0748935386
 30
0.0
 10
4.2931452426
 20
5.0754086361
 30
0.0
 10
4.3340401641
 20
5.0761113178
 30
0.0
 10
4.3886935658
 20
5.0769806725
 30
0.0
 10
4.4581448466
 20
5.0779988457
 30
0.0
 10
4.5322607121
 20
5.079014594
 30
0.0
 10
4.6103264905
 20
5.080027762
 30
0.0
 10
4.6915866199
 20
5.0810381043
 30
0.0
 10
4.7752615932
 20
5.0820455497
 30
0.0
 10
4.8605289071
 20
5.0830498634
 30
0.0
 10
4.9178170102
 20
5.0837164858
 30
0.0
 10
4.9465838509
 20
5.0840508177
 30
0.0
  0
SPLINE
  5
45C
100
AcDbEntity
  8
ALL_ASSEMBLY_MEMBERS
100
AcDbSpline
 62
7
  6
CONTINUOUS
 70
0
 71
3
 72
13
 73
9
 74
0
 42
0.0000001
 43
0.0000001
 44
0.0000000001
 40
0.0
 40
0.0
 40
0.0
 40
0.0
 40
0.2783027286
 40
0.5449903032
 40
0.6704763125
 40
0.7889441168
 40
0.8991813104
 40
1.0
 40
1.0
 40
1.0
 40
1.0
 10
4.9465838509
 20
4.3012141777
 30
0.0
 10
4.8848813074
 20
4.3002341994
 30
0.0
 10
4.7640514195
 20
4.2983152028
 30
0.0
 10
4.6154015506
 20
4.2958568173
 30
0.0
 10
4.5021905658
 20
4.293855196
 30
0.0
 10
4.4236666459
 20
4.2923856544
 30
0.0
 10
4.3506134025
 20
4.2909177254
 30
0.0
 10
4.3038254705
 20
4.2898916894
 30
0.0
 10
4.2814761587
 20
4.2893722553
 30
0.0
  0
SPLINE
  5
45D
100
AcDbEntity
  8
ALL_ASSEMBLY_MEMBERS
100
AcDbSpline
 62
7
  6
CONTINUOUS
 70
0
 71
3
 72
48
 73
44
 74
0
 42
0.0000001
 43
0.0000001
 44
0.0000000001
 40
0.0
 40
0.0
 40
0.0
 40
0.0
 40
0.0000946614
 40
0.0002077667
 40
0.0003507284
 40
0.000529315
 40
0.0007464669
 40
0.0010037993
 40
0.0013022705
 40
0.0016424862
 40
0.0024495792
 40
0.0034271533
 40
0.0045762456
 40
0.0058974334
 40
0.0073908118
 40
0.0090561463
 40
0.0129012738
 40
0.0174296362
 40
0.0226375142
 40
0.0285209344
 40
0.0350748668
 40
0.0422919414
 40
0.0501643866
 40
0.0586843893
 40
0.0678441077
 40
0.0880466262
 40
0.1106867473
 40
0.135674545
 40
0.1629093273
 40
0.192278094
 40
0.2236647537
 40
0.2569395305
 40
0.291967666
 40
0.3286082099
 40
0.3667100896
 40
0.4061203733
 40
0.4882178648
 40
0.5735677179
 40
0.6607831606
 40
0.7484475695
 40
0.8351375097
 40
0.9194449551
 40
1.0
 40
1.0
 40
1.0
 40
1.0
 10
4.0847949026
 20
4.7811280858
 30
0.0
 10
4.0847949797
 20
4.781167618
 30
0.0
 10
4.0848181785
 20
4.7812548128
 30
0.0
 10
4.0849091926
 20
4.7813723698
 30
0.0
 10
4.0850512922
 20
4.7814868037
 30
0.0
 10
4.0852460135
 20
4.7816005613
 30
0.0
 10
4.0854941369
 20
4.7817144637
 30
0.0
 10
4.0857962844
 20
4.7818285976
 30
0.0
 10
4.086152692
 20
4.7819429767
 30
0.0
 10
4.0867344257
 20
4.7821050806
 30
0.0
 10
4.0875998643
 20
4.782303111
 30
0.0
 10
4.0888039113
 20
4.7825305948
 30
0.0
 10
4.090225748
 20
4.7827587937
 30
0.0
 10
4.0918652376
 20
4.7829875708
 30
0.0
 10
4.0937220972
 20
4.7832167446
 30
0.0
 10
4.0966293529
 20
4.7835383161
 30
0.0
 10
4.1008033271
 20
4.7839333558
 30
0.0
 10
4.1064568748
 20
4.7843895774
 30
0.0
 10
4.112963962
 20
4.784846915
 30
0.0
 10
4.1203187169
 20
4.7853051337
 30
0.0
 10
4.1285139648
 20
4.7857638757
 30
0.0
 10
4.1375410079
 20
4.786223099
 30
0.0
 10
4.1473900659
 20
4.786682671
 30
0.0
 10
4.1580512034
 20
4.7871425393
 30
0.0
 10
4.1738587875
 20
4.7877768687
 30
0.0
 10
4.1955617702
 20
4.7885619786
 30
0.0
 10
4.2238741843
 20
4.7894779295
 30
0.0
 10
4.2551247472
 20
4.7903949434
 30
0.0
 10
4.2891863837
 20
4.7913128151
 30
0.0
 10
4.3259211703
 20
4.7922314739
 30
0.0
 10
4.3651790882
 20
4.7931505183
 30
0.0
 10
4.4068010544
 20
4.7940700279
 30
0.0
 10
4.4506176339
 20
4.7949898607
 30
0.0
 10
4.4964505151
 20
4.7959098779
 30
0.0
 10
4.5441138056
 20
4.7968301827
 30
0.0
 10
4.6107579851
 20
4.7980743539
 30
0.0
 10
4.6971315683
 20
4.799618357
 30
0.0
 10
4.8034674722
 20
4.8014481168
 30
0.0
 10
4.9121285421
 20
4.8032784987
 30
0.0
 10
5.0213493309
 20
4.805109048
 30
0.0
 10
5.1293555247
 20
4.8069392567
 30
0.0
 10
5.2343923031
 20
4.8087686112
 30
0.0
 10
5.3032303661
 20
4.8100223329
 30
0.0
 10
5.3368656014
 20
4.8106557064
 30
0.0
  0
LINE
  5
45E
100
AcDbEntity
  8
ALL_ASSEMBLY_MEMBERS
100
AcDbLine
 62
7
  6
CONTINUOUS
 10
5.3368656014
 20
4.8106557064
 11
5.4413175555
 21
4.8127029143
  0
LINE
  5
45F
100
AcDbEntity
  8
ALL_ASSEMBLY_MEMBERS
100
AcDbLine
 62
7
  6
CONTINUOUS
 10
5.4413175555
 20
4.8127029143
 11
5.5141987334
 21
4.8142589167
  0
LINE
  5
460
100
AcDbEntity
  8
ALL_ASSEMBLY_MEMBERS
100
AcDbLine
 62
7
  6
CONTINUOUS
 10
5.5141987334
 20
4.8142589167
 11
5.5214882496
 21
4.8144223815
  0
LINE
  5
461
100
AcDbEntity
  8
ALL_ASSEMBLY_MEMBERS
100
AcDbLine
 62
7
  6
CONTINUOUS
 10
5.5214882496
 20
4.8144223815
 11
5.5712312953
 21
4.8155866042
  0
LINE
  5
462
100
AcDbEntity
  8
ALL_ASSEMBLY_MEMBERS
100
AcDbLine
 62
7
  6
CONTINUOUS
 10
5.6184463367
 20
4.8167913818
 11
5.6230699219
 21
4.8169160073
  0
LINE
  5
463
100
AcDbEntity
  8
ALL_ASSEMBLY_MEMBERS
100
AcDbLine
 62
7
  6
CONTINUOUS
 10
5.6230699219
 20
4.8169160073
 11
5.6256912055
 21
4.8169872689
  0
SPLINE
  5
464
100
AcDbEntity
  8
ALL_ASSEMBLY_MEMBERS
100
AcDbSpline
 62
7
  6
CONTINUOUS
 70
0
 71
3
 72
28
 73
24
 74
0
 42
0.0000001
 43
0.0000001
 44
0.0000000001
 40
0.0
 40
0.0
 40
0.0
 40
0.0
 40
0.2183793547
 40
0.3183807981
 40
0.4120436399
 40
0.4992307258
 40
0.5798055335
 40
0.653632463
 40
0.7205961762
 40
0.7806041439
 40
0.8335657322
 40
0.87939175
 40
0.9180120847
 40
0.9346076843
 40
0.9493880376
 40
0.9623499731
 40
0.9734916206
 40
0.9828134373
 40
0.990320534
 40
0.9933987929
 40
0.9960322422
 40
0.998228328
 40
1.0
 40
1.0
 40
1.0
 40
1.0
 10
5.6256912055
 20
4.8169872689
 30
0.0
 10
5.6389852929
 20
4.8173498155
 30
0.0
 10
5.6583664347
 20
4.8179030977
 30
0.0
 10
5.6834470848
 20
4.8186888879
 30
0.0
 10
5.7005410397
 20
4.8192606042
 30
0.0
 10
5.716451241
 20
4.8198320031
 30
0.0
 10
5.7311526386
 20
4.8204030154
 30
0.0
 10
5.7446214704
 20
4.8209736068
 30
0.0
 10
5.756836608
 20
4.821543654
 30
0.0
 10
5.7677795867
 20
4.8221128628
 30
0.0
 10
5.7774334554
 20
4.8226807527
 30
0.0
 10
5.7857823584
 20
4.8232471154
 30
0.0
 10
5.7919163282
 20
4.8237383242
 30
0.0
 10
5.7961602233
 20
4.8241388865
 30
0.0
 10
5.7988453845
 20
4.8244234734
 30
0.0
 10
5.8011963763
 20
4.8247074367
 30
0.0
 10
5.8032123825
 20
4.8249903926
 30
0.0
 10
5.8048924733
 20
4.8252721706
 30
0.0
 10
5.8060801975
 20
4.8255183249
 30
0.0
 10
5.8068593676
 20
4.8257213005
 30
0.0
 10
5.8073198972
 20
4.8258629272
 30
0.0
 10
5.8076965736
 20
4.8260040044
 30
0.0
 10
5.8079152045
 20
4.8261084478
 30
0.0
 10
5.8080086067
 20
4.8261624557
 30
0.0
  0
SPLINE
  5
465
100
AcDbEntity
  8
ALL_ASSEMBLY_MEMBERS
100
AcDbSpline
 62
7
  6
CONTINUOUS
 70
0
 71
3
 72
35
 73
31
 74
0
 42
0.0000001
 43
0.0000001
 44
0.0000000001
 40
0.0
 40
0.0
 40
0.0
 40
0.0
 40
0.0003117444
 40
0.0006827607
 40
0.0011424595
 40
0.0017065
 40
0.0031767346
 40
0.005128432
 40
0.0075745024
 40
0.0105210815
 40
0.0139713934
 40
0.0179272198
 40
0.0273586797
 40
0.038819021
 40
0.052306993
 40
0.0678143067
 40
0.0853299275
 40
0.1048423093
 40
0.12633959
 40
0.1498097012
 40
0.202610434
 40
0.2630949614
 40
0.3311004531
 40
0.4064548598
 40
0.4889452628
 40
0.5783467133
 40
0.6744270729
 40
0.7769175021
 40
0.8855372298
 40
1.0
 40
1.0
 40
1.0
 40
1.0
 10
4.0364193393
 20
4.9908771225
 30
0.0
 10
4.0364222739
 20
4.9909081589
 30
0.0
 10
4.036444838
 20
4.9909748436
 30
0.0
 10
4.0365167248
 20
4.9910652971
 30
0.0
 10
4.0366251959
 20
4.9911540347
 30
0.0
 10
4.0368391872
 20
4.991283184
 30
0.0
 10
4.0372087551
 20
4.991436755
 30
0.0
 10
4.0377694276
 20
4.991610566
 30
0.0
 10
4.0384831845
 20
4.991785366
 30
0.0
 10
4.0393499737
 20
4.9919610966
 30
0.0
 10
4.0403702722
 20
4.992137322
 30
0.0
 10
4.0420354372
 20
4.992387615
 30
0.0
 10
4.0445018052
 20
4.9926926267
 30
0.0
 10
4.0479220876
 20
4.9930426492
 30
0.0
 10
4.0519525838
 20
4.9933934542
 30
0.0
 10
4.0565904936
 20
4.9937449367
 30
0.0
 10
4.0618323463
 20
4.9940966991
 30
0.0
 10
4.0676743873
 20
4.9944485802
 30
0.0
 10
4.0741128542
 20
4.9948004738
 30
0.0
 10
4.0838775935
 20
4.9952889208
 30
0.0
 10
4.0975401502
 20
4.9958907051
 30
0.0
 10
4.1156560655
 20
4.9965881447
 30
0.0
 10
4.1360288533
 20
4.9972854625
 30
0.0
 10
4.1586034139
 20
4.9979822605
 30
0.0
 10
4.1833185342
 20
4.9986784375
 30
0.0
 10
4.2101070449
 20
4.9993738295
 30
0.0
 10
4.238896228
 20
5.0000681762
 30
0.0
 10
4.2696078033
 20
5.0007615288
 30
0.0
 10
4.3021581014
 20
5.0014538348
 30
0.0
 10
4.3244620751
 20
5.0019032293
 30
0.0
 10
4.3359062625
 20
5.0021284509
 30
0.0
  0
LINE
  5
466
100
AcDbEntity
  8
ALL_ASSEMBLY_MEMBERS
100
AcDbLine
 62
7
  6
CONTINUOUS
 10
4.3359062625
 20
5.0021284509
 11
4.3403301297
 21
5.0022152463
  0
LINE
  5
467
100
AcDbEntity
  8
ALL_ASSEMBLY_MEMBERS
100
AcDbLine
 62
7
  6
CONTINUOUS
 10
4.3403301297
 20
5.0022152463
 11
4.3574432039
 21
5.0025461806
  0
LINE
  5
468
100
AcDbEntity
  8
ALL_ASSEMBLY_MEMBERS
100
AcDbLine
 62
7
  6
CONTINUOUS
 10
4.705297058
 20
5.0082818894
 11
4.7120330091
 21
5.00838204
  0
LINE
  5
469
100
AcDbEntity
  8
ALL_ASSEMBLY_MEMBERS
100
AcDbLine
 62
7
  6
CONTINUOUS
 10
4.7138767468
 20
5.0084094123
 11
4.9465838509
 21
5.0117712604
  0
SPLINE
  5
46A
100
AcDbEntity
  8
ALL_ASSEMBLY_MEMBERS
100
AcDbSpline
 62
7
  6
CONTINUOUS
 70
0
 71
3
 72
36
 73
32
 74
0
 42
0.0000001
 43
0.0000001
 44
0.0000000001
 40
0.0
 40
0.0
 40
0.0
 40
0.0
 40
0.0010390999
 40
0.0015392885
 40
0.0020698286
 40
0.0026599499
 40
0.0033310959
 40
0.0049681623
 40
0.0070525333
 40
0.0096160229
 40
0.0126752078
 40
0.0162394753
 40
0.0249029143
 40
0.0356322202
 40
0.0484371011
 40
0.063317007
 40
0.080264182
 40
0.0992688756
 40
0.1203202401
 40
0.1434067292
 40
0.1685162509
 40
0.1956331628
 40
0.2247373191
 40
0.2558081061
 40
0.3237664046
 40
0.3993383677
 40
0.4823199181
 40
0.5724845465
 40
0.6696027695
 40
0.7734154618
 40
1.0
 40
1.0
 40
1.0
 40
1.0
 10
5.8335011215
 20
5.0651258123
 30
0.0
 10
5.8335479371
 20
5.0650426862
 30
0.0
 10
5.8335945218
 20
5.0649011608
 30
0.0
 10
5.833573151
 20
5.0647101604
 30
0.0
 10
5.8335190779
 20
5.0645699922
 30
0.0
 10
5.8334279532
 20
5.0644318546
 30
0.0
 10
5.8332459541
 20
5.0642364638
 30
0.0
 10
5.8329162104
 20
5.0639989291
 30
0.0
 10
5.8324040098
 20
5.0637315124
 30
0.0
 10
5.8317480969
 20
5.0634638067
 30
0.0
 10
5.8309479489
 20
5.0631958238
 30
0.0
 10
5.8295972024
 20
5.0628130687
 30
0.0
 10
5.8275396552
 20
5.062349935
 30
0.0
 10
5.8246306846
 20
5.0618216159
 30
0.0
 10
5.821143163
 20
5.0612932725
 30
0.0
 10
5.8170793569
 20
5.0607651066
 30
0.0
 10
5.8124420782
 20
5.0602377849
 30
0.0
 10
5.807234871
 20
5.0597115669
 30
0.0
 10
5.8014613123
 20
5.0591866703
 30
0.0
 10
5.7951250477
 20
5.0586632094
 30
0.0
 10
5.788230041
 20
5.0581412961
 30
0.0
 10
5.7807809709
 20
5.0576209825
 30
0.0
 10
5.7727832442
 20
5.0571022276
 30
0.0
 10
5.7610404532
 20
5.0563912677
 30
0.0
 10
5.7450337257
 20
5.0555142811
 30
0.0
 10
5.724261905
 20
5.0544962536
 30
0.0
 10
5.7014487991
 20
5.0534837917
 30
0.0
 10
5.6766554782
 20
5.0524768031
 30
0.0
 10
5.6499479251
 20
5.0514755016
 30
0.0
 10
5.6107203681
 20
5.0501076685
 30
0.0
 10
5.5804006133
 20
5.0491531395
 30
0.0
 10
5.5596066023
 20
5.0485299514
 30
0.0
  0
LINE
  5
46B
100
AcDbEntity
  8
ALL_ASSEMBLY_MEMBERS
100
AcDbLine
 62
7
  6
CONTINUOUS
 10
5.5596066023
 20
5.0485299514
 11
5.5303237993
 21
5.0476725423
  0
SPLINE
  5
46C
100
AcDbEntity
  8
ALL_ASSEMBLY_MEMBERS
100
AcDbSpline
 62
7
  6
CONTINUOUS
 70
0
 71
3
 72
12
 73
8
 74
0
 42
0.0000001
 43
0.0000001
 44
0.0000000001
 40
0.0
 40
0.0
 40
0.0
 40
0.0
 40
0.1075312719
 40
0.2215302277
 40
0.4660923691
 40
0.7276801936
 40
1.0
 40
1.0
 40
1.0
 40
1.0
 10
5.5303237993
 20
5.0476725423
 30
0.0
 10
5.5122238842
 20
5.0471543627
 30
0.0
 10
5.4749341869
 20
5.0461289458
 30
0.0
 10
5.3964742222
 20
5.0441102468
 30
0.0
 10
5.2920754046
 20
5.041650242
 30
0.0
 10
5.1610187996
 20
5.0388009835
 30
0.0
 10
5.0711324581
 20
5.0369491521
 30
0.0
 10
5.0252856321
 20
5.0360176996
 30
0.0
  0
LINE
  5
46D
100
AcDbEntity
  8
ALL_ASSEMBLY_MEMBERS
100
AcDbLine
 62
7
  6
CONTINUOUS
 10
5.0252856321
 20
5.0360176996
 11
4.9465838509
 21
5.0344296576
  0
SPLINE
  5
46E
100
AcDbEntity
  8
ALL_ASSEMBLY_MEMBERS
100
AcDbSpline
 62
7
  6
CONTINUOUS
 70
0
 71
3
 72
27
 73
23
 74
0
 42
0.0000001
 43
0.0000001
 44
0.0000000001
 40
0.0
 40
0.0
 40
0.0
 40
0.0
 40
0.0018347165
 40
0.0040896124
 40
0.0099037308
 40
0.0174961696
 40
0.0268880385
 40
0.0380877603
 40
0.0510960209
 40
0.0659108572
 40
0.0825289369
 40
0.1211573528
 40
0.1669430295
 40
0.2198380144
 40
0.2797616893
 40
0.3466206129
 40
0.4203205504
 40
0.5007660507
 40
0.5878466275
 40
0.6814378381
 40
0.7814145425
 40
1.0
 40
1.0
 40
1.0
 40
1.0
 10
4.085159625
 20
4.3073187145
 30
0.0
 10
4.0852482473
 20
4.307369928
 30
0.0
 10
4.0854542736
 20
4.3074692912
 30
0.0
 10
4.0859710045
 20
4.3076658076
 30
0.0
 10
4.0868141619
 20
4.3079003941
 30
0.0
 10
4.0880578857
 20
4.3081674137
 30
0.0
 10
4.0896075167
 20
4.3084359412
 30
0.0
 10
4.0914625712
 20
4.3087059441
 30
0.0
 10
4.0936228058
 20
4.3089767246
 30
0.0
 10
4.0960872748
 20
4.3092481337
 30
0.0
 10
4.0999772619
 20
4.3096299551
 30
0.0
 10
4.1055944613
 20
4.3100983127
 30
0.0
 10
4.1132357568
 20
4.3106385757
 30
0.0
 10
4.1220675524
 20
4.3111801406
 30
0.0
 10
4.1320768303
 20
4.3117229152
 30
0.0
 10
4.143248258
 20
4.3122664804
 30
0.0
 10
4.1555657543
 20
4.3128106319
 30
0.0
 10
4.1690123697
 20
4.3133551422
 30
0.0
 10
4.18356951
 20
4.3138999446
 30
0.0
 10
4.1992169593
 20
4.3144450732
 30
0.0
 10
4.2221981194
 20
4.315194792
 30
0.0
 10
4.2399624035
 20
4.3157223118
 30
0.0
 10
4.2521520365
 20
4.3160678775
 30
0.0
  0
LINE
  5
46F
100
AcDbEntity
  8
ALL_ASSEMBLY_MEMBERS
100
AcDbLine
 62
7
  6
CONTINUOUS
 10
4.2521520365
 20
4.3160678775
 11
4.2569961744
 21
4.3162043325
  0
LINE
  5
470
100
AcDbEntity
  8
ALL_ASSEMBLY_MEMBERS
100
AcDbLine
 62
7
  6
CONTINUOUS
 10
4.2569961744
 20
4.3162043325
 11
4.2766854141
 21
4.3167422804
  0
SPLINE
  5
471
100
AcDbEntity
  8
ALL_ASSEMBLY_MEMBERS
100
AcDbSpline
 62
7
  6
CONTINUOUS
 70
0
 71
3
 72
12
 73
8
 74
0
 42
0.0000001
 43
0.0000001
 44
0.0000000001
 40
0.0
 40
0.0
 40
0.0
 40
0.0
 40
0.0684580765
 40
0.1525017607
 40
0.3689264816
 40
0.6511897876
 40
1.0
 40
1.0
 40
1.0
 40
1.0
 10
4.0851587017
 20
4.2164087159
 30
0.0
 10
4.0852469038
 20
4.216459599
 30
0.0
 10
4.085451753
 20
4.2165583468
 30
0.0
 10
4.0859649184
 20
4.2167536493
 30
0.0
 10
4.0868012205
 20
4.2169868627
 30
0.0
 10
4.0880337046
 20
4.2172523734
 30
0.0
 10
4.0889587682
 20
4.2174132978
 30
0.0
 10
4.0894709687
 20
4.2174959833
 30
0.0
  0
SPLINE
  5
472
100
AcDbEntity
  8
ALL_ASSEMBLY_MEMBERS
100
AcDbSpline
 62
7
  6
CONTINUOUS
 70
0
 71
3
 72
35
 73
31
 74
0
 42
0.0000001
 43
0.0000001
 44
0.0000000001
 40
0.0
 40
0.0
 40
0.0
 40
0.0
 40
0.0011883945
 40
0.0025648966
 40
0.0058825562
 40
0.0099506366
 40
0.0147635771
 40
0.0203152889
 40
0.0265994526
 40
0.0336087182
 40
0.0413327617
 40
0.0588812922
 40
0.0791541052
 40
0.1020391906
 40
0.1274144203
 40
0.1551418434
 40
0.1850708779
 40
0.2170405753
 40
0.2508758551
 40
0.3234045775
 40
0.401086191
 40
0.4822379722
 40
0.5651020194
 40
0.647883375
 40
0.7287889215
 40
0.8060662324
 40
0.8780415526
 40
0.9431561046
 40
0.9726928044
 40
1.0
 40
1.0
 40
1.0
 40
1.0
 10
4.0894709687
 20
4.2174959833
 30
0.0
 10
4.0900683973
 20
4.2175924273
 30
0.0
 10
4.0913608578
 20
4.2177818134
 30
0.0
 10
4.0943328616
 20
4.2181576945
 30
0.0
 10
4.0987718924
 20
4.2186146619
 30
0.0
 10
4.1049617927
 20
4.219138927
 30
0.0
 10
4.1122926319
 20
4.2196652799
 30
0.0
 10
4.1207542863
 20
4.2201933818
 30
0.0
 10
4.1303362199
 20
4.2207224706
 30
0.0
 10
4.1410258182
 20
4.2212522692
 30
0.0
 10
4.1574480451
 20
4.2219912424
 30
0.0
 10
4.1806233338
 20
4.2229010101
 30
0.0
 10
4.2115188223
 20
4.2239551082
 30
0.0
 10
4.2464018473
 20
4.2250116319
 30
0.0
 10
4.2850824607
 20
4.2260698454
 30
0.0
 10
4.3273512327
 20
4.2271292826
 30
0.0
 10
4.3729790347
 20
4.228189652
 30
0.0
 10
4.4217178919
 20
4.2292506549
 30
0.0
 10
4.4921463195
 20
4.2306998142
 30
0.0
 10
4.5858503478
 20
4.2324902364
 30
0.0
 10
4.7036474921
 20
4.2345959631
 30
0.0
 10
4.8267084315
 20
4.2367036427
 30
0.0
 10
4.9523666491
 20
4.2388123305
 30
0.0
 10
5.0778994616
 20
4.240920952
 30
0.0
 10
5.200586966
 20
4.2430285552
 30
0.0
 10
5.3177709496
 20
4.2451338001
 30
0.0
 10
5.4269124121
 20
4.2472355196
 30
0.0
 10
5.5117442684
 20
4.2490347655
 30
0.0
 10
5.5738316866
 20
4.2504963601
 30
0.0
 10
5.6027688218
 20
4.2512326668
 30
0.0
 10
5.6166694423
 20
4.2516038174
 30
0.0
  0
LINE
  5
473
100
AcDbEntity
  8
ALL_ASSEMBLY_MEMBERS
100
AcDbLine
 62
7
  6
CONTINUOUS
 10
5.6166694423
 20
4.2516038174
 11
5.6398874075
 21
4.2522413227
  0
SPLINE
  5
474
100
AcDbEntity
  8
ALL_ASSEMBLY_MEMBERS
100
AcDbSpline
 62
7
  6
CONTINUOUS
 70
0
 71
3
 72
31
 73
27
 74
0
 42
0.0000001
 43
0.0000001
 44
0.0000000001
 40
0.0
 40
0.0
 40
0.0
 40
0.0
 40
0.227623522
 40
0.3312593389
 40
0.4278848508
 40
0.5173609524
 40
0.5995512587
 40
0.6743197371
 40
0.7415436981
 40
0.8011323243
 40
0.8530005251
 40
0.8970651208
 40
0.9161474869
 40
0.9332564629
 40
0.9483897203
 40
0.961546
 40
0.9727258736
 40
0.9819333226
 40
0.9858007736
 40
0.9891804259
 40
0.9920765753
 40
0.9944964582
 40
0.9964530811
 40
0.9979723185
 40
0.99911066
 40
1.0
 40
1.0
 40
1.0
 40
1.0
 10
5.6411793387
 20
4.2522779051
 30
0.0
 10
5.6539044606
 20
4.2526388493
 30
0.0
 10
5.6724225633
 20
4.2531900844
 30
0.0
 10
5.6963398604
 20
4.2539763705
 30
0.0
 10
5.7125338862
 20
4.2545472803
 30
0.0
 10
5.7275277488
 20
4.2551178196
 30
0.0
 10
5.7412982819
 20
4.2556879075
 30
0.0
 10
5.7538231924
 20
4.2562574156
 30
0.0
 10
5.7650826575
 20
4.2568262896
 30
0.0
 10
5.7750596445
 20
4.2573940085
 30
0.0
 10
5.7837391023
 20
4.2579602988
 30
0.0
 10
5.7901530512
 20
4.2584505794
 30
0.0
 10
5.7946237711
 20
4.2588498362
 30
0.0
 10
5.7974801149
 20
4.2591343713
 30
0.0
 10
5.8000032517
 20
4.2594183883
 30
0.0
 10
5.8021925522
 20
4.2597016161
 30
0.0
 10
5.8040473375
 20
4.2599838988
 30
0.0
 10
5.8053818125
 20
4.260229667
 30
0.0
 10
5.8062798759
 20
4.2604310684
 30
0.0
 10
5.8068292509
 20
4.2605729388
 30
0.0
 10
5.8072947682
 20
4.2607143844
 30
0.0
 10
5.8076765756
 20
4.2608553821
 30
0.0
 10
5.8079757387
 20
4.2609956761
 30
0.0
 10
5.8081931733
 20
4.2611364086
 30
0.0
 10
5.8083345499
 20
4.2612799079
 30
0.0
 10
5.8083732035
 20
4.2613933481
 30
0.0
 10
5.8083730986
 20
4.2614430859
 30
0.0
  0
SPLINE
  5
475
100
AcDbEntity
  8
ALL_ASSEMBLY_MEMBERS
100
AcDbSpline
 62
7
  6
CONTINUOUS
 70
0
 71
3
 72
32
 73
28
 74
0
 42
0.0000001
 43
0.0000001
 44
0.0000000001
 40
0.0
 40
0.0
 40
0.0
 40
0.0
 40
0.0008183375
 40
0.0020219216
 40
0.0036710261
 40
0.0057879355
 40
0.0083826862
 40
0.011460455
 40
0.0190750712
 40
0.0286442236
 40
0.0401719107
 40
0.0536590177
 40
0.0691048078
 40
0.0865049461
 40
0.1058513754
 40
0.1271355357
 40
0.1503486552
 40
0.2025259224
 40
0.2623102838
 40
0.3296070884
 40
0.4042954329
 40
0.4862524618
 40
0.5753535429
 40
0.6714490635
 40
0.774369312
 40
0.8839439269
 40
1.0
 40
1.0
 40
1.0
 40
1.0
 10
5.8400799706
 20
5.3340575466
 30
0.0
 10
5.8400582404
 20
5.3340108713
 30
0.0
 10
5.8399633889
 20
5.3339179542
 30
0.0
 10
5.8397611817
 20
5.3338070635
 30
0.0
 10
5.8394687621
 20
5.3336933246
 30
0.0
 10
5.8390850371
 20
5.3335795364
 30
0.0
 10
5.8386083755
 20
5.3334647173
 30
0.0
 10
5.8377888422
 20
5.3332992907
 30
0.0
 10
5.8365293703
 20
5.333099493
 30
0.0
 10
5.834737364
 20
5.3328711752
 30
0.0
 10
5.8325734839
 20
5.3326419313
 30
0.0
 10
5.8300382584
 20
5.3324118965
 30
0.0
 10
5.8271322806
 20
5.3321815081
 30
0.0
 10
5.823856672
 20
5.3319508857
 30
0.0
 10
5.8202129408
 20
5.3317201307
 30
0.0
 10
5.8162028306
 20
5.3314892979
 30
0.0
 10
5.8101289738
 20
5.3311688766
 30
0.0
 10
5.801633561
 20
5.3307735805
 30
0.0
 10
5.7903647828
 20
5.33031523
 30
0.0
 10
5.7776786901
 20
5.3298567583
 30
0.0
 10
5.7635967975
 20
5.3293982063
 30
0.0
 10
5.7481424267
 20
5.3289397852
 30
0.0
 10
5.7313406739
 20
5.3284816628
 30
0.0
 10
5.7132195589
 20
5.3280238867
 30
0.0
 10
5.6938099607
 20
5.327566463
 30
0.0
 10
5.6731442088
 20
5.3271094449
 30
0.0
 10
5.6589517257
 20
5.3268134247
 30
0.0
 10
5.6516515599
 20
5.3266650434
 30
0.0
  0
LINE
  5
476
100
AcDbEntity
  8
ALL_ASSEMBLY_MEMBERS
100
AcDbLine
 62
7
  6
CONTINUOUS
 10
5.6516515599
 20
5.3266650434
 11
5.6381200659
 21
5.3263943083
  0
LINE
  5
477
100
AcDbEntity
  8
ALL_ASSEMBLY_MEMBERS
100
AcDbLine
 62
7
  6
CONTINUOUS
 10
5.6381200659
 20
5.3263943083
 11
5.6327715099
 21
5.3262895501
  0
LINE
  5
478
100
AcDbEntity
  8
ALL_ASSEMBLY_MEMBERS
100
AcDbLine
 62
7
  6
CONTINUOUS
 10
5.5576695048
 20
5.3249265532
 11
5.5435405795
 21
5.3246884275
  0
LINE
  5
479
100
AcDbEntity
  8
ALL_ASSEMBLY_MEMBERS
100
AcDbLine
 62
7
  6
CONTINUOUS
 10
5.5435405795
 20
5.3246884275
 11
5.5401998395
 21
5.3246328185
  0
LINE
  5
47A
100
AcDbEntity
  8
ALL_ASSEMBLY_MEMBERS
100
AcDbLine
 62
7
  6
CONTINUOUS
 10
5.5401998395
 20
5.3246328185
 11
5.5355825638
 21
5.3245563801
  0
LINE
  5
47B
100
AcDbEntity
  8
ALL_ASSEMBLY_MEMBERS
100
AcDbLine
 62
7
  6
CONTINUOUS
 10
5.3683997122
 20
5.3220362754
 11
5.1879707353
 21
5.3196429713
  0
LINE
  5
47C
100
AcDbEntity
  8
ALL_ASSEMBLY_MEMBERS
100
AcDbLine
 62
7
  6
CONTINUOUS
 10
5.1879707353
 20
5.3196429713
 11
5.1792527505
 21
5.3195323009
  0
LINE
  5
47D
100
AcDbEntity
  8
ALL_ASSEMBLY_MEMBERS
100
AcDbLine
 62
7
  6
CONTINUOUS
 10
5.1792527505
 20
5.3195323009
 11
5.162918423
 21
5.3193258313
  0
LINE
  5
47E
100
AcDbEntity
  8
ALL_ASSEMBLY_MEMBERS
100
AcDbLine
 62
7
  6
CONTINUOUS
 10
5.162918423
 20
5.3193258313
 11
4.9927797976
 21
5.3172241374
  0
LINE
  5
47F
100
AcDbEntity
  8
ALL_ASSEMBLY_MEMBERS
100
AcDbLine
 62
7
  6
CONTINUOUS
 10
4.0851585017
 20
4.1254987133
 11
4.0861658864
 21
4.1258946412
  0
SPLINE
  5
480
100
AcDbEntity
  8
ALL_ASSEMBLY_MEMBERS
100
AcDbSpline
 62
7
  6
CONTINUOUS
 70
0
 71
3
 72
66
 73
62
 74
0
 42
0.0000001
 43
0.0000001
 44
0.0000000001
 40
0.0
 40
0.0
 40
0.0
 40
0.0
 40
0.0003896135
 40
0.0008496774
 40
0.0019826726
 40
0.0034007276
 40
0.0051041307
 40
0.0070926266
 40
0.0093656901
 40
0.0147623666
 40
0.0212827895
 40
0.0289111663
 40
0.0376312849
 40
0.0474243257
 40
0.0582660306
 40
0.0701313713
 40
0.0829945839
 40
0.0968249128
 40
0.1272550574
 40
0.1611420698
 40
0.1981701081
 40
0.2379958429
 40
0.2802503147
 40
0.3245399957
 40
0.370455032
 40
0.4175680423
 40
0.4654422399
 40
0.5136327401
 40
0.5616923696
 40
0.6091745248
 40
0.6556387036
 40
0.7006533223
 40
0.7438001401
 40
0.7846795991
 40
0.8229105085
 40
0.8581400502
 40
0.8745248723
 40
0.8900396421
 40
0.9046478082
 40
0.9183142686
 40
0.9310088593
 40
0.9427024904
 40
0.9533664872
 40
0.9629768755
 40
0.9715128434
 40
0.9789537692
 40
0.9852820273
 40
0.9904856609
 40
0.992662414
 40
0.9945541507
 40
0.9961599338
 40
0.9968555938
 40
0.9974798914
 40
0.9980330005
 40
0.9985151942
 40
0.9989269129
 40
0.9992689002
 40
0.9995425084
 40
0.9996545027
 40
0.9997506675
 40
1.0
 40
1.0
 40
1.0
 40
1.0
 10
4.0861658864
 20
4.1258946412
 30
0.0
 10
4.0863803985
 20
4.1259584911
 30
0.0
 10
4.0868525072
 20
4.1260833085
 30
0.0
 10
4.0879644251
 20
4.1263307345
 30
0.0
 10
4.0896688224
 20
4.126629957
 30
0.0
 10
4.0920888762
 20
4.1269723024
 30
0.0
 10
4.0950042947
 20
4.1273161726
 30
0.0
 10
4.0984135197
 20
4.1276614545
 30
0.0
 10
4.1039401322
 20
4.1281512802
 30
0.0
 10
4.1120701105
 20
4.1287488731
 30
0.0
 10
4.1232770866
 20
4.1294359968
 30
0.0
 10
4.1363961327
 20
4.1301255929
 30
0.0
 10
4.1513972505
 20
4.1308170977
 30
0.0
 10
4.1682459452
 20
4.1315096582
 30
0.0
 10
4.1869027321
 20
4.1322032023
 30
0.0
 10
4.207324256
 20
4.1328974235
 30
0.0
 10
4.229463486
 20
4.1335920645
 30
0.0
 10
4.2622641677
 20
4.1345495615
 30
0.0
 10
4.3071403698
 20
4.1357334321
 30
0.0
 10
4.3653416316
 20
4.1371155358
 30
0.0
 10
4.4289415181
 20
4.1384996101
 30
0.0
 10
4.4973490956
 20
4.1398851754
 30
0.0
 10
4.569928896
 20
4.1412717161
 30
0.0
 10
4.6460072773
 20
4.1426590659
 30
0.0
 10
4.7248770766
 20
4.1440468784
 30
0.0
 10
4.8058062988
 20
4.1454350881
 30
0.0
 10
4.8880428435
 20
4.1468234806
 30
0.0
 10
4.9708232473
 20
4.148211976
 30
0.0
 10
5.0533784121
 20
4.1496004203
 30
0.0
 10
5.134941755
 20
4.1509887235
 30
0.0
 10
5.214755643
 20
4.1523767266
 30
0.0
 10
5.292078724
 20
4.1537642707
 30
0.0
 10
5.3661931454
 20
4.1551512177
 30
0.0
 10
5.4364099803
 20
4.1565371607
 30
0.0
 10
5.5020778268
 20
4.1579220379
 30
0.0
 10
5.5536759082
 20
4.1591011428
 30
0.0
 10
5.5922264449
 20
4.160051967
 30
0.0
 10
5.6189337256
 20
4.1607475007
 30
0.0
 10
5.6440788951
 20
4.16144274
 30
0.0
 10
5.6676033648
 20
4.1621377609
 30
0.0
 10
5.6894528152
 20
4.1628323609
 30
0.0
 10
5.7095765863
 20
4.1635263713
 30
0.0
 10
5.7279275187
 20
4.164219788
 30
0.0
 10
5.7444631557
 20
4.1649123097
 30
0.0
 10
5.759145557
 20
4.1656034815
 30
0.0
 10
5.7719403321
 20
4.1662925284
 30
0.0
 10
5.7828177442
 20
4.1669792681
 30
0.0
 10
5.7906703735
 20
4.1675770362
 30
0.0
 10
5.795974222
 20
4.1680676709
 30
0.0
 10
5.7992156124
 20
4.1684125834
 30
0.0
 10
5.801606028
 20
4.1687112803
 30
0.0
 10
5.8032691016
 20
4.1689543765
 30
0.0
 10
5.8043311018
 20
4.169127669
 30
0.0
 10
5.8052687063
 20
4.1693006482
 30
0.0
 10
5.8060819884
 20
4.1694733164
 30
0.0
 10
5.8067708931
 20
4.1696452334
 30
0.0
 10
5.8073362532
 20
4.1698169375
 30
0.0
 10
5.8077261831
 20
4.1699662778
 30
0.0
 10
5.8079755565
 20
4.170091285
 30
0.0
 10
5.8081947782
 20
4.1702234216
 30
0.0
 10
5.8083731098
 20
4.1703898548
 30
0.0
 10
5.8083733951
 20
4.1705330833
 30
0.0
  0
LINE
  5
481
100
AcDbEntity
  8
ALL_ASSEMBLY_MEMBERS
100
AcDbLine
 62
7
  6
CONTINUOUS
 10
4.0851595992
 20
4.0345887149
 11
4.086517363
 21
4.0350829635
  0
SPLINE
  5
482
100
AcDbEntity
  8
ALL_ASSEMBLY_MEMBERS
100
AcDbSpline
 62
7
  6
CONTINUOUS
 70
0
 71
3
 72
22
 73
18
 74
0
 42
0.0000001
 43
0.0000001
 44
0.0000000001
 40
0.0
 40
0.0
 40
0.0
 40
0.0
 40
0.0068505556
 40
0.0153119928
 40
0.025394474
 40
0.0371028402
 40
0.0653914656
 40
0.1001528468
 40
0.1413504334
 40
0.1889434637
 40
0.2428848168
 40
0.3031019752
 40
0.3695129904
 40
0.4420354002
 40
0.6050704458
 40
0.7913736356
 40
1.0
 40
1.0
 40
1.0
 40
1.0
 10
4.086517363
 20
4.0350829635
 30
0.0
 10
4.0868836048
 20
4.0351803149
 30
0.0
 10
4.0877102242
 20
4.0353675064
 30
0.0
 10
4.0890920763
 20
4.0356212099
 30
0.0
 10
4.0907462547
 20
4.0358760386
 30
0.0
 10
4.0934926576
 20
4.0362401505
 30
0.0
 10
4.097604942
 20
4.0366825981
 30
0.0
 10
4.1033495042
 20
4.0371901451
 30
0.0
 10
4.1101653126
 20
4.0376997112
 30
0.0
 10
4.118044485
 20
4.038210984
 30
0.0
 10
4.1269776667
 20
4.0387231455
 30
0.0
 10
4.1369532914
 20
4.0392360708
 30
0.0
 10
4.1479579769
 20
4.03974959
 30
0.0
 10
4.1646470833
 20
4.0404629956
 30
0.0
 10
4.1879671479
 20
4.0413428238
 30
0.0
 10
4.2188158156
 20
4.0423648401
 30
0.0
 10
4.2406530133
 20
4.0430119623
 30
0.0
 10
4.2521891874
 20
4.0433389815
 30
0.0
  0
LINE
  5
483
100
AcDbEntity
  8
ALL_ASSEMBLY_MEMBERS
100
AcDbLine
 62
7
  6
CONTINUOUS
 10
4.2521891874
 20
4.0433389815
 11
4.267674296
 21
4.0437693001
  0
LINE
  5
484
100
AcDbEntity
  8
ALL_ASSEMBLY_MEMBERS
100
AcDbLine
 62
7
  6
CONTINUOUS
 10
4.267674296
 20
4.0437693001
 11
4.2768243933
 21
4.0440160264
  0
LINE
  5
485
100
AcDbEntity
  8
ALL_ASSEMBLY_MEMBERS
100
AcDbLine
 62
7
  6
CONTINUOUS
 10
4.3359677552
 20
4.0455023961
 11
4.3576296633
 21
4.0460089619
  0
LINE
  5
486
100
AcDbEntity
  8
ALL_ASSEMBLY_MEMBERS
100
AcDbLine
 62
7
  6
CONTINUOUS
 10
4.4932472812
 20
4.0488807589
 11
4.5094071718
 21
4.0491976574
  0
SPLINE
  5
487
100
AcDbEntity
  8
ALL_ASSEMBLY_MEMBERS
100
AcDbSpline
 62
7
  6
CONTINUOUS
 70
0
 71
3
 72
48
 73
44
 74
0
 42
0.0000001
 43
0.0000001
 44
0.0000000001
 40
0.0
 40
0.0
 40
0.0
 40
0.0
 40
0.0777946782
 40
0.1600483437
 40
0.2453431714
 40
0.3322083945
 40
0.4191457693
 40
0.5046563229
 40
0.5872659503
 40
0.6270349622
 40
0.6655502932
 40
0.7026442499
 40
0.7381590147
 40
0.7719393019
 40
0.8038404681
 40
0.8337255823
 40
0.8614634227
 40
0.886937713
 40
0.9100358709
 40
0.9306599634
 40
0.94001681
 40
0.9487223041
 40
0.9567667897
 40
0.9641427295
 40
0.9708428295
 40
0.9768598534
 40
0.9821866736
 40
0.9868176426
 40
0.9907495319
 40
0.9924525155
 40
0.9939798307
 40
0.9953313146
 40
0.9965069415
 40
0.9975069197
 40
0.9983319146
 40
0.9986793441
 40
0.9989838756
 40
0.999246114
 40
0.9994670108
 40
0.9996481685
 40
0.9997925176
 40
0.9999058774
 40
1.0
 40
1.0
 40
1.0
 40
1.0
 10
4.5094071718
 20
4.0491976574
 30
0.0
 10
4.543105473
 20
4.0498541795
 30
0.0
 10
4.6124346117
 20
4.0511516692
 30
0.0
 10
4.718713341
 20
4.053035042
 30
0.0
 10
4.8289224717
 20
4.0549196177
 30
0.0
 10
4.9411611054
 20
4.0568047991
 30
0.0
 10
5.053493216
 20
4.0586899981
 30
0.0
 10
5.1639813279
 20
4.0605747091
 30
0.0
 10
5.2540357192
 20
4.0621636821
 30
0.0
 10
5.3237315827
 20
4.0634443878
 30
0.0
 10
5.3737104665
 20
4.0643925427
 30
0.0
 10
5.4218458493
 20
4.0653405577
 30
0.0
 10
5.4679293584
 20
4.0662882377
 30
0.0
 10
5.5117625892
 20
4.0672356539
 30
0.0
 10
5.5531561723
 20
4.0681826673
 30
0.0
 10
5.5919311427
 20
4.0691290702
 30
0.0
 10
5.6279207834
 20
4.0700749451
 30
0.0
 10
5.6609689011
 20
4.0710197142
 30
0.0
 10
5.6909336272
 20
4.0719634284
 30
0.0
 10
5.7139160982
 20
4.0727724029
 30
0.0
 10
5.7306643485
 20
4.0734258173
 30
0.0
 10
5.7419652725
 20
4.0738996232
 30
0.0
 10
5.7524071649
 20
4.0743731908
 30
0.0
 10
5.7619792672
 20
4.074846404
 30
0.0
 10
5.7706718252
 20
4.0753191329
 30
0.0
 10
5.7784751894
 20
4.075791218
 30
0.0
 10
5.7853803478
 20
4.0762623774
 30
0.0
 10
5.791379796
 20
4.0767324943
 30
0.0
 10
5.795809062
 20
4.0771395769
 30
0.0
 10
5.7988944114
 20
4.0774709317
 30
0.0
 10
5.8008654444
 20
4.077707085
 30
0.0
 10
5.8026062248
 20
4.0779428159
 30
0.0
 10
5.8041162997
 20
4.0781779162
 30
0.0
 10
5.8053951815
 20
4.0784122552
 30
0.0
 10
5.806314429
 20
4.0786162906
 30
0.0
 10
5.8069322462
 20
4.0787833658
 30
0.0
 10
5.8073105141
 20
4.0789012044
 30
0.0
 10
5.8076310809
 20
4.079018777
 30
0.0
 10
5.8078942067
 20
4.0791360894
 30
0.0
 10
5.8081005873
 20
4.0792532038
 30
0.0
 10
5.8082510713
 20
4.0793709642
 30
0.0
 10
5.8083475918
 20
4.0794919433
 30
0.0
 10
5.8083722549
 20
4.079582306
 30
0.0
 10
5.8083722406
 20
4.0796230847
 30
0.0
  0
SPLINE
  5
488
100
AcDbEntity
  8
ALL_ASSEMBLY_MEMBERS
100
AcDbSpline
 62
7
  6
CONTINUOUS
 70
0
 71
3
 72
22
 73
18
 74
0
 42
0.0000001
 43
0.0000001
 44
0.0000000001
 40
0.0
 40
0.0
 40
0.0
 40
0.0
 40
0.1926274
 40
0.3762060834
 40
0.5446105291
 40
0.6216084653
 40
0.6930277065
 40
0.7582938006
 40
0.8168355251
 40
0.8680826983
 40
0.9114971125
 40
0.9466373365
 40
0.9731127845
 40
0.9830117182
 40
0.9906824587
 40
0.9962349735
 40
1.0
 40
1.0
 40
1.0
 40
1.0
 10
4.3928861407
 20
3.2891924984
 30
0.0
 10
4.3917007502
 20
3.2894707699
 30
0.0
 10
4.3893936242
 20
3.2900488904
 30
0.0
 10
4.3860804826
 20
3.2909857389
 30
0.0
 10
4.383496067
 20
3.2918084204
 30
0.0
 10
4.3816042029
 20
3.2924655659
 30
0.0
 10
4.3803365228
 20
3.2929320777
 30
0.0
 10
4.3791868562
 20
3.293380786
 30
0.0
 10
4.3781647286
 20
3.2938049406
 30
0.0
 10
4.3772795386
 20
3.2941979233
 30
0.0
 10
4.3765397036
 20
3.2945531883
 30
0.0
 10
4.3759531779
 20
3.2948643781
 30
0.0
 10
4.3755658673
 20
3.2950989224
 30
0.0
 10
4.3753414273
 20
3.2952638248
 30
0.0
 10
4.3752317284
 20
3.2953612691
 30
0.0
 10
4.3751623487
 20
3.2954431026
 30
0.0
 10
4.3751386591
 20
3.2955004197
 30
0.0
 10
4.3751386717
 20
3.2955242188
 30
0.0
  0
LINE
  5
489
100
AcDbEntity
  8
ALL_ASSEMBLY_MEMBERS
100
AcDbLine
 62
7
  6
CONTINUOUS
 10
4.2491346156
 20
3.9720220215
 11
4.2675303142
 21
3.9725354004
  0
LINE
  5
48A
100
AcDbEntity
  8
ALL_ASSEMBLY_MEMBERS
100
AcDbLine
 62
7
  6
CONTINUOUS
 10
4.2675303142
 20
3.9725354004
 11
4.2701654295
 21
3.9726070267
  0
LINE
  5
48B
100
AcDbEntity
  8
ALL_ASSEMBLY_MEMBERS
100
AcDbLine
 62
7
  6
CONTINUOUS
 10
4.2701654295
 20
3.9726070267
 11
4.2725123903
 21
3.9726704438
  0
LINE
  5
48C
100
AcDbEntity
  8
ALL_ASSEMBLY_MEMBERS
100
AcDbLine
 62
7
  6
CONTINUOUS
 10
4.2725123903
 20
3.9726704438
 11
4.2804196587
 21
3.9728815854
  0
LINE
  5
48D
100
AcDbEntity
  8
ALL_ASSEMBLY_MEMBERS
100
AcDbLine
 62
7
  6
CONTINUOUS
 10
4.3789391914
 20
3.975261606
 11
4.4518170174
 21
3.9768175927
  0
LINE
  5
48E
100
AcDbEntity
  8
ALL_ASSEMBLY_MEMBERS
100
AcDbLine
 62
7
  6
CONTINUOUS
 10
4.4518170174
 20
3.9768175927
 11
4.5563521828
 21
3.9788663883
  0
LINE
  5
48F
100
AcDbEntity
  8
ALL_ASSEMBLY_MEMBERS
100
AcDbLine
 62
7
  6
CONTINUOUS
 10
4.5563521828
 20
3.9788663883
 11
4.6036802427
 21
3.9797446232
  0
LINE
  5
490
100
AcDbEntity
  8
ALL_ASSEMBLY_MEMBERS
100
AcDbLine
 62
7
  6
CONTINUOUS
 10
4.8678749964
 20
4.3908725379
 11
4.7810003228
 21
4.3894796291
  0
LINE
  5
491
100
AcDbEntity
  8
ALL_ASSEMBLY_MEMBERS
100
AcDbLine
 62
7
  6
CONTINUOUS
 10
4.7810003228
 20
4.3894796291
 11
4.6415994451
 21
4.3871849442
  0
LINE
  5
492
100
AcDbEntity
  8
ALL_ASSEMBLY_MEMBERS
100
AcDbLine
 62
7
  6
CONTINUOUS
 10
4.6415994451
 20
4.3871849442
 11
4.5566112682
 21
4.3857238072
  0
SPLINE
  5
493
100
AcDbEntity
  8
ALL_ASSEMBLY_MEMBERS
100
AcDbSpline
 62
7
  6
CONTINUOUS
 70
0
 71
3
 72
33
 73
29
 74
0
 42
0.0000001
 43
0.0000001
 44
0.0000000001
 40
0.0
 40
0.0
 40
0.0
 40
0.0
 40
0.1068718987
 40
0.2096939206
 40
0.3079829257
 40
0.4012736417
 40
0.4891292107
 40
0.57112726
 40
0.646887382
 40
0.7160435673
 40
0.7782745754
 40
0.8332841863
 40
0.8579973157
 40
0.8808126004
 40
0.9017031697
 40
0.9206423266
 40
0.9376074734
 40
0.9525821731
 40
0.9655508481
 40
0.9764985721
 40
0.9854126306
 40
0.9891058524
 40
0.9922903544
 40
0.9949673474
 40
0.9971393978
 40
0.9988120586
 40
0.9994651253
 40
1.0
 40
1.0
 40
1.0
 40
1.0
 10
4.5566112682
 20
4.3857238072
 30
0.0
 10
4.5380498888
 20
4.3853976171
 30
0.0
 10
4.5016306858
 20
4.384747383
 30
0.0
 10
4.4481415321
 20
4.3837550265
 30
0.0
 10
4.3970119214
 20
4.3827630028
 30
0.0
 10
4.3484825734
 20
4.381771294
 30
0.0
 10
4.3027836659
 20
4.3807801679
 30
0.0
 10
4.2601306701
 20
4.3797895346
 30
0.0
 10
4.2207267776
 20
4.3787998825
 30
0.0
 10
4.1847576712
 20
4.3778112886
 30
0.0
 10
4.1523944998
 20
4.3768242494
 30
0.0
 10
4.1277508236
 20
4.3759763006
 30
0.0
 10
4.1099525965
 20
4.3752900665
 30
0.0
 10
4.0980781588
 20
4.3747942847
 30
0.0
 10
4.0872076186
 20
4.3742989465
 30
0.0
 10
4.0773544078
 20
4.3738041006
 30
0.0
 10
4.0685302055
 20
4.3733099035
 30
0.0
 10
4.0607448717
 20
4.3728166768
 30
0.0
 10
4.0540070222
 20
4.3723250934
 30
0.0
 10
4.0483250808
 20
4.3718354902
 30
0.0
 10
4.0442553035
 20
4.3714085445
 30
0.0
 10
4.0415346028
 20
4.371057349
 30
0.0
 10
4.0398931042
 20
4.3708114009
 30
0.0
 10
4.0385188923
 20
4.370566795
 30
0.0
 10
4.0374122793
 20
4.3703235415
 30
0.0
 10
4.0366594413
 20
4.3701098967
 30
0.0
 10
4.0361954364
 20
4.3699312923
 30
0.0
 10
4.0360093245
 20
4.369841028
 30
0.0
 10
4.035928846
 20
4.3697945993
 30
0.0
  0
SPLINE
  5
494
100
AcDbEntity
  8
ALL_ASSEMBLY_MEMBERS
100
AcDbSpline
 62
7
  6
CONTINUOUS
 70
0
 71
3
 72
13
 73
9
 74
0
 42
0.0000001
 43
0.0000001
 44
0.0000000001
 40
0.0
 40
0.0
 40
0.0
 40
0.0
 40
0.1008186896
 40
0.2110558832
 40
0.3295236875
 40
0.4550096968
 40
0.7216972714
 40
1.0
 40
1.0
 40
1.0
 40
1.0
 10
4.2814761587
 20
4.3658750687
 30
0.0
 10
4.3038254705
 20
4.3663945029
 30
0.0
 10
4.3506134025
 20
4.3674205389
 30
0.0
 10
4.4236666459
 20
4.3688884679
 30
0.0
 10
4.5021905658
 20
4.3703580095
 30
0.0
 10
4.6154015506
 20
4.3723596308
 30
0.0
 10
4.7640514195
 20
4.3748180163
 30
0.0
 10
4.8848813074
 20
4.3767370129
 30
0.0
 10
4.9465838509
 20
4.3777169912
 30
0.0
  0
LINE
  5
495
100
AcDbEntity
  8
ALL_ASSEMBLY_MEMBERS
100
AcDbLine
 62
7
  6
CONTINUOUS
 10
4.5093099773
 20
4.4757904224
 11
4.4933835802
 21
4.4755004745
  0
LINE
  5
496
100
AcDbEntity
  8
ALL_ASSEMBLY_MEMBERS
100
AcDbLine
 62
7
  6
CONTINUOUS
 10
4.3575028423
 20
4.4728602971
 11
4.3393796961
 21
4.4724786489
  0
LINE
  5
497
100
AcDbEntity
  8
ALL_ASSEMBLY_MEMBERS
100
AcDbLine
 62
7
  6
CONTINUOUS
 10
4.3393796961
 20
4.4724786489
 11
4.3359918098
 21
4.4724063105
  0
LINE
  5
498
100
AcDbEntity
  8
ALL_ASSEMBLY_MEMBERS
100
AcDbLine
 62
7
  6
CONTINUOUS
 10
4.3359918098
 20
4.4724063105
 11
4.2768417428
 21
4.4710840929
  0
LINE
  5
499
100
AcDbEntity
  8
ALL_ASSEMBLY_MEMBERS
100
AcDbLine
 62
7
  6
CONTINUOUS
 10
4.2768417428
 20
4.4710840929
 11
4.2712617834
 21
4.470952705
  0
LINE
  5
49A
100
AcDbEntity
  8
ALL_ASSEMBLY_MEMBERS
100
AcDbLine
 62
7
  6
CONTINUOUS
 10
4.2712617834
 20
4.470952705
 11
4.2521380883
 21
4.4704919896
  0
SPLINE
  5
49B
100
AcDbEntity
  8
ALL_ASSEMBLY_MEMBERS
100
AcDbSpline
 62
7
  6
CONTINUOUS
 70
0
 71
3
 72
29
 73
25
 74
0
 42
0.0000001
 43
0.0000001
 44
0.0000000001
 40
0.0
 40
0.0
 40
0.0
 40
0.0
 40
0.218552444
 40
0.3187383784
 40
0.4126302394
 40
0.5000620866
 40
0.5808689339
 40
0.6549070206
 40
0.7220551448
 40
0.7821935613
 40
0.835206581
 40
0.8810084407
 40
0.9011834258
 40
0.9195297694
 40
0.9360393343
 40
0.950704422
 40
0.9635194532
 40
0.9744839947
 40
0.9836003776
 40
0.9908751087
 40
0.9938267608
 40
0.9963258698
 40
0.9983793151
 40
1.0
 40
1.0
 40
1.0
 40
1.0
 10
4.2521380883
 20
4.4704919896
 30
0.0
 10
4.2363647204
 20
4.4701049348
 30
0.0
 10
4.2133613423
 20
4.469514515
 30
0.0
 10
4.1835838003
 20
4.4686766011
 30
0.0
 10
4.1632697057
 20
4.4680667988
 30
0.0
 10
4.1443553212
 20
4.4674573603
 30
0.0
 10
4.1268750415
 20
4.4668482686
 30
0.0
 10
4.1108600637
 20
4.466239625
 30
0.0
 10
4.0963383659
 20
4.465631673
 30
0.0
 10
4.083335958
 20
4.4650247496
 30
0.0
 10
4.0718764512
 20
4.4644188964
 30
0.0
 10
4.0633019013
 20
4.4638959894
 30
0.0
 10
4.0572290584
 20
4.4634717429
 30
0.0
 10
4.0532678046
 20
4.4631674483
 30
0.0
 10
4.0497055891
 20
4.4628635395
 30
0.0
 10
4.0465442561
 20
4.4625601393
 30
0.0
 10
4.0437852602
 20
4.4622573676
 30
0.0
 10
4.0414293907
 20
4.4619557804
 30
0.0
 10
4.0394772587
 20
4.4616555381
 30
0.0
 10
4.0381050145
 20
4.4613930211
 30
0.0
 10
4.037212147
 20
4.4611759461
 30
0.0
 10
4.0366914909
 20
4.4610251812
 30
0.0
 10
4.0362715842
 20
4.4608751706
 30
0.0
 10
4.0360302215
 20
4.4607630671
 30
0.0
 10
4.0359288742
 20
4.4607045992
 30
0.0
  0
SPLINE
  5
49C
100
AcDbEntity
  8
ALL_ASSEMBLY_MEMBERS
100
AcDbSpline
 62
7
  6
CONTINUOUS
 70
0
 71
3
 72
12
 73
8
 74
0
 42
0.0000001
 43
0.0000001
 44
0.0000000001
 40
0.0
 40
0.0
 40
0.0
 40
0.0
 40
0.0683772076
 40
0.1523625267
 40
0.3687405958
 40
0.6510507276
 40
1.0
 40
1.0
 40
1.0
 40
1.0
 10
4.0851586952
 20
4.9436887159
 30
0.0
 10
4.085247175
 20
4.9437397593
 30
0.0
 10
4.0854527479
 20
4.9438388019
 30
0.0
 10
4.0859679441
 20
4.9440346796
 30
0.0
 10
4.0868078832
 20
4.944268544
 30
0.0
 10
4.0880460104
 20
4.9445347927
 30
0.0
 10
4.0889754124
 20
4.9446961495
 30
0.0
 10
4.0894900649
 20
4.9447790621
 30
0.0
  0
SPLINE
  5
49D
100
AcDbEntity
  8
ALL_ASSEMBLY_MEMBERS
100
AcDbSpline
 62
7
  6
CONTINUOUS
 70
0
 71
3
 72
18
 73
14
 74
0
 42
0.0000001
 43
0.0000001
 44
0.0000000001
 40
0.0
 40
0.0
 40
0.0
 40
0.0
 40
0.0213216977
 40
0.0483399505
 40
0.0810431527
 40
0.119395418
 40
0.1633561334
 40
0.2128829025
 40
0.328446261
 40
0.4655779767
 40
0.6236816139
 40
0.8020908235
 40
1.0
 40
1.0
 40
1.0
 40
1.0
 10
4.0894900649
 20
4.9447790621
 30
0.0
 10
4.0906327024
 20
4.9449631456
 30
0.0
 10
4.0932340799
 20
4.9453123712
 30
0.0
 10
4.0976083534
 20
4.9457811196
 30
0.0
 10
4.1029112772
 20
4.9462524169
 30
0.0
 10
4.1091366429
 20
4.9467257948
 30
0.0
 10
4.1162774163
 20
4.9472004216
 30
0.0
 10
4.127605327
 20
4.9478692849
 30
0.0
 10
4.143990192
 20
4.9486880452
 30
0.0
 10
4.1662690162
 20
4.9496324104
 30
0.0
 10
4.1919617408
 20
4.9505795764
 30
0.0
 10
4.2209554176
 20
4.951528806
 30
0.0
 10
4.241373607
 20
4.9521323043
 30
0.0
 10
4.2521120702
 20
4.952436798
 30
0.0
  0
LINE
  5
49E
100
AcDbEntity
  8
ALL_ASSEMBLY_MEMBERS
100
AcDbLine
 62
7
  6
CONTINUOUS
 10
4.2521120702
 20
4.952436798
 11
4.2606328565
 21
4.9526757308
  0
LINE
  5
49F
100
AcDbEntity
  8
ALL_ASSEMBLY_MEMBERS
100
AcDbLine
 62
7
  6
CONTINUOUS
 10
4.2606328565
 20
4.9526757308
 11
4.2766836168
 21
4.9531122911
  0
LINE
  5
4A0
100
AcDbEntity
  8
ALL_ASSEMBLY_MEMBERS
100
AcDbLine
 62
7
  6
CONTINUOUS
 10
4.4931963075
 20
4.9579797618
 11
4.5045781183
 21
4.9582033992
  0
LINE
  5
4A1
100
AcDbEntity
  8
ALL_ASSEMBLY_MEMBERS
100
AcDbLine
 62
7
  6
CONTINUOUS
 10
4.5045781183
 20
4.9582033992
 11
4.5093325697
 21
4.958296206
  0
SPLINE
  5
4A2
100
AcDbEntity
  8
ALL_ASSEMBLY_MEMBERS
100
AcDbSpline
 62
7
  6
CONTINUOUS
 70
0
 71
3
 72
48
 73
44
 74
0
 42
0.0000001
 43
0.0000001
 44
0.0000000001
 40
0.0
 40
0.0
 40
0.0
 40
0.0
 40
0.077789806
 40
0.1600402498
 40
0.2453329449
 40
0.3321965935
 40
0.4191333593
 40
0.5046443512
 40
0.587254923
 40
0.6270240611
 40
0.6655399874
 40
0.702635208
 40
0.738149866
 40
0.7719319922
 40
0.8038333305
 40
0.8337191352
 40
0.8614586097
 40
0.8869324481
 40
0.9100327127
 40
0.9306566551
 40
0.9400132211
 40
0.9487194356
 40
0.9567652651
 40
0.9641413855
 40
0.9708409034
 40
0.9768575068
 40
0.9821849723
 40
0.9868172191
 40
0.9907491617
 40
0.9924518178
 40
0.9939787292
 40
0.9953298526
 40
0.9965052808
 40
0.9975053393
 40
0.998330784
 40
0.9986785302
 40
0.9989833808
 40
0.9992458963
 40
0.9994669862
 40
0.9996482347
 40
0.9997925915
 40
0.9999059099
 40
1.0
 40
1.0
 40
1.0
 40
1.0
 10
4.5093325697
 20
4.958296206
 30
0.0
 10
4.5430307187
 20
4.9589527471
 30
0.0
 10
4.6123603791
 20
4.9602503438
 30
0.0
 10
4.718640855
 20
4.962133784
 30
0.0
 10
4.8288533895
 20
4.9640184456
 30
0.0
 10
4.941096677
 20
4.9659037216
 30
0.0
 10
5.0534345611
 20
4.9677890112
 30
0.0
 10
5.1639294307
 20
4.9696738088
 30
0.0
 10
5.253989711
 20
4.9712628415
 30
0.0
 10
5.3236903475
 20
4.9725436213
 30
0.0
 10
5.3736729967
 20
4.9734918315
 30
0.0
 10
5.4218119379
 20
4.9744398481
 30
0.0
 10
5.4678994228
 20
4.9753876428
 30
0.0
 10
5.5117360285
 20
4.9763350307
 30
0.0
 10
5.5531331878
 20
4.9772821305
 30
0.0
 10
5.5919114937
 20
4.9782286001
 30
0.0
 10
5.6279040407
 20
4.9791744308
 30
0.0
 10
5.6609555012
 20
4.9801193818
 30
0.0
 10
5.6909226259
 20
4.9810630035
 30
0.0
 10
5.7139071582
 20
4.9818720624
 30
0.0
 10
5.7306565063
 20
4.9825255502
 30
0.0
 10
5.7419588609
 20
4.9829993777
 30
0.0
 10
5.7524023371
 20
4.9834729023
 30
0.0
 10
5.7619754044
 20
4.9839461496
 30
0.0
 10
5.7706681097
 20
4.9844189297
 30
0.0
 10
5.77847177
 20
4.9848910805
 30
0.0
 10
5.7853779817
 20
4.9853622693
 30
0.0
 10
5.7913786473
 20
4.9858322892
 30
0.0
 10
5.7958086064
 20
4.9862394176
 30
0.0
 10
5.7988938366
 20
4.9865708212
 30
0.0
 10
5.8008645071
 20
4.9868069936
 30
0.0
 10
5.8026049664
 20
4.9870427476
 30
0.0
 10
5.8041149167
 20
4.9872778748
 30
0.0
 10
5.8053940136
 20
4.987512253
 30
0.0
 10
5.8063136921
 20
4.9877162816
 30
0.0
 10
5.8069320403
 20
4.9878833352
 30
0.0
 10
5.8073107467
 20
4.9880011723
 30
0.0
 10
5.8076317006
 20
4.9881187396
 30
0.0
 10
5.8078951141
 20
4.9882360454
 30
0.0
 10
5.8081016572
 20
4.9883531618
 30
0.0
 10
5.8082521858
 20
4.9884709262
 30
0.0
 10
5.8083486607
 20
4.9885919339
 30
0.0
 10
5.8083731911
 20
4.9886823189
 30
0.0
 10
5.8083731051
 20
4.9887230858
 30
0.0
  0
SPLINE
  5
4A3
100
AcDbEntity
  8
ALL_ASSEMBLY_MEMBERS
100
AcDbSpline
 62
7
  6
CONTINUOUS
 70
0
 71
3
 72
37
 73
33
 74
0
 42
0.0000001
 43
0.0000001
 44
0.0000000001
 40
0.0
 40
0.0
 40
0.0
 40
0.0
 40
0.096281412
 40
0.1917149004
 40
0.2853371996
 40
0.3763082358
 40
0.4637888181
 40
0.5469551074
 40
0.6250378325
 40
0.6973142029
 40
0.7631097027
 40
0.7933856748
 40
0.8218166197
 40
0.8483362802
 40
0.8728858325
 40
0.8954069068
 40
0.9158452525
 40
0.9341569891
 40
0.9502999869
 40
0.9642343743
 40
0.9703641926
 40
0.9759316779
 40
0.9809338629
 40
0.9853678911
 40
0.9892310989
 40
0.9925219283
 40
0.9952405903
 40
0.9973885376
 40
0.9982497562
 40
0.9989704025
 40
0.9995524816
 40
1.0
 40
1.0
 40
1.0
 40
1.0
 10
4.9465838509
 20
4.5739441777
 30
0.0
 10
4.9173455293
 20
4.5734798059
 30
0.0
 10
4.8591263796
 20
4.5725551572
 30
0.0
 10
4.7724766195
 20
4.5711661711
 30
0.0
 10
4.6874399017
 20
4.5697773577
 30
0.0
 10
4.6048189139
 20
4.5683890131
 30
0.0
 10
4.525374014
 20
4.5670012921
 30
0.0
 10
4.4498440834
 20
4.5656143283
 30
0.0
 10
4.3789326808
 20
4.5642285447
 30
0.0
 10
4.3132980771
 20
4.5628443226
 30
0.0
 10
4.2621820974
 20
4.5616622213
 30
0.0
 10
4.2243810068
 20
4.5607078712
 30
0.0
 10
4.1985058376
 20
4.5600123583
 30
0.0
 10
4.1743705225
 20
4.5593171575
 30
0.0
 10
4.1520309008
 20
4.5586224551
 30
0.0
 10
4.1315392025
 20
4.5579283706
 30
0.0
 10
4.1129431784
 20
4.5572349324
 30
0.0
 10
4.0962856942
 20
4.556542669
 30
0.0
 10
4.0816054046
 20
4.5558518932
 30
0.0
 10
4.0706247942
 20
4.5552554699
 30
0.0
 10
4.0628551196
 20
4.5547713546
 30
0.0
 10
4.0577950989
 20
4.5544242998
 30
0.0
 10
4.0532514134
 20
4.554077708
 30
0.0
 10
4.0492269508
 20
4.5537317532
 30
0.0
 10
4.0457243581
 20
4.5533866112
 30
0.0
 10
4.0427454021
 20
4.5530429231
 30
0.0
 10
4.0402914161
 20
4.5527008982
 30
0.0
 10
4.0385768994
 20
4.5524015975
 30
0.0
 10
4.0374714627
 20
4.5521532571
 30
0.0
 10
4.0368366351
 20
4.5519817013
 30
0.0
 10
4.0363328982
 20
4.5518112462
 30
0.0
 10
4.0360465312
 20
4.551682523
 30
0.0
 10
4.0359288028
 20
4.5516145993
 30
0.0
  0
SPLINE
  5
4A4
100
AcDbEntity
  8
ALL_ASSEMBLY_MEMBERS
100
AcDbSpline
 62
7
  6
CONTINUOUS
 70
0
 71
3
 72
22
 73
18
 74
0
 42
0.0000001
 43
0.0000001
 44
0.0000000001
 40
0.0
 40
0.0
 40
0.0
 40
0.0
 40
0.0037650265
 40
0.0093175413
 40
0.0169882818
 40
0.0268872155
 40
0.0533626635
 40
0.0885028875
 40
0.1319173017
 40
0.1831644749
 40
0.2417061994
 40
0.3069722935
 40
0.3783915347
 40
0.4553894709
 40
0.6237939166
 40
0.8073726
 40
1.0
 40
1.0
 40
1.0
 40
1.0
 10
5.5180290302
 20
3.2955242188
 30
0.0
 10
5.5180290427
 20
3.2955004197
 30
0.0
 10
5.5180053532
 20
3.2954431026
 30
0.0
 10
5.5179359734
 20
3.2953612691
 30
0.0
 10
5.5178262746
 20
3.2952638248
 30
0.0
 10
5.5176018346
 20
3.2950989224
 30
0.0
 10
5.517214524
 20
3.2948643781
 30
0.0
 10
5.5166279982
 20
3.2945531883
 30
0.0
 10
5.5158881632
 20
3.2941979233
 30
0.0
 10
5.5150029732
 20
3.2938049406
 30
0.0
 10
5.5139808457
 20
3.293380786
 30
0.0
 10
5.5128311791
 20
3.2929320777
 30
0.0
 10
5.511563499
 20
3.2924655659
 30
0.0
 10
5.5096716348
 20
3.2918084204
 30
0.0
 10
5.5070872193
 20
3.2909857389
 30
0.0
 10
5.5037740777
 20
3.2900488904
 30
0.0
 10
5.5014669516
 20
3.2894707699
 30
0.0
 10
5.5002815612
 20
3.2891924984
 30
0.0
  0
ENDSEC
  0
SECTION
  2
OBJECTS
  0
DICTIONARY
  5
C
100
AcDbDictionary
280
0
281
1
  3
ACAD_GROUP
350
D
  3
ACAD_MLINESTYLE
350
17
  3
ACAD_LAYOUT
350
1A
  3
ACAD_PLOTSETTINGS
350
19
  3
ACAD_PLOTSTYLENAME
350
E
  0
DICTIONARY
  5
D
102
{ACAD_REACTORS
330
C
102
}
100
AcDbDictionary
280
0
281
1
  0
ACDBDICTIONARYWDFLT
  5
E
102
{ACAD_REACTORS
330
C
102
}
100
AcDbDictionary
281
1
  3
Normal
350
F
100
AcDbDictionaryWithDefault
340
F
  0
DICTIONARY
  5
17
102
{ACAD_REACTORS
330
C
102
}
100
AcDbDictionary
280
0
281
1
  3
Standard
350
18
  0
DICTIONARY
  5
19
102
{ACAD_REACTORS
330
C
102
}
100
AcDbDictionary
281
1
  0
DICTIONARY
  5
1A
102
{ACAD_REACTORS
330
C
102
}
100
AcDbDictionary
281
1
  3
Model
350
4A5
  3
Layout1
350
4A6
  0
ACDBPLACEHOLDER
  5
F
102
{ACAD_REACTORS
330
E
102
}
  0
MLINESTYLE
  5
18
102
{ACAD_REACTORS
330
17
102
}
100
AcDbMlineStyle
  2
STANDARD
 70
0
  3

 62
256
 51
90.0
 52
90.0
 71
2
 49
0.5
 62
256
  6
BYLAYER
 49
-0.5
 62
256
  6
BYLAYER
  0
LAYOUT
  5
4A5
102
{ACAD_REACTORS
330
1A
102
}
100
AcDbPlotSettings
  1

  2
none_device
  4
ANSI_A_(11.00_x_8.50_Inches)
  6

 40
0.0
 41
0.0
 42
0.0
 43
0.0
 44
279.4
 45
215.9
 46
0.0
 47
0.0
 48
0.0
 49
0.0
140
0.0
141
0.0
142
1.0
143
1.0
 70
1024
 72
0
 73
0
 74
0
  7

 75
0
147
1.0
148
0.0
149
0.0
100
AcDbLayout
  1
Model
 70
0
 71
0
 10
0.0
 20
0.0
 11
11.0
 21
8.5
 12
0.0
 22
0.0
 32
0.0
 14
0.0
 24
0.0
 34
0.0
 15
0.0
 25
0.0
 35
0.0
146
0.0
 13
0.0
 23
0.0
 33
0.0
 16
1.0
 26
0.0
 36
0.0
 17
0.0
 27
1.0
 37
0.0
 76
0
330
210
345
0
346
0
  0
LAYOUT
  5
4A6
102
{ACAD_REACTORS
330
1A
102
}
100
AcDbPlotSettings
  1

  2
none_device
  4
ANSI_A_(11.00_x_8.50_Inches)
  6

 40
0.0
 41
0.0
 42
0.0
 43
0.0
 44
279.4
 45
215.9
 46
0.0
 47
0.0
 48
0.0
 49
0.0
140
0.0
141
0.0
142
1.0
143
1.0
 70
0
 72
0
 73
0
 74
0
  7

 75
0
147
1.0
148
0.0
149
0.0
100
AcDbLayout
  1
Layout1
 70
0
 71
1
 10
0.0
 20
0.0
 11
11.0
 21
8.5
 12
0.0
 22
0.0
 32
0.0
 14
0.0
 24
0.0
 34
0.0
 15
0.0
 25
0.0
 35
0.0
146
0.0
 13
0.0
 23
0.0
 33
0.0
 16
1.0
 26
0.0
 36
0.0
 17
0.0
 27
1.0
 37
0.0
 76
0
330
211
345
0
346
0
  0
ENDSEC
  0
EOF
