999
DXF file: 131_front.dxf
999
Pro/ENGINEER 2018400 by Parametric Technology Corporation
  0
SECTION
  2
HEADER
  9
$ACADVER
  1
AC1027
  9
$DWGCODEPAGE
  3
ANSI_1252
  9
$EXTMAX
 10
11.0
 20
8.5
 30
0.0
  9
$EXTMIN
 10
0.0
 20
0.0
 30
0.0
  9
$LIMMIN
 10
0.0
 20
0.0
  9
$LIMMAX
 10
11.0
 20
8.5
  9
$VIEWCTR
 10
5.5
 20
4.25
  9
$VIEWSIZE
 40
8.5
  9
$CLAYER
  8
0
  9
$LTSCALE
 40
0.605
  9
$CELTYPE
  6
BYLAYER
  9
$DIMSCALE
 40
1.0
  9
$DIMASZ
 40
0.1
  9
$DIMEXO
 40
0.0625
  9
$DIMDLI
 40
0.418
  9
$DIMEXE
 40
0.125
  9
$DIMCEN
 40
0.099
  9
$DIMLFAC
 40
1.0
  9
$DIMBLK
  1
_FILLED
  9
$DIMALT
 70
0
  9
$DIMALTF
 40
25.4
  9
$DIMTXT
 40
0.08
  9
$DIMTOL
 70
1
  9
$DIMLIM
 70
0
  9
$DIMTFAC
 40
1.0
  9
$DIMTP
 40
0.001
  9
$DIMTM
 40
0.001
  9
$DIMGAP
 40
0.09
  9
$DIMDSEP
 70
46
  9
$AUNITS
 70
0
  9
$PDMODE
 70
3
  9
$PDSIZE
 40
0.06
  9
$HANDSEED
  5
2C1
  9
$TILEMODE
 70
1
  9
$MEASUREMENT
 70
0
  9
$INSUNITS
 70
1
  0
ENDSEC
  0
SECTION
  2
CLASSES
  0
CLASS
  1
ACDBDICTIONARYWDFLT
  2
AcDbDictionaryWithDefault
  3
AutoCAD 2000
 90
0
 91
1
280
0
281
0
  0
CLASS
  1
ACDBPLACEHOLDER
  2
AcDbPlaceHolder
  3
AutoCAD 2000
 90
0
 91
1
280
0
281
0
  0
CLASS
  1
LAYOUT
  2
AcDbLayout
  3
AutoCAD 2000
 90
0
 91
0
280
0
281
0
  0
ENDSEC
  0
SECTION
  2
TABLES
  0
TABLE
  2
VPORT
  5
8
100
AcDbSymbolTable
 70
2
  0
VPORT
  5
1F4
100
AcDbSymbolTableRecord
100
AcDbViewportTableRecord
  2
*ACTIVE
 70
0
 10
0.0
 20
0.0
 11
1.0
 21
1.0
 12
5.5
 22
4.25
 13
0.0
 23
0.0
 14
1.0
 24
1.0
 15
0.0
 25
0.0
 16
0.0
 26
0.0
 36
1.0
 17
0.0
 27
0.0
 37
0.0
 40
8.5
 41
1.2941176471
 42
50.0
 43
0.0
 44
0.0
 50
0.0
 51
0.0
 71
0
 72
100
 73
1
 74
1
 75
0
 76
0
 77
0
 78
0
  0
ENDTAB
  0
TABLE
  2
LTYPE
  5
5
100
AcDbSymbolTable
 70
6
  0
LTYPE
  5
14
100
AcDbSymbolTableRecord
100
AcDbLinetypeTableRecord
  2
BYBLOCK
 70
0
  3

 72
65
 73
0
 40
0.0
  0
LTYPE
  5
15
100
AcDbSymbolTableRecord
100
AcDbLinetypeTableRecord
  2
BYLAYER
 70
0
  3

 72
65
 73
0
 40
0.0
  0
LTYPE
  5
16
100
AcDbSymbolTableRecord
100
AcDbLinetypeTableRecord
  2
CONTINUOUS
 70
64
  3
Solid line
 72
65
 73
0
 40
0.0
  0
LTYPE
  5
1F5
100
AcDbSymbolTableRecord
100
AcDbLinetypeTableRecord
  2
CENTER
 70
64
  3
____ _ ____ _ ____ _ ____ _ ____ _ ____ _ ____
 72
65
 73
4
 40
0.6
 49
0.375
 74
0
 49
-0.075
 74
0
 49
0.075
 74
0
 49
-0.075
 74
0
  0
LTYPE
  5
1F6
100
AcDbSymbolTableRecord
100
AcDbLinetypeTableRecord
  2
HIDDEN
 70
64
  3
- - - - - - - - - - - - - - - - - - - -
 72
65
 73
2
 40
0.2
 49
0.1
 74
0
 49
-0.1
 74
0
  0
LTYPE
  5
1F7
100
AcDbSymbolTableRecord
100
AcDbLinetypeTableRecord
  2
PHANTOM
 70
64
  3
_____ _ _ _____ _ _ _____ _ _ _____
 72
65
 73
6
 40
0.8
 49
0.45
 74
0
 49
-0.05
 74
0
 49
0.1
 74
0
 49
-0.05
 74
0
 49
0.1
 74
0
 49
-0.05
 74
0
  0
LTYPE
  5
1F8
100
AcDbSymbolTableRecord
100
AcDbLinetypeTableRecord
  2
DOT
 70
64
  3
. . . . . . . . . . . . . . . . . . . .
 72
65
 73
2
 40
0.2
 49
0.1
 74
0
 49
-0.1
 74
0
  0
LTYPE
  5
1F9
100
AcDbSymbolTableRecord
100
AcDbLinetypeTableRecord
  2
DASHED
 70
64
  3
- - - - - - - - - - - - - - - - - - - -
 72
65
 73
2
 40
0.2
 49
0.1
 74
0
 49
-0.1
 74
0
  0
ENDTAB
  0
TABLE
  2
LAYER
  5
2
100
AcDbSymbolTable
 70
36
  0
LAYER
  5
10
100
AcDbSymbolTableRecord
100
AcDbLayerTableRecord
  2
0
 70
0
 62
7
  6
CONTINUOUS
370
-3
390
F
  0
LAYER
  5
1FA
100
AcDbSymbolTableRecord
100
AcDbLayerTableRecord
  2
DEFAULT_1
 70
0
 62
7
  6
CENTER
370
-3
390
F
  0
LAYER
  5
1FB
100
AcDbSymbolTableRecord
100
AcDbLayerTableRecord
  2
DEFAULT_2
 70
0
 62
8
  6
HIDDEN
370
-3
390
F
  0
LAYER
  5
1FC
100
AcDbSymbolTableRecord
100
AcDbLayerTableRecord
  2
DEFAULT_3
 70
0
 62
7
  6
PHANTOM
370
-3
390
F
  0
LAYER
  5
1FD
100
AcDbSymbolTableRecord
100
AcDbLayerTableRecord
  2
ALL_FEATURES
 70
0
 62
7
  6
CONTINUOUS
370
-3
390
F
  0
LAYER
  5
1FE
100
AcDbSymbolTableRecord
100
AcDbLayerTableRecord
  2
AXES_FEATURES
 70
0
 62
7
  6
CONTINUOUS
370
-3
390
F
  0
LAYER
  5
1FF
100
AcDbSymbolTableRecord
100
AcDbLayerTableRecord
  2
DEFAULT_COORDINATE_SYSTEM
 70
0
 62
7
  6
CONTINUOUS
370
-3
390
F
  0
LAYER
  5
200
100
AcDbSymbolTableRecord
100
AcDbLayerTableRecord
  2
DEFAULT_DATUM_AXES
 70
0
 62
7
  6
CONTINUOUS
370
-3
390
F
  0
LAYER
  5
201
100
AcDbSymbolTableRecord
100
AcDbLayerTableRecord
  2
DEFAULT_DATUM_CURVES
 70
0
 62
7
  6
CONTINUOUS
370
-3
390
F
  0
LAYER
  5
202
100
AcDbSymbolTableRecord
100
AcDbLayerTableRecord
  2
DEFAULT_DATUM_PLANES
 70
0
 62
7
  6
CONTINUOUS
370
-3
390
F
  0
LAYER
  5
203
100
AcDbSymbolTableRecord
100
AcDbLayerTableRecord
  2
DIMENSIONS
 70
0
 62
7
  6
CONTINUOUS
370
-3
390
F
  0
LAYER
  5
204
100
AcDbSymbolTableRecord
100
AcDbLayerTableRecord
  2
PART_REFERENCE_DIMENSIONS
 70
0
 62
7
  6
CONTINUOUS
370
-3
390
F
  0
LAYER
  5
205
100
AcDbSymbolTableRecord
100
AcDbLayerTableRecord
  2
PLATED_SURFACE_AREA
 70
0
 62
7
  6
CONTINUOUS
370
-3
390
F
  0
LAYER
  5
206
100
AcDbSymbolTableRecord
100
AcDbLayerTableRecord
  2
PROTRUSION_FEATURES
 70
0
 62
7
  6
CONTINUOUS
370
-3
390
F
  0
LAYER
  5
207
100
AcDbSymbolTableRecord
100
AcDbLayerTableRecord
  2
QUILTS
 70
0
 62
7
  6
CONTINUOUS
370
-3
390
F
  0
LAYER
  5
208
100
AcDbSymbolTableRecord
100
AcDbLayerTableRecord
  2
REFERENCE_DIMENSIONS
 70
0
 62
7
  6
CONTINUOUS
370
-3
390
F
  0
LAYER
  5
209
100
AcDbSymbolTableRecord
100
AcDbLayerTableRecord
  2
ROUND_FEATURES
 70
0
 62
7
  6
CONTINUOUS
370
-3
390
F
  0
ENDTAB
  0
TABLE
  2
STYLE
  5
3
100
AcDbSymbolTable
 70
1
  0
STYLE
  5
11
100
AcDbSymbolTableRecord
100
AcDbTextStyleTableRecord
  2
STANDARD
 70
0
 40
0.0
 41
0.8
 50
0.0
 71
0
 42
0.2
  3
txt
  4

  0
STYLE
  5
20A
100
AcDbSymbolTableRecord
100
AcDbTextStyleTableRecord
  2
TEXTSTYLE_1
 70
0
 40
0.0
 41
0.8
 50
0.0
 71
0
 42
0.2
  3
gdt
  4

  0
ENDTAB
  0
TABLE
  2
VIEW
  5
6
100
AcDbSymbolTable
 70
0
  0
ENDTAB
  0
TABLE
  2
UCS
  5
7
100
AcDbSymbolTable
 70
0
  0
ENDTAB
  0
TABLE
  2
APPID
  5
9
100
AcDbSymbolTable
 70
1
  0
APPID
  5
20B
100
AcDbSymbolTableRecord
100
AcDbRegAppTableRecord
  2
ACAD
 70
0
  0
ENDTAB
  0
TABLE
  2
BLOCK_RECORD
  5
1
100
AcDbSymbolTable
 70
0
  0
BLOCK_RECORD
  5
20C
100
AcDbSymbolTableRecord
100
AcDbBlockTableRecord
  2
*Model_Space
  0
BLOCK_RECORD
  5
20D
100
AcDbSymbolTableRecord
100
AcDbBlockTableRecord
  2
*Paper_Space
  0
BLOCK_RECORD
  5
20E
100
AcDbSymbolTableRecord
100
AcDbBlockTableRecord
  2
_FILLED
  0
ENDTAB
  0
TABLE
  2
DIMSTYLE
  5
A
100
AcDbSymbolTable
 70
1
100
AcDbDimStyleTable
 71
0
  0
DIMSTYLE
105
20F
100
AcDbSymbolTableRecord
100
AcDbDimStyleTableRecord
  2
STANDARD
 70
0
  3

  4

 40
1.0
 41
0.1
 42
0.0625
 43
0.38
 44
0.125
 45
0.0
 46
0.0
 47
0.001
 48
0.001
140
0.08
141
0.09
142
0.0
143
25.4
144
1.0
145
0.0
146
1.0
147
0.09
 71
1.0
 72
0.0
 73
1
 74
1
 75
0
 76
0
 77
0
 78
4
 79
1
170
0
171
2
172
0
173
0
174
0
175
0
176
0
177
0
178
0
270
2
179
3
271
3
272
3
273
2
274
2
275
0
280
0
281
0
282
0
283
1
284
4
285
0
286
0
287
3
288
0
340
11
278
46
341
20E
342
20E
343
20E
344
20E
  0
ENDTAB
  0
ENDSEC
  0
SECTION
  2
BLOCKS
  0
BLOCK
  5
20
100
AcDbEntity
  8
0
100
AcDbBlockBegin
  2
*Model_Space
 70
0
 10
0.0
 20
0.0
 30
0.0
  3
*Model_Space
  1

  0
ENDBLK
  5
21
100
AcDbEntity
  8
0
100
AcDbBlockEnd
  0
BLOCK
  5
1C
100
AcDbEntity
  8
0
100
AcDbBlockBegin
  2
*Paper_Space
 70
0
 10
0.0
 20
0.0
 30
0.0
  3
*Paper_Space
  1

  0
ENDBLK
  5
1D
100
AcDbEntity
  8
0
100
AcDbBlockEnd
  0
BLOCK
  5
210
100
AcDbEntity
  8
0
100
AcDbBlockBegin
  2
_FILLED
 70
64
 10
0.0
 20
0.0
  3
_FILLED
  1

  0
SOLID
  5
211
100
AcDbEntity
  8
0
  6
BYBLOCK
 62
0
100
AcDbTrace
 10
0.0
 20
0.0
 11
-1.0
 21
0.2
 12
-1.0
 22
-0.2
 13
-1.0
 23
-0.2
  0
ENDBLK
  5
212
100
AcDbEntity
  8
0
  6
BYBLOCK
 62
0
100
AcDbBlockEnd
  0
ENDSEC
  0
SECTION
  2
ENTITIES
  0
LINE
  5
213
100
AcDbEntity
  8
0
100
AcDbLine
 62
7
  6
CONTINUOUS
 10
0.0
 20
0.0
 11
0.0
 21
8.5
  0
LINE
  5
214
100
AcDbEntity
  8
0
100
AcDbLine
 62
7
  6
CONTINUOUS
 10
0.0
 20
0.0
 11
11.0
 21
0.0
  0
LINE
  5
215
100
AcDbEntity
  8
0
100
AcDbLine
 62
7
  6
CONTINUOUS
 10
0.0
 20
8.5
 11
11.0
 21
8.5
  0
LINE
  5
216
100
AcDbEntity
  8
0
100
AcDbLine
 62
7
  6
CONTINUOUS
 10
11.0
 20
0.0
 11
11.0
 21
8.5
  0
LINE
  5
217
100
AcDbEntity
  8
0
100
AcDbLine
 62
7
  6
CONTINUOUS
 10
3.5992313665
 20
5.0230582298
 11
3.5992313665
 21
4.9830582298
  0
LINE
  5
218
100
AcDbEntity
  8
ALL_FEATURES
100
AcDbLine
 62
7
  6
CONTINUOUS
 10
3.6319813665
 20
4.9830582298
 11
3.6319813665
 21
4.9580582298
  0
LINE
  5
219
100
AcDbEntity
  8
ALL_FEATURES
100
AcDbLine
 62
7
  6
CONTINUOUS
 10
3.6492313665
 20
4.5280582298
 11
3.6492313665
 21
4.6480582298
  0
LINE
  5
21A
100
AcDbEntity
  8
0
100
AcDbLine
 62
7
  6
CONTINUOUS
 10
3.7442313665
 20
4.5280582298
 11
3.7442313665
 21
4.4480582298
  0
LINE
  5
21B
100
AcDbEntity
  8
0
100
AcDbLine
 62
7
  6
CONTINUOUS
 10
4.0660373437
 20
4.7720709821
 11
4.0657313665
 21
4.771717574
  0
LINE
  5
21C
100
AcDbEntity
  8
0
100
AcDbLine
 62
7
  6
CONTINUOUS
 10
3.9896607097
 20
3.6810582298
 11
3.9896607097
 21
3.9310582298
  0
LINE
  5
21D
100
AcDbEntity
  8
0
100
AcDbLine
 62
7
  6
CONTINUOUS
 10
3.9962313665
 20
4.2580582298
 11
3.9962313665
 21
4.4480582298
  0
LINE
  5
21E
100
AcDbEntity
  8
0
100
AcDbLine
 62
7
  6
CONTINUOUS
 10
4.0292313665
 20
3.9910582298
 11
4.0292313665
 21
3.9310582298
  0
LINE
  5
21F
100
AcDbEntity
  8
0
100
AcDbLine
 62
7
  6
CONTINUOUS
 10
4.0342313665
 20
3.6810582298
 11
4.0342313665
 21
3.5910582298
  0
LINE
  5
220
100
AcDbEntity
  8
0
100
AcDbLine
 62
7
  6
CONTINUOUS
 10
4.0660373437
 20
4.6851144603
 11
4.0657313665
 21
4.6847610522
  0
LINE
  5
221
100
AcDbEntity
  8
0
100
AcDbLine
 62
7
  6
CONTINUOUS
 10
4.1029957425
 20
4.7756306174
 11
4.147169252
 21
4.8021887298
  0
LINE
  5
222
100
AcDbEntity
  8
0
100
AcDbLine
 62
7
  6
CONTINUOUS
 10
4.1120530973
 20
4.7986473008
 11
4.0660373437
 21
4.7720709821
  0
LINE
  5
223
100
AcDbEntity
  8
0
100
AcDbLine
 62
7
  6
CONTINUOUS
 10
4.0657313665
 20
4.8730582298
 11
4.0657313665
 21
4.8465727987
  0
LINE
  5
224
100
AcDbEntity
  8
0
100
AcDbLine
 62
7
  6
CONTINUOUS
 10
4.0657313665
 20
4.771717574
 11
4.0657313665
 21
4.759616277
  0
LINE
  5
225
100
AcDbEntity
  8
0
100
AcDbLine
 62
7
  6
CONTINUOUS
 10
4.0657313665
 20
4.6847610522
 11
4.0657313665
 21
4.6726597552
  0
LINE
  5
226
100
AcDbEntity
  8
0
100
AcDbLine
 62
7
  6
CONTINUOUS
 10
4.0657313665
 20
4.2499784435
 11
4.0657313665
 21
4.2378771465
  0
LINE
  5
227
100
AcDbEntity
  8
0
100
AcDbLine
 62
7
  6
CONTINUOUS
 10
4.0657313665
 20
4.1630219218
 11
4.0657313665
 21
4.1509206248
  0
LINE
  5
228
100
AcDbEntity
  8
0
100
AcDbLine
 62
7
  6
CONTINUOUS
 10
4.0657313665
 20
4.0760654
 11
4.0657313665
 21
4.0639641031
  0
LINE
  5
229
100
AcDbEntity
  8
0
100
AcDbLine
 62
7
  6
CONTINUOUS
 10
4.1117313665
 20
4.8200146863
 11
4.1117313665
 21
4.7982756863
  0
LINE
  5
22A
100
AcDbEntity
  8
0
100
AcDbLine
 62
7
  6
CONTINUOUS
 10
4.1117313665
 20
4.7330581646
 11
4.1117313665
 21
4.7113191646
  0
LINE
  5
22B
100
AcDbEntity
  8
0
100
AcDbLine
 62
7
  6
CONTINUOUS
 10
4.1117313665
 20
4.2113190342
 11
4.1117313665
 21
4.1895800342
  0
LINE
  5
22C
100
AcDbEntity
  8
0
100
AcDbLine
 62
7
  6
CONTINUOUS
 10
4.1117313665
 20
4.1243625124
 11
4.1117313665
 21
4.1026235124
  0
LINE
  5
22D
100
AcDbEntity
  8
0
100
AcDbLine
 62
7
  6
CONTINUOUS
 10
4.1117313665
 20
4.0374059907
 11
4.1117313665
 21
4.0156669907
  0
LINE
  5
22E
100
AcDbEntity
  8
0
100
AcDbLine
 62
7
  6
CONTINUOUS
 10
4.1255874037
 20
3.6810582298
 11
4.1255874037
 21
3.9310582298
  0
LINE
  5
22F
100
AcDbEntity
  8
0
100
AcDbLine
 62
7
  6
CONTINUOUS
 10
4.1120530973
 20
4.711690779
 11
4.0660373437
 21
4.6851144603
  0
LINE
  5
230
100
AcDbEntity
  8
0
100
AcDbLine
 62
7
  6
CONTINUOUS
 10
4.147169252
 20
4.8021887298
 11
4.147169252
 21
4.8239277298
  0
LINE
  5
231
100
AcDbEntity
  8
0
100
AcDbLine
 62
7
  6
CONTINUOUS
 10
4.0660373437
 20
4.2503318516
 11
4.0657313665
 21
4.2499784435
  0
LINE
  5
232
100
AcDbEntity
  8
ALL_FEATURES
100
AcDbLine
 62
7
  6
CONTINUOUS
 10
4.3267330399
 20
3.3270582298
 11
5.6817296931
 21
3.3270582298
  0
LINE
  5
233
100
AcDbEntity
  8
0
100
AcDbLine
 62
7
  6
CONTINUOUS
 10
4.0660373437
 20
4.063610695
 11
4.0657313665
 21
4.0639641031
  0
LINE
  5
234
100
AcDbEntity
  8
ALL_FEATURES
100
AcDbLine
 62
7
  6
CONTINUOUS
 10
4.3267313665
 20
3.4910582298
 11
4.3267313665
 21
3.3270582298
  0
LINE
  5
235
100
AcDbEntity
  8
0
100
AcDbLine
 62
7
  6
CONTINUOUS
 10
4.0660373437
 20
4.1633753299
 11
4.0657313665
 21
4.1630219218
  0
LINE
  5
236
100
AcDbEntity
  8
0
100
AcDbLine
 62
7
  6
CONTINUOUS
 10
4.0660373437
 20
4.0764188081
 11
4.0657313665
 21
4.0760654
  0
LINE
  5
237
100
AcDbEntity
  8
0
100
AcDbLine
 62
7
  6
CONTINUOUS
 10
5.8742313662
 20
3.4910582298
 11
4.1342313665
 21
3.4910582298
  0
LINE
  5
238
100
AcDbEntity
  8
0
100
AcDbLine
 62
7
  6
CONTINUOUS
 10
4.0660373437
 20
4.1505672167
 11
4.0657313665
 21
4.1509206248
  0
LINE
  5
239
100
AcDbEntity
  8
0
100
AcDbLine
 62
7
  6
CONTINUOUS
 10
4.0660373437
 20
4.2375237384
 11
4.0657313665
 21
4.2378771465
  0
LINE
  5
23A
100
AcDbEntity
  8
0
100
AcDbLine
 62
7
  6
CONTINUOUS
 10
4.079415395
 20
4.2580582298
 11
4.0660373437
 21
4.2503318516
  0
LINE
  5
23B
100
AcDbEntity
  8
0
100
AcDbLine
 62
7
  6
CONTINUOUS
 10
5.9742313665
 20
3.5910582298
 11
4.0342313665
 21
3.5910582298
  0
LINE
  5
23C
100
AcDbEntity
  8
0
100
AcDbLine
 62
7
  6
CONTINUOUS
 10
4.0660373437
 20
4.063610695
 11
4.1116508999
 21
4.0372666685
  0
LINE
  5
23D
100
AcDbEntity
  8
0
100
AcDbLine
 62
7
  6
CONTINUOUS
 10
4.4969460381
 20
3.6810582298
 11
4.4969460381
 21
3.9310582298
  0
LINE
  5
23E
100
AcDbEntity
  8
0
100
AcDbLine
 62
7
  6
CONTINUOUS
 10
4.1120530973
 20
4.1899516486
 11
4.0660373437
 21
4.1633753299
  0
LINE
  5
23F
100
AcDbEntity
  8
0
100
AcDbLine
 62
7
  6
CONTINUOUS
 10
3.9896607097
 20
3.6810582298
 11
6.0188020233
 21
3.6810582298
  0
LINE
  5
240
100
AcDbEntity
  8
0
100
AcDbLine
 62
7
  6
CONTINUOUS
 10
4.0660373437
 20
4.1505672167
 11
4.1116508999
 21
4.1242231902
  0
LINE
  5
241
100
AcDbEntity
  8
0
100
AcDbLine
 62
7
  6
CONTINUOUS
 10
4.1120530973
 20
4.1029951269
 11
4.0660373437
 21
4.0764188081
  0
LINE
  5
242
100
AcDbEntity
  8
0
100
AcDbLine
 62
7
  6
CONTINUOUS
 10
4.0660373437
 20
4.2375237384
 11
4.1116508999
 21
4.211179712
  0
LINE
  5
243
100
AcDbEntity
  8
0
100
AcDbLine
 62
7
  6
CONTINUOUS
 10
4.0660373437
 20
4.6723063471
 11
4.0657313665
 21
4.6726597552
  0
LINE
  5
244
100
AcDbEntity
  8
0
100
AcDbLine
 62
7
  6
CONTINUOUS
 10
4.0660373437
 20
4.7592628689
 11
4.0657313665
 21
4.759616277
  0
LINE
  5
245
100
AcDbEntity
  8
0
100
AcDbLine
 62
7
  6
CONTINUOUS
 10
4.1120530973
 20
4.0160386051
 11
4.0688006944
 21
3.9910582298
  0
LINE
  5
246
100
AcDbEntity
  8
0
100
AcDbLine
 62
7
  6
CONTINUOUS
 10
3.9896607097
 20
3.9310582298
 11
6.0188020233
 21
3.9310582298
  0
LINE
  5
247
100
AcDbEntity
  8
0
100
AcDbLine
 62
7
  6
CONTINUOUS
 10
5.9792234245
 20
3.9910582298
 11
4.0292393084
 21
3.9910582298
  0
LINE
  5
248
100
AcDbEntity
  8
0
100
AcDbLine
 62
7
  6
CONTINUOUS
 10
5.0042313665
 20
3.6810582298
 11
5.0042313665
 21
3.9310582298
  0
LINE
  5
249
100
AcDbEntity
  8
0
100
AcDbLine
 62
7
  6
CONTINUOUS
 10
5.0042313665
 20
4.2580582298
 11
5.0042313665
 21
4.4480582298
  0
LINE
  5
24A
100
AcDbEntity
  8
0
100
AcDbLine
 62
7
  6
CONTINUOUS
 10
5.8964096356
 20
4.776164811
 11
5.9424253892
 21
4.8027411297
  0
LINE
  5
24B
100
AcDbEntity
  8
0
100
AcDbLine
 62
7
  6
CONTINUOUS
 10
5.8964096356
 20
4.6892082893
 11
5.9424253892
 21
4.715784608
  0
LINE
  5
24C
100
AcDbEntity
  8
0
100
AcDbLine
 62
7
  6
CONTINUOUS
 10
4.0660373437
 20
4.6723063471
 11
4.1080219795
 21
4.6480582298
  0
LINE
  5
24D
100
AcDbEntity
  8
0
100
AcDbLine
 62
7
  6
CONTINUOUS
 10
5.7359448416
 20
4.2463599765
 11
5.7366282914
 21
4.2463785035
  0
LINE
  5
24E
100
AcDbEntity
  8
0
100
AcDbLine
 62
7
  6
CONTINUOUS
 10
5.7189785953
 20
4.2459108522
 11
5.7195905385
 21
4.2459270662
  0
LINE
  5
24F
100
AcDbEntity
  8
0
100
AcDbLine
 62
7
  6
CONTINUOUS
 10
6.0122313665
 20
4.2580582298
 11
3.9962313665
 21
4.2580582298
  0
LINE
  5
250
100
AcDbEntity
  8
0
100
AcDbLine
 62
7
  6
CONTINUOUS
 10
4.0660373437
 20
4.7592628689
 11
4.1116508999
 21
4.7329188424
  0
LINE
  5
251
100
AcDbEntity
  8
0
100
AcDbLine
 62
7
  6
CONTINUOUS
 10
4.0660373437
 20
4.8462193906
 11
4.1116508999
 21
4.8198753642
  0
LINE
  5
252
100
AcDbEntity
  8
0
100
AcDbLine
 62
7
  6
CONTINUOUS
 10
4.147169252
 20
4.8239277298
 11
4.1029957425
 21
4.8504858422
  0
LINE
  5
253
100
AcDbEntity
  8
0
100
AcDbLine
 62
7
  6
CONTINUOUS
 10
5.9424253892
 20
4.8027411297
 11
5.9427313665
 21
4.8030945378
  0
LINE
  5
254
100
AcDbEntity
  8
0
100
AcDbLine
 62
7
  6
CONTINUOUS
 10
3.7442416299
 20
4.4480582298
 11
6.264221103
 21
4.4480582298
  0
LINE
  5
255
100
AcDbEntity
  8
0
100
AcDbLine
 62
7
  6
CONTINUOUS
 10
5.9424253892
 20
4.715784608
 11
5.9427313665
 21
4.7161380161
  0
LINE
  5
256
100
AcDbEntity
  8
0
100
AcDbLine
 62
7
  6
CONTINUOUS
 10
5.8964096356
 20
4.2544256806
 11
5.9026991461
 21
4.2580582298
  0
LINE
  5
257
100
AcDbEntity
  8
ALL_FEATURES
100
AcDbLine
 62
7
  6
CONTINUOUS
 10
3.6492313665
 20
4.5280582298
 11
6.3592313665
 21
4.5280582298
  0
LINE
  5
258
100
AcDbEntity
  8
0
100
AcDbLine
 62
7
  6
CONTINUOUS
 10
5.9424253892
 20
4.0329405473
 11
5.8968118331
 21
4.0592845737
  0
LINE
  5
259
100
AcDbEntity
  8
0
100
AcDbLine
 62
7
  6
CONTINUOUS
 10
5.9424253892
 20
4.119897069
 11
5.8968118331
 21
4.1462410955
  0
LINE
  5
25A
100
AcDbEntity
  8
0
100
AcDbLine
 62
7
  6
CONTINUOUS
 10
5.5115166949
 20
3.6810582298
 11
5.5115166949
 21
3.9310582298
  0
LINE
  5
25B
100
AcDbEntity
  8
0
100
AcDbLine
 62
7
  6
CONTINUOUS
 10
5.5578614184
 20
4.8504858422
 11
5.5578614184
 21
4.8287468422
  0
LINE
  5
25C
100
AcDbEntity
  8
0
100
AcDbLine
 62
7
  6
CONTINUOUS
 10
5.8964096356
 20
4.1674691589
 11
5.9424253892
 21
4.1940454776
  0
LINE
  5
25D
100
AcDbEntity
  8
0
100
AcDbLine
 62
7
  6
CONTINUOUS
 10
5.8964096356
 20
4.0805126371
 11
5.9424253892
 21
4.1070889558
  0
LINE
  5
25E
100
AcDbEntity
  8
ALL_FEATURES
100
AcDbLine
 62
7
  6
CONTINUOUS
 10
3.6492313665
 20
4.6480582298
 11
6.3592313665
 21
4.6480582298
  0
LINE
  5
25F
100
AcDbEntity
  8
0
100
AcDbLine
 62
7
  6
CONTINUOUS
 10
5.9424253892
 20
4.2068535908
 11
5.8968118331
 21
4.2331976172
  0
LINE
  5
260
100
AcDbEntity
  8
0
100
AcDbLine
 62
7
  6
CONTINUOUS
 10
5.8964096356
 20
3.9935561154
 11
5.9424253892
 21
4.0201324341
  0
LINE
  5
261
100
AcDbEntity
  8
0
100
AcDbLine
 62
7
  6
CONTINUOUS
 10
5.9424253892
 20
4.0329405473
 11
5.9427313665
 21
4.0325871392
  0
LINE
  5
262
100
AcDbEntity
  8
ALL_FEATURES
100
AcDbLine
 62
7
  6
CONTINUOUS
 10
5.6817313665
 20
3.4910582298
 11
5.6817313665
 21
3.3270582298
  0
LINE
  5
263
100
AcDbEntity
  8
0
100
AcDbLine
 62
7
  6
CONTINUOUS
 10
5.9424253892
 20
4.1940454776
 11
5.9427313665
 21
4.1943988857
  0
LINE
  5
264
100
AcDbEntity
  8
0
100
AcDbLine
 62
7
  6
CONTINUOUS
 10
5.9424253892
 20
4.1070889558
 11
5.9427313665
 21
4.1074423639
  0
LINE
  5
265
100
AcDbEntity
  8
0
100
AcDbLine
 62
7
  6
CONTINUOUS
 10
5.5578614184
 20
4.8504858422
 11
4.1029957425
 21
4.8504858422
  0
LINE
  5
266
100
AcDbEntity
  8
0
100
AcDbLine
 62
7
  6
CONTINUOUS
 10
4.0657313665
 20
4.8730582298
 11
5.9427313665
 21
4.8730582298
  0
LINE
  5
267
100
AcDbEntity
  8
0
100
AcDbLine
 62
7
  6
CONTINUOUS
 10
5.9424253892
 20
4.119897069
 11
5.9427313665
 21
4.1195436609
  0
LINE
  5
268
100
AcDbEntity
  8
0
100
AcDbLine
 62
7
  6
CONTINUOUS
 10
5.9424253892
 20
4.2068535908
 11
5.9427313665
 21
4.2065001826
  0
LINE
  5
269
100
AcDbEntity
  8
0
100
AcDbLine
 62
7
  6
CONTINUOUS
 10
5.8828753292
 20
3.6810582298
 11
5.8828753292
 21
3.9310582298
  0
LINE
  5
26A
100
AcDbEntity
  8
0
100
AcDbLine
 62
7
  6
CONTINUOUS
 10
5.9424253892
 20
4.0201324341
 11
5.9427313665
 21
4.0204858422
  0
LINE
  5
26B
100
AcDbEntity
  8
ALL_FEATURES
100
AcDbLine
 62
7
  6
CONTINUOUS
 10
6.3764813665
 20
4.9580582298
 11
3.6319813665
 21
4.9580582298
  0
LINE
  5
26C
100
AcDbEntity
  8
0
100
AcDbLine
 62
7
  6
CONTINUOUS
 10
3.5992323043
 20
4.9830582298
 11
6.4092304286
 21
4.9830582298
  0
LINE
  5
26D
100
AcDbEntity
  8
0
100
AcDbLine
 62
7
  6
CONTINUOUS
 10
3.5992323043
 20
5.0230582298
 11
6.4092304286
 21
5.0230582298
  0
LINE
  5
26E
100
AcDbEntity
  8
0
100
AcDbLine
 62
7
  6
CONTINUOUS
 10
5.931305779
 20
4.6480582298
 11
5.8968118331
 21
4.6679802259
  0
LINE
  5
26F
100
AcDbEntity
  8
0
100
AcDbLine
 62
7
  6
CONTINUOUS
 10
5.8967313665
 20
3.9910582298
 11
5.8967313665
 21
3.9939277298
  0
LINE
  5
270
100
AcDbEntity
  8
0
100
AcDbLine
 62
7
  6
CONTINUOUS
 10
5.8967313665
 20
4.0591452516
 11
5.8967313665
 21
4.0808842516
  0
LINE
  5
271
100
AcDbEntity
  8
0
100
AcDbLine
 62
7
  6
CONTINUOUS
 10
5.8967313665
 20
4.1461017733
 11
5.8967313665
 21
4.1678407733
  0
LINE
  5
272
100
AcDbEntity
  8
0
100
AcDbLine
 62
7
  6
CONTINUOUS
 10
5.8967313665
 20
4.233058295
 11
5.8967313665
 21
4.254797295
  0
LINE
  5
273
100
AcDbEntity
  8
0
100
AcDbLine
 62
7
  6
CONTINUOUS
 10
5.8967313665
 20
4.6678409037
 11
5.8967313665
 21
4.6895799037
  0
LINE
  5
274
100
AcDbEntity
  8
0
100
AcDbLine
 62
7
  6
CONTINUOUS
 10
5.8967313665
 20
4.7547974255
 11
5.8967313665
 21
4.7765364255
  0
LINE
  5
275
100
AcDbEntity
  8
0
100
AcDbLine
 62
7
  6
CONTINUOUS
 10
5.9427313665
 20
4.8730582298
 11
5.9427313665
 21
4.8030945378
  0
LINE
  5
276
100
AcDbEntity
  8
0
100
AcDbLine
 62
7
  6
CONTINUOUS
 10
5.9427313665
 20
4.7282393131
 11
5.9427313665
 21
4.7161380161
  0
LINE
  5
277
100
AcDbEntity
  8
0
100
AcDbLine
 62
7
  6
CONTINUOUS
 10
5.9427313665
 20
4.2065001826
 11
5.9427313665
 21
4.1943988857
  0
LINE
  5
278
100
AcDbEntity
  8
0
100
AcDbLine
 62
7
  6
CONTINUOUS
 10
5.9427313665
 20
4.1195436609
 11
5.9427313665
 21
4.1074423639
  0
LINE
  5
279
100
AcDbEntity
  8
0
100
AcDbLine
 62
7
  6
CONTINUOUS
 10
5.9427313665
 20
4.0325871392
 11
5.9427313665
 21
4.0204858422
  0
LINE
  5
27A
100
AcDbEntity
  8
0
100
AcDbLine
 62
7
  6
CONTINUOUS
 10
5.9742313665
 20
3.6810582298
 11
5.9742313665
 21
3.5910582298
  0
LINE
  5
27B
100
AcDbEntity
  8
0
100
AcDbLine
 62
7
  6
CONTINUOUS
 10
5.9792313665
 20
3.9910582298
 11
5.9792313665
 21
3.9310582298
  0
LINE
  5
27C
100
AcDbEntity
  8
0
100
AcDbLine
 62
7
  6
CONTINUOUS
 10
5.9424253892
 20
4.7285927212
 11
5.8968118331
 21
4.7549367477
  0
LINE
  5
27D
100
AcDbEntity
  8
0
100
AcDbLine
 62
7
  6
CONTINUOUS
 10
6.0122313665
 20
4.2580582298
 11
6.0122313665
 21
4.4480582298
  0
LINE
  5
27E
100
AcDbEntity
  8
0
100
AcDbLine
 62
7
  6
CONTINUOUS
 10
6.0188020233
 20
3.6810582298
 11
6.0188020233
 21
3.9310582298
  0
LINE
  5
27F
100
AcDbEntity
  8
0
100
AcDbLine
 62
7
  6
CONTINUOUS
 10
5.9424253892
 20
4.7285927212
 11
5.9427313665
 21
4.7282393131
  0
LINE
  5
280
100
AcDbEntity
  8
0
100
AcDbLine
 62
7
  6
CONTINUOUS
 10
6.2642313665
 20
4.5280582298
 11
6.2642313665
 21
4.4480582298
  0
LINE
  5
281
100
AcDbEntity
  8
ALL_FEATURES
100
AcDbLine
 62
7
  6
CONTINUOUS
 10
6.3592313665
 20
4.5280582298
 11
6.3592313665
 21
4.6480582298
  0
LINE
  5
282
100
AcDbEntity
  8
ALL_FEATURES
100
AcDbLine
 62
7
  6
CONTINUOUS
 10
6.3764813665
 20
4.9830582298
 11
6.3764813665
 21
4.9580582298
  0
LINE
  5
283
100
AcDbEntity
  8
0
100
AcDbLine
 62
7
  6
CONTINUOUS
 10
6.4092313665
 20
5.0230582298
 11
6.4092313665
 21
4.9830582298
  0
ARC
  5
284
100
AcDbEntity
  8
0
100
AcDbCircle
 62
7
  6
CONTINUOUS
 10
4.9594895922
 20
34.6502549956
 40
30.4138338887
100
AcDbArc
 50
271.0420678462
 51
271.4309293004
  0
ARC
  5
285
100
AcDbEntity
  8
0
100
AcDbCircle
 62
7
  6
CONTINUOUS
 10
3.9557313665
 20
4.8730582298
 40
0.11
100
AcDbArc
 50
0.0
 51
50.6101287264
  0
ARC
  5
286
100
AcDbEntity
  8
0
100
AcDbCircle
 62
7
  6
CONTINUOUS
 10
6.0527313665
 20
4.8730582298
 40
0.11
100
AcDbArc
 50
129.3898712736
 51
180.0
  0
ARC
  5
287
100
AcDbEntity
  8
0
100
AcDbCircle
 62
7
  6
CONTINUOUS
 10
4.1342313665
 20
3.5910582298
 40
0.1
100
AcDbArc
 50
180.0
 51
270.0
  0
ARC
  5
288
100
AcDbEntity
  8
0
100
AcDbCircle
 62
7
  6
CONTINUOUS
 10
5.8742313665
 20
3.5910582298
 40
0.1
100
AcDbArc
 50
270.0
 51
360.0
  0
LINE
  5
289
100
AcDbEntity
  8
0
100
AcDbLine
 62
7
  6
CONTINUOUS
 10
4.0660373827
 20
4.8462193905
 11
4.0657314188
 21
4.8465727988
  0
SPLINE
  5
28A
100
AcDbEntity
  8
0
100
AcDbSpline
 62
7
  6
CONTINUOUS
 70
0
 71
3
 72
30
 73
26
 74
0
 42
0.0000001
 43
0.0000001
 44
0.0000000001
 40
0.0
 40
0.0
 40
0.0
 40
0.0
 40
0.0052226028
 40
0.0110195334
 40
0.0173841287
 40
0.024309625
 40
0.0398146321
 40
0.0574748426
 40
0.0772207663
 40
0.0989756297
 40
0.1226555908
 40
0.1481697552
 40
0.1754213329
 40
0.204307131
 40
0.2665422871
 40
0.3339488431
 40
0.4055341822
 40
0.4802546608
 40
0.5570314536
 40
0.634766548
 40
0.7123584767
 40
0.7887178142
 40
0.8627827761
 40
0.9335310699
 40
1.0
 40
1.0
 40
1.0
 40
1.0
 10
4.147169252
 20
4.8021887298
 30
0.0
 10
4.1496209795
 20
4.8023388792
 30
0.0
 10
4.1547952507
 20
4.8026361913
 30
0.0
 10
4.16296053
 20
4.8030590652
 30
0.0
 10
4.1719276922
 20
4.8034820408
 30
0.0
 10
4.1854580848
 20
4.8040681835
 30
0.0
 10
4.2043000035
 20
4.8047909997
 30
0.0
 10
4.2291713564
 20
4.8056298133
 30
0.0
 10
4.2569836562
 20
4.8064686802
 30
0.0
 10
4.2876283539
 20
4.8073072866
 30
0.0
 10
4.3209869393
 20
4.8081453137
 30
0.0
 10
4.3569315351
 20
4.8089825957
 30
0.0
 10
4.3953252033
 20
4.8098190049
 30
0.0
 10
4.4509870598
 20
4.8109614742
 30
0.0
 10
4.5255332242
 20
4.8123719234
 30
0.0
 10
4.6201609684
 20
4.8140229135
 30
0.0
 10
4.7206617624
 20
4.8156705254
 30
0.0
 10
4.8255702329
 20
4.8173143077
 30
0.0
 10
4.9333714951
 20
4.8189537805
 30
0.0
 10
5.042523494
 20
4.8205886197
 30
0.0
 10
5.151479205
 20
4.8222185327
 30
0.0
 10
5.2587086446
 20
4.8238432447
 30
0.0
 10
5.3627190605
 20
4.825462433
 30
0.0
 10
5.4620772789
 20
4.8270757481
 30
0.0
 10
5.5266044376
 20
4.8281864659
 30
0.0
 10
5.5578614184
 20
4.8287468422
 30
0.0
  0
SPLINE
  5
28B
100
AcDbEntity
  8
0
100
AcDbSpline
 62
7
  6
CONTINUOUS
 70
0
 71
3
 72
30
 73
26
 74
0
 42
0.0000001
 43
0.0000001
 44
0.0000000001
 40
0.0
 40
0.0
 40
0.0
 40
0.0
 40
0.0052226028
 40
0.0110195334
 40
0.0173841287
 40
0.024309625
 40
0.0398146321
 40
0.0574748426
 40
0.0772207663
 40
0.0989756297
 40
0.1226555908
 40
0.1481697552
 40
0.1754213329
 40
0.204307131
 40
0.2665422871
 40
0.3339488431
 40
0.4055341822
 40
0.4802546608
 40
0.5570314536
 40
0.634766548
 40
0.7123584767
 40
0.7887178142
 40
0.8627827761
 40
0.9335310699
 40
1.0
 40
1.0
 40
1.0
 40
1.0
 10
4.147169252
 20
4.8239277298
 30
0.0
 10
4.1496209795
 20
4.8240778792
 30
0.0
 10
4.1547952507
 20
4.8243751913
 30
0.0
 10
4.16296053
 20
4.8247980652
 30
0.0
 10
4.1719276922
 20
4.8252210408
 30
0.0
 10
4.1854580848
 20
4.8258071835
 30
0.0
 10
4.2043000035
 20
4.8265299997
 30
0.0
 10
4.2291713564
 20
4.8273688133
 30
0.0
 10
4.2569836562
 20
4.8282076802
 30
0.0
 10
4.2876283539
 20
4.8290462866
 30
0.0
 10
4.3209869393
 20
4.8298843137
 30
0.0
 10
4.3569315351
 20
4.8307215957
 30
0.0
 10
4.3953252033
 20
4.8315580049
 30
0.0
 10
4.4509870598
 20
4.8327004742
 30
0.0
 10
4.5255332242
 20
4.8341109234
 30
0.0
 10
4.6201609684
 20
4.8357619135
 30
0.0
 10
4.7206617624
 20
4.8374095254
 30
0.0
 10
4.8255702329
 20
4.8390533077
 30
0.0
 10
4.9333714951
 20
4.8406927805
 30
0.0
 10
5.042523494
 20
4.8423276197
 30
0.0
 10
5.151479205
 20
4.8439575327
 30
0.0
 10
5.2587086446
 20
4.8455822447
 30
0.0
 10
5.3627190605
 20
4.847201433
 30
0.0
 10
5.4620772789
 20
4.8488147481
 30
0.0
 10
5.5266044376
 20
4.8499254659
 30
0.0
 10
5.5578614184
 20
4.8504858422
 30
0.0
  0
SPLINE
  5
28C
100
AcDbEntity
  8
0
100
AcDbSpline
 62
7
  6
CONTINUOUS
 70
0
 71
3
 72
42
 73
38
 74
0
 42
0.0000001
 43
0.0000001
 44
0.0000000001
 40
0.0
 40
0.0
 40
0.0
 40
0.0
 40
0.0964252444
 40
0.191952429
 40
0.2856905665
 40
0.3767668109
 40
0.464332282
 40
0.5475712142
 40
0.6257080753
 40
0.6980149969
 40
0.7317693597
 40
0.7638185405
 40
0.7940874342
 40
0.8225060273
 40
0.8490077465
 40
0.8735313713
 40
0.8960195243
 40
0.9164203816
 40
0.9346863815
 40
0.9507756874
 40
0.9579923833
 40
0.9646512426
 40
0.9707488456
 40
0.9762819565
 40
0.981247405
 40
0.9856424
 40
0.9894652035
 40
0.9927145273
 40
0.9941238886
 40
0.9953896606
 40
0.9965119503
 40
0.9974911258
 40
0.9983278298
 40
0.9990231543
 40
0.999579093
 40
0.9998060268
 40
1.0
 40
1.0
 40
1.0
 40
1.0
 10
5.0042313665
 20
4.6943988857
 30
0.0
 10
5.0343974322
 20
4.6948437286
 30
0.0
 10
5.0944486111
 20
4.6957292649
 30
0.0
 10
5.1838250288
 20
4.6970595297
 30
0.0
 10
5.2715276777
 20
4.6983895537
 30
0.0
 10
5.3567389943
 20
4.6997191896
 30
0.0
 10
5.4386649356
 20
4.7010482698
 30
0.0
 10
5.5165418865
 20
4.7023765406
 30
0.0
 10
5.5896440555
 20
4.7037037734
 30
0.0
 10
5.6472645888
 20
4.7048328034
 30
0.0
 10
5.6904667512
 20
4.7057427675
 30
0.0
 10
5.7205183272
 20
4.7064093164
 30
0.0
 10
5.7489000299
 20
4.7070756552
 30
0.0
 10
5.7755455538
 20
4.707741718
 30
0.0
 10
5.8003929188
 20
4.7084074672
 30
0.0
 10
5.8233840779
 20
4.7090727715
 30
0.0
 10
5.844465563
 20
4.7097375452
 30
0.0
 10
5.8635881433
 20
4.7104015255
 30
0.0
 10
5.8807073619
 20
4.7110645707
 30
0.0
 10
5.8937019264
 20
4.711634544
 30
0.0
 10
5.9030659553
 20
4.7120955372
 30
0.0
 10
5.9093062656
 20
4.7124284499
 30
0.0
 10
5.9150190219
 20
4.7127611032
 30
0.0
 10
5.9202009887
 20
4.7130934332
 30
0.0
 10
5.9248490685
 20
4.713425338
 30
0.0
 10
5.9289605701
 20
4.7137566353
 30
0.0
 10
5.9325332148
 20
4.7140871613
 30
0.0
 10
5.935171607
 20
4.71437332
 30
0.0
 10
5.9370106092
 20
4.714606148
 30
0.0
 10
5.9381871292
 20
4.7147721864
 30
0.0
 10
5.9392276172
 20
4.714937946
 30
0.0
 10
5.9401319946
 20
4.7151033543
 30
0.0
 10
5.940900418
 20
4.7152681694
 30
0.0
 10
5.9415329185
 20
4.7154323099
 30
0.0
 10
5.9419732126
 20
4.7155760159
 30
0.0
 10
5.9422550877
 20
4.7156945654
 30
0.0
 10
5.9423726959
 20
4.715754262
 30
0.0
 10
5.9424252544
 20
4.7157846079
 30
0.0
  0
SPLINE
  5
28D
100
AcDbEntity
  8
0
100
AcDbSpline
 62
7
  6
CONTINUOUS
 70
0
 71
3
 72
42
 73
38
 74
0
 42
0.0000001
 43
0.0000001
 44
0.0000000001
 40
0.0
 40
0.0
 40
0.0
 40
0.0
 40
0.0964252477
 40
0.1919524706
 40
0.285690558
 40
0.3767668662
 40
0.4643322814
 40
0.5475712606
 40
0.625708098
 40
0.698015029
 40
0.7317694034
 40
0.763818592
 40
0.7940874698
 40
0.8225060526
 40
0.8490077716
 40
0.8735314199
 40
0.8960195622
 40
0.9164204044
 40
0.9346863891
 40
0.9507757168
 40
0.9579924103
 40
0.9646512658
 40
0.9707488684
 40
0.9762819748
 40
0.9812474074
 40
0.9856423925
 40
0.9894651986
 40
0.9927145252
 40
0.9941238839
 40
0.9953896486
 40
0.9965119326
 40
0.9974911081
 40
0.9983278158
 40
0.9990231458
 40
0.9995790898
 40
0.9998060255
 40
1.0
 40
1.0
 40
1.0
 40
1.0
 10
5.0042313665
 20
4.0978045305
 30
0.0
 10
4.9740652995
 20
4.0973596875
 30
0.0
 10
4.9140141071
 20
4.096474151
 30
0.0
 10
4.8246376913
 20
4.0951438862
 30
0.0
 10
4.7369350255
 20
4.093813862
 30
0.0
 10
4.6517237216
 20
4.0924842263
 30
0.0
 10
4.5697977624
 20
4.0911551458
 30
0.0
 10
4.4919208212
 20
4.0898268751
 30
0.0
 10
4.4188186413
 20
4.0884996421
 30
0.0
 10
4.3611981085
 20
4.0873706121
 30
0.0
 10
4.3179959367
 20
4.0864606475
 30
0.0
 10
4.2879443594
 20
4.0857940988
 30
0.0
 10
4.2595626623
 20
4.0851277599
 30
0.0
 10
4.2329171465
 20
4.0844616976
 30
0.0
 10
4.2080697772
 20
4.0837959476
 30
0.0
 10
4.185078614
 20
4.0831306436
 30
0.0
 10
4.1639971295
 20
4.0824658694
 30
0.0
 10
4.1448745618
 20
4.0818018903
 30
0.0
 10
4.1277553458
 20
4.0811388437
 30
0.0
 10
4.1147607799
 20
4.0805688713
 30
0.0
 10
4.1053967461
 20
4.0801078772
 30
0.0
 10
4.0991564378
 20
4.0797749644
 30
0.0
 10
4.0934436842
 20
4.0794423115
 30
0.0
 10
4.0882617238
 20
4.0791099823
 30
0.0
 10
4.0836136534
 20
4.0787780772
 30
0.0
 10
4.0795021592
 20
4.0784467799
 30
0.0
 10
4.0759295157
 20
4.0781162548
 30
0.0
 10
4.0732911226
 20
4.0778300968
 30
0.0
 10
4.0714521225
 20
4.0775972689
 30
0.0
 10
4.0702756074
 20
4.0774312303
 30
0.0
 10
4.0692351236
 20
4.0772654702
 30
0.0
 10
4.0683307469
 20
4.0771000621
 30
0.0
 10
4.0675623206
 20
4.076935247
 30
0.0
 10
4.0669298154
 20
4.0767711065
 30
0.0
 10
4.066489517
 20
4.0766274005
 30
0.0
 10
4.0662076391
 20
4.076508851
 30
0.0
 10
4.0660900298
 20
4.0764491543
 30
0.0
 10
4.0660374709
 20
4.0764188083
 30
0.0
  0
SPLINE
  5
28E
100
AcDbEntity
  8
0
100
AcDbSpline
 62
7
  6
CONTINUOUS
 70
0
 71
3
 72
30
 73
26
 74
0
 42
0.0000001
 43
0.0000001
 44
0.0000000001
 40
0.0
 40
0.0
 40
0.0
 40
0.0
 40
0.179539134
 40
0.2675150506
 40
0.3533574787
 40
0.4363795747
 40
0.5159196427
 40
0.5913429735
 40
0.6620475962
 40
0.7274692867
 40
0.7870863424
 40
0.840423652
 40
0.8646023268
 40
0.8870562195
 40
0.907739877
 40
0.926612892
 40
0.9436373656
 40
0.9587799974
 40
0.9720109729
 40
0.9779012701
 40
0.9833045384
 40
0.9882182215
 40
0.9926398412
 40
0.9965675055
 40
1.0
 40
1.0
 40
1.0
 40
1.0
 10
5.0042313665
 20
4.0108480087
 30
0.0
 10
4.9486116629
 20
4.0100278146
 30
0.0
 10
4.8657377605
 20
4.0088059346
 30
0.0
 10
4.7562711877
 20
4.007152554
 30
0.0
 10
4.6767050692
 20
4.0059211252
 30
0.0
 10
4.5997529048
 20
4.0046900694
 30
0.0
 10
4.5260292593
 20
4.0034595237
 30
0.0
 10
4.4561224211
 20
4.0022296782
 30
0.0
 10
4.3905905109
 20
4.0010007707
 30
0.0
 10
4.3299566738
 20
3.9997732231
 30
0.0
 10
4.2747048319
 20
3.9985473807
 30
0.0
 10
4.2322304757
 20
3.9974967319
 30
0.0
 10
4.2012689297
 20
3.9966469024
 30
0.0
 10
4.1804217457
 20
3.9960309336
 30
0.0
 10
4.1612191476
 20
3.9954153991
 30
0.0
 10
4.1436996391
 20
3.9948004507
 30
0.0
 10
4.1278980043
 20
3.9941862957
 30
0.0
 10
4.1138458466
 20
3.9935731402
 30
0.0
 10
4.103243053
 20
3.9930451738
 30
0.0
 10
4.0956567462
 20
3.9926175935
 30
0.0
 10
4.0906447552
 20
3.9923096861
 30
0.0
 10
4.0860887143
 20
3.992002075
 30
0.0
 10
4.0819909658
 20
3.9916948234
 30
0.0
 10
4.0783535319
 20
3.9913880431
 30
0.0
 10
4.0760835913
 20
3.9911693185
 30
0.0
 10
4.0750259366
 20
3.9910582234
 30
0.0
  0
SPLINE
  5
28F
100
AcDbEntity
  8
0
100
AcDbSpline
 62
7
  6
CONTINUOUS
 70
0
 71
3
 72
27
 73
23
 74
0
 42
0.0000001
 43
0.0000001
 44
0.0000000001
 40
0.0
 40
0.0
 40
0.0
 40
0.0
 40
0.0016406262
 40
0.0034197378
 40
0.0054473637
 40
0.0077988474
 40
0.0136440118
 40
0.0211826317
 40
0.0305116907
 40
0.0416812517
 40
0.0547198688
 40
0.0696450878
 40
0.1051954411
 40
0.1483872216
 40
0.1992377536
 40
0.2577499298
 40
0.3239197548
 40
0.3977392139
 40
0.4791972741
 40
0.568270427
 40
0.7691205677
 40
1.0
 40
1.0
 40
1.0
 40
1.0
 10
4.0657314188
 20
4.8465727988
 30
0.0
 10
4.0657314303
 20
4.8465934087
 30
0.0
 10
4.0657382167
 20
4.8466365828
 30
0.0
 10
4.0657675249
 20
4.8466991706
 30
0.0
 10
4.0658150539
 20
4.8467607969
 30
0.0
 10
4.0659093394
 20
4.8468486137
 30
0.0
 10
4.0660776142
 20
4.846954848
 30
0.0
 10
4.0663368515
 20
4.847074697
 30
0.0
 10
4.066668233
 20
4.8471950521
 30
0.0
 10
4.0670719878
 20
4.8473158399
 30
0.0
 10
4.0675485493
 20
4.847436977
 30
0.0
 10
4.0683277635
 20
4.8476089826
 30
0.0
 10
4.0694859337
 20
4.8478188589
 30
0.0
 10
4.0710960968
 20
4.8480598713
 30
0.0
 10
4.0729973254
 20
4.8483016954
 30
0.0
 10
4.0751890921
 20
4.8485442062
 30
0.0
 10
4.0776708975
 20
4.8487871451
 30
0.0
 10
4.0804421424
 20
4.8490304094
 30
0.0
 10
4.0835020776
 20
4.849273918
 30
0.0
 10
4.0881551661
 20
4.8496125418
 30
0.0
 10
4.0946843478
 20
4.8500304498
 30
0.0
 10
4.1000994329
 20
4.8503327537
 30
0.0
 10
4.1029957425
 20
4.8504858422
 30
0.0
  0
SPLINE
  5
290
100
AcDbEntity
  8
0
100
AcDbSpline
 62
7
  6
CONTINUOUS
 70
0
 71
3
 72
49
 73
45
 74
0
 42
0.0000001
 43
0.0000001
 44
0.0000000001
 40
0.0
 40
0.0
 40
0.0
 40
0.0
 40
0.0000923623
 40
0.0001989697
 40
0.0003294743
 40
0.0004892464
 40
0.000681209
 40
0.0009070329
 40
0.0011677337
 40
0.0014639643
 40
0.0021645737
 40
0.0030111482
 40
0.0040048514
 40
0.0051463611
 40
0.0064360609
 40
0.0078740586
 40
0.0094603339
 40
0.0111948013
 40
0.0151077394
 40
0.0196115427
 40
0.0247043238
 40
0.0303830852
 40
0.0366444906
 40
0.0434851366
 40
0.0509013435
 40
0.058888475
 40
0.076555916
 40
0.0964463824
 40
0.1185114626
 40
0.1426991492
 40
0.1689505464
 40
0.1972033984
 40
0.2273889858
 40
0.2594354627
 40
0.2932649857
 40
0.3287968357
 40
0.3659448157
 40
0.4447290373
 40
0.5288593221
 40
0.6175257771
 40
0.7098747752
 40
0.8050171924
 40
0.9020369809
 40
1.0
 40
1.0
 40
1.0
 40
1.0
 10
4.0657313665
 20
4.759616277
 30
0.0
 10
4.0657313665
 20
4.7596451901
 30
0.0
 10
4.0657455622
 20
4.7597078737
 30
0.0
 10
4.0658036502
 20
4.7597948393
 30
0.0
 10
4.0658954847
 20
4.7598795794
 30
0.0
 10
4.0660213482
 20
4.7599636567
 30
0.0
 10
4.0661816903
 20
4.7600476928
 30
0.0
 10
4.0663768695
 20
4.7601318256
 30
0.0
 10
4.0666070594
 20
4.7602160956
 30
0.0
 10
4.0669823159
 20
4.7603353616
 30
0.0
 10
4.0675410046
 20
4.7604811848
 30
0.0
 10
4.0683186938
 20
4.7606487322
 30
0.0
 10
4.0692369863
 20
4.7608167808
 30
0.0
 10
4.0702958718
 20
4.7609852529
 30
0.0
 10
4.0714953318
 20
4.7611539894
 30
0.0
 10
4.0728352067
 20
4.7613229324
 30
0.0
 10
4.0743152829
 20
4.7614920397
 30
0.0
 10
4.0765674976
 20
4.7617272357
 30
0.0
 10
4.0797320641
 20
4.7620175711
 30
0.0
 10
4.0839477212
 20
4.7623543692
 30
0.0
 10
4.0887176612
 20
4.7626917029
 30
0.0
 10
4.0940389847
 20
4.763029509
 30
0.0
 10
4.0999084319
 20
4.7633676447
 30
0.0
 10
4.1063225748
 20
4.7637060278
 30
0.0
 10
4.1132776189
 20
4.7640445984
 30
0.0
 10
4.1236195607
 20
4.7645121123
 30
0.0
 10
4.1378653137
 20
4.7650909096
 30
0.0
 10
4.1565175636
 20
4.7657653985
 30
0.0
 10
4.1772120795
 20
4.7664407652
 30
0.0
 10
4.1998987597
 20
4.7671167703
 30
0.0
 10
4.2245232337
 20
4.767793304
 30
0.0
 10
4.2510259371
 20
4.768470188
 30
0.0
 10
4.2793432766
 20
4.769147403
 30
0.0
 10
4.3094068018
 20
4.7698248311
 30
0.0
 10
4.3411443186
 20
4.7705024758
 30
0.0
 10
4.3744791538
 20
4.7711802688
 30
0.0
 10
4.4218845449
 20
4.7721023367
 30
0.0
 10
4.4845017173
 20
4.7732474841
 30
0.0
 10
4.5632451395
 20
4.774597386
 30
0.0
 10
4.6462354586
 20
4.7759481087
 30
0.0
 10
4.7326734435
 20
4.7772994585
 30
0.0
 10
4.8217266602
 20
4.7786512237
 30
0.0
 10
4.912537485
 20
4.7800032537
 30
0.0
 10
4.973568327
 20
4.7809032359
 30
0.0
 10
5.0042313665
 20
4.7813554074
 30
0.0
  0
SPLINE
  5
291
100
AcDbEntity
  8
0
100
AcDbSpline
 62
7
  6
CONTINUOUS
 70
0
 71
3
 72
49
 73
45
 74
0
 42
0.0000001
 43
0.0000001
 44
0.0000000001
 40
0.0
 40
0.0
 40
0.0
 40
0.0
 40
0.0000923623
 40
0.0001989697
 40
0.0003294743
 40
0.0004892464
 40
0.000681209
 40
0.0009070329
 40
0.0011677337
 40
0.0014639643
 40
0.0021645737
 40
0.0030111482
 40
0.0040048514
 40
0.0051463611
 40
0.0064360609
 40
0.0078740586
 40
0.0094603339
 40
0.0111948013
 40
0.0151077394
 40
0.0196115427
 40
0.0247043238
 40
0.0303830852
 40
0.0366444906
 40
0.0434851366
 40
0.0509013435
 40
0.058888475
 40
0.076555916
 40
0.0964463824
 40
0.1185114626
 40
0.1426991492
 40
0.1689505464
 40
0.1972033984
 40
0.2273889858
 40
0.2594354627
 40
0.2932649857
 40
0.3287968357
 40
0.3659448157
 40
0.4447290373
 40
0.5288593221
 40
0.6175257771
 40
0.7098747752
 40
0.8050171924
 40
0.9020369809
 40
1.0
 40
1.0
 40
1.0
 40
1.0
 10
4.0657313665
 20
4.6726597552
 30
0.0
 10
4.0657313665
 20
4.6726886684
 30
0.0
 10
4.0657455622
 20
4.6727513519
 30
0.0
 10
4.0658036502
 20
4.6728383175
 30
0.0
 10
4.0658954847
 20
4.6729230577
 30
0.0
 10
4.0660213482
 20
4.6730071349
 30
0.0
 10
4.0661816903
 20
4.673091171
 30
0.0
 10
4.0663768695
 20
4.6731753039
 30
0.0
 10
4.0666070594
 20
4.6732595738
 30
0.0
 10
4.0669823159
 20
4.6733788399
 30
0.0
 10
4.0675410046
 20
4.6735246631
 30
0.0
 10
4.0683186938
 20
4.6736922104
 30
0.0
 10
4.0692369863
 20
4.673860259
 30
0.0
 10
4.0702958718
 20
4.6740287311
 30
0.0
 10
4.0714953318
 20
4.6741974677
 30
0.0
 10
4.0728352067
 20
4.6743664107
 30
0.0
 10
4.0743152829
 20
4.6745355179
 30
0.0
 10
4.0765674976
 20
4.674770714
 30
0.0
 10
4.0797320641
 20
4.6750610493
 30
0.0
 10
4.0839477212
 20
4.6753978475
 30
0.0
 10
4.0887176612
 20
4.6757351811
 30
0.0
 10
4.0940389847
 20
4.6760729873
 30
0.0
 10
4.0999084319
 20
4.676411123
 30
0.0
 10
4.1063225748
 20
4.6767495061
 30
0.0
 10
4.1132776189
 20
4.6770880766
 30
0.0
 10
4.1236195607
 20
4.6775555906
 30
0.0
 10
4.1378653137
 20
4.6781343878
 30
0.0
 10
4.1565175636
 20
4.6788088767
 30
0.0
 10
4.1772120795
 20
4.6794842435
 30
0.0
 10
4.1998987597
 20
4.6801602486
 30
0.0
 10
4.2245232337
 20
4.6808367823
 30
0.0
 10
4.2510259371
 20
4.6815136663
 30
0.0
 10
4.2793432766
 20
4.6821908813
 30
0.0
 10
4.3094068018
 20
4.6828683094
 30
0.0
 10
4.3411443186
 20
4.683545954
 30
0.0
 10
4.3744791538
 20
4.6842237471
 30
0.0
 10
4.4218845449
 20
4.6851458149
 30
0.0
 10
4.4845017173
 20
4.6862909624
 30
0.0
 10
4.5632451395
 20
4.6876408643
 30
0.0
 10
4.6462354586
 20
4.6889915869
 30
0.0
 10
4.7326734435
 20
4.6903429367
 30
0.0
 10
4.8217266602
 20
4.6916947019
 30
0.0
 10
4.912537485
 20
4.6930467319
 30
0.0
 10
4.973568327
 20
4.6939467141
 30
0.0
 10
5.0042313665
 20
4.6943988857
 30
0.0
  0
SPLINE
  5
292
100
AcDbEntity
  8
0
100
AcDbSpline
 62
7
  6
CONTINUOUS
 70
0
 71
3
 72
22
 73
18
 74
0
 42
0.0000001
 43
0.0000001
 44
0.0000000001
 40
0.0
 40
0.0
 40
0.0
 40
0.0
 40
0.214022258
 40
0.4028913782
 40
0.5663843915
 40
0.6385500724
 40
0.7043080803
 40
0.7636508785
 40
0.8165728879
 40
0.8630715756
 40
0.9031494183
 40
0.9368186429
 40
0.9641139367
 40
0.9753939775
 40
0.9851146936
 40
0.9933019912
 40
1.0
 40
1.0
 40
1.0
 40
1.0
 10
4.1029957425
 20
4.7756306174
 30
0.0
 10
4.1003455909
 20
4.7754905399
 30
0.0
 10
4.0953574382
 20
4.7752133423
 30
0.0
 10
4.0883481261
 20
4.774772425
 30
0.0
 10
4.0830976598
 20
4.7743920373
 30
0.0
 10
4.079372848
 20
4.7740835598
 30
0.0
 10
4.0769367786
 20
4.7738621204
 30
0.0
 10
4.0747403839
 20
4.7736409378
 30
0.0
 10
4.0727840999
 20
4.7734200851
 30
0.0
 10
4.0710683565
 20
4.7731996686
 30
0.0
 10
4.0695934376
 20
4.7729799807
 30
0.0
 10
4.0683596349
 20
4.7727611153
 30
0.0
 10
4.0674839238
 20
4.7725700707
 30
0.0
 10
4.0669059219
 20
4.7724128966
 30
0.0
 10
4.0665609434
 20
4.7723028689
 30
0.0
 10
4.06627604
 20
4.772193199
 30
0.0
 10
4.0661095387
 20
4.7721125114
 30
0.0
 10
4.0660376124
 20
4.7720709823
 30
0.0
  0
SPLINE
  5
293
100
AcDbEntity
  8
0
100
AcDbSpline
 62
7
  6
CONTINUOUS
 70
0
 71
3
 72
30
 73
26
 74
0
 42
0.0000001
 43
0.0000001
 44
0.0000000001
 40
0.0
 40
0.0
 40
0.0
 40
0.0
 40
0.2196158669
 40
0.3200843107
 40
0.4141016772
 40
0.5015374889
 40
0.5822651597
 40
0.6561677628
 40
0.7231315835
 40
0.7830576169
 40
0.8358608198
 40
0.8814624711
 40
0.9015438307
 40
0.9198031613
 40
0.9362340521
 40
0.9508312708
 40
0.9635925422
 40
0.97451718
 40
0.983606592
 40
0.9874648066
 40
0.9908669787
 40
0.9938155617
 40
0.9963148215
 40
0.9983719335
 40
1.0
 40
1.0
 40
1.0
 40
1.0
 10
5.7547354184
 20
4.1854858422
 30
0.0
 10
5.7684951861
 20
4.1858237855
 30
0.0
 10
5.7885491329
 20
4.1863397469
 30
0.0
 10
5.8144916474
 20
4.1870730949
 30
0.0
 10
5.8321523952
 20
4.1876064381
 30
0.0
 10
5.8485753427
 20
4.1881394653
 30
0.0
 10
5.8637369404
 20
4.1886721968
 30
0.0
 10
5.8776146636
 20
4.1892044715
 30
0.0
 10
5.8901876668
 20
4.1897361958
 30
0.0
 10
5.9014370529
 20
4.1902671078
 30
0.0
 10
5.9113459904
 20
4.1907969612
 30
0.0
 10
5.9187578816
 20
4.191254333
 30
0.0
 10
5.9240057047
 20
4.191625414
 30
0.0
 10
5.9274280881
 20
4.1918915538
 30
0.0
 10
5.930505655
 20
4.1921573552
 30
0.0
 10
5.9332372513
 20
4.1924227634
 30
0.0
 10
5.9356220162
 20
4.19268751
 30
0.0
 10
5.9376592233
 20
4.1929514622
 30
0.0
 10
5.9391379709
 20
4.1931808702
 30
0.0
 10
5.9401454275
 20
4.1933684053
 30
0.0
 10
5.9407714432
 20
4.193501039
 30
0.0
 10
5.9413101956
 20
4.1936333448
 30
0.0
 10
5.9417619468
 20
4.1937652118
 30
0.0
 10
5.942126856
 20
4.1938964705
 30
0.0
 10
5.9423368318
 20
4.1939944433
 30
0.0
 10
5.9424251873
 20
4.1940454776
 30
0.0
  0
SPLINE
  5
294
100
AcDbEntity
  8
0
100
AcDbSpline
 62
7
  6
CONTINUOUS
 70
0
 71
3
 72
17
 73
13
 74
0
 42
0.0000001
 43
0.0000001
 44
0.0000000001
 40
0.0
 40
0.0
 40
0.0
 40
0.0
 40
0.2871329589
 40
0.4258834446
 40
0.4932313559
 40
0.5589255846
 40
0.6844769367
 40
0.8008555637
 40
0.8551117499
 40
0.9065003404
 40
0.9548544345
 40
1.0
 40
1.0
 40
1.0
 40
1.0
 10
5.0042313665
 20
4.1726597552
 30
0.0
 10
5.0760657569
 20
4.1737190588
 30
0.0
 10
5.1826125023
 20
4.1752894826
 30
0.0
 10
5.3060070908
 20
4.1771837574
 30
0.0
 10
5.3740025234
 20
4.1782612142
 30
0.0
 10
5.4386954631
 20
4.17931212
 30
0.0
 10
5.5156536544
 20
4.1806159091
 30
0.0
 10
5.5897487163
 20
4.1819679257
 30
0.0
 10
5.6452894464
 20
4.1830592431
 30
0.0
 10
5.683812511
 20
4.183858244
 30
0.0
 10
5.7200555376
 20
4.1846568988
 30
0.0
 10
5.743443162
 20
4.1852085016
 30
0.0
 10
5.7547354184
 20
4.1854858422
 30
0.0
  0
SPLINE
  5
295
100
AcDbEntity
  8
0
100
AcDbSpline
 62
7
  6
CONTINUOUS
 70
0
 71
3
 72
48
 73
44
 74
0
 42
0.0000001
 43
0.0000001
 44
0.0000000001
 40
0.0
 40
0.0
 40
0.0
 40
0.0
 40
0.0000963098
 40
0.0002056118
 40
0.0003370937
 40
0.0004961377
 40
0.0006857882
 40
0.000907829
 40
0.001163362
 40
0.0014531037
 40
0.0021369399
 40
0.0029618879
 40
0.0039292627
 40
0.0050398415
 40
0.0062941053
 40
0.0076922957
 40
0.0092344563
 40
0.0109205517
 40
0.014724144
 40
0.0191020613
 40
0.02405292
 40
0.0295746374
 40
0.0356643148
 40
0.0423189276
 40
0.0573103365
 40
0.0745186447
 40
0.0939086159
 40
0.115440768
 40
0.1390701874
 40
0.1647487319
 40
0.1924224843
 40
0.2220349924
 40
0.2535240273
 40
0.2868251413
 40
0.3218685334
 40
0.3585821416
 40
0.4367109287
 40
0.5205634229
 40
0.6094439832
 40
0.702615085
 40
0.7993036939
 40
0.8987076169
 40
1.0
 40
1.0
 40
1.0
 40
1.0
 10
4.0657313665
 20
4.2378771465
 30
0.0
 10
4.0657313665
 20
4.2379039103
 30
0.0
 10
4.0657433232
 20
4.2379614124
 30
0.0
 10
4.0657930771
 20
4.2380422349
 30
0.0
 10
4.0658722548
 20
4.2381211313
 30
0.0
 10
4.0659808235
 20
4.2381993502
 30
0.0
 10
4.0661191113
 20
4.2382774645
 30
0.0
 10
4.0662874025
 20
4.2383556283
 30
0.0
 10
4.0664858512
 20
4.2384338955
 30
0.0
 10
4.0668090822
 20
4.2385445623
 30
0.0
 10
4.0672905422
 20
4.2386799506
 30
0.0
 10
4.0679609645
 20
4.238835533
 30
0.0
 10
4.0687525489
 20
4.2389915649
 30
0.0
 10
4.0696653098
 20
4.239147979
 30
0.0
 10
4.0706992802
 20
4.2393046367
 30
0.0
 10
4.0718543687
 20
4.239461477
 30
0.0
 10
4.07313043
 20
4.2396184685
 30
0.0
 10
4.0750723194
 20
4.2398368073
 30
0.0
 10
4.077801293
 20
4.2401063413
 30
0.0
 10
4.0814373234
 20
4.2404190148
 30
0.0
 10
4.0855523166
 20
4.2407321961
 30
0.0
 10
4.090144181
 20
4.241045788
 30
0.0
 10
4.0952104773
 20
4.2413597062
 30
0.0
 10
4.1029056802
 20
4.24179611
 30
0.0
 10
4.11368968
 20
4.2423346696
 30
0.0
 10
4.1280124903
 20
4.2429597363
 30
0.0
 10
4.1441544069
 20
4.2435858781
 30
0.0
 10
4.1620818616
 20
4.2442128727
 30
0.0
 10
4.1817578084
 20
4.2448404949
 30
0.0
 10
4.2031412383
 20
4.2454685516
 30
0.0
 10
4.2261879734
 20
4.2460969954
 30
0.0
 10
4.2508499508
 20
4.2467256877
 30
0.0
 10
4.2770761983
 20
4.247354634
 30
0.0
 10
4.3048120521
 20
4.2479837332
 30
0.0
 10
4.3340001247
 20
4.2486130137
 30
0.0
 10
4.3756434308
 20
4.2494700567
 30
0.0
 10
4.4308489884
 20
4.2505345868
 30
0.0
 10
4.5005503257
 20
4.251788164
 30
0.0
 10
4.574432428
 20
4.2530425421
 30
0.0
 10
4.6518820649
 20
4.2542975481
 30
0.0
 10
4.7322564248
 20
4.2555529967
 30
0.0
 10
4.8148878883
 20
4.2568087537
 30
0.0
 10
4.8706536609
 20
4.2576405441
 30
0.0
 10
4.8987989436
 20
4.258058232
 30
0.0
  0
SPLINE
  5
296
100
AcDbEntity
  8
0
100
AcDbSpline
 62
7
  6
CONTINUOUS
 70
0
 71
3
 72
60
 73
56
 74
0
 42
0.0000001
 43
0.0000001
 44
0.0000000001
 40
0.0
 40
0.0
 40
0.0
 40
0.0
 40
0.000042529
 40
0.0000889848
 40
0.0001424316
 40
0.0002049125
 40
0.0002777136
 40
0.0003616474
 40
0.0005647827
 40
0.0008169528
 40
0.001119427
 40
0.0014729293
 40
0.0018778869
 40
0.0023345443
 40
0.0028430517
 40
0.0034035009
 40
0.0040159449
 40
0.00539689
 40
0.0069859224
 40
0.0087828753
 40
0.0107872874
 40
0.0129984367
 40
0.0154155512
 40
0.0208644411
 40
0.027126567
 40
0.0341922561
 40
0.0420513145
 40
0.0506918933
 40
0.0601007086
 40
0.0702639703
 40
0.081165887
 40
0.0927900618
 40
0.1051190031
 40
0.1181336277
 40
0.131814531
 40
0.1610902768
 40
0.1927683343
 40
0.226655912
 40
0.2625467281
 40
0.3002224043
 40
0.3394537337
 40
0.3800019266
 40
0.4216201075
 40
0.4640549696
 40
0.5070482565
 40
0.5503382584
 40
0.6367540938
 40
0.7212016682
 40
0.8016279172
 40
0.8397169936
 40
0.8760778833
 40
0.9104894284
 40
0.9427412055
 40
0.9726404541
 40
1.0
 40
1.0
 40
1.0
 40
1.0
 10
4.1117315767
 20
4.1243625125
 30
0.0
 10
4.1117315849
 20
4.1243852936
 30
0.0
 10
4.1117395133
 20
4.1244332135
 30
0.0
 10
4.1117735926
 20
4.1245023746
 30
0.0
 10
4.1118287112
 20
4.1245703458
 30
0.0
 10
4.111904526
 20
4.1246376939
 30
0.0
 10
4.112001101
 20
4.124704847
 30
0.0
 10
4.1121686937
 20
4.1248004735
 30
0.0
 10
4.1124337787
 20
4.1249168445
 30
0.0
 10
4.1128175469
 20
4.1250497048
 30
0.0
 10
4.1132855948
 20
4.1251830216
 30
0.0
 10
4.1138380435
 20
4.1253167396
 30
0.0
 10
4.1144750763
 20
4.1254507217
 30
0.0
 10
4.1151966788
 20
4.1255849099
 30
0.0
 10
4.1160028137
 20
4.1257192458
 30
0.0
 10
4.1168934112
 20
4.1258537048
 30
0.0
 10
4.1182485972
 20
4.1260406689
 30
0.0
 10
4.1201537531
 20
4.1262715094
 30
0.0
 10
4.1226932004
 20
4.126539306
 30
0.0
 10
4.125568201
 20
4.1268075264
 30
0.0
 10
4.1287776934
 20
4.1270760957
 30
0.0
 10
4.1323204052
 20
4.1273449399
 30
0.0
 10
4.1377054169
 20
4.127718767
 30
0.0
 10
4.1452593577
 20
4.1281801556
 30
0.0
 10
4.1553031233
 20
4.1287154836
 30
0.0
 10
4.1666394908
 20
4.1292517722
 30
0.0
 10
4.1792511347
 20
4.1297887781
 30
0.0
 10
4.1931189068
 20
4.1303262942
 30
0.0
 10
4.2082217803
 20
4.1308642357
 30
0.0
 10
4.2245366627
 20
4.1314024474
 30
0.0
 10
4.2420388178
 20
4.1319409225
 30
0.0
 10
4.2607015506
 20
4.1324795882
 30
0.0
 10
4.2804964179
 20
4.133018393
 30
0.0
 10
4.3013933763
 20
4.1335573595
 30
0.0
 10
4.3313660114
 20
4.1342928061
 30
0.0
 10
4.3713345301
 20
4.1352064333
 30
0.0
 10
4.4221260583
 20
4.1362805215
 30
0.0
 10
4.4764617465
 20
4.1373553324
 30
0.0
 10
4.534010705
 20
4.1384307294
 30
0.0
 10
4.5944225705
 20
4.1395065604
 30
0.0
 10
4.6573295849
 20
4.140582724
 30
0.0
 10
4.7223487401
 20
4.1416591398
 30
0.0
 10
4.7890841291
 20
4.1427357454
 30
0.0
 10
4.8571294248
 20
4.1438124865
 30
0.0
 10
4.9260703593
 20
4.1448893119
 30
0.0
 10
5.0185674825
 20
4.146324242
 30
0.0
 10
5.1332674289
 20
4.1481014925
 30
0.0
 10
5.2678566997
 20
4.1502344979
 30
0.0
 10
5.3765611056
 20
4.1520407891
 30
0.0
 10
5.4595094536
 20
4.1535019265
 30
0.0
 10
5.5178124507
 20
4.1545774607
 30
0.0
 10
5.5729880841
 20
4.1556524405
 30
0.0
 10
5.6247017868
 20
4.1567267084
 30
0.0
 10
5.672637151
 20
4.1578000673
 30
0.0
 10
5.7032993568
 20
4.1585493629
 30
0.0
 10
5.7179499242
 20
4.1589277298
 30
0.0
  0
SPLINE
  5
297
100
AcDbEntity
  8
0
100
AcDbSpline
 62
7
  6
CONTINUOUS
 70
0
 71
3
 72
49
 73
45
 74
0
 42
0.0000001
 43
0.0000001
 44
0.0000000001
 40
0.0
 40
0.0
 40
0.0
 40
0.0
 40
0.0000923623
 40
0.0001989697
 40
0.0003294743
 40
0.0004892464
 40
0.000681209
 40
0.0009070329
 40
0.0011677337
 40
0.0014639643
 40
0.0021645737
 40
0.0030111482
 40
0.0040048514
 40
0.0051463611
 40
0.0064360609
 40
0.0078740586
 40
0.0094603339
 40
0.0111948013
 40
0.0151077394
 40
0.0196115427
 40
0.0247043238
 40
0.0303830852
 40
0.0366444906
 40
0.0434851366
 40
0.0509013435
 40
0.058888475
 40
0.076555916
 40
0.0964463824
 40
0.1185114626
 40
0.1426991492
 40
0.1689505464
 40
0.1972033984
 40
0.2273889858
 40
0.2594354627
 40
0.2932649857
 40
0.3287968357
 40
0.3659448157
 40
0.4447290373
 40
0.5288593221
 40
0.6175257771
 40
0.7098747752
 40
0.8050171924
 40
0.9020369809
 40
1.0
 40
1.0
 40
1.0
 40
1.0
 10
4.0657313665
 20
4.1509206248
 30
0.0
 10
4.0657313665
 20
4.1509495379
 30
0.0
 10
4.0657455622
 20
4.1510122215
 30
0.0
 10
4.0658036502
 20
4.1510991871
 30
0.0
 10
4.0658954847
 20
4.1511839272
 30
0.0
 10
4.0660213482
 20
4.1512680045
 30
0.0
 10
4.0661816903
 20
4.1513520406
 30
0.0
 10
4.0663768695
 20
4.1514361734
 30
0.0
 10
4.0666070594
 20
4.1515204434
 30
0.0
 10
4.0669823159
 20
4.1516397094
 30
0.0
 10
4.0675410046
 20
4.1517855327
 30
0.0
 10
4.0683186938
 20
4.15195308
 30
0.0
 10
4.0692369863
 20
4.1521211286
 30
0.0
 10
4.0702958718
 20
4.1522896007
 30
0.0
 10
4.0714953318
 20
4.1524583372
 30
0.0
 10
4.0728352067
 20
4.1526272802
 30
0.0
 10
4.0743152829
 20
4.1527963875
 30
0.0
 10
4.0765674976
 20
4.1530315836
 30
0.0
 10
4.0797320641
 20
4.1533219189
 30
0.0
 10
4.0839477212
 20
4.153658717
 30
0.0
 10
4.0887176612
 20
4.1539960507
 30
0.0
 10
4.0940389847
 20
4.1543338569
 30
0.0
 10
4.0999084319
 20
4.1546719926
 30
0.0
 10
4.1063225748
 20
4.1550103756
 30
0.0
 10
4.1132776189
 20
4.1553489462
 30
0.0
 10
4.1236195607
 20
4.1558164602
 30
0.0
 10
4.1378653137
 20
4.1563952574
 30
0.0
 10
4.1565175636
 20
4.1570697463
 30
0.0
 10
4.1772120795
 20
4.1577451131
 30
0.0
 10
4.1998987597
 20
4.1584211181
 30
0.0
 10
4.2245232337
 20
4.1590976518
 30
0.0
 10
4.2510259371
 20
4.1597745358
 30
0.0
 10
4.2793432766
 20
4.1604517508
 30
0.0
 10
4.3094068018
 20
4.1611291789
 30
0.0
 10
4.3411443186
 20
4.1618068236
 30
0.0
 10
4.3744791538
 20
4.1624846167
 30
0.0
 10
4.4218845449
 20
4.1634066845
 30
0.0
 10
4.4845017173
 20
4.1645518319
 30
0.0
 10
4.5632451395
 20
4.1659017338
 30
0.0
 10
4.6462354586
 20
4.1672524565
 30
0.0
 10
4.7326734435
 20
4.1686038063
 30
0.0
 10
4.8217266602
 20
4.1699555715
 30
0.0
 10
4.912537485
 20
4.1713076015
 30
0.0
 10
4.973568327
 20
4.1722075837
 30
0.0
 10
5.0042313665
 20
4.1726597552
 30
0.0
  0
SPLINE
  5
298
100
AcDbEntity
  8
0
100
AcDbSpline
 62
7
  6
CONTINUOUS
 70
0
 71
3
 72
17
 73
13
 74
0
 42
0.0000001
 43
0.0000001
 44
0.0000000001
 40
0.0
 40
0.0
 40
0.0
 40
0.0
 40
0.0451455218
 40
0.0934995734
 40
0.1448881762
 40
0.1991443278
 40
0.3155228875
 40
0.4410742216
 40
0.506768401
 40
0.5741163599
 40
0.7128672013
 40
1.0
 40
1.0
 40
1.0
 40
1.0
 10
5.7547354184
 20
4.1106306174
 30
0.0
 10
5.7434431729
 20
4.1103532771
 30
0.0
 10
5.7200555701
 20
4.1098016746
 30
0.0
 10
5.683812562
 20
4.1090030205
 30
0.0
 10
5.6452895136
 20
4.1082040197
 30
0.0
 10
5.5897488059
 20
4.1071127025
 30
0.0
 10
5.515653774
 20
4.1057606865
 30
0.0
 10
5.4386956164
 20
4.1044568978
 30
0.0
 10
5.3740026816
 20
4.1034059919
 30
0.0
 10
5.3060071604
 20
4.1023285338
 30
0.0
 10
5.1826125111
 20
4.1004342579
 30
0.0
 10
5.0760657168
 20
4.0988638334
 30
0.0
 10
5.0042313665
 20
4.0978045305
 30
0.0
  0
SPLINE
  5
299
100
AcDbEntity
  8
0
100
AcDbSpline
 62
7
  6
CONTINUOUS
 70
0
 71
3
 72
49
 73
45
 74
0
 42
0.0000001
 43
0.0000001
 44
0.0000000001
 40
0.0
 40
0.0
 40
0.0
 40
0.0
 40
0.0000923623
 40
0.0001989697
 40
0.0003294743
 40
0.0004892464
 40
0.000681209
 40
0.0009070329
 40
0.0011677337
 40
0.0014639643
 40
0.0021645737
 40
0.0030111482
 40
0.0040048514
 40
0.0051463611
 40
0.0064360609
 40
0.0078740586
 40
0.0094603339
 40
0.0111948013
 40
0.0151077394
 40
0.0196115427
 40
0.0247043238
 40
0.0303830852
 40
0.0366444906
 40
0.0434851366
 40
0.0509013435
 40
0.058888475
 40
0.076555916
 40
0.0964463824
 40
0.1185114626
 40
0.1426991492
 40
0.1689505464
 40
0.1972033984
 40
0.2273889858
 40
0.2594354627
 40
0.2932649857
 40
0.3287968357
 40
0.3659448157
 40
0.4447290373
 40
0.5288593221
 40
0.6175257771
 40
0.7098747752
 40
0.8050171924
 40
0.9020369809
 40
1.0
 40
1.0
 40
1.0
 40
1.0
 10
4.0657313665
 20
4.0639641031
 30
0.0
 10
4.0657313665
 20
4.0639930162
 30
0.0
 10
4.0657455622
 20
4.0640556998
 30
0.0
 10
4.0658036502
 20
4.0641426654
 30
0.0
 10
4.0658954847
 20
4.0642274055
 30
0.0
 10
4.0660213482
 20
4.0643114828
 30
0.0
 10
4.0661816903
 20
4.0643955188
 30
0.0
 10
4.0663768695
 20
4.0644796517
 30
0.0
 10
4.0666070594
 20
4.0645639217
 30
0.0
 10
4.0669823159
 20
4.0646831877
 30
0.0
 10
4.0675410046
 20
4.0648290109
 30
0.0
 10
4.0683186938
 20
4.0649965583
 30
0.0
 10
4.0692369863
 20
4.0651646069
 30
0.0
 10
4.0702958718
 20
4.0653330789
 30
0.0
 10
4.0714953318
 20
4.0655018155
 30
0.0
 10
4.0728352067
 20
4.0656707585
 30
0.0
 10
4.0743152829
 20
4.0658398658
 30
0.0
 10
4.0765674976
 20
4.0660750618
 30
0.0
 10
4.0797320641
 20
4.0663653972
 30
0.0
 10
4.0839477212
 20
4.0667021953
 30
0.0
 10
4.0887176612
 20
4.067039529
 30
0.0
 10
4.0940389847
 20
4.0673773351
 30
0.0
 10
4.0999084319
 20
4.0677154708
 30
0.0
 10
4.1063225748
 20
4.0680538539
 30
0.0
 10
4.1132776189
 20
4.0683924244
 30
0.0
 10
4.1236195607
 20
4.0688599384
 30
0.0
 10
4.1378653137
 20
4.0694387357
 30
0.0
 10
4.1565175636
 20
4.0701132245
 30
0.0
 10
4.1772120795
 20
4.0707885913
 30
0.0
 10
4.1998987597
 20
4.0714645964
 30
0.0
 10
4.2245232337
 20
4.0721411301
 30
0.0
 10
4.2510259371
 20
4.0728180141
 30
0.0
 10
4.2793432766
 20
4.0734952291
 30
0.0
 10
4.3094068018
 20
4.0741726572
 30
0.0
 10
4.3411443186
 20
4.0748503019
 30
0.0
 10
4.3744791538
 20
4.0755280949
 30
0.0
 10
4.4218845449
 20
4.0764501628
 30
0.0
 10
4.4845017173
 20
4.0775953102
 30
0.0
 10
4.5632451395
 20
4.0789452121
 30
0.0
 10
4.6462354586
 20
4.0802959348
 30
0.0
 10
4.7326734435
 20
4.0816472846
 30
0.0
 10
4.8217266602
 20
4.0829990498
 30
0.0
 10
4.912537485
 20
4.0843510798
 30
0.0
 10
4.973568327
 20
4.085251062
 30
0.0
 10
5.0042313665
 20
4.0857032335
 30
0.0
  0
SPLINE
  5
29A
100
AcDbEntity
  8
0
100
AcDbSpline
 62
7
  6
CONTINUOUS
 70
0
 71
3
 72
83
 73
79
 74
0
 42
0.0000001
 43
0.0000001
 44
0.0000000001
 40
0.0
 40
0.0
 40
0.0
 40
0.0
 40
0.0000480467
 40
0.0001027522
 40
0.0001687855
 40
0.000248857
 40
0.0003444904
 40
0.0004565755
 40
0.0005856619
 40
0.0007321075
 40
0.0010779433
 40
0.0014953612
 40
0.0019849717
 40
0.0025470962
 40
0.0031819105
 40
0.0038895045
 40
0.0046699141
 40
0.0055231398
 40
0.007447911
 40
0.009663234
 40
0.01216791
 40
0.0149606006
 40
0.0180399108
 40
0.0214042567
 40
0.0289796484
 40
0.0376693237
 40
0.0474530796
 40
0.0583078377
 40
0.0702082304
 40
0.0831259666
 40
0.0970308208
 40
0.1118896328
 40
0.1276676107
 40
0.1443270891
 40
0.1618290227
 40
0.1801316391
 40
0.218964609
 40
0.2604585985
 40
0.3042209714
 40
0.3498375911
 40
0.3968767496
 40
0.4448932608
 40
0.4934326794
 40
0.5420356064
 40
0.5902420417
 40
0.6375957415
 40
0.6836485416
 40
0.7279646033
 40
0.7701245456
 40
0.8097294227
 40
0.8464045124
 40
0.86353388
 40
0.8798028879
 40
0.8951733849
 40
0.9096087198
 40
0.9230750535
 40
0.9355403371
 40
0.9469753529
 40
0.9573530091
 40
0.9666490025
 40
0.9748415392
 40
0.9785178927
 40
0.9819115734
 40
0.9850205903
 40
0.9878430327
 40
0.990377466
 40
0.9926227191
 40
0.9945777083
 40
0.9962415242
 40
0.9969641467
 40
0.9976139585
 40
0.9981910583
 40
0.9986956225
 40
0.9991279571
 40
0.9994886005
 40
0.9997785516
 40
0.9998976379
 40
1.0
 40
1.0
 40
1.0
 40
1.0
 10
4.1117315857
 20
4.0374059908
 30
0.0
 10
4.1117315946
 20
4.0374345911
 30
0.0
 10
4.1117446258
 20
4.0374961424
 30
0.0
 10
4.1117986338
 20
4.0375824475
 30
0.0
 10
4.1118844655
 20
4.0376666631
 30
0.0
 10
4.1120021458
 20
4.0377501664
 30
0.0
 10
4.1121520513
 20
4.037833571
 30
0.0
 10
4.1123345023
 20
4.0379170367
 30
0.0
 10
4.1125496721
 20
4.0380006179
 30
0.0
 10
4.1129002511
 20
4.0381188276
 30
0.0
 10
4.1134224676
 20
4.0382634229
 30
0.0
 10
4.1141496509
 20
4.0384295628
 30
0.0
 10
4.1150082904
 20
4.0385961886
 30
0.0
 10
4.1159983061
 20
4.0387632284
 30
0.0
 10
4.1171196429
 20
4.0389305356
 30
0.0
 10
4.1183721608
 20
4.0390980438
 30
0.0
 10
4.1197557105
 20
4.0392657123
 30
0.0
 10
4.1218610467
 20
4.0394989012
 30
0.0
 10
4.1248195309
 20
4.0397867554
 30
0.0
 10
4.128760854
 20
4.0401206529
 30
0.0
 10
4.1332203982
 20
4.0404551224
 30
0.0
 10
4.1381954848
 20
4.0407900519
 30
0.0
 10
4.1436833209
 20
4.0411253188
 30
0.0
 10
4.1520153254
 20
4.0415912814
 30
0.0
 10
4.1636859131
 20
4.0421663806
 30
0.0
 10
4.1791774542
 20
4.0428339129
 30
0.0
 10
4.1966226293
 20
4.0435025807
 30
0.0
 10
4.2159802326
 20
4.0441721932
 30
0.0
 10
4.2372043624
 20
4.0448424282
 30
0.0
 10
4.2602449074
 20
4.0455131814
 30
0.0
 10
4.2850471634
 20
4.0461842889
 30
0.0
 10
4.3115525816
 20
4.0468557198
 30
0.0
 10
4.3396982083
 20
4.0475273643
 30
0.0
 10
4.3694176001
 20
4.0481992234
 30
0.0
 10
4.400640172
 20
4.0488712286
 30
0.0
 10
4.4450595835
 20
4.0497855584
 30
0.0
 10
4.5037589776
 20
4.0509211093
 30
0.0
 10
4.5776124211
 20
4.0522595314
 30
0.0
 10
4.6555045186
 20
4.0535987721
 30
0.0
 10
4.7366978932
 20
4.0549386412
 30
0.0
 10
4.8204239164
 20
4.0562789309
 30
0.0
 10
4.9058899809
 20
4.0576194918
 30
0.0
 10
4.9922870064
 20
4.0589601905
 30
0.0
 10
5.0787970996
 20
4.0603009058
 30
0.0
 10
5.1646012972
 20
4.061641517
 30
0.0
 10
5.2488873196
 20
4.0629818966
 30
0.0
 10
5.3308572611
 20
4.0643218959
 30
0.0
 10
5.4097351436
 20
4.0656613426
 30
0.0
 10
5.4847742666
 20
4.0669999835
 30
0.0
 10
5.5552642703
 20
4.0683375816
 30
0.0
 10
5.6108556091
 20
4.0694752809
 30
0.0
 10
5.6525575487
 20
4.0703921981
 30
0.0
 10
5.6815799971
 20
4.0710639885
 30
0.0
 10
5.7089983459
 20
4.0717355306
 30
0.0
 10
5.7347478481
 20
4.072406835
 30
0.0
 10
5.7587673734
 20
4.0730777872
 30
0.0
 10
5.7810001908
 20
4.0737483301
 30
0.0
 10
5.8013935526
 20
4.0744183092
 30
0.0
 10
5.8198992799
 20
4.0750875219
 30
0.0
 10
5.8364735241
 20
4.0757557839
 30
0.0
 10
5.8490591511
 20
4.0763301679
 30
0.0
 10
5.8581325033
 20
4.0767947311
 30
0.0
 10
5.8641824219
 20
4.0771302516
 30
0.0
 10
5.8697232096
 20
4.0774655085
 30
0.0
 10
5.8747515204
 20
4.077800471
 30
0.0
 10
5.8792644384
 20
4.078135025
 30
0.0
 10
5.8832594791
 20
4.0784689454
 30
0.0
 10
5.8867342853
 20
4.0788020875
 30
0.0
 10
5.8893026271
 20
4.0790904691
 30
0.0
 10
5.8910947524
 20
4.0793250448
 30
0.0
 10
5.8922431507
 20
4.0794924166
 30
0.0
 10
5.8932602715
 20
4.0796595117
 30
0.0
 10
5.8941460283
 20
4.0798262656
 30
0.0
 10
5.8949005145
 20
4.0799924562
 30
0.0
 10
5.8955237044
 20
4.0801580021
 30
0.0
 10
5.8959590401
 20
4.0803028349
 30
0.0
 10
5.896239277
 20
4.0804221185
 30
0.0
 10
5.8963568387
 20
4.0804821573
 30
0.0
 10
5.8964095996
 20
4.0805126372
 30
0.0
  0
SPLINE
  5
29B
100
AcDbEntity
  8
0
100
AcDbSpline
 62
7
  6
CONTINUOUS
 70
0
 71
3
 72
11
 73
7
 74
0
 42
0.0000001
 43
0.0000001
 44
0.0000000001
 40
0.0
 40
0.0
 40
0.0
 40
0.0
 40
0.2326505801
 40
0.4800755475
 40
0.7375073022
 40
1.0
 40
1.0
 40
1.0
 40
1.0
 10
4.50926139
 20
3.9910582281
 30
0.0
 10
4.5476452666
 20
3.9917244422
 30
0.0
 10
4.6268516227
 20
3.9930388048
 30
0.0
 10
4.7485328111
 20
3.9949401894
 30
0.0
 10
4.875138796
 20
3.9968430887
 30
0.0
 10
4.9609221714
 20
3.9981080541
 30
0.0
 10
5.0042313665
 20
3.9987467118
 30
0.0
  0
SPLINE
  5
29C
100
AcDbEntity
  8
0
100
AcDbSpline
 62
7
  6
CONTINUOUS
 70
0
 71
3
 72
42
 73
38
 74
0
 42
0.0000001
 43
0.0000001
 44
0.0000000001
 40
0.0
 40
0.0
 40
0.0
 40
0.0
 40
0.0964252444
 40
0.191952429
 40
0.2856905665
 40
0.3767668109
 40
0.464332282
 40
0.5475712142
 40
0.6257080753
 40
0.6980149969
 40
0.7317693597
 40
0.7638185405
 40
0.7940874342
 40
0.8225060273
 40
0.8490077465
 40
0.8735313713
 40
0.8960195243
 40
0.9164203816
 40
0.9346863815
 40
0.9507756874
 40
0.9579923833
 40
0.9646512426
 40
0.9707488456
 40
0.9762819565
 40
0.981247405
 40
0.9856424
 40
0.9894652035
 40
0.9927145273
 40
0.9941238886
 40
0.9953896606
 40
0.9965119503
 40
0.9974911258
 40
0.9983278298
 40
0.9990231543
 40
0.999579093
 40
0.9998060268
 40
1.0
 40
1.0
 40
1.0
 40
1.0
 10
5.0042313665
 20
4.0857032335
 30
0.0
 10
5.0343974322
 20
4.0861480764
 30
0.0
 10
5.0944486111
 20
4.0870336127
 30
0.0
 10
5.1838250288
 20
4.0883638776
 30
0.0
 10
5.2715276777
 20
4.0896939015
 30
0.0
 10
5.3567389943
 20
4.0910235374
 30
0.0
 10
5.4386649356
 20
4.0923526176
 30
0.0
 10
5.5165418865
 20
4.0936808885
 30
0.0
 10
5.5896440555
 20
4.0950081212
 30
0.0
 10
5.6472645888
 20
4.0961371513
 30
0.0
 10
5.6904667512
 20
4.0970471154
 30
0.0
 10
5.7205183272
 20
4.0977136642
 30
0.0
 10
5.7489000299
 20
4.098380003
 30
0.0
 10
5.7755455538
 20
4.0990460658
 30
0.0
 10
5.8003929188
 20
4.099711815
 30
0.0
 10
5.8233840779
 20
4.1003771193
 30
0.0
 10
5.844465563
 20
4.101041893
 30
0.0
 10
5.8635881433
 20
4.1017058733
 30
0.0
 10
5.8807073619
 20
4.1023689185
 30
0.0
 10
5.8937019264
 20
4.1029388918
 30
0.0
 10
5.9030659553
 20
4.103399885
 30
0.0
 10
5.9093062656
 20
4.1037327978
 30
0.0
 10
5.9150190219
 20
4.104065451
 30
0.0
 10
5.9202009887
 20
4.104397781
 30
0.0
 10
5.9248490685
 20
4.1047296858
 30
0.0
 10
5.9289605701
 20
4.1050609831
 30
0.0
 10
5.9325332148
 20
4.1053915091
 30
0.0
 10
5.935171607
 20
4.1056776678
 30
0.0
 10
5.9370106092
 20
4.1059104959
 30
0.0
 10
5.9381871292
 20
4.1060765342
 30
0.0
 10
5.9392276172
 20
4.1062422939
 30
0.0
 10
5.9401319946
 20
4.1064077021
 30
0.0
 10
5.940900418
 20
4.1065725172
 30
0.0
 10
5.9415329185
 20
4.1067366577
 30
0.0
 10
5.9419732126
 20
4.1068803638
 30
0.0
 10
5.9422550877
 20
4.1069989133
 30
0.0
 10
5.9423726959
 20
4.1070586098
 30
0.0
 10
5.9424252544
 20
4.1070889557
 30
0.0
  0
SPLINE
  5
29D
100
AcDbEntity
  8
0
100
AcDbSpline
 62
7
  6
CONTINUOUS
 70
0
 71
3
 72
42
 73
38
 74
0
 42
0.0000001
 43
0.0000001
 44
0.0000000001
 40
0.0
 40
0.0
 40
0.0
 40
0.0
 40
0.0964252444
 40
0.191952429
 40
0.2856905665
 40
0.3767668109
 40
0.464332282
 40
0.5475712142
 40
0.6257080753
 40
0.6980149969
 40
0.7317693597
 40
0.7638185405
 40
0.7940874342
 40
0.8225060273
 40
0.8490077465
 40
0.8735313713
 40
0.8960195243
 40
0.9164203816
 40
0.9346863815
 40
0.9507756874
 40
0.9579923833
 40
0.9646512426
 40
0.9707488456
 40
0.9762819565
 40
0.981247405
 40
0.9856424
 40
0.9894652035
 40
0.9927145273
 40
0.9941238886
 40
0.9953896606
 40
0.9965119503
 40
0.9974911258
 40
0.9983278298
 40
0.9990231543
 40
0.999579093
 40
0.9998060268
 40
1.0
 40
1.0
 40
1.0
 40
1.0
 10
5.0042313665
 20
3.9987467118
 30
0.0
 10
5.0343974322
 20
3.9991915547
 30
0.0
 10
5.0944486111
 20
4.000077091
 30
0.0
 10
5.1838250288
 20
4.0014073558
 30
0.0
 10
5.2715276777
 20
4.0027373798
 30
0.0
 10
5.3567389943
 20
4.0040670156
 30
0.0
 10
5.4386649356
 20
4.0053960959
 30
0.0
 10
5.5165418865
 20
4.0067243667
 30
0.0
 10
5.5896440555
 20
4.0080515995
 30
0.0
 10
5.6472645888
 20
4.0091806295
 30
0.0
 10
5.6904667512
 20
4.0100905936
 30
0.0
 10
5.7205183272
 20
4.0107571424
 30
0.0
 10
5.7489000299
 20
4.0114234813
 30
0.0
 10
5.7755455538
 20
4.0120895441
 30
0.0
 10
5.8003929188
 20
4.0127552933
 30
0.0
 10
5.8233840779
 20
4.0134205976
 30
0.0
 10
5.844465563
 20
4.0140853713
 30
0.0
 10
5.8635881433
 20
4.0147493516
 30
0.0
 10
5.8807073619
 20
4.0154123967
 30
0.0
 10
5.8937019264
 20
4.0159823701
 30
0.0
 10
5.9030659553
 20
4.0164433633
 30
0.0
 10
5.9093062656
 20
4.016776276
 30
0.0
 10
5.9150190219
 20
4.0171089293
 30
0.0
 10
5.9202009887
 20
4.0174412592
 30
0.0
 10
5.9248490685
 20
4.0177731641
 30
0.0
 10
5.9289605701
 20
4.0181044614
 30
0.0
 10
5.9325332148
 20
4.0184349874
 30
0.0
 10
5.935171607
 20
4.0187211461
 30
0.0
 10
5.9370106092
 20
4.0189539741
 30
0.0
 10
5.9381871292
 20
4.0191200124
 30
0.0
 10
5.9392276172
 20
4.0192857721
 30
0.0
 10
5.9401319946
 20
4.0194511804
 30
0.0
 10
5.940900418
 20
4.0196159955
 30
0.0
 10
5.9415329185
 20
4.019780136
 30
0.0
 10
5.9419732126
 20
4.019923842
 30
0.0
 10
5.9422550877
 20
4.0200423915
 30
0.0
 10
5.9423726959
 20
4.0201020881
 30
0.0
 10
5.9424252544
 20
4.020132434
 30
0.0
  0
SPLINE
  5
29E
100
AcDbEntity
  8
0
100
AcDbSpline
 62
7
  6
CONTINUOUS
 70
0
 71
3
 72
11
 73
7
 74
0
 42
0.0000001
 43
0.0000001
 44
0.0000000001
 40
0.0
 40
0.0
 40
0.0
 40
0.0
 40
0.3085493073
 40
0.5781473622
 40
0.8086545701
 40
1.0
 40
1.0
 40
1.0
 40
1.0
 10
5.8776154534
 20
3.991058227
 30
0.0
 10
5.8790575914
 20
3.9911668608
 30
0.0
 10
5.881758999
 20
3.9913815252
 30
0.0
 10
5.8855338878
 20
3.9917242972
 30
0.0
 10
5.8887569039
 20
3.9920659103
 30
0.0
 10
5.8907187004
 20
3.9923152786
 30
0.0
 10
5.8916062979
 20
3.9924439043
 30
0.0
  0
SPLINE
  5
29F
100
AcDbEntity
  8
0
100
AcDbSpline
 62
7
  6
CONTINUOUS
 70
0
 71
3
 72
13
 73
9
 74
0
 42
0.0000001
 43
0.0000001
 44
0.0000000001
 40
0.0
 40
0.0
 40
0.0
 40
0.0
 40
0.3323272994
 40
0.6094722579
 40
0.7274514773
 40
0.8317840186
 40
0.9225770895
 40
1.0
 40
1.0
 40
1.0
 40
1.0
 10
5.8916062979
 20
3.9924439043
 30
0.0
 10
5.8921028226
 20
3.9925158579
 30
0.0
 10
5.8930121419
 20
3.9926569433
 30
0.0
 10
5.8940922044
 20
3.9928575055
 30
0.0
 10
5.8948282958
 20
3.9930213309
 30
0.0
 10
5.895286624
 20
3.9931373393
 30
0.0
 10
5.8956815713
 20
3.9932531013
 30
0.0
 10
5.8959216026
 20
3.9933366105
 30
0.0
 10
5.8960304491
 20
3.9933792066
 30
0.0
  0
LINE
  5
2A0
100
AcDbEntity
  8
0
100
AcDbLine
 62
7
  6
CONTINUOUS
 10
5.8960304491
 20
3.9933792066
 11
5.8964095878
 21
3.9935561155
  0
SPLINE
  5
2A1
100
AcDbEntity
  8
0
100
AcDbSpline
 62
7
  6
CONTINUOUS
 70
0
 71
3
 72
50
 73
46
 74
0
 42
0.0000001
 43
0.0000001
 44
0.0000000001
 40
0.0
 40
0.0
 40
0.0
 40
0.0
 40
0.0001890502
 40
0.000425632
 40
0.0007111931
 40
0.0010465438
 40
0.0014321677
 40
0.001868342
 40
0.0028929169
 40
0.004121018
 40
0.0055528385
 40
0.0071883264
 40
0.0090272602
 40
0.0110690869
 40
0.0133130861
 40
0.0184045372
 40
0.0242951021
 40
0.0309760959
 40
0.0384377689
 40
0.0466695448
 40
0.0556588447
 40
0.0653926749
 40
0.0758566036
 40
0.0870348323
 40
0.1114676398
 40
0.1385456934
 40
0.1681078526
 40
0.19997826
 40
0.2339672686
 40
0.2698723592
 40
0.3074796536
 40
0.3465652252
 40
0.3868963352
 40
0.42823268
 40
0.470328002
 40
0.5557896592
 40
0.6412479694
 40
0.7246697543
 40
0.8040701453
 40
0.8416670907
 40
0.8775603698
 40
0.9115362694
 40
0.9433914633
 40
0.9729398296
 40
1.0
 40
1.0
 40
1.0
 40
1.0
 10
4.1120533124
 20
4.1029951268
 30
0.0
 10
4.112140972
 20
4.1030457651
 30
0.0
 10
4.1123477026
 20
4.1031433447
 30
0.0
 10
4.1127054225
 20
4.103274612
 30
0.0
 10
4.1131455218
 20
4.1034064246
 30
0.0
 10
4.1136681566
 20
4.103538631
 30
0.0
 10
4.1142735535
 20
4.10367114
 30
0.0
 10
4.1152444747
 20
4.103858282
 30
0.0
 10
4.1166662897
 20
4.1040873684
 30
0.0
 10
4.1186217241
 20
4.1043510649
 30
0.0
 10
4.1209067329
 20
4.1046155278
 30
0.0
 10
4.1235206341
 20
4.1048806292
 30
0.0
 10
4.1264626282
 20
4.1051461118
 30
0.0
 10
4.1297316254
 20
4.1054119212
 30
0.0
 10
4.1347394179
 20
4.1057824231
 30
0.0
 10
4.1418072272
 20
4.1062391656
 30
0.0
 10
4.1512508612
 20
4.1067683779
 30
0.0
 10
4.16196542
 20
4.1072986135
 30
0.0
 10
4.1739349896
 20
4.1078296816
 30
0.0
 10
4.1871417075
 20
4.1083612673
 30
0.0
 10
4.201566021
 20
4.1088933186
 30
0.0
 10
4.2171863666
 20
4.1094256729
 30
0.0
 10
4.2339794839
 20
4.1099582955
 30
0.0
 10
4.2586413395
 20
4.1106906476
 30
0.0
 10
4.2921985584
 20
4.111597902
 30
0.0
 10
4.3355994768
 20
4.1126586419
 30
0.0
 10
4.3829842168
 20
4.1137205416
 30
0.0
 10
4.4340705415
 20
4.1147833812
 30
0.0
 10
4.488554118
 20
4.1158468902
 30
0.0
 10
4.5461102842
 20
4.1169109211
 30
0.0
 10
4.6063960479
 20
4.1179753484
 30
0.0
 10
4.669052252
 20
4.1190400794
 30
0.0
 10
4.7337056021
 20
4.1201050369
 30
0.0
 10
4.799970855
 20
4.121170172
 30
0.0
 10
4.8904003881
 20
4.1225976391
 30
0.0
 10
5.0044543782
 20
4.1243660752
 30
0.0
 10
5.1406356411
 20
4.1264777533
 30
0.0
 10
5.2735707749
 20
4.128588295
 30
0.0
 10
5.3808784814
 20
4.1303756844
 30
0.0
 10
5.4627372223
 20
4.1318212905
 30
0.0
 10
5.5202744987
 20
4.1328853369
 30
0.0
 10
5.5747365792
 20
4.1339488458
 30
0.0
 10
5.6258003483
 20
4.1350116673
 30
0.0
 10
5.6731599677
 20
4.1360736124
 30
0.0
 10
5.7034642856
 20
4.1368146223
 30
0.0
 10
5.7179499242
 20
4.1371887298
 30
0.0
  0
SPLINE
  5
2A2
100
AcDbEntity
  8
0
100
AcDbSpline
 62
7
  6
CONTINUOUS
 70
0
 71
3
 72
53
 73
49
 74
0
 42
0.0000001
 43
0.0000001
 44
0.0000000001
 40
0.0
 40
0.0
 40
0.0
 40
0.0
 40
0.0000423758
 40
0.0000877727
 40
0.0001386727
 40
0.000196857
 40
0.0003393139
 40
0.0005209749
 40
0.0007444446
 40
0.0010111018
 40
0.0013217484
 40
0.0016768855
 40
0.0020768351
 40
0.0025217914
 40
0.0035471548
 40
0.0047535716
 40
0.0061412288
 40
0.007710121
 40
0.0094601294
 40
0.0113909913
 40
0.0135021944
 40
0.0182632691
 40
0.0237385117
 40
0.0299223355
 40
0.0368074232
 40
0.0443860696
 40
0.0526499956
 40
0.061589336
 40
0.0711939168
 40
0.0814530177
 40
0.0923544301
 40
0.1160337548
 40
0.1421225984
 40
0.1705008496
 40
0.201037149
 40
0.2335903157
 40
0.268010168
 40
0.30413738
 40
0.3418048647
 40
0.3808386707
 40
0.4210581544
 40
0.5043056261
 40
0.5900092543
 40
0.6765855088
 40
0.7624347057
 40
0.8459705886
 40
0.9256496639
 40
1.0
 40
1.0
 40
1.0
 40
1.0
 10
4.1117315667
 20
4.2113190343
 30
0.0
 10
4.1117315746
 20
4.2113388322
 30
0.0
 10
4.1117374477
 20
4.2113800215
 30
0.0
 10
4.1117630514
 20
4.2114401563
 30
0.0
 10
4.1118048048
 20
4.2114995351
 30
0.0
 10
4.1118873306
 20
4.2115837339
 30
0.0
 10
4.1120352272
 20
4.2116861336
 30
0.0
 10
4.1122638104
 20
4.2118017157
 30
0.0
 10
4.1125558303
 20
4.2119176852
 30
0.0
 10
4.1129115618
 20
4.2120339987
 30
0.0
 10
4.1133314224
 20
4.2121506051
 30
0.0
 10
4.1138155075
 20
4.2122674214
 30
0.0
 10
4.11436388
 20
4.2123844079
 30
0.0
 10
4.1152221926
 20
4.2125484053
 30
0.0
 10
4.116456611
 20
4.2127500232
 30
0.0
 10
4.118131598
 20
4.2129828726
 30
0.0
 10
4.120062564
 20
4.2132162503
 30
0.0
 10
4.1222490488
 20
4.2134500663
 30
0.0
 10
4.1246905754
 20
4.2136841647
 30
0.0
 10
4.1273864913
 20
4.2139184891
 30
0.0
 10
4.1314864098
 20
4.2142443552
 30
0.0
 10
4.1372412455
 20
4.214646572
 30
0.0
 10
4.1448985795
 20
4.2151132379
 30
0.0
 10
4.1535498291
 20
4.2155806512
 30
0.0
 10
4.1631850214
 20
4.2160487416
 30
0.0
 10
4.1737930481
 20
4.2165172845
 30
0.0
 10
4.1853616576
 20
4.2169861449
 30
0.0
 10
4.1978774844
 20
4.2174552922
 30
0.0
 10
4.2113260533
 20
4.217924651
 30
0.0
 10
4.2256918153
 20
4.2183941684
 30
0.0
 10
4.24663105
 20
4.2190382951
 30
0.0
 10
4.2749646025
 20
4.2198373116
 30
0.0
 10
4.3114625737
 20
4.2207728875
 30
0.0
 10
4.3511650591
 20
4.2217092928
 30
0.0
 10
4.3938884277
 20
4.2226463989
 30
0.0
 10
4.4394350485
 20
4.2235840217
 30
0.0
 10
4.4875942508
 20
4.2245220368
 30
0.0
 10
4.5381432812
 20
4.2254603694
 30
0.0
 10
4.5908482964
 20
4.2263989512
 30
0.0
 10
4.6454655048
 20
4.2273377331
 30
0.0
 10
4.7213751426
 20
4.2286041774
 30
0.0
 10
4.8190868176
 20
4.2301751171
 30
0.0
 10
4.9384543793
 20
4.2320403862
 30
0.0
 10
5.0590376058
 20
4.2339059603
 30
0.0
 10
5.1786079467
 20
4.2357712617
 30
0.0
 10
5.2949555513
 20
4.2376355809
 30
0.0
 10
5.4059302108
 20
4.2394981654
 30
0.0
 10
5.4778810353
 20
4.2407901981
 30
0.0
 10
5.5126112603
 20
4.2414454278
 30
0.0
  0
LINE
  5
2A3
100
AcDbEntity
  8
0
100
AcDbLine
 62
7
  6
CONTINUOUS
 10
5.7196042062
 20
4.2459270635
 11
5.7359448416
 21
4.2463599765
  0
SPLINE
  5
2A4
100
AcDbEntity
  8
0
100
AcDbSpline
 62
7
  6
CONTINUOUS
 70
0
 71
3
 72
30
 73
26
 74
0
 42
0.0000001
 43
0.0000001
 44
0.0000000001
 40
0.0
 40
0.0
 40
0.0
 40
0.0
 40
0.2193430425
 40
0.3195924439
 40
0.41338473
 40
0.500594687
 40
0.5811066338
 40
0.6548189713
 40
0.7216322874
 40
0.7814608392
 40
0.8342308439
 40
0.8798720729
 40
0.900002707
 40
0.918332971
 40
0.934858028
 40
0.9495735463
 40
0.9624764865
 40
0.9735673361
 40
0.982849516
 40
0.9868148134
 40
0.9903316259
 40
0.9934026441
 40
0.9960321125
 40
0.9982270609
 40
1.0
 40
1.0
 40
1.0
 40
1.0
 10
5.7366282914
 20
4.2463785035
 30
0.0
 10
5.7483306672
 20
4.2466960357
 30
0.0
 10
5.7653809653
 20
4.2471809482
 30
0.0
 10
5.7874331876
 20
4.2478706519
 30
0.0
 10
5.8024356668
 20
4.2483720704
 30
0.0
 10
5.8163841069
 20
4.2488732344
 30
0.0
 10
5.8292601153
 20
4.2493741236
 30
0.0
 10
5.8410466498
 20
4.2498745823
 30
0.0
 10
5.8517282144
 20
4.2503745401
 30
0.0
 10
5.8612907475
 20
4.2508737601
 30
0.0
 10
5.8697216166
 20
4.2513720083
 30
0.0
 10
5.8760338983
 20
4.2518019607
 30
0.0
 10
5.8805090293
 20
4.2521506812
 30
0.0
 10
5.8834330603
 20
4.2524009362
 30
0.0
 10
5.8860669474
 20
4.2526508902
 30
0.0
 10
5.8884097607
 20
4.252900476
 30
0.0
 10
5.8904607804
 20
4.2531495053
 30
0.0
 10
5.8922194403
 20
4.2533978509
 30
0.0
 10
5.893500676
 20
4.2536134912
 30
0.0
 10
5.8943780037
 20
4.253789498
 30
0.0
 10
5.8949273224
 20
4.2539142965
 30
0.0
 10
5.8954033437
 20
4.2540388304
 30
0.0
 10
5.895806233
 20
4.2541630336
 30
0.0
 10
5.896136091
 20
4.2542867832
 30
0.0
 10
5.8963276831
 20
4.2543783492
 30
0.0
 10
5.8964096193
 20
4.2544256806
 30
0.0
  0
SPLINE
  5
2A5
100
AcDbEntity
  8
0
100
AcDbSpline
 62
7
  6
CONTINUOUS
 70
0
 71
3
 72
28
 73
24
 74
0
 42
0.0000001
 43
0.0000001
 44
0.0000000001
 40
0.0
 40
0.0
 40
0.0
 40
0.0
 40
0.0017216129
 40
0.0035754026
 40
0.0056683207
 40
0.0080756127
 40
0.0140084939
 40
0.0216118088
 40
0.0309895776
 40
0.0421962249
 40
0.0552630913
 40
0.0702096003
 40
0.0870484766
 40
0.1057882162
 40
0.1489871971
 40
0.1998285419
 40
0.2583179328
 40
0.3244534784
 40
0.3982288637
 40
0.4796335192
 40
0.5686414065
 40
0.7693269319
 40
1.0
 40
1.0
 40
1.0
 40
1.0
 10
4.1117315299
 20
4.8200146866
 30
0.0
 10
4.1117315449
 20
4.8200352751
 30
0.0
 10
4.1117379446
 20
4.8200782311
 30
0.0
 10
4.1117657022
 20
4.820140763
 30
0.0
 10
4.1118108522
 20
4.8202024355
 30
0.0
 10
4.1119002217
 20
4.8202900709
 30
0.0
 10
4.1120600818
 20
4.8203964053
 30
0.0
 10
4.1123067767
 20
4.8205163947
 30
0.0
 10
4.1126220008
 20
4.8206368326
 30
0.0
 10
4.1130060131
 20
4.820757662
 30
0.0
 10
4.1134592463
 20
4.8208788072
 30
0.0
 10
4.1139817878
 20
4.8210001793
 30
0.0
 10
4.1145737115
 20
4.8211217342
 30
0.0
 10
4.1155003113
 20
4.8212921524
 30
0.0
 10
4.1168328715
 20
4.821501643
 30
0.0
 10
4.1186409332
 20
4.8217435758
 30
0.0
 10
4.1207253339
 20
4.8219860668
 30
0.0
 10
4.1230855526
 20
4.8222290245
 30
0.0
 10
4.1257210679
 20
4.8224722928
 30
0.0
 10
4.1286311322
 20
4.822715805
 30
0.0
 10
4.1330561294
 20
4.8230544256
 30
0.0
 10
4.1392651865
 20
4.823472332
 30
0.0
 10
4.1444149194
 20
4.8237746422
 30
0.0
 10
4.147169252
 20
4.8239277298
 30
0.0
  0
LINE
  5
2A6
100
AcDbEntity
  8
0
100
AcDbLine
 62
7
  6
CONTINUOUS
 10
4.1120533029
 20
4.016038605
 11
4.1134850906
 21
4.0165347214
  0
SPLINE
  5
2A7
100
AcDbEntity
  8
0
100
AcDbSpline
 62
7
  6
CONTINUOUS
 70
0
 71
3
 72
78
 73
74
 74
0
 42
0.0000001
 43
0.0000001
 44
0.0000000001
 40
0.0
 40
0.0
 40
0.0
 40
0.0
 40
0.000423471
 40
0.0009175993
 40
0.0014826714
 40
0.0021188444
 40
0.0036047352
 40
0.0053754509
 40
0.0074306798
 40
0.0097694803
 40
0.0123905968
 40
0.0152927049
 40
0.0184744158
 40
0.0219339567
 40
0.0296781417
 40
0.0385080802
 40
0.0484033779
 40
0.0593414942
 40
0.0712971793
 40
0.084242887
 40
0.0981488127
 40
0.112982719
 40
0.1287105279
 40
0.1627000428
 40
0.1998032607
 40
0.2396772034
 40
0.2819532168
 40
0.326240397
 40
0.3721292153
 40
0.4191953135
 40
0.4670034335
 40
0.5151114478
 40
0.5630744517
 40
0.610448882
 40
0.6567966231
 40
0.701689063
 40
0.7447110638
 40
0.78546481
 40
0.823573496
 40
0.8415247654
 40
0.8586848286
 40
0.8750138994
 40
0.8904742972
 40
0.9050303017
 40
0.9186482212
 40
0.9312967621
 40
0.9429465348
 40
0.9535709871
 40
0.9631453402
 40
0.9716480666
 40
0.979059339
 40
0.9823505839
 40
0.985362998
 40
0.9880947999
 40
0.9905447011
 40
0.9927115844
 40
0.9945944231
 40
0.9954290568
 40
0.996192424
 40
0.9968845491
 40
0.997505493
 40
0.9980553703
 40
0.9985343815
 40
0.998942872
 40
0.9992814523
 40
0.9994248796
 40
0.9995513427
 40
0.9996611941
 40
0.999754983
 40
0.9998335959
 40
0.9998985427
 40
0.9999524916
 40
1.0
 40
1.0
 40
1.0
 40
1.0
 10
4.1134850906
 20
4.0165347214
 30
0.0
 10
4.1137295764
 20
4.0165952262
 30
0.0
 10
4.1142624381
 20
4.0167138376
 30
0.0
 10
4.1151288079
 20
4.0168786693
 30
0.0
 10
4.116123594
 20
4.0170438614
 30
0.0
 10
4.1177047994
 20
4.0172766749
 30
0.0
 10
4.1200026653
 20
4.0175620108
 30
0.0
 10
4.1231448598
 20
4.0178908146
 30
0.0
 10
4.1267966207
 20
4.0182204887
 30
0.0
 10
4.1309558658
 20
4.0185509144
 30
0.0
 10
4.1356201636
 20
4.0188818292
 30
0.0
 10
4.1407868873
 20
4.0192131095
 30
0.0
 10
4.1464531787
 20
4.0195446608
 30
0.0
 10
4.1549966454
 20
4.0200044732
 30
0.0
 10
4.1668983153
 20
4.0205726061
 30
0.0
 10
4.1826273349
 20
4.0212328585
 30
0.0
 10
4.2002574038
 20
4.0218941573
 30
0.0
 10
4.2197476636
 20
4.0225562712
 30
0.0
 10
4.2410531007
 20
4.0232189731
 30
0.0
 10
4.2641244254
 20
4.0238821287
 30
0.0
 10
4.2889082308
 20
4.0245456202
 30
0.0
 10
4.3153472492
 20
4.025209417
 30
0.0
 10
4.3537286457
 20
4.0261184347
 30
0.0
 10
4.4053533233
 20
4.0272451392
 30
0.0
 10
4.4713380719
 20
4.0285665346
 30
0.0
 10
4.5422521442
 20
4.0298891989
 30
0.0
 10
4.6174395877
 20
4.0312128545
 30
0.0
 10
4.6962049207
 20
4.0325371969
 30
0.0
 10
4.7778195569
 20
4.033862031
 30
0.0
 10
4.8615285508
 20
4.0351871936
 30
0.0
 10
4.9465575806
 20
4.0365125516
 30
0.0
 10
5.0321201122
 20
4.0378379859
 30
0.0
 10
5.1174246745
 20
4.0391633834
 30
0.0
 10
5.2016821813
 20
4.0404886285
 30
0.0
 10
5.2841132308
 20
4.0418135925
 30
0.0
 10
5.3639553163
 20
4.0431381303
 30
0.0
 10
5.4404698844
 20
4.0444620388
 30
0.0
 10
5.5129491642
 20
4.0457851302
 30
0.0
 10
5.5705186466
 20
4.0469078662
 30
0.0
 10
5.6140572202
 20
4.0478118522
 30
0.0
 10
5.6446444359
 20
4.048476139
 30
0.0
 10
5.673749832
 20
4.0491402629
 30
0.0
 10
5.7013060324
 20
4.0498041978
 30
0.0
 10
5.7272492745
 20
4.0504678926
 30
0.0
 10
5.7515195777
 20
4.0511313021
 30
0.0
 10
5.7740607069
 20
4.0517943206
 30
0.0
 10
5.7948206431
 20
4.052456874
 30
0.0
 10
5.8137512027
 20
4.0531187584
 30
0.0
 10
5.8308088253
 20
4.0537797681
 30
0.0
 10
5.8459538409
 20
4.0544395943
 30
0.0
 10
5.8573622159
 20
4.0550081093
 30
0.0
 10
5.8655062494
 20
4.0554687327
 30
0.0
 10
5.8708699343
 20
4.0558001231
 30
0.0
 10
5.8757322032
 20
4.056131201
 30
0.0
 10
5.8800903433
 20
4.0564618314
 30
0.0
 10
5.8839419752
 20
4.0567919038
 30
0.0
 10
5.8868331278
 20
4.0570764286
 30
0.0
 10
5.8888905317
 20
4.0573069292
 30
0.0
 10
5.8902425031
 20
4.0574726704
 30
0.0
 10
5.891466361
 20
4.0576382536
 30
0.0
 10
5.892562
 20
4.0578036395
 30
0.0
 10
5.8935293248
 20
4.0579687629
 30
0.0
 10
5.8943683241
 20
4.0581334808
 30
0.0
 10
5.8950789485
 20
4.0582977213
 30
0.0
 10
5.8955892963
 20
4.0584406448
 30
0.0
 10
5.8959319091
 20
4.05855748
 30
0.0
 10
5.8961422135
 20
4.0586401031
 30
0.0
 10
5.896320526
 20
4.0587226182
 30
0.0
 10
5.8964670173
 20
4.0588050796
 30
0.0
 10
5.8965820008
 20
4.0588876497
 30
0.0
 10
5.8966658382
 20
4.0589709346
 30
0.0
 10
5.8967185135
 20
4.0590562635
 30
0.0
 10
5.8967311611
 20
4.0591169958
 30
0.0
 10
5.8967311516
 20
4.0591452516
 30
0.0
  0
SPLINE
  5
2A8
100
AcDbEntity
  8
0
100
AcDbSpline
 62
7
  6
CONTINUOUS
 70
0
 71
3
 72
27
 73
23
 74
0
 42
0.0000001
 43
0.0000001
 44
0.0000000001
 40
0.0
 40
0.0
 40
0.0
 40
0.0
 40
0.1668677736
 40
0.2489482564
 40
0.3294202913
 40
0.4077598775
 40
0.4834608476
 40
0.5560335645
 40
0.6250086035
 40
0.6899401607
 40
0.7504087208
 40
0.8060236252
 40
0.8318974531
 40
0.8564263598
 40
0.8795706804
 40
0.9012930561
 40
0.9215590043
 40
0.9403353106
 40
0.9575936501
 40
0.9733073423
 40
0.9874508491
 40
1.0
 40
1.0
 40
1.0
 40
1.0
 10
5.0042313665
 20
4.8112827913
 30
0.0
 10
4.9540799036
 20
4.8098036775
 30
0.0
 10
4.8792594586
 20
4.8075972611
 30
0.0
 10
4.7802551679
 20
4.8046200187
 30
0.0
 10
4.7078585362
 20
4.8023995624
 30
0.0
 10
4.6373809847
 20
4.8001795224
 30
0.0
 10
4.5692797688
 20
4.797960061
 30
0.0
 10
4.503995779
 20
4.7957413643
 30
0.0
 10
4.441951821
 20
4.793523667
 30
0.0
 10
4.3835496972
 20
4.7913073369
 30
0.0
 10
4.3291676748
 20
4.7890926936
 30
0.0
 10
4.2865259646
 20
4.787206713
 30
0.0
 10
4.2546851117
 20
4.7856875025
 30
0.0
 10
4.2325991415
 20
4.7845759693
 30
0.0
 10
4.2117630666
 20
4.7834647698
 30
0.0
 10
4.1922106756
 20
4.7823539216
 30
0.0
 10
4.1739738688
 20
4.7812436363
 30
0.0
 10
4.1570819205
 20
4.7801339206
 30
0.0
 10
4.1415618619
 20
4.7790250047
 30
0.0
 10
4.1274385558
 20
4.7779170594
 30
0.0
 10
4.1147358885
 20
4.7768104999
 30
0.0
 10
4.1067480728
 20
4.7760272869
 30
0.0
 10
4.1029957425
 20
4.7756306174
 30
0.0
  0
SPLINE
  5
2A9
100
AcDbEntity
  8
0
100
AcDbSpline
 62
7
  6
CONTINUOUS
 70
0
 71
3
 72
83
 73
79
 74
0
 42
0.0000001
 43
0.0000001
 44
0.0000000001
 40
0.0
 40
0.0
 40
0.0
 40
0.0
 40
0.0000480492
 40
0.0001027633
 40
0.0001688099
 40
0.0002488972
 40
0.0003445463
 40
0.0004566451
 40
0.0005857412
 40
0.0007321904
 40
0.0010780081
 40
0.0014953712
 40
0.0019849396
 40
0.0025470609
 40
0.0031818986
 40
0.0038895292
 40
0.0046699748
 40
0.0055232223
 40
0.0074479419
 40
0.0096631963
 40
0.0121679214
 40
0.014960677
 40
0.0180399606
 40
0.0214042212
 40
0.0289797155
 40
0.0376692946
 40
0.0474531351
 40
0.058307819
 40
0.0702082732
 40
0.0831259619
 40
0.0970308508
 40
0.1118896441
 40
0.1276676287
 40
0.1443271151
 40
0.1618290303
 40
0.180131676
 40
0.2189646511
 40
0.2604586403
 40
0.3042210086
 40
0.3498376208
 40
0.3968767703
 40
0.4448932725
 40
0.4934326828
 40
0.5420356033
 40
0.5902420345
 40
0.6375957331
 40
0.6836485346
 40
0.7279646006
 40
0.7701245495
 40
0.8097294348
 40
0.8464045336
 40
0.8635338293
 40
0.879802918
 40
0.8951733268
 40
0.9096087576
 40
0.9230749916
 40
0.9355403804
 40
0.9469752911
 40
0.9573530546
 40
0.9666489446
 40
0.9748415825
 40
0.9785179127
 40
0.9819115228
 40
0.9850205281
 40
0.9878430687
 40
0.9903774971
 40
0.9926226787
 40
0.9945776383
 40
0.996241547
 40
0.9969641958
 40
0.9976139987
 40
0.9981910683
 40
0.9986955948
 40
0.9991278978
 40
0.9994885289
 40
0.9997784998
 40
0.9998976103
 40
1.0
 40
1.0
 40
1.0
 40
1.0
 10
4.1117314898
 20
4.7330581647
 30
0.0
 10
4.1117315051
 20
4.7330867666
 30
0.0
 10
4.111744556
 20
4.7331483211
 30
0.0
 10
4.1117985955
 20
4.733234623
 30
0.0
 10
4.11188446
 20
4.7333188367
 30
0.0
 10
4.1120021734
 20
4.733402339
 30
0.0
 10
4.1121521098
 20
4.7334857431
 30
0.0
 10
4.1123345863
 20
4.7335692087
 30
0.0
 10
4.1125497732
 20
4.7336527898
 30
0.0
 10
4.1129003503
 20
4.7337709961
 30
0.0
 10
4.113422524
 20
4.7339155899
 30
0.0
 10
4.1141496344
 20
4.734081742
 30
0.0
 10
4.1150082131
 20
4.7342483694
 30
0.0
 10
4.1159982163
 20
4.7344154056
 30
0.0
 10
4.1171195876
 20
4.7345827107
 30
0.0
 10
4.1183721634
 20
4.7347502172
 30
0.0
 10
4.1197557699
 20
4.7349178846
 30
0.0
 10
4.1218611106
 20
4.7351510672
 30
0.0
 10
4.1248195353
 20
4.7354389298
 30
0.0
 10
4.1287608152
 20
4.7357728367
 30
0.0
 10
4.1332203876
 20
4.7361072961
 30
0.0
 10
4.1381955269
 20
4.7364422199
 30
0.0
 10
4.143683335
 20
4.7367774896
 30
0.0
 10
4.1520153333
 20
4.7372434693
 30
0.0
 10
4.1636858758
 20
4.7378185393
 30
0.0
 10
4.1791774704
 20
4.7384860989
 30
0.0
 10
4.1966225959
 20
4.7391547452
 30
0.0
 10
4.2159802422
 20
4.7398243744
 30
0.0
 10
4.2372043372
 20
4.7404945968
 30
0.0
 10
4.2602449117
 20
4.741165359
 30
0.0
 10
4.2850471499
 20
4.7418364605
 30
0.0
 10
4.3115525825
 20
4.7425078948
 30
0.0
 10
4.3396982078
 20
4.7431795381
 30
0.0
 10
4.3694175984
 20
4.7438513966
 30
0.0
 10
4.4006401826
 20
4.7445234037
 30
0.0
 10
4.4450596053
 20
4.7454377309
 30
0.0
 10
4.5037590218
 20
4.7465732835
 30
0.0
 10
4.577612468
 20
4.7479117051
 30
0.0
 10
4.6555045607
 20
4.749250946
 30
0.0
 10
4.7366979256
 20
4.7505908151
 30
0.0
 10
4.8204239365
 20
4.7519311047
 30
0.0
 10
4.9058899883
 20
4.7532716657
 30
0.0
 10
4.9922870026
 20
4.7546123644
 30
0.0
 10
5.0787970875
 20
4.7559530797
 30
0.0
 10
5.164601281
 20
4.7572936909
 30
0.0
 10
5.248887304
 20
4.7586340705
 30
0.0
 10
5.330857251
 20
4.7599740698
 30
0.0
 10
5.4097351436
 20
4.7613135166
 30
0.0
 10
5.4847742805
 20
4.762652157
 30
0.0
 10
5.5552643007
 20
4.7639897568
 30
0.0
 10
5.6108556091
 20
4.7651274501
 30
0.0
 10
5.6525575606
 20
4.7660443768
 30
0.0
 10
5.6815799631
 20
4.7667161563
 30
0.0
 10
5.7089983653
 20
4.7673877116
 30
0.0
 10
5.734747814
 20
4.7680590008
 30
0.0
 10
5.7587674
 20
4.7687299702
 30
0.0
 10
5.7810001594
 20
4.7694004938
 30
0.0
 10
5.8013935851
 20
4.7700704943
 30
0.0
 10
5.8198992537
 20
4.7707396837
 30
0.0
 10
5.8364735601
 20
4.77140797
 30
0.0
 10
5.8490591731
 20
4.7719823361
 30
0.0
 10
5.8581325298
 20
4.7724469021
 30
0.0
 10
5.8641823854
 20
4.7727824276
 30
0.0
 10
5.8697231825
 20
4.7731176909
 30
0.0
 10
5.8747515432
 20
4.7734526374
 30
0.0
 10
5.8792644743
 20
4.7737871937
 30
0.0
 10
5.8832594513
 20
4.7741211202
 30
0.0
 10
5.8867342512
 20
4.7744542763
 30
0.0
 10
5.8893026485
 20
4.7747426406
 30
0.0
 10
5.8910948405
 20
4.7749772142
 30
0.0
 10
5.892243231
 20
4.7751445871
 30
0.0
 10
5.8932603053
 20
4.7753116835
 30
0.0
 10
5.8941460016
 20
4.7754784393
 30
0.0
 10
5.8949004373
 20
4.775644633
 30
0.0
 10
5.8955236113
 20
4.7758101832
 30
0.0
 10
5.8959589651
 20
4.7759550186
 30
0.0
 10
5.8962392509
 20
4.7760742953
 30
0.0
 10
5.8963568485
 20
4.7761343313
 30
0.0
 10
5.8964096285
 20
4.776164811
 30
0.0
  0
SPLINE
  5
2AA
100
AcDbEntity
  8
0
100
AcDbSpline
 62
7
  6
CONTINUOUS
 70
0
 71
3
 72
22
 73
18
 74
0
 42
0.0000001
 43
0.0000001
 44
0.0000000001
 40
0.0
 40
0.0
 40
0.0
 40
0.0
 40
0.0069673107
 40
0.0154059527
 40
0.0253591817
 40
0.0368529877
 40
0.0645209978
 40
0.0984922463
 40
0.1388008929
 40
0.1854604114
 40
0.2384750273
 40
0.297843709
 40
0.3635622073
 40
0.4356240854
 40
0.5987099045
 40
0.7869074328
 40
1.0
 40
1.0
 40
1.0
 40
1.0
 10
4.1120534501
 20
4.798647301
 30
0.0
 10
4.1121245733
 20
4.7986883754
 30
0.0
 10
4.1122880405
 20
4.7987684114
 30
0.0
 10
4.1125664826
 20
4.7988776514
 30
0.0
 10
4.1129014822
 20
4.7989872046
 30
0.0
 10
4.113459128
 20
4.7991433628
 30
0.0
 10
4.1143005013
 20
4.7993334342
 30
0.0
 10
4.115482522
 20
4.7995513035
 30
0.0
 10
4.116891463
 20
4.7997699646
 30
0.0
 10
4.1185270374
 20
4.7999893125
 30
0.0
 10
4.1203889958
 20
4.8002090789
 30
0.0
 10
4.1224769613
 20
4.8004291619
 30
0.0
 10
4.1247905479
 20
4.8006494943
 30
0.0
 10
4.1283239401
 20
4.8009563026
 30
0.0
 10
4.1333001644
 20
4.8013347144
 30
0.0
 10
4.1399386981
 20
4.8017734294
 30
0.0
 10
4.1446611566
 20
4.8020493282
 30
0.0
 10
4.147169252
 20
4.8021887298
 30
0.0
  0
LINE
  5
2AB
100
AcDbEntity
  8
0
100
AcDbLine
 62
7
  6
CONTINUOUS
 10
4.1120533433
 20
4.711690779
 11
4.1126065846
 21
4.711932049
  0
SPLINE
  5
2AC
100
AcDbEntity
  8
0
100
AcDbSpline
 62
7
  6
CONTINUOUS
 70
0
 71
3
 72
23
 73
19
 74
0
 42
0.0000001
 43
0.0000001
 44
0.0000000001
 40
0.0
 40
0.0
 40
0.0
 40
0.0
 40
0.0062855552
 40
0.014177516
 40
0.0236945139
 40
0.0348454038
 40
0.0476338981
 40
0.0620613832
 40
0.0958320945
 40
0.1361496864
 40
0.1829929199
 40
0.2363256326
 40
0.2961084184
 40
0.3622997606
 40
0.4348467075
 40
0.598766343
 40
0.7873545315
 40
1.0
 40
1.0
 40
1.0
 40
1.0
 10
4.1126065846
 20
4.711932049
 30
0.0
 10
4.1128207337
 20
4.7120070693
 30
0.0
 10
4.11331267
 20
4.712150541
 30
0.0
 10
4.1141461476
 20
4.7123436317
 30
0.0
 10
4.1151589611
 20
4.712537648
 30
0.0
 10
4.1163510385
 20
4.7127323631
 30
0.0
 10
4.1177223453
 20
4.7129275521
 30
0.0
 10
4.1199067594
 20
4.7132028879
 30
0.0
 10
4.1230846196
 20
4.7135401485
 30
0.0
 10
4.127433058
 20
4.7139286602
 30
0.0
 10
4.1324900135
 20
4.7143182423
 30
0.0
 10
4.138251386
 20
4.7147087635
 30
0.0
 10
4.1447126085
 20
4.7150998675
 30
0.0
 10
4.1518685767
 20
4.7154914139
 30
0.0
 10
4.1627810072
 20
4.716036345
 30
0.0
 10
4.1781109612
 20
4.7167082949
 30
0.0
 10
4.1984982503
 20
4.7174877061
 30
0.0
 10
4.2129745394
 20
4.7179793575
 30
0.0
 10
4.220647048
 20
4.718227877
 30
0.0
  0
SPLINE
  5
2AD
100
AcDbEntity
  8
0
100
AcDbSpline
 62
7
  6
CONTINUOUS
 70
0
 71
3
 72
61
 73
57
 74
0
 42
0.0000001
 43
0.0000001
 44
0.0000000001
 40
0.0
 40
0.0
 40
0.0
 40
0.0
 40
0.0226182112
 40
0.0482656586
 40
0.0767678371
 40
0.1079307329
 40
0.1415421976
 40
0.1773733922
 40
0.2151803184
 40
0.2547053972
 40
0.337822999
 40
0.4244651439
 40
0.4683733248
 40
0.5122746862
 40
0.5558701423
 40
0.5988626962
 40
0.6409594328
 40
0.6818735113
 40
0.7213262147
 40
0.7590488254
 40
0.7947844147
 40
0.8282895701
 40
0.8593360487
 40
0.8738704939
 40
0.8877124839
 40
0.900838448
 40
0.9132258429
 40
0.9248539807
 40
0.9357026789
 40
0.9457538541
 40
0.9549903596
 40
0.9633964245
 40
0.9709582492
 40
0.9776626913
 40
0.9834990727
 40
0.9860887006
 40
0.9884577444
 40
0.9906054005
 40
0.9925310051
 40
0.9942339541
 40
0.9957137391
 40
0.9963698477
 40
0.9969701161
 40
0.9975146096
 40
0.9980034306
 40
0.9984367378
 40
0.9988147789
 40
0.9991379512
 40
0.9994069221
 40
0.9996228957
 40
0.9997117418
 40
0.9997884445
 40
0.9998538275
 40
0.9999092266
 40
0.999956824
 40
1.0
 40
1.0
 40
1.0
 40
1.0
 10
4.220647048
 20
4.718227877
 30
0.0
 10
4.2332830874
 20
4.7186371699
 30
0.0
 10
4.2602497402
 20
4.7194415627
 30
0.0
 10
4.3031449868
 20
4.7205732042
 30
0.0
 10
4.3508178065
 20
4.7217068586
 30
0.0
 10
4.4029432905
 20
4.7228420034
 30
0.0
 10
4.4591662702
 20
4.7239782018
 30
0.0
 10
4.5191036846
 20
4.7251151773
 30
0.0
 10
4.5823471191
 20
4.726252763
 30
0.0
 10
4.6720186949
 20
4.7277960351
 30
0.0
 10
4.78898494
 20
4.7297025658
 30
0.0
 10
4.9084020427
 20
4.7315723853
 30
0.0
 10
5.0059017682
 20
4.7330841713
 30
0.0
 10
5.0793430232
 20
4.7342230718
 30
0.0
 10
5.1522724188
 20
4.7353619238
 30
0.0
 10
5.2241929798
 20
4.7365006634
 30
0.0
 10
5.2946145708
 20
4.7376392299
 30
0.0
 10
5.3630572678
 20
4.7387775519
 30
0.0
 10
5.4290546623
 20
4.7399155393
 30
0.0
 10
5.4921570513
 20
4.7410530842
 30
0.0
 10
5.5519344473
 20
4.7421900233
 30
0.0
 10
5.6079794546
 20
4.743326211
 30
0.0
 10
5.6521748513
 20
4.7442921256
 30
0.0
 10
5.6853807623
 20
4.7450697172
 30
0.0
 10
5.7085719245
 20
4.7456399042
 30
0.0
 10
5.7305625953
 20
4.7462099355
 30
0.0
 10
5.7513153775
 20
4.7467798261
 30
0.0
 10
5.7707947583
 20
4.7473494829
 30
0.0
 10
5.7889676989
 20
4.7479189134
 30
0.0
 10
5.8058031214
 20
4.748488007
 30
0.0
 10
5.8212723849
 20
4.7490566727
 30
0.0
 10
5.8353491983
 20
4.7496248251
 30
0.0
 10
5.8480094665
 20
4.75019214
 30
0.0
 10
5.859231816
 20
4.7507585424
 30
0.0
 10
5.867675156
 20
4.7512466125
 30
0.0
 10
5.8736962121
 20
4.7516420601
 30
0.0
 10
5.8776581949
 20
4.7519264965
 30
0.0
 10
5.881247992
 20
4.7522106507
 30
0.0
 10
5.8844642228
 20
4.7524944211
 30
0.0
 10
5.887305557
 20
4.7527777198
 30
0.0
 10
5.8894374994
 20
4.7530219276
 30
0.0
 10
5.8909540861
 20
4.7532197472
 30
0.0
 10
5.891950627
 20
4.7533620011
 30
0.0
 10
5.892852645
 20
4.7535041232
 30
0.0
 10
5.8936600941
 20
4.7536460868
 30
0.0
 10
5.8943729606
 20
4.7537878282
 30
0.0
 10
5.8949912375
 20
4.7539292772
 30
0.0
 10
5.895515098
 20
4.7540702713
 30
0.0
 10
5.895944614
 20
4.7542107512
 30
0.0
 10
5.8962415197
 20
4.754333814
 30
0.0
 10
5.8964294192
 20
4.7544350794
 30
0.0
 10
5.8965374913
 20
4.7545060537
 30
0.0
 10
5.8966223218
 20
4.7545772091
 30
0.0
 10
5.8966840378
 20
4.754649031
 30
0.0
 10
5.8967223236
 20
4.7547222563
 30
0.0
 10
5.8967312633
 20
4.754773292
 30
0.0
 10
5.8967312503
 20
4.7547974256
 30
0.0
  0
SPLINE
  5
2AE
100
AcDbEntity
  8
0
100
AcDbSpline
 62
7
  6
CONTINUOUS
 70
0
 71
3
 72
42
 73
38
 74
0
 42
0.0000001
 43
0.0000001
 44
0.0000000001
 40
0.0
 40
0.0
 40
0.0
 40
0.0
 40
0.0964252174
 40
0.1919524087
 40
0.2856904684
 40
0.3767667498
 40
0.4643321365
 40
0.5475710074
 40
0.6257078411
 40
0.6980149081
 40
0.731769327
 40
0.7638185264
 40
0.7940874043
 40
0.8225059805
 40
0.8490076975
 40
0.8735313432
 40
0.8960194878
 40
0.9164203301
 40
0.9346863203
 40
0.9507756513
 40
0.957992349
 40
0.9646512082
 40
0.9707488133
 40
0.9762819231
 40
0.981247362
 40
0.9856423544
 40
0.9894651675
 40
0.9927145018
 40
0.994123865
 40
0.9953896349
 40
0.9965119232
 40
0.9974911014
 40
0.9983278109
 40
0.9990231422
 40
0.9995790877
 40
0.9998060244
 40
1.0
 40
1.0
 40
1.0
 40
1.0
 10
5.0042313665
 20
4.7065001826
 30
0.0
 10
4.9740653092
 20
4.7060553398
 30
0.0
 10
4.9140141368
 20
4.7051698037
 30
0.0
 10
4.8246377498
 20
4.7038395392
 30
0.0
 10
4.7369351117
 20
4.7025095155
 30
0.0
 10
4.6517238344
 20
4.7011798803
 30
0.0
 10
4.5697979272
 20
4.6998508007
 30
0.0
 10
4.4919210306
 20
4.6985225309
 30
0.0
 10
4.4188188439
 20
4.6971952981
 30
0.0
 10
4.3611982563
 20
4.6960662673
 30
0.0
 10
4.3179960251
 20
4.6951563017
 30
0.0
 10
4.2879444307
 20
4.6944897526
 30
0.0
 10
4.2595627324
 20
4.6938234138
 30
0.0
 10
4.2329172195
 20
4.6931573516
 30
0.0
 10
4.208069854
 20
4.6924916019
 30
0.0
 10
4.1850786917
 20
4.6918262981
 30
0.0
 10
4.1639972073
 20
4.6911615243
 30
0.0
 10
4.1448746373
 20
4.6904975451
 30
0.0
 10
4.1277554187
 20
4.689834499
 30
0.0
 10
4.1147608488
 20
4.6892645266
 30
0.0
 10
4.1053968116
 20
4.6888035328
 30
0.0
 10
4.0991565001
 20
4.6884706201
 30
0.0
 10
4.0934437436
 20
4.6881379673
 30
0.0
 10
4.0882617794
 20
4.6878056381
 30
0.0
 10
4.0836137037
 20
4.6874737332
 30
0.0
 10
4.079502203
 20
4.687142436
 30
0.0
 10
4.0759295526
 20
4.6868119108
 30
0.0
 10
4.0732911535
 20
4.6865257526
 30
0.0
 10
4.0714521481
 20
4.6862929245
 30
0.0
 10
4.0702756286
 20
4.6861268857
 30
0.0
 10
4.0692351409
 20
4.6859611253
 30
0.0
 10
4.0683307615
 20
4.6857957167
 30
0.0
 10
4.0675623335
 20
4.685630901
 30
0.0
 10
4.066929827
 20
4.6854667599
 30
0.0
 10
4.0664895276
 20
4.6853230534
 30
0.0
 10
4.0662076486
 20
4.6852045034
 30
0.0
 10
4.0660900387
 20
4.6851448065
 30
0.0
 10
4.0660374794
 20
4.6851144604
 30
0.0
  0
SPLINE
  5
2AF
100
AcDbEntity
  8
0
100
AcDbSpline
 62
7
  6
CONTINUOUS
 70
0
 71
3
 72
30
 73
26
 74
0
 42
0.0000001
 43
0.0000001
 44
0.0000000001
 40
0.0
 40
0.0
 40
0.0
 40
0.0
 40
0.219857815
 40
0.3202574815
 40
0.4141373252
 40
0.5013871675
 40
0.5818986075
 40
0.6555748325
 40
0.7223303415
 40
0.7820819245
 40
0.8347612373
 40
0.8803093849
 40
0.9003917849
 40
0.9186728118
 40
0.9351490774
 40
0.9498176936
 40
0.9626765495
 40
0.9737248267
 40
0.9829648093
 40
0.9869093877
 40
0.9904059177
 40
0.9934572194
 40
0.9960676598
 40
0.9982443851
 40
1.0
 40
1.0
 40
1.0
 40
1.0
 10
4.2211809263
 20
4.2580582374
 30
0.0
 10
4.2097918841
 20
4.2577535477
 30
0.0
 10
4.1932025059
 20
4.2572881049
 30
0.0
 10
4.1717519624
 20
4.2566257072
 30
0.0
 10
4.1571709357
 20
4.2561442494
 30
0.0
 10
4.1436211163
 20
4.2556630596
 30
0.0
 10
4.1311189558
 20
4.2551821487
 30
0.0
 10
4.1196796548
 20
4.2547016066
 30
0.0
 10
4.1093171515
 20
4.2542215938
 30
0.0
 10
4.1000439623
 20
4.2537422853
 30
0.0
 10
4.091871349
 20
4.2532638591
 30
0.0
 10
4.0857542642
 20
4.2528510489
 30
0.0
 10
4.0814188129
 20
4.2525161953
 30
0.0
 10
4.0785871429
 20
4.2522759129
 30
0.0
 10
4.0760370964
 20
4.2520359199
 30
0.0
 10
4.0737693737
 20
4.2517962799
 30
0.0
 10
4.0717846097
 20
4.2515572006
 30
0.0
 10
4.0700834256
 20
4.2513187898
 30
0.0
 10
4.0688445848
 20
4.2511117312
 30
0.0
 10
4.06799678
 20
4.2509427054
 30
0.0
 10
4.0674663465
 20
4.2508228882
 30
0.0
 10
4.0670069691
 20
4.250703328
 30
0.0
 10
4.0666184613
 20
4.2505840906
 30
0.0
 10
4.0663007042
 20
4.250465295
 30
0.0
 10
4.0661162655
 20
4.2503773415
 30
0.0
 10
4.0660374783
 20
4.2503318517
 30
0.0
  0
SPLINE
  5
2B0
100
AcDbEntity
  8
0
100
AcDbSpline
 62
7
  6
CONTINUOUS
 70
0
 71
3
 72
63
 73
59
 74
0
 42
0.0000001
 43
0.0000001
 44
0.0000000001
 40
0.0
 40
0.0
 40
0.0
 40
0.0
 40
0.0017875361
 40
0.0038413699
 40
0.0061606951
 40
0.0087442968
 40
0.0115908873
 40
0.0146991431
 40
0.021694311
 40
0.0297146747
 40
0.0387437087
 40
0.048761726
 40
0.0597475822
 40
0.0716774755
 40
0.0845258454
 40
0.1128653929
 40
0.1445221882
 40
0.1792234334
 40
0.21666998
 40
0.2565389355
 40
0.2984864795
 40
0.3421508409
 40
0.3871554256
 40
0.4331120686
 40
0.4796243865
 40
0.5262911977
 40
0.5727099861
 40
0.6184803737
 40
0.6632075776
 40
0.706505817
 40
0.748001651
 40
0.7873372137
 40
0.8241733053
 40
0.8581923279
 40
0.8740528593
 40
0.8891010477
 40
0.9033048112
 40
0.9166331418
 40
0.9290577829
 40
0.9405515648
 40
0.9510901867
 40
0.9606507079
 40
0.9692129111
 40
0.9767584462
 40
0.9832713907
 40
0.9861364555
 40
0.9887384241
 40
0.991076069
 40
0.9931484661
 40
0.9949547808
 40
0.9964943229
 40
0.9977668652
 40
0.9983032205
 40
0.9987731783
 40
0.9991770477
 40
0.9995153545
 40
0.9997890462
 40
1.0
 40
1.0
 40
1.0
 40
1.0
 10
4.1206360949
 20
4.6480582347
 30
0.0
 10
4.1216882703
 20
4.6481740296
 30
0.0
 10
4.1239516967
 20
4.6484017816
 30
0.0
 10
4.1275859927
 20
4.6487205805
 30
0.0
 10
4.1316932498
 20
4.6490399124
 30
0.0
 10
4.1362711769
 20
4.6493596648
 30
0.0
 10
4.1413172906
 20
4.6496797411
 30
0.0
 10
4.1489730399
 20
4.6501245213
 30
0.0
 10
4.1596915021
 20
4.6506734947
 30
0.0
 10
4.1739158016
 20
4.6513108475
 30
0.0
 10
4.1899316913
 20
4.6519492126
 30
0.0
 10
4.2077048657
 20
4.6525885
 30
0.0
 10
4.2271968326
 20
4.6532283546
 30
0.0
 10
4.2483656626
 20
4.6538687248
 30
0.0
 10
4.2798081306
 20
4.654752144
 30
0.0
 10
4.3229309523
 20
4.6558441555
 30
0.0
 10
4.3789937333
 20
4.6571183386
 30
0.0
 10
4.4404506439
 20
4.6583943229
 30
0.0
 10
4.5067714927
 20
4.6596717298
 30
0.0
 10
4.5773841172
 20
4.6609501143
 30
0.0
 10
4.651679311
 20
4.6622292226
 30
0.0
 10
4.7290160996
 20
4.6635088498
 30
0.0
 10
4.8087272699
 20
4.6647888432
 30
0.0
 10
4.8901251269
 20
4.6660690774
 30
0.0
 10
4.9725074247
 20
4.6673494457
 30
0.0
 10
5.0551634239
 20
4.6686298504
 30
0.0
 10
5.1373800215
 20
4.6699101964
 30
0.0
 10
5.2184479007
 20
4.6711903846
 30
0.0
 10
5.2976676497
 20
4.6724703049
 30
0.0
 10
5.3743557973
 20
4.6737498253
 30
0.0
 10
5.4478507175
 20
4.6750287891
 30
0.0
 10
5.5175183469
 20
4.6763069608
 30
0.0
 10
5.5827576504
 20
4.6775841216
 30
0.0
 10
5.6340967193
 20
4.6786709911
 30
0.0
 10
5.6725351114
 20
4.6795468766
 30
0.0
 10
5.6992417492
 20
4.6801882099
 30
0.0
 10
5.7244484399
 20
4.680829299
 30
0.0
 10
5.7481010138
 20
4.681470175
 30
0.0
 10
5.7701481961
 20
4.6821106983
 30
0.0
 10
5.7905426555
 20
4.6827508566
 30
0.0
 10
5.8092401813
 20
4.6833904477
 30
0.0
 10
5.8262006251
 20
4.6840293726
 30
0.0
 10
5.8413873117
 20
4.6846672527
 30
0.0
 10
5.8547675762
 20
4.6853038712
 30
0.0
 10
5.8647742888
 20
4.68585345
 30
0.0
 10
5.8718544912
 20
4.6862995121
 30
0.0
 10
5.8764651589
 20
4.6866193129
 30
0.0
 10
5.8806052238
 20
4.6869386967
 30
0.0
 10
5.8842726068
 20
4.6872575464
 30
0.0
 10
5.8874654728
 20
4.6875755171
 30
0.0
 10
5.8901820634
 20
4.6878924524
 30
0.0
 10
5.8921459996
 20
4.6881682213
 30
0.0
 10
5.8934765358
 20
4.6883940426
 30
0.0
 10
5.8942963934
 20
4.6885532935
 30
0.0
 10
5.8949965294
 20
4.6887120612
 30
0.0
 10
5.8955773124
 20
4.6888701438
 30
0.0
 10
5.8960388359
 20
4.6890272746
 30
0.0
 10
5.8963014562
 20
4.6891458155
 30
0.0
 10
5.8964096332
 20
4.6892082893
 30
0.0
  0
SPLINE
  5
2B1
100
AcDbEntity
  8
0
100
AcDbSpline
 62
7
  6
CONTINUOUS
 70
0
 71
3
 72
37
 73
33
 74
0
 42
0.0000001
 43
0.0000001
 44
0.0000000001
 40
0.0
 40
0.0
 40
0.0
 40
0.0
 40
0.0004101969
 40
0.0008570095
 40
0.0013692416
 40
0.0019662852
 40
0.0034579831
 40
0.0053890197
 40
0.0077832963
 40
0.0106530463
 40
0.0140052021
 40
0.0178439962
 40
0.0221721565
 40
0.0269915105
 40
0.0323033151
 40
0.0381083154
 40
0.0511983821
 40
0.0662614158
 40
0.0832951733
 40
0.1022964344
 40
0.1232613647
 40
0.1461846881
 40
0.1978750432
 40
0.2573020654
 40
0.3243945125
 40
0.3990619526
 40
0.4812075063
 40
0.5707261094
 40
0.6674957352
 40
0.7713914523
 40
0.8822759903
 40
1.0
 40
1.0
 40
1.0
 40
1.0
 10
5.9427313665
 20
4.7282393131
 30
0.0
 10
5.9427313664
 20
4.7282180568
 30
0.0
 10
5.9427241365
 20
4.7281734116
 30
0.0
 10
5.942692943
 20
4.7281088674
 30
0.0
 10
5.942642437
 20
4.7280453807
 30
0.0
 10
5.9425420972
 20
4.7279547566
 30
0.0
 10
5.9423632398
 20
4.7278453248
 30
0.0
 10
5.9420879452
 20
4.7277218757
 30
0.0
 10
5.9417359425
 20
4.7275978725
 30
0.0
 10
5.9413070191
 20
4.7274733908
 30
0.0
 10
5.9408007222
 20
4.7273485593
 30
0.0
 10
5.9402169884
 20
4.7272234737
 30
0.0
 10
5.9395557512
 20
4.727098202
 30
0.0
 10
5.9388170053
 20
4.7269727934
 30
0.0
 10
5.938000764
 20
4.7268472729
 30
0.0
 10
5.9367585421
 20
4.7266727388
 30
0.0
 10
5.9350119645
 20
4.7264572509
 30
0.0
 10
5.9326837086
 20
4.7262072676
 30
0.0
 10
5.9300476293
 20
4.7259568734
 30
0.0
 10
5.9271045289
 20
4.7257061444
 30
0.0
 10
5.9238552576
 20
4.72545517
 30
0.0
 10
5.9189146772
 20
4.7251061764
 30
0.0
 10
5.9119819667
 20
4.7246754358
 30
0.0
 10
5.9027606435
 20
4.7241756343
 30
0.0
 10
5.8923471536
 20
4.7236750287
 30
0.0
 10
5.8807552228
 20
4.7231736995
 30
0.0
 10
5.8680002131
 20
4.7226718866
 30
0.0
 10
5.8540990794
 20
4.7221697283
 30
0.0
 10
5.8390701917
 20
4.7216672581
 30
0.0
 10
5.8229335595
 20
4.7211645768
 30
0.0
 10
5.8057105901
 20
4.7206617221
 30
0.0
 10
5.7938686179
 20
4.7203359787
 30
0.0
 10
5.7877703732
 20
4.7201725992
 30
0.0
  0
LINE
  5
2B2
100
AcDbEntity
  8
0
100
AcDbLine
 62
7
  6
CONTINUOUS
 10
5.7877703732
 20
4.7201725992
 11
5.7842163556
 21
4.7200778739
  0
SPLINE
  5
2B3
100
AcDbEntity
  8
0
100
AcDbSpline
 62
7
  6
CONTINUOUS
 70
0
 71
3
 72
16
 73
12
 74
0
 42
0.0000001
 43
0.0000001
 44
0.0000000001
 40
0.0
 40
0.0
 40
0.0
 40
0.0
 40
0.0428912472
 40
0.0893780582
 40
0.1392862781
 40
0.1924286879
 40
0.3076051199
 40
0.4331787381
 40
0.5672640369
 40
0.7078485321
 40
1.0
 40
1.0
 40
1.0
 40
1.0
 10
5.7842163556
 20
4.7200778739
 30
0.0
 10
5.7730670272
 20
4.7197822339
 30
0.0
 10
5.749832948
 20
4.7191953099
 30
0.0
 10
5.7136234028
 20
4.7183506785
 30
0.0
 10
5.6747475298
 20
4.717505507
 30
0.0
 10
5.6180125626
 20
4.716346791
 30
0.0
 10
5.5416034714
 20
4.714913838
 30
0.0
 10
5.4441474256
 20
4.7132339037
 30
0.0
 10
5.3400835014
 20
4.7115519894
 30
0.0
 10
5.1927073716
 20
4.7092784798
 30
0.0
 10
5.0801928641
 20
4.7076203464
 30
0.0
 10
5.0042313665
 20
4.7065001826
 30
0.0
  0
SPLINE
  5
2B4
100
AcDbEntity
  8
0
100
AcDbSpline
 62
7
  6
CONTINUOUS
 70
0
 71
3
 72
42
 73
38
 74
0
 42
0.0000001
 43
0.0000001
 44
0.0000000001
 40
0.0
 40
0.0
 40
0.0
 40
0.0
 40
0.0964252026
 40
0.1919523807
 40
0.2856904269
 40
0.3767666958
 40
0.4643320674
 40
0.5475708838
 40
0.6257079017
 40
0.6980150917
 40
0.7317695329
 40
0.763818731
 40
0.7940876047
 40
0.8225061565
 40
0.8490078614
 40
0.8735314841
 40
0.8960196207
 40
0.9164204395
 40
0.9346864219
 40
0.9507757295
 40
0.9579924261
 40
0.9646512806
 40
0.9707488738
 40
0.9762819731
 40
0.9812474114
 40
0.9856424012
 40
0.9894652038
 40
0.9927145287
 40
0.9941238902
 40
0.995389662
 40
0.9965119513
 40
0.9974911265
 40
0.9983278304
 40
0.9990231548
 40
0.9995790933
 40
0.9998060269
 40
1.0
 40
1.0
 40
1.0
 40
1.0
 10
5.0042313665
 20
4.1847610522
 30
0.0
 10
4.9740653138
 20
4.1843162095
 30
0.0
 10
4.9140141499
 20
4.1834306734
 30
0.0
 10
4.8246377757
 20
4.1821004092
 30
0.0
 10
4.7369351497
 20
4.1807703856
 30
0.0
 10
4.651723885
 20
4.1794407506
 30
0.0
 10
4.5697980032
 20
4.1781116715
 30
0.0
 10
4.4919210706
 20
4.1767834012
 30
0.0
 10
4.4188188046
 20
4.175456167
 30
0.0
 10
4.3611981138
 20
4.1743271339
 30
0.0
 10
4.3179958374
 20
4.1734171673
 30
0.0
 10
4.2879442377
 20
4.1727506176
 30
0.0
 10
4.2595625487
 20
4.1720842792
 30
0.0
 10
4.2329170485
 20
4.1714182165
 30
0.0
 10
4.2080697015
 20
4.1707524675
 30
0.0
 10
4.1850785526
 20
4.1700871631
 30
0.0
 10
4.1639970853
 20
4.1694223902
 30
0.0
 10
4.1448745276
 20
4.1687584102
 30
0.0
 10
4.127755326
 20
4.1680953652
 30
0.0
 10
4.1147607662
 20
4.1675253918
 30
0.0
 10
4.1053967381
 20
4.1670643987
 30
0.0
 10
4.0991564321
 20
4.1667314863
 30
0.0
 10
4.093443684
 20
4.1663988334
 30
0.0
 10
4.0882617271
 20
4.1660665038
 30
0.0
 10
4.0836136557
 20
4.1657345992
 30
0.0
 10
4.0795021592
 20
4.1654033021
 30
0.0
 10
4.075929516
 20
4.1650727762
 30
0.0
 10
4.0732911237
 20
4.1647866175
 30
0.0
 10
4.0714521211
 20
4.1645537895
 30
0.0
 10
4.0702756012
 20
4.1643877512
 30
0.0
 10
4.0692351135
 20
4.1642219915
 30
0.0
 10
4.0683307364
 20
4.1640565833
 30
0.0
 10
4.0675623132
 20
4.1638917682
 30
0.0
 10
4.0669298128
 20
4.1637276278
 30
0.0
 10
4.0664895188
 20
4.1635839218
 30
0.0
 10
4.0662076438
 20
4.1634653724
 30
0.0
 10
4.0660900357
 20
4.1634056759
 30
0.0
 10
4.0660374772
 20
4.16337533
 30
0.0
  0
SPLINE
  5
2B5
100
AcDbEntity
  8
0
100
AcDbSpline
 62
7
  6
CONTINUOUS
 70
0
 71
3
 72
48
 73
44
 74
0
 42
0.0000001
 43
0.0000001
 44
0.0000000001
 40
0.0
 40
0.0
 40
0.0
 40
0.0
 40
0.1020915093
 40
0.2020620136
 40
0.2991143349
 40
0.3924746241
 40
0.4813985237
 40
0.5651771048
 40
0.6431425292
 40
0.679749183
 40
0.7146734068
 40
0.7478454782
 40
0.7791997684
 40
0.8086730871
 40
0.8362077175
 40
0.8617478772
 40
0.8852437609
 40
0.9066480607
 40
0.9259188101
 40
0.9430180772
 40
0.9579120326
 40
0.9645232887
 40
0.9705728822
 40
0.9760578352
 40
0.9809760755
 40
0.9853257856
 40
0.9891053578
 40
0.9907809543
 40
0.9923136492
 40
0.9937035469
 40
0.994950845
 40
0.9960558652
 40
0.9970191263
 40
0.9978414793
 40
0.9985243795
 40
0.9988143577
 40
0.9990706593
 40
0.9992940747
 40
0.9994858103
 40
0.9996477982
 40
0.9997832628
 40
0.9998976896
 40
1.0
 40
1.0
 40
1.0
 40
1.0
 10
5.1299813124
 20
4.6480582263
 30
0.0
 10
5.156092529
 20
4.6484672005
 30
0.0
 10
5.2077724089
 20
4.6492817185
 30
0.0
 10
5.2842742273
 20
4.6505128289
 30
0.0
 10
5.3585423593
 20
4.6517436169
 30
0.0
 10
5.4299844403
 20
4.6529739608
 30
0.0
 10
5.4980306624
 20
4.6542036794
 30
0.0
 10
5.5621383035
 20
4.6554326076
 30
0.0
 10
5.6128645444
 20
4.6564764553
 30
0.0
 10
5.6510956066
 20
4.6573168397
 30
0.0
 10
5.6778709181
 20
4.6579336955
 30
0.0
 10
5.7033023348
 20
4.6585504046
 30
0.0
 10
5.7273390148
 20
4.6591669179
 30
0.0
 10
5.7499331731
 20
4.6597832402
 30
0.0
 10
5.7710395307
 20
4.6603992527
 30
0.0
 10
5.7906162073
 20
4.6610149536
 30
0.0
 10
5.8086239617
 20
4.6616301672
 30
0.0
 10
5.8250270398
 20
4.6622448125
 30
0.0
 10
5.8397926795
 20
4.6628586006
 30
0.0
 10
5.85289145
 20
4.6634713246
 30
0.0
 10
5.8627522509
 20
4.6639993105
 30
0.0
 10
5.8697876472
 20
4.6644270881
 30
0.0
 10
5.8744190572
 20
4.6647348046
 30
0.0
 10
5.8786163795
 20
4.6650422308
 30
0.0
 10
5.8823776354
 20
4.6653492416
 30
0.0
 10
5.885701081
 20
4.6656557385
 30
0.0
 10
5.8881952838
 20
4.6659199427
 30
0.0
 10
5.8899699096
 20
4.6661339661
 30
0.0
 10
5.8911360173
 20
4.6662878673
 30
0.0
 10
5.8921915495
 20
4.6664416244
 30
0.0
 10
5.8931364421
 20
4.6665952024
 30
0.0
 10
5.8939706431
 20
4.6667485426
 30
0.0
 10
5.8946941817
 20
4.6669015206
 30
0.0
 10
5.8953070511
 20
4.6670540735
 30
0.0
 10
5.8957470249
 20
4.667186801
 30
0.0
 10
5.8960422538
 20
4.6672952284
 30
0.0
 10
5.8962236632
 20
4.6673719859
 30
0.0
 10
5.8963775098
 20
4.6674486642
 30
0.0
 10
5.896503932
 20
4.6675253316
 30
0.0
 10
5.8966031653
 20
4.6676021591
 30
0.0
 10
5.896675452
 20
4.6676796896
 30
0.0
 10
5.8967205776
 20
4.6677589459
 30
0.0
 10
5.89673125
 20
4.6678147334
 30
0.0
 10
5.896731236
 20
4.6678409038
 30
0.0
  0
SPLINE
  5
2B6
100
AcDbEntity
  8
0
100
AcDbSpline
 62
7
  6
CONTINUOUS
 70
0
 71
3
 72
49
 73
45
 74
0
 42
0.0000001
 43
0.0000001
 44
0.0000000001
 40
0.0
 40
0.0
 40
0.0
 40
0.0
 40
0.0000923618
 40
0.0001989685
 40
0.0003294725
 40
0.0004892443
 40
0.000681207
 40
0.0009070313
 40
0.0011677327
 40
0.001463964
 40
0.0021645749
 40
0.0030111504
 40
0.0040048532
 40
0.0051463605
 40
0.0064360582
 40
0.0078740566
 40
0.0094603342
 40
0.0111948048
 40
0.015107747
 40
0.0196115445
 40
0.0247043156
 40
0.030383073
 40
0.0366444781
 40
0.0434851257
 40
0.050901343
 40
0.058888497
 40
0.0765559845
 40
0.0964465028
 40
0.1185116128
 40
0.142699292
 40
0.168950664
 40
0.197203482
 40
0.2273890495
 40
0.2594355239
 40
0.293265058
 40
0.3287969199
 40
0.3659448967
 40
0.4447290757
 40
0.5288593993
 40
0.6175257693
 40
0.7098747604
 40
0.8050170904
 40
0.9020369772
 40
1.0
 40
1.0
 40
1.0
 40
1.0
 10
5.9427313664
 20
4.2065001827
 30
0.0
 10
5.9427313671
 20
4.2064712697
 30
0.0
 10
5.9427171729
 20
4.2064085861
 30
0.0
 10
5.9426590859
 20
4.2063216203
 30
0.0
 10
5.942567252
 20
4.2062368802
 30
0.0
 10
5.9424413888
 20
4.2061528031
 30
0.0
 10
5.9422810466
 20
4.2060687671
 30
0.0
 10
5.9420858669
 20
4.2059846343
 30
0.0
 10
5.9418556764
 20
4.2059003644
 30
0.0
 10
5.941480419
 20
4.2057810984
 30
0.0
 10
5.9409217292
 20
4.2056352753
 30
0.0
 10
5.9401440393
 20
4.205467728
 30
0.0
 10
5.9392257474
 20
4.2052996794
 30
0.0
 10
5.9381668635
 20
4.2051312071
 30
0.0
 10
5.9369674048
 20
4.2049624704
 30
0.0
 10
5.9356275295
 20
4.2047935274
 30
0.0
 10
5.9341474513
 20
4.2046244201
 30
0.0
 10
5.9318952336
 20
4.2043892241
 30
0.0
 10
5.9287306666
 20
4.204098889
 30
0.0
 10
5.9245150133
 20
4.2037620905
 30
0.0
 10
5.9197450795
 20
4.2034247567
 30
0.0
 10
5.9144237604
 20
4.203086951
 30
0.0
 10
5.908554314
 20
4.2027488156
 30
0.0
 10
5.9021401675
 20
4.2024104323
 30
0.0
 10
5.8951851126
 20
4.2020718612
 30
0.0
 10
5.8848431459
 20
4.2016043465
 30
0.0
 10
5.870597355
 20
4.2010255474
 30
0.0
 10
5.851945065
 20
4.2003510577
 30
0.0
 10
5.8312505258
 20
4.1996756904
 30
0.0
 10
5.8085638464
 20
4.1989996856
 30
0.0
 10
5.7839393932
 20
4.1983231529
 30
0.0
 10
5.7574367145
 20
4.1976462696
 30
0.0
 10
5.7291193926
 20
4.1969690552
 30
0.0
 10
5.6990558709
 20
4.1962916272
 30
0.0
 10
5.6673183475
 20
4.1956139825
 30
0.0
 10
5.6339835061
 20
4.1949361893
 30
0.0
 10
5.5865781255
 20
4.1940141218
 30
0.0
 10
5.5239609552
 20
4.1928689745
 30
0.0
 10
5.4452175606
 20
4.1915190731
 30
0.0
 10
5.362227258
 20
4.1901683507
 30
0.0
 10
5.275789329
 20
4.1888170018
 30
0.0
 10
5.1867361108
 20
4.1874652365
 30
0.0
 10
5.0959252811
 20
4.1861132064
 30
0.0
 10
5.0348944071
 20
4.1852132238
 30
0.0
 10
5.0042313665
 20
4.1847610522
 30
0.0
  0
SPLINE
  5
2B7
100
AcDbEntity
  8
0
100
AcDbSpline
 62
7
  6
CONTINUOUS
 70
0
 71
3
 72
38
 73
34
 74
0
 42
0.0000001
 43
0.0000001
 44
0.0000000001
 40
0.0
 40
0.0
 40
0.0
 40
0.0
 40
0.0003747579
 40
0.0007897679
 40
0.0012753261
 40
0.0018506827
 40
0.002527462
 40
0.0033127922
 40
0.0052251345
 40
0.0076099975
 40
0.0104779175
 40
0.0138348393
 40
0.017684198
 40
0.0220279
 40
0.0268670756
 40
0.0322023763
 40
0.0380341374
 40
0.0511872414
 40
0.0663258919
 40
0.0834475345
 40
0.102546265
 40
0.1236148285
 40
0.1466456389
 40
0.1985616079
 40
0.258214131
 40
0.3255085922
 40
0.4003405839
 40
0.4825844325
 40
0.5721097603
 40
0.6687759262
 40
0.772436675
 40
0.8829163135
 40
1.0
 40
1.0
 40
1.0
 40
1.0
 10
5.9427312039
 20
4.1195436608
 30
0.0
 10
5.9427311942
 20
4.1195201129
 30
0.0
 10
5.9427221581
 20
4.1194702
 30
0.0
 10
5.9426837595
 20
4.1193988049
 30
0.0
 10
5.9426220299
 20
4.1193288336
 30
0.0
 10
5.94253725
 20
4.1192595082
 30
0.0
 10
5.9424292729
 20
4.119190343
 30
0.0
 10
5.9422414332
 20
4.1190915796
 30
0.0
 10
5.9419447597
 20
4.1189716175
 30
0.0
 10
5.9415156664
 20
4.1188346872
 30
0.0
 10
5.9409922182
 20
4.1186972458
 30
0.0
 10
5.9403743089
 20
4.1185593561
 30
0.0
 10
5.9396617632
 20
4.1184211817
 30
0.0
 10
5.938854612
 20
4.1182827862
 30
0.0
 10
5.9379529074
 20
4.118144234
 30
0.0
 10
5.9369567344
 20
4.1180055521
 30
0.0
 10
5.9354407659
 20
4.1178126949
 30
0.0
 10
5.933309755
 20
4.1175745943
 30
0.0
 10
5.930469537
 20
4.11729839
 30
0.0
 10
5.9272542156
 20
4.1170217505
 30
0.0
 10
5.9236651021
 20
4.1167447369
 30
0.0
 10
5.9197037129
 20
4.1164674408
 30
0.0
 10
5.9136828918
 20
4.1160818661
 30
0.0
 10
5.9052386197
 20
4.1156060226
 30
0.0
 10
5.8940132715
 20
4.1150538495
 30
0.0
 10
5.8813465033
 20
4.1145007143
 30
0.0
 10
5.8672590392
 20
4.1139468507
 30
0.0
 10
5.8517737447
 20
4.1133924214
 30
0.0
 10
5.8349157111
 20
4.1128376098
 30
0.0
 10
5.8167112864
 20
4.1122824517
 30
0.0
 10
5.797189637
 20
4.1117270303
 30
0.0
 10
5.7763845721
 20
4.1111714482
 30
0.0
 10
5.7620901569
 20
4.1108112516
 30
0.0
 10
5.7547354184
 20
4.1106306174
 30
0.0
  0
LINE
  5
2B8
100
AcDbEntity
  8
0
100
AcDbLine
 62
7
  6
CONTINUOUS
 10
4.1120533207
 20
4.1899516485
 11
4.1122102232
 21
4.1900333148
  0
SPLINE
  5
2B9
100
AcDbEntity
  8
0
100
AcDbSpline
 62
7
  6
CONTINUOUS
 70
0
 71
3
 72
80
 73
76
 74
0
 42
0.0000001
 43
0.0000001
 44
0.0000000001
 40
0.0
 40
0.0
 40
0.0
 40
0.0
 40
0.000253662
 40
0.0005768614
 40
0.0009710762
 40
0.0014370762
 40
0.001975251
 40
0.0025858095
 40
0.0040244192
 40
0.0057532013
 40
0.0077719145
 40
0.0100797753
 40
0.0126755023
 40
0.0155577161
 40
0.018724987
 40
0.02590749
 40
0.0342061459
 40
0.0436022324
 40
0.0540733211
 40
0.0655953733
 40
0.0781408697
 40
0.0916807487
 40
0.1061827541
 40
0.1216130858
 40
0.1379350991
 40
0.1551105769
 40
0.1918576481
 40
0.2315080029
 40
0.2736879056
 40
0.3179997296
 40
0.3640257183
 40
0.4113319329
 40
0.4594723499
 40
0.5079930715
 40
0.5564366102
 40
0.6043462067
 40
0.651270142
 40
0.6967660008
 40
0.7404048485
 40
0.7817752823
 40
0.8204873199
 40
0.8387313705
 40
0.8561760942
 40
0.8727805139
 40
0.8885053063
 40
0.903313675
 40
0.9171704426
 40
0.9300433484
 40
0.9419017149
 40
0.9527181281
 40
0.9624667531
 40
0.9711253046
 40
0.9786731557
 40
0.9820252456
 40
0.9850935003
 40
0.9878760425
 40
0.9903714603
 40
0.9925786236
 40
0.994496495
 40
0.9953466712
 40
0.9961242365
 40
0.996829208
 40
0.9974616478
 40
0.9980216717
 40
0.9985094816
 40
0.998925424
 40
0.999270111
 40
0.999416088
 40
0.9995447657
 40
0.9996564947
 40
0.9997518232
 40
0.9998316441
 40
0.9998974831
 40
0.9999520493
 40
1.0
 40
1.0
 40
1.0
 40
1.0
 10
4.1122102232
 20
4.1900333148
 30
0.0
 10
4.1123466729
 20
4.1900979404
 30
0.0
 10
4.112668047
 20
4.1902211381
 30
0.0
 10
4.1132222853
 20
4.1903858137
 30
0.0
 10
4.113907203
 20
4.1905513584
 30
0.0
 10
4.1147228794
 20
4.1907175403
 30
0.0
 10
4.1156695116
 20
4.190884171
 30
0.0
 10
4.117191448
 20
4.1911198192
 30
0.0
 10
4.1194218564
 20
4.1914080454
 30
0.0
 10
4.1224908904
 20
4.191739712
 30
0.0
 10
4.1260797809
 20
4.192072363
 30
0.0
 10
4.1301864954
 20
4.1924058402
 30
0.0
 10
4.1348086173
 20
4.1927398506
 30
0.0
 10
4.1399434203
 20
4.1930742912
 30
0.0
 10
4.1478053605
 20
4.193540353
 30
0.0
 10
4.1588902172
 20
4.1941147392
 30
0.0
 10
4.1736823021
 20
4.1947805375
 30
0.0
 10
4.1904334508
 20
4.1954475464
 30
0.0
 10
4.2091044737
 20
4.1961156534
 30
0.0
 10
4.2296510917
 20
4.196784414
 30
0.0
 10
4.2520251228
 20
4.1974537607
 30
0.0
 10
4.2761735481
 20
4.1981234799
 30
0.0
 10
4.3020396368
 20
4.1987935526
 30
0.0
 10
4.3295621716
 20
4.1994638519
 30
0.0
 10
4.3586764013
 20
4.2001343915
 30
0.0
 10
4.4004761068
 20
4.2010493711
 30
0.0
 10
4.4561593529
 20
4.2021847674
 30
0.0
 10
4.5267242155
 20
4.203519921
 30
0.0
 10
4.6017923693
 20
4.204856095
 30
0.0
 10
4.6806558671
 20
4.2061930581
 30
0.0
 10
4.7625709668
 20
4.2075305622
 30
0.0
 10
4.8467651407
 20
4.2088684381
 30
0.0
 10
4.9324443643
 20
4.2102065393
 30
0.0
 10
5.0188006054
 20
4.2115447398
 30
0.0
 10
5.1050194456
 20
4.2128829202
 30
0.0
 10
5.1902877624
 20
4.2142209604
 30
0.0
 10
5.2738013993
 20
4.2155587277
 30
0.0
 10
5.3547727503
 20
4.2168960733
 30
0.0
 10
5.4324381906
 20
4.2182327911
 30
0.0
 10
5.5060652742
 20
4.2195686875
 30
0.0
 10
5.5645784727
 20
4.2207021377
 30
0.0
 10
5.608852593
 20
4.2216147526
 30
0.0
 10
5.6399703891
 20
4.2222855018
 30
0.0
 10
5.669588357
 20
4.2229560703
 30
0.0
 10
5.6976367423
 20
4.2236264654
 30
0.0
 10
5.7240492324
 20
4.2242966008
 30
0.0
 10
5.7487637005
 20
4.2249664655
 30
0.0
 10
5.7717216436
 20
4.2256359191
 30
0.0
 10
5.7928691478
 20
4.2263049179
 30
0.0
 10
5.8121560858
 20
4.2269732286
 30
0.0
 10
5.8295372716
 20
4.2276406656
 30
0.0
 10
5.8449714501
 20
4.2283069027
 30
0.0
 10
5.8565986673
 20
4.2288809279
 30
0.0
 10
5.8648995765
 20
4.2293460251
 30
0.0
 10
5.8703669537
 20
4.2296806369
 30
0.0
 10
5.8753234154
 20
4.2300149287
 30
0.0
 10
5.8797661079
 20
4.2303487764
 30
0.0
 10
5.8836925632
 20
4.23068206
 30
0.0
 10
5.8866399764
 20
4.2309693527
 30
0.0
 10
5.8887374898
 20
4.2312020904
 30
0.0
 10
5.8901158326
 20
4.2313694424
 30
0.0
 10
5.8913635574
 20
4.2315366356
 30
0.0
 10
5.8924805561
 20
4.2317036289
 30
0.0
 10
5.8934667353
 20
4.2318703567
 30
0.0
 10
5.8943220864
 20
4.2320366734
 30
0.0
 10
5.895046562
 20
4.2322025061
 30
0.0
 10
5.8955668903
 20
4.2323468176
 30
0.0
 10
5.8959162357
 20
4.2324647961
 30
0.0
 10
5.8961306555
 20
4.2325482169
 30
0.0
 10
5.896312457
 20
4.2326315243
 30
0.0
 10
5.8964618087
 20
4.2327147735
 30
0.0
 10
5.8965790328
 20
4.2327981237
 30
0.0
 10
5.8966645084
 20
4.2328821884
 30
0.0
 10
5.8967182556
 20
4.2329683397
 30
0.0
 10
5.8967311834
 20
4.2330297548
 30
0.0
 10
5.8967311716
 20
4.2330582951
 30
0.0
  0
SPLINE
  5
2BA
100
AcDbEntity
  8
0
100
AcDbSpline
 62
7
  6
CONTINUOUS
 70
0
 71
3
 72
49
 73
45
 74
0
 42
0.0000001
 43
0.0000001
 44
0.0000000001
 40
0.0
 40
0.0
 40
0.0
 40
0.0
 40
0.0000923628
 40
0.0001989712
 40
0.0003294766
 40
0.000489249
 40
0.0006812114
 40
0.0009070346
 40
0.0011677345
 40
0.0014639639
 40
0.0021645712
 40
0.0030111447
 40
0.0040048489
 40
0.005146363
 40
0.0064360679
 40
0.0078740689
 40
0.0094603459
 40
0.0111948141
 40
0.0151077524
 40
0.019611557
 40
0.024704334
 40
0.0303830835
 40
0.0366444786
 40
0.043485125
 40
0.0509013371
 40
0.0588884685
 40
0.0765559039
 40
0.096446337
 40
0.1185113866
 40
0.1426990645
 40
0.1689504562
 40
0.1972032851
 40
0.2273888178
 40
0.2594352059
 40
0.2932646662
 40
0.3287965271
 40
0.3659445883
 40
0.4447291192
 40
0.5288596261
 40
0.6175259979
 40
0.7098750007
 40
0.8050173022
 40
0.9020370633
 40
1.0
 40
1.0
 40
1.0
 40
1.0
 10
5.9427313663
 20
4.0325871392
 30
0.0
 10
5.9427313652
 20
4.0325582259
 30
0.0
 10
5.9427171674
 20
4.0324955424
 30
0.0
 10
5.9426590779
 20
4.0324085771
 30
0.0
 10
5.9425672426
 20
4.032323837
 30
0.0
 10
5.9424413789
 20
4.0322397597
 30
0.0
 10
5.942281037
 20
4.0321557235
 30
0.0
 10
5.9420858584
 20
4.0320715906
 30
0.0
 10
5.9418556694
 20
4.0319873205
 30
0.0
 10
5.9414804143
 20
4.0318680544
 30
0.0
 10
5.9409217271
 20
4.0317222309
 30
0.0
 10
5.9401440386
 20
4.0315546834
 30
0.0
 10
5.9392257448
 20
4.0313866345
 30
0.0
 10
5.9381668559
 20
4.0312181626
 30
0.0
 10
5.9369673919
 20
4.031049426
 30
0.0
 10
5.9356275138
 20
4.0308804828
 30
0.0
 10
5.9341474358
 20
4.0307113753
 30
0.0
 10
5.9318952203
 20
4.0304761791
 30
0.0
 10
5.9287306531
 20
4.0301858436
 30
0.0
 10
5.9245149969
 20
4.0298490459
 30
0.0
 10
5.9197450614
 20
4.0295117126
 30
0.0
 10
5.9144237462
 20
4.0291739067
 30
0.0
 10
5.9085543058
 20
4.0288357712
 30
0.0
 10
5.9021401644
 20
4.0284973887
 30
0.0
 10
5.8951851186
 20
4.0281588184
 30
0.0
 10
5.8848431769
 20
4.0276913041
 30
0.0
 10
5.8705974362
 20
4.0271125073
 30
0.0
 10
5.8519452081
 20
4.0264380188
 30
0.0
 10
5.831250715
 20
4.0257626529
 30
0.0
 10
5.8085640489
 20
4.0250866481
 30
0.0
 10
5.7839395867
 20
4.0244101144
 30
0.0
 10
5.7574369095
 20
4.023733231
 30
0.0
 10
5.7291196222
 20
4.023056017
 30
0.0
 10
5.6990561617
 20
4.02237859
 30
0.0
 10
5.6673186889
 20
4.0217009461
 30
0.0
 10
5.6339838447
 20
4.0210231527
 30
0.0
 10
5.5865783281
 20
4.020101082
 30
0.0
 10
5.5239609643
 20
4.0189559311
 30
0.0
 10
5.445217402
 20
4.0176060269
 30
0.0
 10
5.3622270383
 20
4.0162553037
 30
0.0
 10
5.2757891144
 20
4.014903955
 30
0.0
 10
5.1867359413
 20
4.0135521905
 30
0.0
 10
5.0959251874
 20
4.0122001616
 30
0.0
 10
5.03489438
 20
4.0113001799
 30
0.0
 10
5.0042313665
 20
4.0108480087
 30
0.0
  0
SPLINE
  5
2BB
100
AcDbEntity
  8
0
100
AcDbSpline
 62
7
  6
CONTINUOUS
 70
0
 71
3
 72
42
 73
38
 74
0
 42
0.0000001
 43
0.0000001
 44
0.0000000001
 40
0.0
 40
0.0
 40
0.0
 40
0.0
 40
0.0964252444
 40
0.191952429
 40
0.2856905665
 40
0.3767668109
 40
0.464332282
 40
0.5475712142
 40
0.6257080753
 40
0.6980149969
 40
0.7317693597
 40
0.7638185405
 40
0.7940874342
 40
0.8225060273
 40
0.8490077465
 40
0.8735313713
 40
0.8960195243
 40
0.9164203816
 40
0.9346863815
 40
0.9507756874
 40
0.9579923833
 40
0.9646512426
 40
0.9707488456
 40
0.9762819565
 40
0.981247405
 40
0.9856424
 40
0.9894652035
 40
0.9927145273
 40
0.9941238886
 40
0.9953896606
 40
0.9965119503
 40
0.9974911258
 40
0.9983278298
 40
0.9990231543
 40
0.999579093
 40
0.9998060268
 40
1.0
 40
1.0
 40
1.0
 40
1.0
 10
5.0042313665
 20
4.7813554074
 30
0.0
 10
5.0343974322
 20
4.7818002503
 30
0.0
 10
5.0944486111
 20
4.7826857866
 30
0.0
 10
5.1838250288
 20
4.7840160515
 30
0.0
 10
5.2715276777
 20
4.7853460754
 30
0.0
 10
5.3567389943
 20
4.7866757113
 30
0.0
 10
5.4386649356
 20
4.7880047916
 30
0.0
 10
5.5165418865
 20
4.7893330624
 30
0.0
 10
5.5896440555
 20
4.7906602951
 30
0.0
 10
5.6472645888
 20
4.7917893252
 30
0.0
 10
5.6904667512
 20
4.7926992893
 30
0.0
 10
5.7205183272
 20
4.7933658381
 30
0.0
 10
5.7489000299
 20
4.7940321769
 30
0.0
 10
5.7755455538
 20
4.7946982397
 30
0.0
 10
5.8003929188
 20
4.795363989
 30
0.0
 10
5.8233840779
 20
4.7960292932
 30
0.0
 10
5.844465563
 20
4.7966940669
 30
0.0
 10
5.8635881433
 20
4.7973580472
 30
0.0
 10
5.8807073619
 20
4.7980210924
 30
0.0
 10
5.8937019264
 20
4.7985910657
 30
0.0
 10
5.9030659553
 20
4.7990520589
 30
0.0
 10
5.9093062656
 20
4.7993849717
 30
0.0
 10
5.9150190219
 20
4.7997176249
 30
0.0
 10
5.9202009887
 20
4.8000499549
 30
0.0
 10
5.9248490685
 20
4.8003818597
 30
0.0
 10
5.9289605701
 20
4.800713157
 30
0.0
 10
5.9325332148
 20
4.801043683
 30
0.0
 10
5.935171607
 20
4.8013298417
 30
0.0
 10
5.9370106092
 20
4.8015626698
 30
0.0
 10
5.9381871292
 20
4.8017287081
 30
0.0
 10
5.9392276172
 20
4.8018944678
 30
0.0
 10
5.9401319946
 20
4.802059876
 30
0.0
 10
5.940900418
 20
4.8022246911
 30
0.0
 10
5.9415329185
 20
4.8023888316
 30
0.0
 10
5.9419732126
 20
4.8025325377
 30
0.0
 10
5.9422550877
 20
4.8026510872
 30
0.0
 10
5.9423726959
 20
4.8027107837
 30
0.0
 10
5.9424252544
 20
4.8027411296
 30
0.0
  0
SPLINE
  5
2BC
100
AcDbEntity
  8
0
100
AcDbSpline
 62
7
  6
CONTINUOUS
 70
0
 71
3
 72
13
 73
9
 74
0
 42
0.0000001
 43
0.0000001
 44
0.0000000001
 40
0.0
 40
0.0
 40
0.0
 40
0.0
 40
0.1109650136
 40
0.2274553717
 40
0.3487395704
 40
0.4740703483
 40
0.7337313046
 40
1.0
 40
1.0
 40
1.0
 40
1.0
 10
5.5578614184
 20
4.8287468422
 30
0.0
 10
5.5373869905
 20
4.8279990108
 30
0.0
 10
5.4954169914
 20
4.8265110798
 30
0.0
 10
5.4310639812
 20
4.8243369502
 30
0.0
 10
5.3640571152
 20
4.8221621217
 30
0.0
 10
5.2706266823
 20
4.8192270893
 30
0.0
 10
5.1504357309
 20
4.8155947274
 30
0.0
 10
5.0533726522
 20
4.8127321121
 30
0.0
 10
5.0042313665
 20
4.8112827913
 30
0.0
  0
SPLINE
  5
2BD
100
AcDbEntity
  8
0
100
AcDbSpline
 62
7
  6
CONTINUOUS
 70
0
 71
3
 72
38
 73
34
 74
0
 42
0.0000001
 43
0.0000001
 44
0.0000000001
 40
0.0
 40
0.0
 40
0.0
 40
0.0
 40
0.117054292
 40
0.2275101844
 40
0.3311522476
 40
0.4277994358
 40
0.5173068115
 40
0.5995339476
 40
0.674352406
 40
0.7416379014
 40
0.8012819184
 40
0.8531944191
 40
0.8762244174
 40
0.8972922553
 40
0.9163913594
 40
0.9335155224
 40
0.9486590946
 40
0.9618176921
 40
0.9676524819
 40
0.9729912748
 40
0.977834642
 40
0.9821835013
 40
0.9860392944
 40
0.9894042929
 40
0.9922821598
 40
0.9946790686
 40
0.9966061776
 40
0.9974003938
 40
0.9980874571
 40
0.9986749082
 40
0.9991748089
 40
0.9996066129
 40
1.0
 40
1.0
 40
1.0
 40
1.0
 10
5.7179499242
 20
4.1371887298
 30
0.0
 10
5.7249439888
 20
4.1373693592
 30
0.0
 10
5.7385376268
 20
4.1377295532
 30
0.0
 10
5.7583229812
 20
4.1382851385
 30
0.0
 10
5.7768880878
 20
4.1388405615
 30
0.0
 10
5.7942005011
 20
4.1393957331
 30
0.0
 10
5.8102322398
 20
4.1399505397
 30
0.0
 10
5.824958435
 20
4.1405049696
 30
0.0
 10
5.8383554136
 20
4.1410588463
 30
0.0
 10
5.8504013596
 20
4.1416119592
 30
0.0
 10
5.8610766339
 20
4.1421641664
 30
0.0
 10
5.8691069801
 20
4.1426399936
 30
0.0
 10
5.8748326307
 20
4.1430255596
 30
0.0
 10
5.8785997822
 20
4.143302864
 30
0.0
 10
5.8820129159
 20
4.1435798872
 30
0.0
 10
5.885070707
 20
4.1438565372
 30
0.0
 10
5.8877718474
 20
4.1441327251
 30
0.0
 10
5.8897984177
 20
4.1443708251
 30
0.0
 10
5.8912399514
 20
4.1445636801
 30
0.0
 10
5.8921872235
 20
4.1447023667
 30
0.0
 10
5.8930446659
 20
4.1448409258
 30
0.0
 10
5.8938122257
 20
4.1449793313
 30
0.0
 10
5.8944898819
 20
4.1451175225
 30
0.0
 10
5.8950776207
 20
4.1452554317
 30
0.0
 10
5.895575604
 20
4.1453929078
 30
0.0
 10
5.8959838991
 20
4.1455298927
 30
0.0
 10
5.8962660236
 20
4.1456498941
 30
0.0
 10
5.8964444621
 20
4.1457485852
 30
0.0
 10
5.8965471665
 20
4.1458178124
 30
0.0
 10
5.8966277831
 20
4.1458872273
 30
0.0
 10
5.8966864104
 20
4.1459572907
 30
0.0
 10
5.8967227159
 20
4.1460286589
 30
0.0
 10
5.8967311685
 20
4.1460782604
 30
0.0
 10
5.8967311596
 20
4.1461017734
 30
0.0
  0
SPLINE
  5
2BE
100
AcDbEntity
  8
0
100
AcDbSpline
 62
7
  6
CONTINUOUS
 70
0
 71
3
 72
30
 73
26
 74
0
 42
0.0000001
 43
0.0000001
 44
0.0000000001
 40
0.0
 40
0.0
 40
0.0
 40
0.0
 40
0.2191829127
 40
0.3194805949
 40
0.4133537387
 40
0.5006732363
 40
0.5813138655
 40
0.6551600911
 40
0.722101638
 40
0.7820356678
 40
0.8348797596
 40
0.8805565795
 40
0.900686932
 40
0.9190038737
 40
0.9355019329
 40
0.9501761082
 40
0.9630223626
 40
0.9740400472
 40
0.9832319209
 40
0.9871453768
 40
0.990605734
 40
0.993615547
 40
0.9961789263
 40
0.9983028297
 40
1.0
 40
1.0
 40
1.0
 40
1.0
 10
5.7179499242
 20
4.1589277298
 30
0.0
 10
5.7310088391
 20
4.1592649906
 30
0.0
 10
5.7500429119
 20
4.1597799151
 30
0.0
 10
5.7746678766
 20
4.1605116486
 30
0.0
 10
5.7914362276
 20
4.1610438772
 30
0.0
 10
5.8070324013
 20
4.1615757818
 30
0.0
 10
5.8214342385
 20
4.1621073862
 30
0.0
 10
5.8346206748
 20
4.162638563
 30
0.0
 10
5.8465719318
 20
4.1631691609
 30
0.0
 10
5.857270148
 20
4.1636989917
 30
0.0
 10
5.8666992971
 20
4.1642277815
 30
0.0
 10
5.8737563003
 20
4.1646841196
 30
0.0
 10
5.8787564335
 20
4.1650543365
 30
0.0
 10
5.8820204144
 20
4.1653199371
 30
0.0
 10
5.8849580578
 20
4.1655852086
 30
0.0
 10
5.8875682122
 20
4.1658500732
 30
0.0
 10
5.8898499389
 20
4.166114316
 30
0.0
 10
5.8918024829
 20
4.166377808
 30
0.0
 10
5.8932221726
 20
4.1666067174
 30
0.0
 10
5.8941916945
 20
4.1667937054
 30
0.0
 10
5.8947963155
 20
4.166926111
 30
0.0
 10
5.8953183666
 20
4.1670582081
 30
0.0
 10
5.8957580458
 20
4.1671899084
 30
0.0
 10
5.8961154616
 20
4.1673210608
 30
0.0
 10
5.8963220228
 20
4.1674185614
 30
0.0
 10
5.8964096095
 20
4.1674691589
 30
0.0
  0
ENDSEC
  0
SECTION
  2
OBJECTS
  0
DICTIONARY
  5
C
100
AcDbDictionary
280
0
281
1
  3
ACAD_GROUP
350
D
  3
ACAD_MLINESTYLE
350
17
  3
ACAD_LAYOUT
350
1A
  3
ACAD_PLOTSETTINGS
350
19
  3
ACAD_PLOTSTYLENAME
350
E
  0
DICTIONARY
  5
D
102
{ACAD_REACTORS
330
C
102
}
100
AcDbDictionary
280
0
281
1
  0
ACDBDICTIONARYWDFLT
  5
E
102
{ACAD_REACTORS
330
C
102
}
100
AcDbDictionary
281
1
  3
Normal
350
F
100
AcDbDictionaryWithDefault
340
F
  0
DICTIONARY
  5
17
102
{ACAD_REACTORS
330
C
102
}
100
AcDbDictionary
280
0
281
1
  3
Standard
350
18
  0
DICTIONARY
  5
19
102
{ACAD_REACTORS
330
C
102
}
100
AcDbDictionary
281
1
  0
DICTIONARY
  5
1A
102
{ACAD_REACTORS
330
C
102
}
100
AcDbDictionary
281
1
  3
Model
350
2BF
  3
Layout1
350
2C0
  0
ACDBPLACEHOLDER
  5
F
102
{ACAD_REACTORS
330
E
102
}
  0
MLINESTYLE
  5
18
102
{ACAD_REACTORS
330
17
102
}
100
AcDbMlineStyle
  2
STANDARD
 70
0
  3

 62
256
 51
90.0
 52
90.0
 71
2
 49
0.5
 62
256
  6
BYLAYER
 49
-0.5
 62
256
  6
BYLAYER
  0
LAYOUT
  5
2BF
102
{ACAD_REACTORS
330
1A
102
}
100
AcDbPlotSettings
  1

  2
none_device
  4
ANSI_A_(11.00_x_8.50_Inches)
  6

 40
0.0
 41
0.0
 42
0.0
 43
0.0
 44
279.4
 45
215.9
 46
0.0
 47
0.0
 48
0.0
 49
0.0
140
0.0
141
0.0
142
1.0
143
1.0
 70
1024
 72
0
 73
0
 74
0
  7

 75
0
147
1.0
148
0.0
149
0.0
100
AcDbLayout
  1
Model
 70
0
 71
0
 10
0.0
 20
0.0
 11
11.0
 21
8.5
 12
0.0
 22
0.0
 32
0.0
 14
0.0
 24
0.0
 34
0.0
 15
0.0
 25
0.0
 35
0.0
146
0.0
 13
0.0
 23
0.0
 33
0.0
 16
1.0
 26
0.0
 36
0.0
 17
0.0
 27
1.0
 37
0.0
 76
0
330
20C
345
0
346
0
  0
LAYOUT
  5
2C0
102
{ACAD_REACTORS
330
1A
102
}
100
AcDbPlotSettings
  1

  2
none_device
  4
ANSI_A_(11.00_x_8.50_Inches)
  6

 40
0.0
 41
0.0
 42
0.0
 43
0.0
 44
279.4
 45
215.9
 46
0.0
 47
0.0
 48
0.0
 49
0.0
140
0.0
141
0.0
142
1.0
143
1.0
 70
0
 72
0
 73
0
 74
0
  7

 75
0
147
1.0
148
0.0
149
0.0
100
AcDbLayout
  1
Layout1
 70
0
 71
1
 10
0.0
 20
0.0
 11
11.0
 21
8.5
 12
0.0
 22
0.0
 32
0.0
 14
0.0
 24
0.0
 34
0.0
 15
0.0
 25
0.0
 35
0.0
146
0.0
 13
0.0
 23
0.0
 33
0.0
 16
1.0
 26
0.0
 36
0.0
 17
0.0
 27
1.0
 37
0.0
 76
0
330
20D
345
0
346
0
  0
ENDSEC
  0
EOF
