999
DXF file: 1400-4263_top.dxf
999
Pro/ENGINEER 2019352 by Parametric Technology Corporation
  0
SECTION
  2
HEADER
  9
$ACADVER
  1
AC1032
  9
$DWGCODEPAGE
  3
ANSI_1252
  9
$EXTMAX
 10
11.0
 20
8.5
 30
0.0
  9
$EXTMIN
 10
0.0
 20
0.0
 30
0.0
  9
$LIMMIN
 10
0.0
 20
0.0
  9
$LIMMAX
 10
11.0
 20
8.5
  9
$VIEWCTR
 10
5.5
 20
4.25
  9
$VIEWSIZE
 40
8.5
  9
$CLAYER
  8
0
  9
$LTSCALE
 40
0.605
  9
$CELTYPE
  6
BYLAYER
  9
$DIMSCALE
 40
1.0
  9
$DIMASZ
 40
0.1
  9
$DIMEXO
 40
0.0625
  9
$DIMDLI
 40
0.418
  9
$DIMEXE
 40
0.125
  9
$DIMCEN
 40
0.099
  9
$DIMLFAC
 40
1.0
  9
$DIMBLK
  1
_FILLED
  9
$DIMALT
 70
1
  9
$DIMALTD
 70
2
  9
$DIMALTTD
 70
2
  9
$DIMALTF
 40
25.4
  9
$DIMTXT
 40
0.08
  9
$DIMTOL
 70
1
  9
$DIMLIM
 70
0
  9
$DIMTFAC
 40
1.0
  9
$DIMTP
 40
0.001
  9
$DIMTM
 40
0.001
  9
$DIMGAP
 40
0.09
  9
$DIMDSEP
 70
46
  9
$AUNITS
 70
0
  9
$PDMODE
 70
3
  9
$PDSIZE
 40
0.3125
  9
$HANDSEED
  5
296
  9
$TILEMODE
 70
1
  9
$MEASUREMENT
 70
0
  9
$INSUNITS
 70
1
  0
ENDSEC
  0
SECTION
  2
CLASSES
  0
CLASS
  1
ACDBDICTIONARYWDFLT
  2
AcDbDictionaryWithDefault
  3
AutoCAD 2000
 90
0
 91
1
280
0
281
0
  0
CLASS
  1
ACDBPLACEHOLDER
  2
AcDbPlaceHolder
  3
AutoCAD 2000
 90
0
 91
1
280
0
281
0
  0
CLASS
  1
LAYOUT
  2
AcDbLayout
  3
AutoCAD 2000
 90
0
 91
0
280
0
281
0
  0
ENDSEC
  0
SECTION
  2
TABLES
  0
TABLE
  2
VPORT
  5
8
100
AcDbSymbolTable
 70
2
  0
VPORT
  5
1F4
100
AcDbSymbolTableRecord
100
AcDbViewportTableRecord
  2
*ACTIVE
 70
0
 10
0.0
 20
0.0
 11
1.0
 21
1.0
 12
5.5
 22
4.25
 13
0.0
 23
0.0
 14
1.0
 24
1.0
 15
0.0
 25
0.0
 16
0.0
 26
0.0
 36
1.0
 17
0.0
 27
0.0
 37
0.0
 40
8.5
 41
1.2941176471
 42
50.0
 43
0.0
 44
0.0
 50
0.0
 51
0.0
 71
0
 72
100
 73
1
 74
1
 75
0
 76
0
 77
0
 78
0
  0
ENDTAB
  0
TABLE
  2
LTYPE
  5
5
100
AcDbSymbolTable
 70
6
  0
LTYPE
  5
14
100
AcDbSymbolTableRecord
100
AcDbLinetypeTableRecord
  2
BYBLOCK
 70
0
  3

 72
65
 73
0
 40
0.0
  0
LTYPE
  5
15
100
AcDbSymbolTableRecord
100
AcDbLinetypeTableRecord
  2
BYLAYER
 70
0
  3

 72
65
 73
0
 40
0.0
  0
LTYPE
  5
16
100
AcDbSymbolTableRecord
100
AcDbLinetypeTableRecord
  2
CONTINUOUS
 70
64
  3
Solid line
 72
65
 73
0
 40
0.0
  0
LTYPE
  5
1F5
100
AcDbSymbolTableRecord
100
AcDbLinetypeTableRecord
  2
CENTER
 70
64
  3
____ _ ____ _ ____ _ ____ _ ____ _ ____ _ ____
 72
65
 73
4
 40
0.6
 49
0.375
 74
0
 49
-0.075
 74
0
 49
0.075
 74
0
 49
-0.075
 74
0
  0
LTYPE
  5
1F6
100
AcDbSymbolTableRecord
100
AcDbLinetypeTableRecord
  2
HIDDEN
 70
64
  3
- - - - - - - - - - - - - - - - - - - -
 72
65
 73
2
 40
0.2
 49
0.1
 74
0
 49
-0.1
 74
0
  0
LTYPE
  5
1F7
100
AcDbSymbolTableRecord
100
AcDbLinetypeTableRecord
  2
PHANTOM
 70
64
  3
_____ _ _ _____ _ _ _____ _ _ _____
 72
65
 73
6
 40
0.8
 49
0.45
 74
0
 49
-0.05
 74
0
 49
0.1
 74
0
 49
-0.05
 74
0
 49
0.1
 74
0
 49
-0.05
 74
0
  0
LTYPE
  5
1F8
100
AcDbSymbolTableRecord
100
AcDbLinetypeTableRecord
  2
DOT
 70
64
  3
. . . . . . . . . . . . . . . . . . . .
 72
65
 73
2
 40
0.2
 49
0.1
 74
0
 49
-0.1
 74
0
  0
LTYPE
  5
1F9
100
AcDbSymbolTableRecord
100
AcDbLinetypeTableRecord
  2
DASHED
 70
64
  3
- - - - - - - - - - - - - - - - - - - -
 72
65
 73
2
 40
0.2
 49
0.1
 74
0
 49
-0.1
 74
0
  0
ENDTAB
  0
TABLE
  2
LAYER
  5
2
100
AcDbSymbolTable
 70
36
  0
LAYER
  5
10
100
AcDbSymbolTableRecord
100
AcDbLayerTableRecord
  2
0
 70
0
 62
7
  6
CONTINUOUS
370
-3
390
F
  0
LAYER
  5
1FA
100
AcDbSymbolTableRecord
100
AcDbLayerTableRecord
  2
DEFAULT_1
 70
0
 62
7
  6
CENTER
370
-3
390
F
  0
LAYER
  5
1FB
100
AcDbSymbolTableRecord
100
AcDbLayerTableRecord
  2
DEFAULT_2
 70
0
 62
8
  6
HIDDEN
370
-3
390
F
  0
LAYER
  5
1FC
100
AcDbSymbolTableRecord
100
AcDbLayerTableRecord
  2
DEFAULT_3
 70
0
 62
7
  6
PHANTOM
370
-3
390
F
  0
LAYER
  5
1FD
100
AcDbSymbolTableRecord
100
AcDbLayerTableRecord
  2
DEFAULT_COORDINATE_SYSTEM
 70
0
 62
7
  6
CONTINUOUS
370
-3
390
F
  0
LAYER
  5
1FE
100
AcDbSymbolTableRecord
100
AcDbLayerTableRecord
  2
DEFAULT_DATUM_AXES
 70
0
 62
7
  6
CONTINUOUS
370
-3
390
F
  0
LAYER
  5
1FF
100
AcDbSymbolTableRecord
100
AcDbLayerTableRecord
  2
DEFAULT_DATUM_PLANES
 70
0
 62
7
  6
CONTINUOUS
370
-3
390
F
  0
ENDTAB
  0
TABLE
  2
STYLE
  5
3
100
AcDbSymbolTable
 70
1
  0
STYLE
  5
11
100
AcDbSymbolTableRecord
100
AcDbTextStyleTableRecord
  2
STANDARD
 70
0
 40
0.0
 41
0.8
 50
0.0
 71
0
 42
0.2
  3
txt
  4

  0
STYLE
  5
200
100
AcDbSymbolTableRecord
100
AcDbTextStyleTableRecord
  2
TEXTSTYLE_1
 70
0
 40
0.0
 41
0.8
 50
0.0
 71
0
 42
0.2
  3
gdt
  4

  0
ENDTAB
  0
TABLE
  2
VIEW
  5
6
100
AcDbSymbolTable
 70
0
  0
ENDTAB
  0
TABLE
  2
UCS
  5
7
100
AcDbSymbolTable
 70
0
  0
ENDTAB
  0
TABLE
  2
APPID
  5
9
100
AcDbSymbolTable
 70
1
  0
APPID
  5
201
100
AcDbSymbolTableRecord
100
AcDbRegAppTableRecord
  2
ACAD
 70
0
  0
ENDTAB
  0
TABLE
  2
BLOCK_RECORD
  5
1
100
AcDbSymbolTable
 70
0
  0
BLOCK_RECORD
  5
202
100
AcDbSymbolTableRecord
100
AcDbBlockTableRecord
  2
*Model_Space
  0
BLOCK_RECORD
  5
203
100
AcDbSymbolTableRecord
100
AcDbBlockTableRecord
  2
*Paper_Space
  0
BLOCK_RECORD
  5
204
100
AcDbSymbolTableRecord
100
AcDbBlockTableRecord
  2
_FILLED
  0
ENDTAB
  0
TABLE
  2
DIMSTYLE
  5
A
100
AcDbSymbolTable
 70
1
100
AcDbDimStyleTable
 71
0
  0
DIMSTYLE
105
205
100
AcDbSymbolTableRecord
100
AcDbDimStyleTableRecord
  2
STANDARD
 70
0
  3

  4

 40
1.0
 41
0.1
 42
0.0625
 43
0.38
 44
0.125
 45
0.0
 46
0.0
 47
0.001
 48
0.001
140
0.08
141
0.09
142
0.0
143
25.4
144
1.0
145
0.0
146
1.0
147
0.09
 71
1.0
 72
0.0
 73
1
 74
1
 75
0
 76
0
 77
0
 78
4
 79
1
170
1
171
2
172
0
173
0
174
0
175
0
176
0
177
0
178
0
270
2
179
3
271
3
272
3
273
2
274
2
275
0
280
0
281
0
282
0
283
1
284
4
285
0
286
0
287
3
288
0
340
11
278
46
341
204
342
204
343
204
344
204
  0
ENDTAB
  0
ENDSEC
  0
SECTION
  2
BLOCKS
  0
BLOCK
  5
20
100
AcDbEntity
  8
0
100
AcDbBlockBegin
  2
*Model_Space
 70
0
 10
0.0
 20
0.0
 30
0.0
  3
*Model_Space
  1

  0
ENDBLK
  5
21
100
AcDbEntity
  8
0
100
AcDbBlockEnd
  0
BLOCK
  5
1C
100
AcDbEntity
  8
0
100
AcDbBlockBegin
  2
*Paper_Space
 70
0
 10
0.0
 20
0.0
 30
0.0
  3
*Paper_Space
  1

  0
ENDBLK
  5
1D
100
AcDbEntity
  8
0
100
AcDbBlockEnd
  0
BLOCK
  5
206
100
AcDbEntity
  8
0
100
AcDbBlockBegin
  2
_FILLED
 70
64
 10
0.0
 20
0.0
  3
_FILLED
  1

  0
SOLID
  5
207
100
AcDbEntity
  8
0
  6
BYBLOCK
 62
0
100
AcDbTrace
 10
0.0
 20
0.0
 11
-1.0
 21
0.2
 12
-1.0
 22
-0.2
 13
-1.0
 23
-0.2
  0
ENDBLK
  5
208
100
AcDbEntity
  8
0
  6
BYBLOCK
 62
0
100
AcDbBlockEnd
  0
ENDSEC
  0
SECTION
  2
ENTITIES
  0
MTEXT
  5
209
100
AcDbEntity
  8
0
100
AcDbMText
 62
2
  6
CONTINUOUS
  7
STANDARD
 71
3
 72
1
 10
5.2962084379
 20
2.863954801
 30
0.0
 11
1.0
 21
0.0
 31
0.0
 73
2
 44
0.9
  1
SCALE 0.125
 40
0.08
 41
0.704
  0
LINE
  5
20A
100
AcDbEntity
  8
0
100
AcDbLine
 62
7
  6
CONTINUOUS
 10
0.0
 20
0.0
 11
0.0
 21
8.5
  0
LINE
  5
20B
100
AcDbEntity
  8
0
100
AcDbLine
 62
7
  6
CONTINUOUS
 10
0.0
 20
0.0
 11
11.0
 21
0.0
  0
LINE
  5
20C
100
AcDbEntity
  8
0
100
AcDbLine
 62
7
  6
CONTINUOUS
 10
0.0
 20
8.5
 11
11.0
 21
8.5
  0
LINE
  5
20D
100
AcDbEntity
  8
0
100
AcDbLine
 62
7
  6
CONTINUOUS
 10
11.0
 20
0.0
 11
11.0
 21
8.5
  0
LINE
  5
20E
100
AcDbEntity
  8
0
100
AcDbLine
 62
7
  6
CONTINUOUS
 10
4.0830825305
 20
4.9516026209
 11
4.0855825305
 21
4.9541026209
  0
LINE
  5
20F
100
AcDbEntity
  8
0
100
AcDbLine
 62
7
  6
CONTINUOUS
 10
4.0830825305
 20
4.8784776209
 11
4.0830825305
 21
4.9516026209
  0
LINE
  5
210
100
AcDbEntity
  8
0
100
AcDbLine
 62
7
  6
CONTINUOUS
 10
4.0855825305
 20
4.8759776209
 11
4.0855825305
 21
4.9541026209
  0
LINE
  5
211
100
AcDbEntity
  8
0
100
AcDbLine
 62
7
  6
CONTINUOUS
 10
4.5674575305
 20
4.8784776209
 11
4.5649575305
 21
4.8759776209
  0
LINE
  5
212
100
AcDbEntity
  8
0
100
AcDbLine
 62
7
  6
CONTINUOUS
 10
4.5649575305
 20
4.9541026209
 11
4.5649575305
 21
4.8759776209
  0
LINE
  5
213
100
AcDbEntity
  8
0
100
AcDbLine
 62
7
  6
CONTINUOUS
 10
4.5674575305
 20
4.9516026209
 11
4.5674575305
 21
4.8784776209
  0
LINE
  5
214
100
AcDbEntity
  8
0
100
AcDbLine
 62
7
  6
CONTINUOUS
 10
4.8337700305
 20
4.0087901209
 11
4.9587700305
 21
4.0087901209
  0
LINE
  5
215
100
AcDbEntity
  8
0
100
AcDbLine
 62
7
  6
CONTINUOUS
 10
4.0830825305
 20
4.8784776209
 11
4.0855825305
 21
4.8759776209
  0
LINE
  5
216
100
AcDbEntity
  8
0
100
AcDbLine
 62
7
  6
CONTINUOUS
 10
5.2250825305
 20
4.9516026209
 11
5.2275825305
 21
4.9541026209
  0
LINE
  5
217
100
AcDbEntity
  8
0
100
AcDbLine
 62
7
  6
CONTINUOUS
 10
4.8243950305
 20
4.8244151209
 11
4.8243950305
 21
4.7431651209
  0
LINE
  5
218
100
AcDbEntity
  8
0
100
AcDbLine
 62
7
  6
CONTINUOUS
 10
4.8337700305
 20
3.7900401209
 11
4.8337700305
 21
4.9150401209
  0
LINE
  5
219
100
AcDbEntity
  8
0
100
AcDbLine
 62
7
  6
CONTINUOUS
 10
4.9587700305
 20
3.7900401209
 11
4.9587700305
 21
4.9150401209
  0
LINE
  5
21A
100
AcDbEntity
  8
0
100
AcDbLine
 62
7
  6
CONTINUOUS
 10
4.9681450305
 20
4.8244151209
 11
4.9681450305
 21
4.7431651209
  0
LINE
  5
21B
100
AcDbEntity
  8
0
100
AcDbLine
 62
7
  6
CONTINUOUS
 10
5.9358405399
 20
4.9583699528
 11
5.9327201555
 21
4.9562901209
  0
LINE
  5
21C
100
AcDbEntity
  8
0
100
AcDbLine
 62
7
  6
CONTINUOUS
 10
4.5674575305
 20
4.9516026209
 11
4.5649575305
 21
4.9541026209
  0
LINE
  5
21D
100
AcDbEntity
  8
0
100
AcDbLine
 62
7
  6
CONTINUOUS
 10
5.7094575305
 20
4.8784776209
 11
5.7069575305
 21
4.8759776209
  0
LINE
  5
21E
100
AcDbEntity
  8
0
100
AcDbLine
 62
7
  6
CONTINUOUS
 10
5.2250825305
 20
4.8784776209
 11
5.2250825305
 21
4.9516026209
  0
LINE
  5
21F
100
AcDbEntity
  8
0
100
AcDbLine
 62
7
  6
CONTINUOUS
 10
5.2275825305
 20
4.8759776209
 11
5.2275825305
 21
4.9541026209
  0
LINE
  5
220
100
AcDbEntity
  8
0
100
AcDbLine
 62
7
  6
CONTINUOUS
 10
4.8337700305
 20
4.6962901209
 11
4.9587700305
 21
4.6962901209
  0
LINE
  5
221
100
AcDbEntity
  8
0
100
AcDbLine
 62
7
  6
CONTINUOUS
 10
5.8048990358
 20
4.9569482335
 11
5.8048125217
 21
4.9568135912
  0
LINE
  5
222
100
AcDbEntity
  8
0
100
AcDbLine
 62
7
  6
CONTINUOUS
 10
4.8243950305
 20
4.7431651209
 11
4.8337700305
 21
4.7431651209
  0
LINE
  5
223
100
AcDbEntity
  8
0
100
AcDbLine
 62
7
  6
CONTINUOUS
 10
4.9587700305
 20
4.7431651209
 11
4.9681450305
 21
4.7431651209
  0
LINE
  5
224
100
AcDbEntity
  8
0
100
AcDbLine
 62
7
  6
CONTINUOUS
 10
5.3358320655
 20
4.8369151209
 11
4.9806450305
 21
4.8369151209
  0
LINE
  5
225
100
AcDbEntity
  8
0
100
AcDbLine
 62
7
  6
CONTINUOUS
 10
4.8118950305
 20
4.8369151209
 11
4.4568645863
 21
4.8369151209
  0
LINE
  5
226
100
AcDbEntity
  8
0
100
AcDbLine
 62
7
  6
CONTINUOUS
 10
5.9327201555
 20
4.8737901209
 11
5.9177866304
 21
4.8737901209
  0
LINE
  5
227
100
AcDbEntity
  8
0
100
AcDbLine
 62
7
  6
CONTINUOUS
 10
5.7069575305
 20
4.8759776209
 11
5.2275825305
 21
4.8759776209
  0
LINE
  5
228
100
AcDbEntity
  8
0
100
AcDbLine
 62
7
  6
CONTINUOUS
 10
4.0855825305
 20
4.8759776209
 11
4.5649575305
 21
4.8759776209
  0
LINE
  5
229
100
AcDbEntity
  8
0
100
AcDbLine
 62
7
  6
CONTINUOUS
 10
5.9327201555
 20
4.8775401209
 11
5.920831509
 21
4.8775401209
  0
LINE
  5
22A
100
AcDbEntity
  8
0
100
AcDbLine
 62
7
  6
CONTINUOUS
 10
5.7956450813
 20
4.8800401209
 11
5.7094575305
 21
4.8800401209
  0
LINE
  5
22B
100
AcDbEntity
  8
0
100
AcDbLine
 62
7
  6
CONTINUOUS
 10
5.9226116577
 20
4.8800401209
 11
5.9386569994
 21
4.8800401209
  0
LINE
  5
22C
100
AcDbEntity
  8
0
100
AcDbLine
 62
7
  6
CONTINUOUS
 10
5.7302075305
 20
4.8806651209
 11
5.7911848689
 21
4.8806651209
  0
LINE
  5
22D
100
AcDbEntity
  8
0
100
AcDbLine
 62
7
  6
CONTINUOUS
 10
5.2250825305
 20
4.8784776209
 11
5.2275825305
 21
4.8759776209
  0
LINE
  5
22E
100
AcDbEntity
  8
0
100
AcDbLine
 62
7
  6
CONTINUOUS
 10
5.7094575305
 20
4.8916026209
 11
5.7302075305
 21
4.8916026209
  0
LINE
  5
22F
100
AcDbEntity
  8
0
100
AcDbLine
 62
7
  6
CONTINUOUS
 10
5.7094575305
 20
4.9384776209
 11
5.7302075305
 21
4.9384776209
  0
LINE
  5
230
100
AcDbEntity
  8
0
100
AcDbLine
 62
7
  6
CONTINUOUS
 10
5.7302075305
 20
4.9494151209
 11
5.7911848689
 21
4.9494151209
  0
LINE
  5
231
100
AcDbEntity
  8
0
100
AcDbLine
 62
7
  6
CONTINUOUS
 10
5.7956450813
 20
4.9500401209
 11
5.7094575305
 21
4.9500401209
  0
LINE
  5
232
100
AcDbEntity
  8
0
100
AcDbLine
 62
7
  6
CONTINUOUS
 10
5.9226116577
 20
4.9500401209
 11
5.9386569994
 21
4.9500401209
  0
LINE
  5
233
100
AcDbEntity
  8
0
100
AcDbLine
 62
7
  6
CONTINUOUS
 10
5.920831509
 20
4.9525401209
 11
5.9327201555
 21
4.9525401209
  0
LINE
  5
234
100
AcDbEntity
  8
0
100
AcDbLine
 62
7
  6
CONTINUOUS
 10
5.7069575305
 20
4.9541026209
 11
5.2275825305
 21
4.9541026209
  0
LINE
  5
235
100
AcDbEntity
  8
0
100
AcDbLine
 62
7
  6
CONTINUOUS
 10
4.0855825305
 20
4.9541026209
 11
4.5649575305
 21
4.9541026209
  0
LINE
  5
236
100
AcDbEntity
  8
0
100
AcDbLine
 62
7
  6
CONTINUOUS
 10
5.9177866304
 20
4.9562901209
 11
5.9327201555
 21
4.9562901209
  0
LINE
  5
237
100
AcDbEntity
  8
0
100
AcDbLine
 62
7
  6
CONTINUOUS
 10
5.8458325305
 20
4.8570721808
 11
5.8438788586
 21
4.8515944613
  0
LINE
  5
238
100
AcDbEntity
  8
0
100
AcDbLine
 62
7
  6
CONTINUOUS
 10
5.3356689101
 20
4.9931651209
 11
4.4567079955
 21
4.9931651209
  0
LINE
  5
239
100
AcDbEntity
  8
0
100
AcDbLine
 62
7
  6
CONTINUOUS
 10
5.7069575305
 20
4.9541026209
 11
5.7069575305
 21
4.8759776209
  0
LINE
  5
23A
100
AcDbEntity
  8
0
100
AcDbLine
 62
7
  6
CONTINUOUS
 10
5.7094575305
 20
4.9516026209
 11
5.7094575305
 21
4.8784776209
  0
LINE
  5
23B
100
AcDbEntity
  8
0
100
AcDbLine
 62
7
  6
CONTINUOUS
 10
5.7302075305
 20
4.8806651209
 11
5.7302075305
 21
4.9494151209
  0
LINE
  5
23C
100
AcDbEntity
  8
0
100
AcDbLine
 62
7
  6
CONTINUOUS
 10
5.8883200307
 20
4.8546870006
 11
5.8860656538
 21
4.8472432718
  0
LINE
  5
23D
100
AcDbEntity
  8
0
100
AcDbLine
 62
7
  6
CONTINUOUS
 10
5.8670950303
 20
4.8525770256
 11
5.8648981682
 21
4.8460645368
  0
LINE
  5
23E
100
AcDbEntity
  8
0
100
AcDbLine
 62
7
  6
CONTINUOUS
 10
5.845935315
 20
4.8577150319
 11
5.8458325305
 21
4.8570721808
  0
LINE
  5
23F
100
AcDbEntity
  8
0
100
AcDbLine
 62
7
  6
CONTINUOUS
 10
5.8883837109
 20
4.8550562254
 11
5.8883200307
 21
4.8546870006
  0
LINE
  5
240
100
AcDbEntity
  8
0
100
AcDbLine
 62
7
  6
CONTINUOUS
 10
5.8671100897
 20
4.8526533104
 11
5.8670950303
 21
4.8525770256
  0
LINE
  5
241
100
AcDbEntity
  8
0
100
AcDbLine
 62
7
  6
CONTINUOUS
 10
5.9095825305
 20
4.8641191302
 11
5.9073725844
 21
4.8556637071
  0
LINE
  5
242
100
AcDbEntity
  8
0
100
AcDbLine
 62
7
  6
CONTINUOUS
 10
5.8318777275
 20
4.8661665654
 11
5.8320825305
 21
4.8641191302
  0
LINE
  5
243
100
AcDbEntity
  8
0
100
AcDbLine
 62
7
  6
CONTINUOUS
 10
5.9097873335
 20
4.8661665654
 11
5.9095825305
 21
4.8641191302
  0
LINE
  5
244
100
AcDbEntity
  8
0
100
AcDbLine
 62
7
  6
CONTINUOUS
 10
5.9327201555
 20
4.9562901209
 11
5.9327201555
 21
4.9525401209
  0
LINE
  5
245
100
AcDbEntity
  8
0
100
AcDbLine
 62
7
  6
CONTINUOUS
 10
5.9327201555
 20
4.8775401209
 11
5.9327201555
 21
4.8737901209
  0
LINE
  5
246
100
AcDbEntity
  8
0
100
AcDbLine
 62
7
  6
CONTINUOUS
 10
5.9327201555
 20
4.8737901209
 11
5.9358405399
 21
4.871710289
  0
LINE
  5
247
100
AcDbEntity
  8
0
100
AcDbLine
 62
7
  6
CONTINUOUS
 10
5.7094575305
 20
4.9516026209
 11
5.7069575305
 21
4.9541026209
  0
LINE
  5
248
100
AcDbEntity
  8
0
100
AcDbLine
 62
7
  6
CONTINUOUS
 10
5.8048125207
 20
4.8732666522
 11
5.8048486492
 21
4.8732107254
  0
LINE
  5
249
100
AcDbEntity
  8
0
100
AcDbLine
 62
7
  6
CONTINUOUS
 10
5.8533450303
 20
4.8546870006
 11
5.8555994072
 21
4.8472432718
  0
LINE
  5
24A
100
AcDbEntity
  8
0
100
AcDbLine
 62
7
  6
CONTINUOUS
 10
5.8320825305
 20
4.8641191302
 11
5.8342924766
 21
4.855663707
  0
LINE
  5
24B
100
AcDbEntity
  8
0
100
AcDbLine
 62
7
  6
CONTINUOUS
 10
5.8745549713
 20
4.8526533104
 11
5.8745700307
 21
4.8525770256
  0
LINE
  5
24C
100
AcDbEntity
  8
0
100
AcDbLine
 62
7
  6
CONTINUOUS
 10
5.8532813501
 20
4.8550562254
 11
5.8533450303
 21
4.8546870006
  0
LINE
  5
24D
100
AcDbEntity
  8
0
100
AcDbLine
 62
7
  6
CONTINUOUS
 10
5.895729746
 20
4.8577150319
 11
5.8958325305
 21
4.8570721808
  0
LINE
  5
24E
100
AcDbEntity
  8
0
100
AcDbLine
 62
7
  6
CONTINUOUS
 10
5.8958325305
 20
4.8570721808
 11
5.8977862025
 21
4.8515944612
  0
LINE
  5
24F
100
AcDbEntity
  8
0
100
AcDbLine
 62
7
  6
CONTINUOUS
 10
5.8745700307
 20
4.8525770256
 11
5.8767668928
 21
4.8460645368
  0
ARC
  5
250
100
AcDbEntity
  8
0
100
AcDbCircle
 62
7
  6
CONTINUOUS
 10
4.8962700305
 20
3.7900401209
 40
0.0625
100
AcDbArc
 50
180.0
 51
360.0
  0
ARC
  5
251
100
AcDbEntity
  8
0
100
AcDbCircle
 62
7
  6
CONTINUOUS
 10
4.4567075305
 20
4.9150401209
 40
0.171875
100
AcDbArc
 50
27.036308382
 51
166.8631941362
  0
ARC
  5
252
100
AcDbEntity
  8
0
100
AcDbCircle
 62
7
  6
CONTINUOUS
 10
4.4567075305
 20
4.9150401209
 40
0.171875
100
AcDbArc
 50
193.1368058638
 51
332.963691618
  0
ARC
  5
253
100
AcDbEntity
  8
0
100
AcDbCircle
 62
7
  6
CONTINUOUS
 10
4.4567075305
 20
4.9150401209
 40
0.168125
100
AcDbArc
 50
193.4352755143
 51
332.3096030636
  0
ARC
  5
254
100
AcDbEntity
  8
0
100
AcDbCircle
 62
7
  6
CONTINUOUS
 10
4.4567075305
 20
4.9150401209
 40
0.168125
100
AcDbArc
 50
27.6903969361
 51
166.5647244834
  0
ARC
  5
255
100
AcDbEntity
  8
0
100
AcDbCircle
 62
7
  6
CONTINUOUS
 10
4.8962700305
 20
4.9150401209
 40
0.078125
100
AcDbArc
 50
323.1349866808
 51
216.8650133192
  0
ARC
  5
256
100
AcDbEntity
  8
0
100
AcDbCircle
 62
7
  6
CONTINUOUS
 10
4.4567075305
 20
4.9150401209
 40
0.078125
100
AcDbArc
 50
30.0011424854
 51
149.9988575146
  0
ARC
  5
257
100
AcDbEntity
  8
0
100
AcDbCircle
 62
7
  6
CONTINUOUS
 10
4.4567075305
 20
4.9150401209
 40
0.078125
100
AcDbArc
 50
210.0011424854
 51
329.9988575146
  0
ARC
  5
258
100
AcDbEntity
  8
0
100
AcDbCircle
 62
7
  6
CONTINUOUS
 10
4.4567075305
 20
4.9150401209
 40
0.074375
100
AcDbArc
 50
31.6833511444
 51
148.3166488546
  0
ARC
  5
259
100
AcDbEntity
  8
0
100
AcDbCircle
 62
7
  6
CONTINUOUS
 10
4.4567075305
 20
4.9150401209
 40
0.074375
100
AcDbArc
 50
211.6833511444
 51
328.3166488546
  0
ARC
  5
25A
100
AcDbEntity
  8
0
100
AcDbCircle
 62
7
  6
CONTINUOUS
 10
4.8962700305
 20
4.9150401209
 40
0.0625
100
AcDbArc
 50
0.0
 51
180.0
  0
ARC
  5
25B
100
AcDbEntity
  8
0
100
AcDbCircle
 62
7
  6
CONTINUOUS
 10
4.8118950305
 20
4.8244151209
 40
0.0125
100
AcDbArc
 50
0.0
 51
90.0000000004
  0
ARC
  5
25C
100
AcDbEntity
  8
0
100
AcDbCircle
 62
7
  6
CONTINUOUS
 10
4.9806444576
 20
4.8244156759
 40
0.0124999151
100
AcDbArc
 50
89.9973740298
 51
180.0025439312
  0
ARC
  5
25D
100
AcDbEntity
  8
0
100
AcDbCircle
 62
7
  6
CONTINUOUS
 10
5.3358325305
 20
4.9150401209
 40
0.171875
100
AcDbArc
 50
13.1368058638
 51
152.963691618
  0
ARC
  5
25E
100
AcDbEntity
  8
0
100
AcDbCircle
 62
7
  6
CONTINUOUS
 10
5.3358325305
 20
4.9150401209
 40
0.171875
100
AcDbArc
 50
207.036308382
 51
346.8631941362
  0
ARC
  5
25F
100
AcDbEntity
  8
0
100
AcDbCircle
 62
7
  6
CONTINUOUS
 10
5.3358325305
 20
4.9150401209
 40
0.168125
100
AcDbArc
 50
207.6903969361
 51
346.5647244834
  0
ARC
  5
260
100
AcDbEntity
  8
0
100
AcDbCircle
 62
7
  6
CONTINUOUS
 10
5.3358325305
 20
4.9150401209
 40
0.168125
100
AcDbArc
 50
13.4352755143
 51
152.3096030636
  0
ARC
  5
261
100
AcDbEntity
  8
0
100
AcDbCircle
 62
7
  6
CONTINUOUS
 10
5.3358325305
 20
4.9150401209
 40
0.078125
100
AcDbArc
 50
210.0000000006
 51
329.9999999994
  0
ARC
  5
262
100
AcDbEntity
  8
0
100
AcDbCircle
 62
7
  6
CONTINUOUS
 10
5.3358325305
 20
4.9150401209
 40
0.078125
100
AcDbArc
 50
30.0000000006
 51
149.9999999994
  0
ARC
  5
263
100
AcDbEntity
  8
0
100
AcDbCircle
 62
7
  6
CONTINUOUS
 10
5.3358325305
 20
4.9150401209
 40
0.074375
100
AcDbArc
 50
211.6833511444
 51
328.3166488546
  0
ARC
  5
264
100
AcDbEntity
  8
0
100
AcDbCircle
 62
7
  6
CONTINUOUS
 10
5.3358325305
 20
4.9150401209
 40
0.074375
100
AcDbArc
 50
31.6833511444
 51
148.3166488546
  0
ARC
  5
265
100
AcDbEntity
  8
0
100
AcDbCircle
 62
7
  6
CONTINUOUS
 10
5.842936972
 20
4.8519303925
 40
0.001
100
AcDbArc
 50
246.1537673916
 51
340.3708257109
  0
ARC
  5
266
100
AcDbEntity
  8
0
100
AcDbCircle
 62
7
  6
CONTINUOUS
 10
5.8352599769
 20
4.8559165771
 40
0.001
100
AcDbArc
 50
194.6474175818
 51
238.9661592908
  0
ARC
  5
267
100
AcDbEntity
  8
0
100
AcDbCircle
 62
7
  6
CONTINUOUS
 10
5.8565564779
 20
4.8475331263
 40
0.001
100
AcDbArc
 50
196.8492439121
 51
258.059294344
  0
ARC
  5
268
100
AcDbEntity
  8
0
100
AcDbCircle
 62
7
  6
CONTINUOUS
 10
5.7911848689
 20
4.8644151209
 40
0.01625
100
AcDbArc
 50
32.4405244247
 51
32.9874850022
  0
ARC
  5
269
100
AcDbEntity
  8
0
100
AcDbCircle
 62
7
  6
CONTINUOUS
 10
5.7911848689
 20
4.8644151209
 40
0.01625
100
AcDbArc
 50
33.0048221617
 51
90.0000000001
  0
ARC
  5
26A
100
AcDbEntity
  8
0
100
AcDbCircle
 62
7
  6
CONTINUOUS
 10
5.8639506273
 20
4.8463841714
 40
0.001
100
AcDbArc
 50
264.2759321528
 51
341.3591723378
  0
ARC
  5
26B
100
AcDbEntity
  8
0
100
AcDbCircle
 62
7
  6
CONTINUOUS
 10
5.8851085831
 20
4.8475331263
 40
0.001
100
AcDbArc
 50
281.9407056562
 51
343.1507561468
  0
ARC
  5
26C
100
AcDbEntity
  8
0
100
AcDbCircle
 62
7
  6
CONTINUOUS
 10
5.8777144337
 20
4.8463841714
 40
0.001
100
AcDbArc
 50
198.6408276687
 51
275.7240678469
  0
ARC
  5
26D
100
AcDbEntity
  8
0
100
AcDbCircle
 62
7
  6
CONTINUOUS
 10
5.898728089
 20
4.8519303925
 40
0.001
100
AcDbArc
 50
199.6291732009
 51
293.846232609
  0
ARC
  5
26E
100
AcDbEntity
  8
0
100
AcDbCircle
 62
7
  6
CONTINUOUS
 10
5.9064050841
 20
4.8559165771
 40
0.001
100
AcDbArc
 50
301.033840713
 51
345.3525838161
  0
ARC
  5
26F
100
AcDbEntity
  8
0
100
AcDbCircle
 62
7
  6
CONTINUOUS
 10
5.9327201555
 20
4.8737901209
 40
0.00375
100
AcDbArc
 50
326.3153273875
 51
90.0
  0
ARC
  5
270
100
AcDbEntity
  8
0
100
AcDbCircle
 62
7
  6
CONTINUOUS
 10
5.7911848689
 20
4.9656651209
 40
0.01625
100
AcDbArc
 50
269.9999999999
 51
326.994946865
  0
ARC
  5
271
100
AcDbEntity
  8
0
100
AcDbCircle
 62
7
  6
CONTINUOUS
 10
5.8708325305
 20
4.9150401209
 40
0.078125
100
AcDbArc
 50
33.6846726125
 51
326.3153273875
  0
ARC
  5
272
100
AcDbEntity
  8
0
100
AcDbCircle
 62
7
  6
CONTINUOUS
 10
5.8708325305
 20
4.9150401209
 40
0.074375
100
AcDbArc
 50
33.684672613
 51
326.3153273869
  0
ARC
  5
273
100
AcDbEntity
  8
0
100
AcDbCircle
 62
7
  6
CONTINUOUS
 10
5.8708325305
 20
4.9150401209
 40
0.07
100
AcDbArc
 50
293.8462325994
 51
301.0338407167
  0
ARC
  5
274
100
AcDbEntity
  8
0
100
AcDbCircle
 62
7
  6
CONTINUOUS
 10
5.8708325305
 20
4.9150401209
 40
0.07
100
AcDbArc
 50
275.7240678469
 51
281.9407056562
  0
ARC
  5
275
100
AcDbEntity
  8
0
100
AcDbCircle
 62
7
  6
CONTINUOUS
 10
5.8708325305
 20
4.9150401209
 40
0.07
100
AcDbArc
 50
258.0592943438
 51
264.2759321531
  0
ARC
  5
276
100
AcDbEntity
  8
0
100
AcDbCircle
 62
7
  6
CONTINUOUS
 10
5.8708325305
 20
4.9150401209
 40
0.07
100
AcDbArc
 50
238.9661592833
 51
246.1537674006
  0
CIRCLE
  5
277
100
AcDbEntity
  8
0
100
AcDbCircle
 62
7
  6
CONTINUOUS
 10
5.8708325305
 20
4.9150401209
 40
0.0625
  0
CIRCLE
  5
278
100
AcDbEntity
  8
0
100
AcDbCircle
 62
7
  6
CONTINUOUS
 10
5.8708325305
 20
4.9150401209
 40
0.0575
  0
CIRCLE
  5
279
100
AcDbEntity
  8
0
100
AcDbCircle
 62
7
  6
CONTINUOUS
 10
5.8708325305
 20
4.9150401209
 40
0.05625
  0
ARC
  5
27A
100
AcDbEntity
  8
0
100
AcDbCircle
 62
7
  6
CONTINUOUS
 10
5.8708325262
 20
4.9227901685
 40
0.0703125407
100
AcDbArc
 50
290.8274864128
 51
303.4432548232
  0
ARC
  5
27B
100
AcDbEntity
  8
0
100
AcDbCircle
 62
7
  6
CONTINUOUS
 10
5.8708325348
 20
4.9227901685
 40
0.0703125407
100
AcDbArc
 50
236.5567451768
 51
249.1725135872
  0
ARC
  5
27C
100
AcDbEntity
  8
0
100
AcDbCircle
 62
7
  6
CONTINUOUS
 10
5.8708325302
 20
4.9227901193
 40
0.0703124983
100
AcDbArc
 50
255.5987442368
 51
266.9529749549
  0
ARC
  5
27D
100
AcDbEntity
  8
0
100
AcDbCircle
 62
7
  6
CONTINUOUS
 10
5.8708325308
 20
4.9227901193
 40
0.0703124983
100
AcDbArc
 50
273.0470250451
 51
284.4012557632
  0
ARC
  5
27E
100
AcDbEntity
  8
0
100
AcDbCircle
 62
7
  6
CONTINUOUS
 10
5.9386575251
 20
4.9150401209
 40
0.035
100
AcDbArc
 50
270.0
 51
90.0
  0
ARC
  5
27F
100
AcDbEntity
  8
0
100
AcDbCircle
 62
7
  6
CONTINUOUS
 10
5.9370625487
 20
4.9152922273
 40
0.0347478928
100
AcDbArc
 50
87.3729310589
 51
89.9998213786
  0
ARC
  5
280
100
AcDbEntity
  8
0
100
AcDbCircle
 62
7
  6
CONTINUOUS
 10
5.9327201555
 20
4.9562901209
 40
0.00375
100
AcDbArc
 50
270.0
 51
33.6846726125
  0
SPLINE
  5
281
100
AcDbEntity
  8
0
100
AcDbSpline
 62
7
  6
CONTINUOUS
 70
0
 71
3
 72
21
 73
17
 74
0
 42
0.0000001
 43
0.0000001
 44
0.0000000001
 40
0.0
 40
0.0
 40
0.0
 40
0.0
 40
0.0703232233
 40
0.139023423
 40
0.2062219703
 40
0.2720547648
 40
0.400108579
 40
0.5243199408
 40
0.585308886
 40
0.6456775159
 40
0.7055242021
 40
0.764941192
 40
0.8240158931
 40
0.8828300299
 40
0.9414655159
 40
1.0
 40
1.0
 40
1.0
 40
1.0
 10
5.261680785
 20
4.8759749514
 30
0.0
 10
5.2627545212
 20
4.8742782799
 30
0.0
 10
5.2650098641
 20
4.8710060066
 30
0.0
 10
5.2687137747
 20
4.8664222465
 30
0.0
 10
5.2726543912
 20
4.8622142457
 30
0.0
 10
5.2781218411
 20
4.8571396322
 30
0.0
 10
5.2853854354
 20
4.8516410977
 30
0.0
 10
5.2931586727
 20
4.8471699181
 30
0.0
 10
5.2995279438
 20
4.844230453
 30
0.0
 10
5.3043460623
 20
4.8423371499
 30
0.0
 10
5.3092209406
 20
4.8407344675
 30
0.0
 10
5.3141418401
 20
4.8394156166
 30
0.0
 10
5.3190987714
 20
4.8383749975
 30
0.0
 10
5.3240828706
 20
4.837608723
 30
0.0
 10
5.3290854095
 20
4.837113304
 30
0.0
 10
5.3324293187
 20
4.8369613362
 30
0.0
 10
5.334100328
 20
4.8369306777
 30
0.0
  0
SPLINE
  5
282
100
AcDbEntity
  8
0
100
AcDbSpline
 62
7
  6
CONTINUOUS
 70
0
 71
3
 72
21
 73
17
 74
0
 42
0.0000001
 43
0.0000001
 44
0.0000000001
 40
0.0
 40
0.0
 40
0.0
 40
0.0
 40
0.0585333065
 40
0.1171680548
 40
0.1759818003
 40
0.2350564535
 40
0.2944736726
 40
0.3543208317
 40
0.4146900587
 40
0.4756796966
 40
0.5998927607
 40
0.7279476668
 40
0.7937806482
 40
0.8609789005
 40
0.9296782711
 40
1.0
 40
1.0
 40
1.0
 40
1.0
 10
5.3340662866
 20
4.9931489171
 30
0.0
 10
5.3323959765
 20
4.993117672
 30
0.0
 10
5.3290534859
 20
4.9929646042
 30
0.0
 10
5.3240531385
 20
4.9924677213
 30
0.0
 10
5.3190712648
 20
4.9917002053
 30
0.0
 10
5.3141165848
 20
4.990658556
 30
0.0
 10
5.3091979547
 20
4.989338881
 30
0.0
 10
5.3043253557
 20
4.9877355886
 30
0.0
 10
5.299509521
 20
4.9858418849
 30
0.0
 10
5.2931433032
 20
4.9829021639
 30
0.0
 10
5.2853738415
 20
4.9784312933
 30
0.0
 10
5.2781138408
 20
4.9729338138
 30
0.0
 10
5.2726490366
 20
4.9678606093
 30
0.0
 10
5.2687103314
 20
4.9636539528
 30
0.0
 10
5.2650081715
 20
4.9590718485
 30
0.0
 10
5.262753811
 20
4.9558008727
 30
0.0
 10
5.2616805437
 20
4.9541048856
 30
0.0
  0
SPLINE
  5
283
100
AcDbEntity
  8
0
100
AcDbSpline
 62
7
  6
CONTINUOUS
 70
0
 71
3
 72
23
 73
19
 74
0
 42
0.0000001
 43
0.0000001
 44
0.0000000001
 40
0.0
 40
0.0
 40
0.0
 40
0.0
 40
0.0626136805
 40
0.1252227216
 40
0.1878233313
 40
0.2504115459
 40
0.3129839592
 40
0.3755377889
 40
0.4380709636
 40
0.5005822008
 40
0.5630710644
 40
0.6255379782
 40
0.6879842057
 40
0.7504118109
 40
0.812823577
 40
0.8752228935
 40
0.9376136322
 40
1.0
 40
1.0
 40
1.0
 40
1.0
 10
5.9719350053
 20
4.9150401209
 30
0.0
 10
5.9719350053
 20
4.9138952158
 30
0.0
 10
5.9718228878
 20
4.9116039107
 30
0.0
 10
5.9713199693
 20
4.9082012676
 30
0.0
 10
5.9704871576
 20
4.9048641356
 30
0.0
 10
5.9693324609
 20
4.901625075
 30
0.0
 10
5.9678669973
 20
4.8985151624
 30
0.0
 10
5.9661048747
 20
4.895564376
 30
0.0
 10
5.9640630531
 20
4.8928011277
 30
0.0
 10
5.9617611908
 20
4.8902520333
 30
0.0
 10
5.9592214527
 20
4.8879416431
 30
0.0
 10
5.9564682907
 20
4.8858922153
 30
0.0
 10
5.9535282189
 20
4.8841234947
 30
0.0
 10
5.9504295451
 20
4.8826525183
 30
0.0
 10
5.9472021429
 20
4.881493461
 30
0.0
 10
5.9438769802
 20
4.8806574938
 30
0.0
 10
5.940486522
 20
4.8801526681
 30
0.0
 10
5.938203348
 20
4.8800401209
 30
0.0
 10
5.9370625994
 20
4.8800401209
 30
0.0
  0
LINE
  5
284
100
AcDbEntity
  8
0
100
AcDbLine
 62
7
  6
CONTINUOUS
 10
4.9806450177
 20
4.8369151264
 11
4.9587711677
 21
4.854081934
  0
SPLINE
  5
285
100
AcDbEntity
  8
0
100
AcDbSpline
 62
7
  6
CONTINUOUS
 70
0
 71
3
 72
51
 73
47
 74
0
 42
0.0000001
 43
0.0000001
 44
0.0000000001
 40
0.0
 40
0.0
 40
0.0
 40
0.0
 40
0.0000428905
 40
0.0001707913
 40
0.0003835707
 40
0.0006810965
 40
0.0015298592
 40
0.0027159877
 40
0.0042377702
 40
0.00609297
 40
0.0082793337
 40
0.0107942398
 40
0.0167946773
 40
0.0240623975
 40
0.03255875
 40
0.0422415814
 40
0.0530665192
 40
0.0649863131
 40
0.0919014645
 40
0.1225729712
 40
0.1565817881
 40
0.1935209653
 40
0.2329977149
 40
0.2746245607
 40
0.3180342373
 40
0.4088097711
 40
0.502554676
 40
0.5964586901
 40
0.687565557
 40
0.77274477
 40
0.8120919557
 40
0.8487079903
 40
0.8821886175
 40
0.9121459382
 40
0.9382077028
 40
0.9600316715
 40
0.9692621962
 40
0.9773298734
 40
0.9842057965
 40
0.9898647069
 40
0.9942859444
 40
0.9974550658
 40
0.9985669752
 40
0.999362352
 40
0.9998403182
 40
1.0
 40
1.0
 40
1.0
 40
1.0
 10
5.9073725844
 20
4.855663707
 30
0.0
 10
5.9073724955
 20
4.8556635873
 30
0.0
 10
5.9073718646
 20
4.8556634354
 30
0.0
 10
5.9073707819
 20
4.8556627046
 30
0.0
 10
5.9073687564
 20
4.8556617502
 30
0.0
 10
5.9073645982
 20
4.8556595371
 30
0.0
 10
5.9073573771
 20
4.8556558378
 30
0.0
 10
5.9073464181
 20
4.855650135
 30
0.0
 10
5.9073323369
 20
4.8556428437
 30
0.0
 10
5.9073151737
 20
4.8556339508
 30
0.0
 10
5.9072949396
 20
4.8556234821
 30
0.0
 10
5.9072619054
 20
4.8556064099
 30
0.0
 10
5.9072131654
 20
4.855581271
 30
0.0
 10
5.9071459189
 20
4.8555466732
 30
0.0
 10
5.9070672446
 20
4.8555063195
 30
0.0
 10
5.906977507
 20
4.8554604524
 30
0.0
 10
5.9068770979
 20
4.8554093274
 30
0.0
 10
5.9067231969
 20
4.8553312968
 30
0.0
 10
5.9065074178
 20
4.8552228154
 30
0.0
 10
5.9062224355
 20
4.8550811174
 30
0.0
 10
5.9059054733
 20
4.8549255136
 30
0.0
 10
5.9055600598
 20
4.8547584517
 30
0.0
 10
5.9051897894
 20
4.8545820042
 30
0.0
 10
5.904798052
 20
4.8543983597
 30
0.0
 10
5.9042431952
 20
4.8541427699
 30
0.0
 10
5.9035203368
 20
4.853819102
 30
0.0
 10
5.9026318672
 20
4.8534362016
 30
0.0
 10
5.9017370362
 20
4.8530653822
 30
0.0
 10
5.9008646292
 20
4.8527184767
 30
0.0
 10
5.9001652499
 20
4.8524496192
 30
0.0
 10
5.8996406186
 20
4.8522539815
 30
0.0
 10
5.8992836389
 20
4.8521229045
 30
0.0
 10
5.8989567294
 20
4.8520046025
 30
0.0
 10
5.8986638706
 20
4.8518999861
 30
0.0
 10
5.898408804
 20
4.8518099825
 30
0.0
 10
5.8982214367
 20
4.851744559
 30
0.0
 10
5.8980930114
 20
4.8516999964
 30
0.0
 10
5.8980136224
 20
4.8516725563
 30
0.0
 10
5.8979459412
 20
4.8516492338
 30
0.0
 10
5.8978902197
 20
4.8516300929
 30
0.0
 10
5.8978466795
 20
4.8516151413
 30
0.0
 10
5.8978180568
 20
4.8516053842
 30
0.0
 10
5.8978013881
 20
4.8515996247
 30
0.0
 10
5.897793512
 20
4.8515970255
 30
0.0
 10
5.8977888608
 20
4.851595268
 30
0.0
 10
5.8977867017
 20
4.8515947033
 30
0.0
 10
5.8977862025
 20
4.8515944612
 30
0.0
  0
SPLINE
  5
286
100
AcDbEntity
  8
0
100
AcDbSpline
 62
7
  6
CONTINUOUS
 70
0
 71
3
 72
26
 73
22
 74
0
 42
0.0000001
 43
0.0000001
 44
0.0000000001
 40
0.0
 40
0.0
 40
0.0
 40
0.0
 40
0.0559848389
 40
0.1121085938
 40
0.1684941934
 40
0.2252700587
 40
0.2825760676
 40
0.340566715
 40
0.3994156165
 40
0.4593192466
 40
0.52049843
 40
0.5831980679
 40
0.6476739695
 40
0.6806676674
 40
0.7141920321
 40
0.7828558789
 40
0.8536632237
 40
0.8897982692
 40
0.9263078463
 40
0.9630840008
 40
1.0
 40
1.0
 40
1.0
 40
1.0
 10
4.8976953603
 20
4.9931554347
 30
0.0
 10
4.9001444719
 20
4.9931222055
 30
0.0
 10
4.9050481866
 20
4.9928842785
 30
0.0
 10
4.9123736899
 20
4.9920103582
 30
0.0
 10
4.9196532199
 20
4.9906118624
 30
0.0
 10
4.9268625611
 20
4.9886764192
 30
0.0
 10
4.9339747777
 20
4.9861868633
 30
0.0
 10
4.9409579801
 20
4.9831206937
 30
0.0
 10
4.9477735242
 20
4.9794498813
 30
0.0
 10
4.9543733298
 20
4.9751410583
 30
0.0
 10
4.9606960479
 20
4.9701553935
 30
0.0
 10
4.9666621709
 20
4.9644523758
 30
0.0
 10
4.9712168132
 20
4.9591081455
 30
0.0
 10
4.9745665138
 20
4.954454718
 30
0.0
 10
4.9777438858
 20
4.9494631487
 30
0.0
 10
4.9812287039
 20
4.9427220278
 30
0.0
 10
4.9838667369
 20
4.9354806472
 30
0.0
 10
4.9854090335
 20
4.9293927627
 30
0.0
 10
4.986260319
 20
4.9246776799
 30
0.0
 10
4.9867788016
 20
4.9198804334
 30
0.0
 10
4.9868950169
 20
4.9166551961
 30
0.0
 10
4.9868950305
 20
4.9150401209
 30
0.0
  0
LINE
  5
287
100
AcDbEntity
  8
0
100
AcDbLine
 62
7
  6
CONTINUOUS
 10
4.9681450305
 20
4.8244151209
 11
4.9587722455
 21
4.8345588546
  0
LINE
  5
288
100
AcDbEntity
  8
0
100
AcDbLine
 62
7
  6
CONTINUOUS
 10
4.8337688986
 20
4.854081843
 11
4.8118950305
 21
4.8369151209
  0
SPLINE
  5
289
100
AcDbEntity
  8
0
100
AcDbSpline
 62
7
  6
CONTINUOUS
 70
0
 71
3
 72
17
 73
13
 74
0
 42
0.0000001
 43
0.0000001
 44
0.0000000001
 40
0.0
 40
0.0
 40
0.0
 40
0.0
 40
0.1138981834
 40
0.2306007475
 40
0.2901425736
 40
0.3505288848
 40
0.4117973959
 40
0.4739754228
 40
0.6010421757
 40
0.7316031366
 40
0.8649961228
 40
1.0
 40
1.0
 40
1.0
 40
1.0
 10
4.8337682436
 20
4.8584681705
 30
0.0
 10
4.831852922
 20
4.8600406564
 30
0.0
 10
4.8281104264
 20
4.8633932788
 30
0.0
 10
4.8238013188
 20
4.8680199199
 30
0.0
 10
4.8205721362
 20
4.8720321508
 30
0.0
 10
4.8182558133
 20
4.8752244309
 30
0.0
 10
4.8160765409
 20
4.8785806632
 30
0.0
 10
4.8133569515
 20
4.8833067408
 30
0.0
 10
4.8103965735
 20
4.8896219267
 30
0.0
 10
4.807715117
 20
4.8977180713
 30
0.0
 10
4.8060285659
 20
4.9062559546
 30
0.0
 10
4.8056450821
 20
4.9121027759
 30
0.0
 10
4.8056450305
 20
4.9150401209
 30
0.0
  0
LINE
  5
28A
100
AcDbEntity
  8
0
100
AcDbLine
 62
7
  6
CONTINUOUS
 10
4.8337677434
 20
4.8345588444
 11
4.8243950305
 21
4.8244151209
  0
SPLINE
  5
28B
100
AcDbEntity
  8
0
100
AcDbSpline
 62
7
  6
CONTINUOUS
 70
0
 71
3
 72
78
 73
74
 74
0
 42
0.0000001
 43
0.0000001
 44
0.0000000001
 40
0.0
 40
0.0
 40
0.0
 40
0.0
 40
0.0000127513
 40
0.0000508407
 40
0.0001142173
 40
0.0002028303
 40
0.0003166288
 40
0.0004555623
 40
0.0008086307
 40
0.0012616293
 40
0.001814078
 40
0.0024653557
 40
0.0032148261
 40
0.0050057934
 40
0.0071807619
 40
0.0097310477
 40
0.012647521
 40
0.0159197095
 40
0.0195363716
 40
0.0234862515
 40
0.027758008
 40
0.0372215546
 40
0.0478334956
 40
0.0595027403
 40
0.072146325
 40
0.0856882901
 40
0.1000592365
 40
0.1310487631
 40
0.1647116284
 40
0.2007383784
 40
0.2388886613
 40
0.2789612041
 40
0.3207632296
 40
0.3640775548
 40
0.4086317546
 40
0.4540785937
 40
0.4999953253
 40
0.5229884439
 40
0.5459214022
 40
0.5913682658
 40
0.6359225471
 40
0.6792368288
 40
0.7210388118
 40
0.7611113722
 40
0.7992616597
 40
0.8352883011
 40
0.8689512823
 40
0.899940679
 40
0.9143116654
 40
0.9278537033
 40
0.9404973573
 40
0.9521666302
 40
0.962778502
 40
0.9722419841
 40
0.9765137395
 40
0.9804636076
 40
0.9840802276
 40
0.9873523802
 40
0.9902688791
 40
0.9928192628
 40
0.994994331
 40
0.996785331
 40
0.9975347916
 40
0.9981860478
 40
0.9987384672
 40
0.9991914332
 40
0.9995444705
 40
0.9996833906
 40
0.9997971781
 40
0.999885783
 40
0.9999491551
 40
0.9999872441
 40
1.0
 40
1.0
 40
1.0
 40
1.0
 10
5.7911848689
 20
4.8806651209
 30
0.0
 10
5.7911845757
 20
4.8806652627
 30
0.0
 10
5.7911838493
 20
4.8806664334
 30
0.0
 10
5.7911816856
 20
4.8806683334
 30
0.0
 10
5.7911784454
 20
4.8806719887
 30
0.0
 10
5.7911737505
 20
4.8806768732
 30
0.0
 10
5.7911677926
 20
4.8806832428
 30
0.0
 10
5.7911571915
 20
4.8806945062
 30
0.0
 10
5.7911406899
 20
4.8807121166
 30
0.0
 10
5.7911169921
 20
4.8807374519
 30
0.0
 10
5.7910881348
 20
4.8807683897
 30
0.0
 10
5.7910541511
 20
4.8808048984
 30
0.0
 10
5.7909986783
 20
4.8808646132
 30
0.0
 10
5.7909168472
 20
4.8809529499
 30
0.0
 10
5.7908039926
 20
4.8810752332
 30
0.0
 10
5.7906720237
 20
4.8812189861
 30
0.0
 10
5.7905215971
 20
4.8813838289
 30
0.0
 10
5.7903534801
 20
4.881569392
 30
0.0
 10
5.790168497
 20
4.8817752812
 30
0.0
 10
5.789967481
 20
4.8820010763
 30
0.0
 10
5.7896688269
 20
4.8823398456
 30
0.0
 10
5.7892613276
 20
4.8828094454
 30
0.0
 10
5.7887373612
 20
4.883428028
 30
0.0
 10
5.7881702678
 20
4.8841164059
 30
0.0
 10
5.7875667632
 20
4.8848716011
 30
0.0
 10
5.7869334162
 20
4.8856911072
 30
0.0
 10
5.7860346961
 20
4.8868973392
 30
0.0
 10
5.7848766501
 20
4.8885506903
 30
0.0
 10
5.7834935547
 20
4.8907190051
 30
0.0
 10
5.7821264965
 20
4.8931109674
 30
0.0
 10
5.7808164841
 20
4.8957195873
 30
0.0
 10
5.7796046944
 20
4.8985369997
 30
0.0
 10
5.7785323581
 20
4.9015512094
 30
0.0
 10
5.7776411728
 20
4.9047433179
 30
0.0
 10
5.7769699894
 20
4.9080842685
 30
0.0
 10
5.7765520148
 20
4.9115334476
 30
0.0
 10
5.7764339855
 20
4.9144547809
 30
0.0
 10
5.7764812377
 20
4.9168001973
 30
0.0
 10
5.7766228787
 20
4.9191297846
 30
0.0
 10
5.7769698083
 20
4.9219960844
 30
0.0
 10
5.7776412211
 20
4.9253368973
 30
0.0
 10
5.7785324029
 20
4.9285290246
 30
0.0
 10
5.779604673
 20
4.9315432514
 30
0.0
 10
5.7808164925
 20
4.9343606539
 30
0.0
 10
5.7821265244
 20
4.9369692585
 30
0.0
 10
5.7834935138
 20
4.9393612623
 30
0.0
 10
5.784876682
 20
4.9415295267
 30
0.0
 10
5.786034675
 20
4.9431829148
 30
0.0
 10
5.7869334083
 20
4.9443891369
 30
0.0
 10
5.7875667667
 20
4.94520864
 30
0.0
 10
5.7881702811
 20
4.945963833
 30
0.0
 10
5.7887373789
 20
4.9466522082
 30
0.0
 10
5.7892613356
 20
4.9472707953
 30
0.0
 10
5.7896688264
 20
4.9477403981
 30
0.0
 10
5.7899674797
 20
4.9480791654
 30
0.0
 10
5.7901684945
 20
4.9483049597
 30
0.0
 10
5.7903534728
 20
4.94851085
 30
0.0
 10
5.7905215857
 20
4.9486964151
 30
0.0
 10
5.7906720148
 20
4.9488612586
 30
0.0
 10
5.7908039945
 20
4.9490050094
 30
0.0
 10
5.7909168605
 20
4.9491272902
 30
0.0
 10
5.7909986958
 20
4.9492156273
 30
0.0
 10
5.7910541677
 20
4.9492753429
 30
0.0
 10
5.791088149
 20
4.9493118518
 30
0.0
 10
5.7911170031
 20
4.9493427897
 30
0.0
 10
5.7911406975
 20
4.9493681249
 30
0.0
 10
5.7911571959
 20
4.9493857356
 30
0.0
 10
5.7911677952
 20
4.9493969985
 30
0.0
 10
5.7911737514
 20
4.9494033692
 30
0.0
 10
5.7911784468
 20
4.9494082507
 30
0.0
 10
5.7911816832
 20
4.9494119132
 30
0.0
 10
5.7911838525
 20
4.9494138007
 30
0.0
 10
5.791184573
 20
4.9494149846
 30
0.0
 10
5.7911848689
 20
4.9494151209
 30
0.0
  0
SPLINE
  5
28C
100
AcDbEntity
  8
0
100
AcDbSpline
 62
7
  6
CONTINUOUS
 70
0
 71
3
 72
30
 73
26
 74
0
 42
0.0000001
 43
0.0000001
 44
0.0000000001
 40
0.0
 40
0.0
 40
0.0
 40
0.0
 40
0.0369126934
 40
0.0736857059
 40
0.091982473
 40
0.1101978126
 40
0.1283191016
 40
0.1463352435
 40
0.1820109698
 40
0.217175228
 40
0.2517970142
 40
0.2858658277
 40
0.3193874879
 40
0.3523786214
 40
0.4168492964
 40
0.4795439165
 40
0.5407181067
 40
0.600616931
 40
0.6594611249
 40
0.7174470589
 40
0.7747483584
 40
0.8315195485
 40
0.8879005272
 40
0.9440196334
 40
1.0
 40
1.0
 40
1.0
 40
1.0
 10
4.8056450328
 20
4.9150401209
 30
0.0
 10
4.805645106
 20
4.9166551567
 30
0.0
 10
4.8057624208
 20
4.9198801924
 30
0.0
 10
4.8061945762
 20
4.9238849356
 30
0.0
 10
4.8067079074
 20
4.9270505994
 30
0.0
 10
4.8071740953
 20
4.9293955829
 30
0.0
 10
4.807718731
 20
4.9317109668
 30
0.0
 10
4.8085427215
 20
4.9347435464
 30
0.0
 10
4.8097515367
 20
4.9384419097
 30
0.0
 10
4.8114735438
 20
4.9427262174
 30
0.0
 10
4.8134343917
 20
4.9468286184
 30
0.0
 10
4.8156086165
 20
4.9507396778
 30
0.0
 10
4.8179731436
 20
4.9544542798
 30
0.0
 10
4.8213228093
 20
4.9591074381
 30
0.0
 10
4.8258772753
 20
4.9644517685
 30
0.0
 10
4.831843273
 20
4.9701547035
 30
0.0
 10
4.8381658017
 20
4.9751404115
 30
0.0
 10
4.8447654604
 20
4.9794492374
 30
0.0
 10
4.8515808521
 20
4.9831200802
 30
0.0
 10
4.8585638953
 20
4.9861863081
 30
0.0
 10
4.8656759513
 20
4.9886759392
 30
0.0
 10
4.8728851371
 20
4.9906114719
 30
0.0
 10
4.8801645178
 20
4.9920100647
 30
0.0
 10
4.8874898837
 20
4.9928841179
 30
0.0
 10
4.8923935148
 20
4.9931221153
 30
0.0
 10
4.8948425896
 20
4.9931553997
 30
0.0
  0
SPLINE
  5
28D
100
AcDbEntity
  8
0
100
AcDbSpline
 62
7
  6
CONTINUOUS
 70
0
 71
3
 72
21
 73
17
 74
0
 42
0.0000001
 43
0.0000001
 44
0.0000000001
 40
0.0
 40
0.0
 40
0.0
 40
0.0
 40
0.0703130667
 40
0.1390074971
 40
0.2062039036
 40
0.2720373728
 40
0.4000983041
 40
0.5243197143
 40
0.5853133849
 40
0.6456860445
 40
0.7055356497
 40
0.7649540741
 40
0.8240285651
 40
0.8828399595
 40
0.9414706366
 40
1.0
 40
1.0
 40
1.0
 40
1.0
 10
4.5308595433
 20
4.9541048685
 30
0.0
 10
4.5297887201
 20
4.9557969617
 30
0.0
 10
4.5275397858
 20
4.9590607202
 30
0.0
 10
4.5238471204
 20
4.9636334861
 30
0.0
 10
4.5199188201
 20
4.967832495
 30
0.0
 10
4.5144686233
 20
4.9728978419
 30
0.0
 10
4.5072282189
 20
4.9783890238
 30
0.0
 10
4.4994796676
 20
4.9828581433
 30
0.0
 10
4.4931302429
 20
4.9857990105
 30
0.0
 10
4.488326986
 20
4.9876947773
 30
0.0
 10
4.4834669647
 20
4.9893013176
 30
0.0
 10
4.4785608602
 20
4.9906254031
 30
0.0
 10
4.4736186171
 20
4.9916726016
 30
0.0
 10
4.4686490462
 20
4.9924468709
 30
0.0
 10
4.4636607371
 20
4.9929515905
 30
0.0
 10
4.4603260313
 20
4.9931107325
 30
0.0
 10
4.4586595204
 20
4.9931452652
 30
0.0
  0
SPLINE
  5
28E
100
AcDbEntity
  8
0
100
AcDbSpline
 62
7
  6
CONTINUOUS
 70
0
 71
3
 72
21
 73
17
 74
0
 42
0.0000001
 43
0.0000001
 44
0.0000000001
 40
0.0
 40
0.0
 40
0.0
 40
0.0
 40
0.05852777
 40
0.1171578328
 40
0.1759690434
 40
0.2350435391
 40
0.2944622437
 40
0.3543123285
 40
0.4146855517
 40
0.4756798678
 40
0.5999028472
 40
0.7279647417
 40
0.793798384
 40
0.8609945339
 40
0.9296882409
 40
1.0
 40
1.0
 40
1.0
 40
1.0
 10
4.4586890537
 20
4.836935606
 30
0.0
 10
4.4603549358
 20
4.8369706414
 30
0.0
 10
4.4636883836
 20
4.8371307322
 30
0.0
 10
4.4686747632
 20
4.837636712
 30
0.0
 10
4.4736423947
 20
4.8384120417
 30
0.0
 10
4.4785826772
 20
4.8394601239
 30
0.0
 10
4.4834868043
 20
4.8407849101
 30
0.0
 10
4.4883448407
 20
4.842391965
 30
0.0
 10
4.4931461081
 20
4.8442880655
 30
0.0
 10
4.4994928733
 20
4.8472291344
 30
0.0
 10
4.5072381422
 20
4.851697949
 30
0.0
 10
4.5144754179
 20
4.857188188
 30
0.0
 10
4.5199233216
 20
4.8622522776
 30
0.0
 10
4.5238499612
 20
4.8664500992
 30
0.0
 10
4.5275411113
 20
4.8710214026
 30
0.0
 10
4.5297891975
 20
4.874284018
 30
0.0
 10
4.5308596146
 20
4.8759755098
 30
0.0
  0
SPLINE
  5
28F
100
AcDbEntity
  8
0
100
AcDbSpline
 62
7
  6
CONTINUOUS
 70
0
 71
3
 72
23
 73
19
 74
0
 42
0.0000001
 43
0.0000001
 44
0.0000000001
 40
0.0
 40
0.0
 40
0.0
 40
0.0
 40
0.062384388
 40
0.1247748329
 40
0.1871751842
 40
0.2495889284
 40
0.3120190705
 40
0.3744680142
 40
0.4369374807
 40
0.4994284506
 40
0.5619411186
 40
0.624474897
 40
0.6870284358
 40
0.7495996651
 40
0.8121858815
 40
0.8747838216
 40
0.9373896872
 40
1.0
 40
1.0
 40
1.0
 40
1.0
 10
5.9386552163
 20
4.950003601
 30
0.0
 10
5.9397616737
 20
4.9499528332
 30
0.0
 10
5.9419712926
 20
4.9497452363
 30
0.0
 10
5.9452398867
 20
4.9491188079
 30
0.0
 10
5.9484345394
 20
4.9481829467
 30
0.0
 10
5.9515258455
 20
4.9469461787
 30
0.0
 10
5.9544858444
 20
4.945419733
 30
0.0
 10
5.9572876301
 20
4.9436174705
 30
0.0
 10
5.9599057774
 20
4.941555765
 30
0.0
 10
5.9623165156
 20
4.9392533376
 30
0.0
 10
5.9644979599
 20
4.9367310947
 30
0.0
 10
5.966430315
 20
4.9340119423
 30
0.0
 10
5.9680960389
 20
4.9311205676
 30
0.0
 10
5.9694800146
 20
4.9280832143
 30
0.0
 10
5.9705696874
 20
4.9249274867
 30
0.0
 10
5.9713551621
 20
4.9216819268
 30
0.0
 10
5.971829319
 20
4.9183763864
 30
0.0
 10
5.9719350053
 20
4.9161517537
 30
0.0
 10
5.9719350053
 20
4.9150401209
 30
0.0
  0
SPLINE
  5
290
100
AcDbEntity
  8
0
100
AcDbSpline
 62
7
  6
CONTINUOUS
 70
0
 71
3
 72
21
 73
17
 74
0
 42
0.0000001
 43
0.0000001
 44
0.0000000001
 40
0.0
 40
0.0
 40
0.0
 40
0.0
 40
0.0676274122
 40
0.1350415348
 40
0.2020458776
 40
0.2684685604
 40
0.3341722059
 40
0.3990569082
 40
0.4630586257
 40
0.5261437809
 40
0.5883058282
 40
0.6495588677
 40
0.709930367
 40
0.7694572735
 40
0.8861301572
 40
1.0
 40
1.0
 40
1.0
 40
1.0
 10
4.9868950305
 20
4.9150401209
 30
0.0
 10
4.9868949732
 20
4.9135683496
 30
0.0
 10
4.9867974948
 20
4.9106285744
 30
0.0
 10
4.9863668796
 20
4.9062496705
 30
0.0
 10
4.9856580688
 20
4.9019334981
 30
0.0
 10
4.9846826185
 20
4.8977080918
 30
0.0
 10
4.9834598659
 20
4.8935957772
 30
0.0
 10
4.9820064268
 20
4.889615417
 30
0.0
 10
4.980342466
 20
4.8857806406
 30
0.0
 10
4.9784888022
 20
4.8821003113
 30
0.0
 10
4.976463678
 20
4.8785804896
 30
0.0
 10
4.9742844498
 20
4.8752243544
 30
0.0
 10
4.9719678781
 20
4.8720322155
 30
0.0
 10
4.968738715
 20
4.8680199927
 30
0.0
 10
4.9644297215
 20
4.8633932329
 30
0.0
 10
4.9606870995
 20
4.8600407631
 30
0.0
 10
4.9587718031
 20
4.8584682397
 30
0.0
  0
SPLINE
  5
291
100
AcDbEntity
  8
0
100
AcDbSpline
 62
7
  6
CONTINUOUS
 70
0
 71
3
 72
49
 73
45
 74
0
 42
0.0000001
 43
0.0000001
 44
0.0000000001
 40
0.0
 40
0.0
 40
0.0
 40
0.0
 40
0.0006376593
 40
0.0014330303
 40
0.0025449349
 40
0.0057140584
 40
0.0101353004
 40
0.0157942094
 40
0.0226701183
 40
0.0307377862
 40
0.0399683359
 40
0.0617922887
 40
0.0878540026
 40
0.1178113697
 40
0.1512919888
 40
0.2272547131
 40
0.3124342286
 40
0.4035415067
 40
0.4974453776
 40
0.5911899452
 40
0.6819654813
 40
0.7253761803
 40
0.7670029762
 40
0.8064781723
 40
0.8434178197
 40
0.8774271261
 40
0.9080989463
 40
0.9350137769
 40
0.9469334441
 40
0.9577587571
 40
0.9674416747
 40
0.9759370781
 40
0.983204596
 40
0.9892063798
 40
0.9917216327
 40
0.9939076473
 40
0.9957620755
 40
0.9972831432
 40
0.9984690804
 40
0.9993182249
 40
0.9996160195
 40
0.9998290409
 40
0.9999570981
 40
1.0
 40
1.0
 40
1.0
 40
1.0
 10
5.8438788586
 20
4.8515944613
 30
0.0
 10
5.8438768458
 20
4.8515953876
 30
0.0
 10
5.8438720022
 20
4.851596668
 30
0.0
 10
5.8438637033
 20
4.8515997
 30
0.0
 10
5.8438469751
 20
4.8516053121
 30
0.0
 10
5.8438183965
 20
4.8516151784
 30
0.0
 10
5.8437748349
 20
4.8516300768
 30
0.0
 10
5.8437191214
 20
4.8516492373
 30
0.0
 10
5.8436514386
 20
4.8516725563
 30
0.0
 10
5.843572052
 20
4.8517000027
 30
0.0
 10
5.843443621
 20
4.8517445489
 30
0.0
 10
5.8432562567
 20
4.8518099806
 30
0.0
 10
5.8430011957
 20
4.8518999995
 30
0.0
 10
5.8427083282
 20
4.8520045916
 30
0.0
 10
5.8422528708
 20
4.8521694439
 30
0.0
 10
5.841618601
 20
4.8524040486
 30
0.0
 10
5.8408004249
 20
4.8527184573
 30
0.0
 10
5.8399279866
 20
4.8530652939
 30
0.0
 10
5.8390332365
 20
4.853436306
 30
0.0
 10
5.8381447064
 20
4.8538190588
 30
0.0
 10
5.8374218414
 20
4.8541427202
 30
0.0
 10
5.8368670206
 20
4.8543983959
 30
0.0
 10
5.8364752881
 20
4.8545820451
 30
0.0
 10
5.836104983
 20
4.8547584105
 30
0.0
 10
5.835759589
 20
4.8549255083
 30
0.0
 10
5.8354426246
 20
4.8550811172
 30
0.0
 10
5.8351576451
 20
4.8552228246
 30
0.0
 10
5.8349418639
 20
4.8553313003
 30
0.0
 10
5.8347879606
 20
4.8554093258
 30
0.0
 10
5.8346875534
 20
4.8554604572
 30
0.0
 10
5.83459782
 20
4.8555063286
 30
0.0
 10
5.8345191416
 20
4.8555466663
 30
0.0
 10
5.8344518905
 20
4.8555812565
 30
0.0
 10
5.8344031552
 20
4.8556064157
 30
0.0
 10
5.8343701207
 20
4.8556234975
 30
0.0
 10
5.8343498871
 20
4.8556339614
 30
0.0
 10
5.8343327252
 20
4.8556428428
 30
0.0
 10
5.8343186448
 20
4.855650123
 30
0.0
 10
5.8343076851
 20
4.8556558211
 30
0.0
 10
5.8343004654
 20
4.8556595251
 30
0.0
 10
5.834296305
 20
4.8556617426
 30
0.0
 10
5.8342942811
 20
4.8556627023
 30
0.0
 10
5.834293194
 20
4.8556634325
 30
0.0
 10
5.8342925673
 20
4.8556635887
 30
0.0
 10
5.8342924766
 20
4.8556637071
 30
0.0
  0
SPLINE
  5
292
100
AcDbEntity
  8
0
100
AcDbSpline
 62
7
  6
CONTINUOUS
 70
0
 71
3
 72
63
 73
59
 74
0
 42
0.0000001
 43
0.0000001
 44
0.0000000001
 40
0.0
 40
0.0
 40
0.0
 40
0.0
 40
0.0000364512
 40
0.0001461842
 40
0.0003297788
 40
0.000587815
 40
0.0009208728
 40
0.001329532
 40
0.0023759726
 40
0.0037297767
 40
0.0053879396
 40
0.0073464673
 40
0.0096013725
 40
0.0149882068
 40
0.0215307409
 40
0.0292159638
 40
0.0380378117
 40
0.0479815495
 40
0.0590134884
 40
0.0711009562
 40
0.0842165455
 40
0.113419468
 40
0.1463716781
 40
0.1827472992
 40
0.2221514741
 40
0.264189248
 40
0.308476161
 40
0.4021153555
 40
0.4994342286
 40
0.5483081981
 40
0.5967074278
 40
0.6441892438
 40
0.6903031953
 40
0.7345968282
 40
0.7766526563
 40
0.8160830434
 40
0.8524992991
 40
0.8855324121
 40
0.9148925992
 40
0.9281142759
 40
0.9403169023
 40
0.9514623681
 40
0.9615125487
 40
0.9704312538
 40
0.9782023668
 40
0.9848208617
 40
0.9902729824
 40
0.9925559054
 40
0.9945392266
 40
0.996218861
 40
0.997590711
 40
0.9986515492
 40
0.9990659299
 40
0.9994037026
 40
0.9996654316
 40
0.9998516813
 40
0.999963016
 40
1.0
 40
1.0
 40
1.0
 40
1.0
 10
5.8648981682
 20
4.8460645368
 30
0.0
 10
5.8648981246
 20
4.8460644315
 30
0.0
 10
5.8648974983
 20
4.8460647446
 30
0.0
 10
5.8648966361
 20
4.8460645546
 30
0.0
 10
5.8648948231
 20
4.8460648421
 30
0.0
 10
5.8648924511
 20
4.8460649611
 30
0.0
 10
5.8648893193
 20
4.8460652306
 30
0.0
 10
5.8648837551
 20
4.8460656532
 30
0.0
 10
5.8648749972
 20
4.8460663485
 30
0.0
 10
5.8648623537
 20
4.8460673421
 30
0.0
 10
5.8648468656
 20
4.8460685714
 30
0.0
 10
5.8648285716
 20
4.8460700293
 30
0.0
 10
5.8647986607
 20
4.8460724274
 30
0.0
 10
5.8647544701
 20
4.8460759971
 30
0.0
 10
5.8646933623
 20
4.8460809447
 30
0.0
 10
5.8646215537
 20
4.8460867669
 30
0.0
 10
5.8645391537
 20
4.846093506
 30
0.0
 10
5.8644463354
 20
4.8461011885
 30
0.0
 10
5.8643433552
 20
4.8461098382
 30
0.0
 10
5.864230508
 20
4.8461194613
 30
0.0
 10
5.8640610867
 20
4.8461340964
 30
0.0
 10
5.8638267232
 20
4.8461547028
 30
0.0
 10
5.8635200018
 20
4.8461824062
 30
0.0
 10
5.8631816415
 20
4.8462142514
 30
0.0
 10
5.8628151395
 20
4.846250125
 30
0.0
 10
5.8624241691
 20
4.8462898297
 30
0.0
 10
5.8618647727
 20
4.8463488333
 30
0.0
 10
5.8611340414
 20
4.8464306364
 30
0.0
 10
5.8603898346
 20
4.8465206786
 30
0.0
 10
5.8597865323
 20
4.8465978876
 30
0.0
 10
5.8593380703
 20
4.8466578378
 30
0.0
 10
5.8588984534
 20
4.8467187963
 30
0.0
 10
5.8584717583
 20
4.8467794956
 30
0.0
 10
5.8580621532
 20
4.8468398778
 30
0.0
 10
5.857673486
 20
4.8468990179
 30
0.0
 10
5.8573093795
 20
4.8469558731
 30
0.0
 10
5.8569733062
 20
4.8470094501
 30
0.0
 10
5.8566685008
 20
4.8470592184
 30
0.0
 10
5.8564354062
 20
4.8470982756
 30
0.0
 10
5.8562665973
 20
4.8471270006
 30
0.0
 10
5.8561539394
 20
4.8471463245
 30
0.0
 10
5.8560510644
 20
4.8471640462
 30
0.0
 10
5.8559583152
 20
4.8471800859
 30
0.0
 10
5.855875977
 20
4.8471944342
 30
0.0
 10
5.8558042219
 20
4.8472070337
 30
0.0
 10
5.8557431474
 20
4.8472178092
 30
0.0
 10
5.8556989701
 20
4.8472256254
 30
0.0
 10
5.8556690577
 20
4.8472309132
 30
0.0
 10
5.8556507572
 20
4.8472341462
 30
0.0
 10
5.8556352582
 20
4.8472368836
 30
0.0
 10
5.8556226073
 20
4.847239126
 30
0.0
 10
5.8556138324
 20
4.8472406787
 30
0.0
 10
5.8556082745
 20
4.8472416837
 30
0.0
 10
5.8556051127
 20
4.8472422255
 30
0.0
 10
5.8556028045
 20
4.8472427039
 30
0.0
 10
5.8556008385
 20
4.8472429148
 30
0.0
 10
5.8556002381
 20
4.8472432738
 30
0.0
 10
5.8555993397
 20
4.847243178
 30
0.0
 10
5.8555994072
 20
4.8472432718
 30
0.0
  0
SPLINE
  5
293
100
AcDbEntity
  8
0
100
AcDbSpline
 62
7
  6
CONTINUOUS
 70
0
 71
3
 72
58
 73
54
 74
0
 42
0.0000001
 43
0.0000001
 44
0.0000000001
 40
0.0
 40
0.0
 40
0.0
 40
0.0
 40
0.0000370217
 40
0.0001483889
 40
0.0003346655
 40
0.000596416
 40
0.0013485958
 40
0.002409438
 40
0.0037812615
 40
0.0054608495
 40
0.0074441238
 40
0.0097270191
 40
0.0151791546
 40
0.0217976718
 40
0.0295687817
 40
0.0384875005
 40
0.0485376523
 40
0.0596830516
 40
0.0851074435
 40
0.114467559
 40
0.1475004076
 40
0.1839171482
 40
0.2233474998
 40
0.2654033077
 40
0.3096962469
 40
0.3558115295
 40
0.403292907
 40
0.5005656647
 40
0.5978850639
 40
0.6915235704
 40
0.7358106401
 40
0.7778488608
 40
0.8172525898
 40
0.8536282463
 40
0.8865805451
 40
0.9157835036
 40
0.9409864744
 40
0.9520184222
 40
0.9619622273
 40
0.9707841008
 40
0.9784692844
 40
0.9850117966
 40
0.9903986347
 40
0.9926535354
 40
0.9946120543
 40
0.9962702084
 40
0.9976240072
 40
0.9986704439
 40
0.999412156
 40
0.9996701926
 40
0.9998537914
 40
0.9999635334
 40
1.0
 40
1.0
 40
1.0
 40
1.0
 10
5.8860656538
 20
4.8472432718
 30
0.0
 10
5.8860655898
 20
4.8472431754
 30
0.0
 10
5.8860650121
 20
4.8472432765
 30
0.0
 10
5.8860641003
 20
4.8472429119
 30
0.0
 10
5.8860623128
 20
4.8472427027
 30
0.0
 10
5.8860586616
 20
4.8472419764
 30
0.0
 10
5.8860522474
 20
4.8472408806
 30
0.0
 10
5.8860424616
 20
4.8472391147
 30
0.0
 10
5.886029799
 20
4.8472368842
 30
0.0
 10
5.8860143045
 20
4.8472341436
 30
0.0
 10
5.8859960028
 20
4.847230913
 30
0.0
 10
5.8859660911
 20
4.8472256254
 30
0.0
 10
5.8859219134
 20
4.8472178091
 30
0.0
 10
5.8858608392
 20
4.8472070325
 30
0.0
 10
5.885789084
 20
4.8471944329
 30
0.0
 10
5.8857067458
 20
4.8471800849
 30
0.0
 10
5.8856139967
 20
4.8471640458
 30
0.0
 10
5.8854703956
 20
4.847139309
 30
0.0
 10
5.885267273
 20
4.8471045703
 30
0.0
 10
5.8849965614
 20
4.8470592183
 30
0.0
 10
5.8846917534
 20
4.8470094636
 30
0.0
 10
5.8843556832
 20
4.8469558646
 30
0.0
 10
5.8839915747
 20
4.8468990139
 30
0.0
 10
5.8836029117
 20
4.8468398613
 30
0.0
 10
5.8831932894
 20
4.8467795856
 30
0.0
 10
5.8827666208
 20
4.8467186964
 30
0.0
 10
5.8821756682
 20
4.8466369042
 30
0.0
 10
5.8814254341
 20
4.8465386263
 30
0.0
 10
5.8805310028
 20
4.8464307682
 30
0.0
 10
5.8798002915
 20
4.8463487945
 30
0.0
 10
5.8792408945
 20
4.8462897985
 30
0.0
 10
5.8788499173
 20
4.8462501576
 30
0.0
 10
5.8784834197
 20
4.8462142395
 30
0.0
 10
5.8781450594
 20
4.8461824066
 30
0.0
 10
5.8778383376
 20
4.8461547023
 30
0.0
 10
5.8775663381
 20
4.8461307914
 30
0.0
 10
5.8773625562
 20
4.846113268
 30
0.0
 10
5.8772187257
 20
4.8461011869
 30
0.0
 10
5.8771259068
 20
4.8460935079
 30
0.0
 10
5.8770435066
 20
4.8460867691
 30
0.0
 10
5.8769716983
 20
4.846080945
 30
0.0
 10
5.8769105908
 20
4.8460759971
 30
0.0
 10
5.8768664001
 20
4.8460724274
 30
0.0
 10
5.8768364895
 20
4.8460700297
 30
0.0
 10
5.8768181949
 20
4.8460685699
 30
0.0
 10
5.8768027088
 20
4.8460673451
 30
0.0
 10
5.8767900603
 20
4.8460663382
 30
0.0
 10
5.8767802771
 20
4.8460655937
 30
0.0
 10
5.876773886
 20
4.8460650472
 30
0.0
 10
5.8767702183
 20
4.8460648261
 30
0.0
 10
5.8767684676
 20
4.8460645866
 30
0.0
 10
5.8767674968
 20
4.8460646944
 30
0.0
 10
5.8767669823
 20
4.8460644662
 30
0.0
 10
5.8767668928
 20
4.8460645368
 30
0.0
  0
ENDSEC
  0
SECTION
  2
OBJECTS
  0
DICTIONARY
  5
C
100
AcDbDictionary
280
0
281
1
  3
ACAD_GROUP
350
D
  3
ACAD_MLINESTYLE
350
17
  3
ACAD_LAYOUT
350
1A
  3
ACAD_PLOTSETTINGS
350
19
  3
ACAD_PLOTSTYLENAME
350
E
  0
DICTIONARY
  5
D
102
{ACAD_REACTORS
330
C
102
}
100
AcDbDictionary
280
0
281
1
  0
ACDBDICTIONARYWDFLT
  5
E
102
{ACAD_REACTORS
330
C
102
}
100
AcDbDictionary
281
1
  3
Normal
350
F
100
AcDbDictionaryWithDefault
340
F
  0
DICTIONARY
  5
17
102
{ACAD_REACTORS
330
C
102
}
100
AcDbDictionary
280
0
281
1
  3
Standard
350
18
  0
DICTIONARY
  5
19
102
{ACAD_REACTORS
330
C
102
}
100
AcDbDictionary
281
1
  0
DICTIONARY
  5
1A
102
{ACAD_REACTORS
330
C
102
}
100
AcDbDictionary
281
1
  3
Model
350
294
  3
Layout1
350
295
  0
ACDBPLACEHOLDER
  5
F
102
{ACAD_REACTORS
330
E
102
}
  0
MLINESTYLE
  5
18
102
{ACAD_REACTORS
330
17
102
}
100
AcDbMlineStyle
  2
STANDARD
 70
0
  3

 62
256
 51
90.0
 52
90.0
 71
2
 49
0.5
 62
256
  6
BYLAYER
 49
-0.5
 62
256
  6
BYLAYER
  0
LAYOUT
  5
294
102
{ACAD_REACTORS
330
1A
102
}
100
AcDbPlotSettings
  1

  2
none_device
  4
ANSI_A_(11.00_x_8.50_Inches)
  6

 40
0.0
 41
0.0
 42
0.0
 43
0.0
 44
279.4
 45
215.9
 46
0.0
 47
0.0
 48
0.0
 49
0.0
140
0.0
141
0.0
142
1.0
143
1.0
 70
1024
 72
0
 73
0
 74
0
  7

 75
0
147
1.0
148
0.0
149
0.0
100
AcDbLayout
  1
Model
 70
0
 71
0
 10
0.0
 20
0.0
 11
11.0
 21
8.5
 12
0.0
 22
0.0
 32
0.0
 14
0.0
 24
0.0
 34
0.0
 15
0.0
 25
0.0
 35
0.0
146
0.0
 13
0.0
 23
0.0
 33
0.0
 16
1.0
 26
0.0
 36
0.0
 17
0.0
 27
1.0
 37
0.0
 76
0
330
202
345
0
346
0
  0
LAYOUT
  5
295
102
{ACAD_REACTORS
330
1A
102
}
100
AcDbPlotSettings
  1

  2
none_device
  4
ANSI_A_(11.00_x_8.50_Inches)
  6

 40
0.0
 41
0.0
 42
0.0
 43
0.0
 44
279.4
 45
215.9
 46
0.0
 47
0.0
 48
0.0
 49
0.0
140
0.0
141
0.0
142
1.0
143
1.0
 70
0
 72
0
 73
0
 74
0
  7

 75
0
147
1.0
148
0.0
149
0.0
100
AcDbLayout
  1
Layout1
 70
0
 71
1
 10
0.0
 20
0.0
 11
11.0
 21
8.5
 12
0.0
 22
0.0
 32
0.0
 14
0.0
 24
0.0
 34
0.0
 15
0.0
 25
0.0
 35
0.0
146
0.0
 13
0.0
 23
0.0
 33
0.0
 16
1.0
 26
0.0
 36
0.0
 17
0.0
 27
1.0
 37
0.0
 76
0
330
203
345
0
346
0
  0
ENDSEC
  0
EOF
