999
DXF file: E:\BT Custom\CADOUTPUT\_TOP.dxf
999
Pro/ENGINEER 2018400 by Parametric Technology Corporation
  0
SECTION
  2
HEADER
  9
$ACADVER
  1
AC1018
  9
$DWGCODEPAGE
  3
ANSI_1252
  9
$EXTMAX
 10
22.0
 20
17.0
 30
0.0
  9
$EXTMIN
 10
0.0
 20
0.0
 30
0.0
  9
$LIMMIN
 10
0.0
 20
0.0
  9
$LIMMAX
 10
22.0
 20
17.0
  9
$VIEWCTR
 10
11.0
 20
8.5
  9
$VIEWSIZE
 40
17.0
  9
$CLAYER
  8
0
  9
$LTSCALE
 40
1.21
  9
$CELTYPE
  6
BYLAYER
  9
$DIMSCALE
 40
1.0
  9
$DIMASZ
 40
0.1
  9
$DIMEXO
 40
0.0625
  9
$DIMDLI
 40
0.836
  9
$DIMEXE
 40
0.125
  9
$DIMCEN
 40
0.198
  9
$DIMLFAC
 40
1.0
  9
$DIMBLK
  1
_FILLED
  9
$DIMALT
 70
1
  9
$DIMALTD
 70
2
  9
$DIMALTTD
 70
2
  9
$DIMALTF
 40
25.4
  9
$DIMTXT
 40
0.08
  9
$DIMTOL
 70
1
  9
$DIMLIM
 70
0
  9
$DIMTFAC
 40
1.0
  9
$DIMTP
 40
0.001
  9
$DIMTM
 40
0.001
  9
$DIMGAP
 40
0.09
  9
$DIMDSEP
 70
46
  9
$AUNITS
 70
0
  9
$PDMODE
 70
3
  9
$PDSIZE
 40
0.06
  9
$HANDSEED
  5
258
  9
$TILEMODE
 70
1
  9
$MEASUREMENT
 70
0
  9
$INSUNITS
 70
1
  0
ENDSEC
  0
SECTION
  2
CLASSES
  0
CLASS
  1
ACDBDICTIONARYWDFLT
  2
AcDbDictionaryWithDefault
  3
AutoCAD 2000
 90
0
 91
1
280
0
281
0
  0
CLASS
  1
ACDBPLACEHOLDER
  2
AcDbPlaceHolder
  3
AutoCAD 2000
 90
0
 91
1
280
0
281
0
  0
CLASS
  1
LAYOUT
  2
AcDbLayout
  3
AutoCAD 2000
 90
0
 91
0
280
0
281
0
  0
ENDSEC
  0
SECTION
  2
TABLES
  0
TABLE
  2
VPORT
  5
8
100
AcDbSymbolTable
 70
2
  0
VPORT
  5
1F4
100
AcDbSymbolTableRecord
100
AcDbViewportTableRecord
  2
*ACTIVE
 70
0
 10
0.0
 20
0.0
 11
1.0
 21
1.0
 12
11.0
 22
8.5
 13
0.0
 23
0.0
 14
1.0
 24
1.0
 15
0.0
 25
0.0
 16
0.0
 26
0.0
 36
1.0
 17
0.0
 27
0.0
 37
0.0
 40
17.0
 41
1.2941176471
 42
50.0
 43
0.0
 44
0.0
 50
0.0
 51
0.0
 71
0
 72
100
 73
1
 74
1
 75
0
 76
0
 77
0
 78
0
  0
ENDTAB
  0
TABLE
  2
LTYPE
  5
5
100
AcDbSymbolTable
 70
6
  0
LTYPE
  5
14
100
AcDbSymbolTableRecord
100
AcDbLinetypeTableRecord
  2
BYBLOCK
 70
0
  3

 72
65
 73
0
 40
0.0
  0
LTYPE
  5
15
100
AcDbSymbolTableRecord
100
AcDbLinetypeTableRecord
  2
BYLAYER
 70
0
  3

 72
65
 73
0
 40
0.0
  0
LTYPE
  5
16
100
AcDbSymbolTableRecord
100
AcDbLinetypeTableRecord
  2
CONTINUOUS
 70
64
  3
Solid line
 72
65
 73
0
 40
0.0
  0
LTYPE
  5
1F5
100
AcDbSymbolTableRecord
100
AcDbLinetypeTableRecord
  2
CENTER
 70
64
  3
____ _ ____ _ ____ _ ____ _ ____ _ ____ _ ____
 72
65
 73
4
 40
0.6
 49
0.375
 74
0
 49
-0.075
 74
0
 49
0.075
 74
0
 49
-0.075
 74
0
  0
LTYPE
  5
1F6
100
AcDbSymbolTableRecord
100
AcDbLinetypeTableRecord
  2
HIDDEN
 70
64
  3
- - - - - - - - - - - - - - - - - - - -
 72
65
 73
2
 40
0.2
 49
0.1
 74
0
 49
-0.1
 74
0
  0
LTYPE
  5
1F7
100
AcDbSymbolTableRecord
100
AcDbLinetypeTableRecord
  2
PHANTOM
 70
64
  3
_____ _ _ _____ _ _ _____ _ _ _____
 72
65
 73
6
 40
0.8
 49
0.45
 74
0
 49
-0.05
 74
0
 49
0.1
 74
0
 49
-0.05
 74
0
 49
0.1
 74
0
 49
-0.05
 74
0
  0
LTYPE
  5
1F8
100
AcDbSymbolTableRecord
100
AcDbLinetypeTableRecord
  2
DOT
 70
64
  3
. . . . . . . . . . . . . . . . . . . .
 72
65
 73
2
 40
0.2
 49
0.1
 74
0
 49
-0.1
 74
0
  0
LTYPE
  5
1F9
100
AcDbSymbolTableRecord
100
AcDbLinetypeTableRecord
  2
DASHED
 70
64
  3
- - - - - - - - - - - - - - - - - - - -
 72
65
 73
2
 40
0.2
 49
0.1
 74
0
 49
-0.1
 74
0
  0
ENDTAB
  0
TABLE
  2
LAYER
  5
2
100
AcDbSymbolTable
 70
36
  0
LAYER
  5
10
100
AcDbSymbolTableRecord
100
AcDbLayerTableRecord
  2
0
 70
0
 62
7
  6
CONTINUOUS
370
-3
390
F
  0
LAYER
  5
1FA
100
AcDbSymbolTableRecord
100
AcDbLayerTableRecord
  2
DEFAULT_1
 70
0
 62
7
  6
CENTER
370
-3
390
F
  0
LAYER
  5
1FB
100
AcDbSymbolTableRecord
100
AcDbLayerTableRecord
  2
DEFAULT_2
 70
0
 62
8
  6
HIDDEN
370
-3
390
F
  0
LAYER
  5
1FC
100
AcDbSymbolTableRecord
100
AcDbLayerTableRecord
  2
DEFAULT_3
 70
0
 62
7
  6
PHANTOM
370
-3
390
F
  0
LAYER
  5
1FD
100
AcDbSymbolTableRecord
100
AcDbLayerTableRecord
  2
ALL_FEATURES
 70
0
 62
7
  6
CONTINUOUS
370
-3
390
F
  0
LAYER
  5
1FE
100
AcDbSymbolTableRecord
100
AcDbLayerTableRecord
  2
AXES_FEATURES
 70
0
 62
7
  6
CONTINUOUS
370
-3
390
F
  0
LAYER
  5
1FF
100
AcDbSymbolTableRecord
100
AcDbLayerTableRecord
  2
DEFAULT_COORDINATE_SYSTEM
 70
0
 62
7
  6
CONTINUOUS
370
-3
390
F
  0
LAYER
  5
200
100
AcDbSymbolTableRecord
100
AcDbLayerTableRecord
  2
DEFAULT_DATUM_AXES
 70
0
 62
7
  6
CONTINUOUS
370
-3
390
F
  0
LAYER
  5
201
100
AcDbSymbolTableRecord
100
AcDbLayerTableRecord
  2
DEFAULT_DATUM_PLANES
 70
0
 62
7
  6
CONTINUOUS
370
-3
390
F
  0
LAYER
  5
202
100
AcDbSymbolTableRecord
100
AcDbLayerTableRecord
  2
DIMENSIONS
 70
0
 62
7
  6
CONTINUOUS
370
-3
390
F
  0
ENDTAB
  0
TABLE
  2
STYLE
  5
3
100
AcDbSymbolTable
 70
1
  0
STYLE
  5
11
100
AcDbSymbolTableRecord
100
AcDbTextStyleTableRecord
  2
STANDARD
 70
0
 40
0.0
 41
0.8
 50
0.0
 71
0
 42
0.2
  3
txt
  4

  0
STYLE
  5
203
100
AcDbSymbolTableRecord
100
AcDbTextStyleTableRecord
  2
TEXTSTYLE_1
 70
0
 40
0.0
 41
0.8
 50
0.0
 71
0
 42
0.2
  3
gdt
  4

  0
ENDTAB
  0
TABLE
  2
VIEW
  5
6
100
AcDbSymbolTable
 70
0
  0
ENDTAB
  0
TABLE
  2
UCS
  5
7
100
AcDbSymbolTable
 70
0
  0
ENDTAB
  0
TABLE
  2
APPID
  5
9
100
AcDbSymbolTable
 70
1
  0
APPID
  5
204
100
AcDbSymbolTableRecord
100
AcDbRegAppTableRecord
  2
ACAD
 70
0
  0
ENDTAB
  0
TABLE
  2
BLOCK_RECORD
  5
1
100
AcDbSymbolTable
 70
0
  0
BLOCK_RECORD
  5
205
100
AcDbSymbolTableRecord
100
AcDbBlockTableRecord
  2
*Model_Space
  0
BLOCK_RECORD
  5
206
100
AcDbSymbolTableRecord
100
AcDbBlockTableRecord
  2
*Paper_Space
  0
BLOCK_RECORD
  5
207
100
AcDbSymbolTableRecord
100
AcDbBlockTableRecord
  2
_FILLED
  0
ENDTAB
  0
TABLE
  2
DIMSTYLE
  5
A
100
AcDbSymbolTable
 70
1
100
AcDbDimStyleTable
 71
0
  0
DIMSTYLE
105
208
100
AcDbSymbolTableRecord
100
AcDbDimStyleTableRecord
  2
STANDARD
 70
0
  3

  4

 40
1.0
 41
0.1
 42
0.0625
 43
0.38
 44
0.125
 45
0.0
 46
0.0
 47
0.001
 48
0.001
140
0.08
141
0.09
142
0.0
143
25.4
144
1.0
145
0.0
146
1.0
147
0.09
 71
1.0
 72
0.0
 73
1
 74
1
 75
0
 76
0
 77
0
 78
4
 79
1
170
1
171
2
172
0
173
0
174
0
175
0
176
0
177
0
178
0
270
2
179
3
271
3
272
3
273
2
274
2
275
0
280
0
281
0
282
0
283
1
284
4
285
0
286
0
287
3
288
0
340
11
278
46
341
207
342
207
343
207
344
207
  0
ENDTAB
  0
ENDSEC
  0
SECTION
  2
BLOCKS
  0
BLOCK
  5
20
100
AcDbEntity
  8
0
100
AcDbBlockBegin
  2
*Model_Space
 70
0
 10
0.0
 20
0.0
 30
0.0
  3
*Model_Space
  1

  0
ENDBLK
  5
21
100
AcDbEntity
  8
0
100
AcDbBlockEnd
  0
BLOCK
  5
1C
100
AcDbEntity
  8
0
100
AcDbBlockBegin
  2
*Paper_Space
 70
0
 10
0.0
 20
0.0
 30
0.0
  3
*Paper_Space
  1

  0
ENDBLK
  5
1D
100
AcDbEntity
  8
0
100
AcDbBlockEnd
  0
BLOCK
  5
209
100
AcDbEntity
  8
0
100
AcDbBlockBegin
  2
_FILLED
 70
64
 10
0.0
 20
0.0
  3
_FILLED
  1

  0
SOLID
  5
20A
100
AcDbEntity
  8
0
  6
BYBLOCK
 62
0
100
AcDbTrace
 10
0.0
 20
0.0
 11
-1.0
 21
0.2
 12
-1.0
 22
-0.2
 13
-1.0
 23
-0.2
  0
ENDBLK
  5
20B
100
AcDbEntity
  8
0
  6
BYBLOCK
 62
0
100
AcDbBlockEnd
  0
ENDSEC
  0
SECTION
  2
ENTITIES
  0
LINE
  5
20C
100
AcDbEntity
  8
0
100
AcDbLine
 62
7
  6
CONTINUOUS
 10
9.2778183383
 20
11.4251988646
 11
9.2778183383
 21
3.5013427975
  0
LINE
  5
20D
100
AcDbEntity
  8
0
100
AcDbLine
 62
7
  6
CONTINUOUS
 10
9.2778183383
 20
3.4960426305
 11
9.2778183383
 21
3.1530461093
  0
LINE
  5
20E
100
AcDbEntity
  8
0
100
AcDbLine
 62
7
  6
CONTINUOUS
 10
10.4178183383
 20
11.4251988646
 11
10.4178183383
 21
3.5013427975
  0
LINE
  5
20F
100
AcDbEntity
  8
0
100
AcDbLine
 62
7
  6
CONTINUOUS
 10
10.4178183383
 20
3.4960426305
 11
10.4178183383
 21
3.1530461093
  0
LINE
  5
210
100
AcDbEntity
  8
0
100
AcDbLine
 62
9
  6
CONTINUOUS
 10
11.7428183383
 20
12.3251988646
 11
11.7428183383
 21
10.5251988646
  0
LINE
  5
211
100
AcDbEntity
  8
0
100
AcDbLine
 62
7
  6
CONTINUOUS
 10
11.7728183383
 20
12.2951988266
 11
11.7728183383
 21
10.5551989026
  0
LINE
  5
212
100
AcDbEntity
  8
0
100
AcDbLine
 62
7
  6
CONTINUOUS
 10
11.8128183383
 20
12.3051988646
 11
11.8128183383
 21
10.5451988646
  0
LINE
  5
213
100
AcDbEntity
  8
0
100
AcDbLine
 62
9
  6
CONTINUOUS
 10
11.8328183383
 20
10.5251988646
 11
11.8328183383
 21
12.3251988646
  0
LINE
  5
214
100
AcDbEntity
  8
0
100
AcDbLine
 62
9
  6
CONTINUOUS
 10
12.9128183383
 20
10.5251988646
 11
12.9128183383
 21
11.0601596608
  0
LINE
  5
215
100
AcDbEntity
  8
0
100
AcDbLine
 62
9
  6
CONTINUOUS
 10
12.9128183383
 20
11.7902527688
 11
12.9128183383
 21
12.3251988646
  0
LINE
  5
216
100
AcDbEntity
  8
0
100
AcDbLine
 62
7
  6
CONTINUOUS
 10
12.9328183383
 20
12.3051988646
 11
12.9328183383
 21
11.7821389857
  0
LINE
  5
217
100
AcDbEntity
  8
0
100
AcDbLine
 62
7
  6
CONTINUOUS
 10
12.9328183383
 20
11.0682587436
 11
12.9328183383
 21
10.5451989179
  0
LINE
  5
218
100
AcDbEntity
  8
0
100
AcDbLine
 62
7
  6
CONTINUOUS
 10
11.7428183383
 20
10.5251988646
 11
10.4178183383
 21
10.5251988646
  0
LINE
  5
219
100
AcDbEntity
  8
0
100
AcDbLine
 62
7
  6
CONTINUOUS
 10
11.8328183383
 20
10.5251988646
 11
12.9128183383
 21
10.5251988646
  0
LINE
  5
21A
100
AcDbEntity
  8
0
100
AcDbLine
 62
7
  6
CONTINUOUS
 10
11.8128183383
 20
10.6201988646
 11
11.7728183383
 21
10.6201988646
  0
LINE
  5
21B
100
AcDbEntity
  8
0
100
AcDbLine
 62
7
  6
CONTINUOUS
 10
12.8237001338
 20
11.1581988646
 11
12.7265195973
 21
11.1581988646
  0
LINE
  5
21C
100
AcDbEntity
  8
0
100
AcDbLine
 62
9
  6
CONTINUOUS
 10
12.7022821252
 20
11.1788189726
 11
12.749656855
 21
11.1788190668
  0
LINE
  5
21D
100
AcDbEntity
  8
0
100
AcDbLine
 62
9
  6
CONTINUOUS
 10
12.702282621
 20
11.6715792412
 11
12.7496590906
 21
11.6715792641
  0
LINE
  5
21E
100
AcDbEntity
  8
0
100
AcDbLine
 62
7
  6
CONTINUOUS
 10
12.7265196026
 20
11.6921988646
 11
12.8237001338
 21
11.6921988646
  0
LINE
  5
21F
100
AcDbEntity
  8
0
100
AcDbLine
 62
7
  6
CONTINUOUS
 10
11.8128183383
 20
12.2301988646
 11
11.7728183383
 21
12.2301988646
  0
LINE
  5
220
100
AcDbEntity
  8
0
100
AcDbLine
 62
7
  6
CONTINUOUS
 10
11.7428183383
 20
12.3251988646
 11
10.1679947966
 21
12.3251988646
  0
LINE
  5
221
100
AcDbEntity
  8
0
100
AcDbLine
 62
7
  6
CONTINUOUS
 10
11.8328183383
 20
12.3251988646
 11
12.9128183383
 21
12.3251988646
  0
LWPOLYLINE
  5
222
100
AcDbEntity
  8
0
100
AcDbPolyline
 62
7
  6
CONTINUOUS
 90
8
 70
0
 10
10.1679947826
 20
12.3251955264
 10
10.1635589376
 20
12.3252940228
 10
10.1587910676
 20
12.3256202463
 10
10.1541537854
 20
12.3261586546
 10
10.1496559794
 20
12.3268925808
 10
10.1453073524
 20
12.3278048454
 10
10.1411336234
 20
12.3288731199
 10
10.1375178174
 20
12.3299560901
  0
ARC
  5
223
100
AcDbEntity
  8
0
100
AcDbCircle
 62
7
  6
CONTINUOUS
 10
9.8607305335
 20
3.4960426172
 40
0.5570878047
100
AcDbArc
 50
0.0000013691
 51
0.1828514438
  0
ARC
  5
224
100
AcDbEntity
  8
0
100
AcDbCircle
 62
7
  6
CONTINUOUS
 10
9.8349061367
 20
3.4960426172
 40
0.5570877985
100
AcDbArc
 50
179.8171506033
 51
179.9999986311
  0
ARC
  5
225
100
AcDbEntity
  8
0
100
AcDbCircle
 62
7
  6
CONTINUOUS
 10
9.8608698054
 20
3.5013427943
 40
0.5569485313
100
AcDbArc
 50
359.4547594669
 51
0.0000003253
  0
ARC
  5
226
100
AcDbEntity
  8
0
100
AcDbCircle
 62
7
  6
CONTINUOUS
 10
9.8347668712
 20
3.5013427943
 40
0.5569485313
100
AcDbArc
 50
179.9999996747
 51
180.5452405331
  0
ARC
  5
227
100
AcDbEntity
  8
0
100
AcDbCircle
 62
7
  6
CONTINUOUS
 10
9.8478183383
 20
11.4251988646
 40
0.95
100
AcDbArc
 50
306.8724934369
 51
233.1239360304
  0
ARC
  5
228
100
AcDbEntity
  8
0
100
AcDbCircle
 62
7
  6
CONTINUOUS
 10
9.8478183383
 20
11.4251988646
 40
0.943940944
100
AcDbArc
 50
307.1476713672
 51
232.8523286328
  0
ARC
  5
229
100
AcDbEntity
  8
0
100
AcDbCircle
 62
9
  6
CONTINUOUS
 10
9.8478183383
 20
11.4251988646
 40
0.9434403817
100
AcDbArc
 50
307.1733563638
 51
232.8266436362
  0
ARC
  5
22A
100
AcDbEntity
  8
0
100
AcDbCircle
 62
9
  6
CONTINUOUS
 10
9.8478183383
 20
11.4251988646
 40
0.5845403817
100
AcDbArc
 50
347.2209269577
 51
192.7790730423
  0
ARC
  5
22B
100
AcDbEntity
  8
0
100
AcDbCircle
 62
7
  6
CONTINUOUS
 10
9.8478183383
 20
11.4251988646
 40
0.57
100
AcDbArc
 50
0.0
 51
180.0
  0
ARC
  5
22C
100
AcDbEntity
  8
0
100
AcDbCircle
 62
7
  6
CONTINUOUS
 10
11.7428183383
 20
10.5551988646
 40
0.03
100
AcDbArc
 50
270.0
 51
360.0
  0
ARC
  5
22D
100
AcDbEntity
  8
0
100
AcDbCircle
 62
7
  6
CONTINUOUS
 10
11.8328183383
 20
10.5451988646
 40
0.02
100
AcDbArc
 50
180.0
 51
270.0
  0
ARC
  5
22E
100
AcDbEntity
  8
0
100
AcDbCircle
 62
7
  6
CONTINUOUS
 10
11.7428183383
 20
12.2951988646
 40
0.03
100
AcDbArc
 50
0.0
 51
90.0
  0
ARC
  5
22F
100
AcDbEntity
  8
0
100
AcDbCircle
 62
7
  6
CONTINUOUS
 10
11.8328183383
 20
12.3051988646
 40
0.02
100
AcDbArc
 50
90.0
 51
180.0
  0
ARC
  5
230
100
AcDbEntity
  8
0
100
AcDbCircle
 62
7
  6
CONTINUOUS
 10
12.8237001338
 20
11.0981988646
 40
0.06
100
AcDbArc
 50
74.1048938384
 51
90.0
  0
ARC
  5
231
100
AcDbEntity
  8
0
100
AcDbCircle
 62
7
  6
CONTINUOUS
 10
12.9128183383
 20
11.0682587436
 40
0.02
100
AcDbArc
 50
0.0
 51
86.7929673581
  0
ARC
  5
232
100
AcDbEntity
  8
0
100
AcDbCircle
 62
7
  6
CONTINUOUS
 10
12.9128183383
 20
10.5451988646
 40
0.02
100
AcDbArc
 50
270.0
 51
360.0
  0
ARC
  5
233
100
AcDbEntity
  8
0
100
AcDbCircle
 62
7
  6
CONTINUOUS
 10
12.8237001338
 20
11.7521988646
 40
0.06
100
AcDbArc
 50
270.0
 51
285.8951061616
  0
CIRCLE
  5
234
100
AcDbEntity
  8
0
100
AcDbCircle
 62
7
  6
CONTINUOUS
 10
12.9168183383
 20
11.4251988646
 40
0.28
  0
ARC
  5
235
100
AcDbEntity
  8
0
100
AcDbCircle
 62
7
  6
CONTINUOUS
 10
12.9168183383
 20
11.4251988646
 40
0.28
100
AcDbArc
 50
119.4490324193
 51
120.0048090454
  0
ARC
  5
236
100
AcDbEntity
  8
0
100
AcDbCircle
 62
7
  6
CONTINUOUS
 10
12.9168183383
 20
11.4251988646
 40
0.28
100
AcDbArc
 50
180.6128373812
 51
240.551164637
  0
ARC
  5
237
100
AcDbEntity
  8
0
100
AcDbCircle
 62
7
  6
CONTINUOUS
 10
12.9168183383
 20
11.4251988646
 40
0.28
100
AcDbArc
 50
96.5853658303
 51
105.8950807221
  0
ARC
  5
238
100
AcDbEntity
  8
0
100
AcDbCircle
 62
7
  6
CONTINUOUS
 10
12.9168183383
 20
11.4251988646
 40
0.28
100
AcDbArc
 50
118.1916769604
 51
118.9008985275
  0
CIRCLE
  5
239
100
AcDbEntity
  8
0
100
AcDbCircle
 62
9
  6
CONTINUOUS
 10
12.9168183383
 20
11.4251988646
 40
0.26
  0
ARC
  5
23A
100
AcDbEntity
  8
0
100
AcDbCircle
 62
7
  6
CONTINUOUS
 10
12.9128183383
 20
11.7821389857
 40
0.02
100
AcDbArc
 50
273.2070326419
 51
360.0
  0
ARC
  5
23B
100
AcDbEntity
  8
0
100
AcDbCircle
 62
7
  6
CONTINUOUS
 10
12.9328183383
 20
11.4251988646
 40
0.3375
100
AcDbArc
 50
93.2070320259
 51
266.7929679615
  0
ARC
  5
23C
100
AcDbEntity
  8
0
100
AcDbCircle
 62
7
  6
CONTINUOUS
 10
12.9128183383
 20
12.3051988646
 40
0.02
100
AcDbArc
 50
0.0
 51
90.0
  0
SPLINE
  5
23D
100
AcDbEntity
  8
0
100
AcDbSpline
 62
7
  6
CONTINUOUS
 70
0
 71
3
 72
75
 73
71
 74
0
 42
0.0000001
 43
0.0000001
 44
0.0000000001
 40
0.0
 40
0.0
 40
0.0
 40
0.0
 40
0.0155375076
 40
0.0233070927
 40
0.0310770225
 40
0.046617039
 40
0.0621595591
 40
0.0699326052
 40
0.0777065728
 40
0.093256454
 40
0.1088111219
 40
0.1243712539
 40
0.1399374738
 40
0.1555103475
 40
0.1710903752
 40
0.1866779876
 40
0.2022735421
 40
0.2178773194
 40
0.2334895202
 40
0.2491102637
 40
0.2647395869
 40
0.2803774449
 40
0.2960237102
 40
0.3116781742
 40
0.3273405502
 40
0.3430104758
 40
0.3586875159
 40
0.3743711676
 40
0.3900608646
 40
0.4057559842
 40
0.4214558511
 40
0.4371597451
 40
0.4528669075
 40
0.4685765489
 40
0.484287856
 40
0.5
 40
0.5157121445
 40
0.5314234519
 40
0.5471330933
 40
0.5628402554
 40
0.5785441493
 40
0.5942440163
 40
0.6099391359
 40
0.6256288333
 40
0.6413124851
 40
0.6569895252
 40
0.6726594505
 40
0.6883218261
 40
0.7039762901
 40
0.7196225553
 40
0.7352604134
 40
0.750889737
 40
0.7665104807
 40
0.7821226814
 40
0.7977264584
 40
0.8133220126
 40
0.828909625
 40
0.8444896526
 40
0.8600625263
 40
0.8756287466
 40
0.8911888788
 40
0.9067435467
 40
0.9222934276
 40
0.930067395
 40
0.937840441
 40
0.953382961
 40
0.9689229775
 40
0.9766929073
 40
0.9844624924
 40
1.0
 40
1.0
 40
1.0
 40
1.0
 10
9.2778183383
 20
3.1530461093
 30
0.0
 10
9.2778183383
 20
3.1438250765
 30
0.0
 10
9.2781619144
 20
3.1299898098
 30
0.0
 10
9.2793060381
 20
3.1115807292
 30
0.0
 10
9.280906831
 20
3.0932038384
 30
0.0
 10
9.2837627456
 20
3.070313539
 30
0.0
 10
9.2877511923
 20
3.0475912738
 30
0.0
 10
9.2916151969
 20
3.0295480362
 30
0.0
 10
9.2959263945
 20
3.0116019369
 30
0.0
 10
9.3021492111
 20
2.9893730432
 30
0.0
 10
9.3109304891
 20
2.9630963841
 30
0.0
 10
9.3210054282
 20
2.9372773112
 30
0.0
 10
9.3323496171
 20
2.9119784653
 30
0.0
 10
9.3449357033
 20
2.887260698
 30
0.0
 10
9.3587333026
 20
2.8631835915
 30
0.0
 10
9.3737091321
 20
2.8398051459
 30
0.0
 10
9.3898270522
 20
2.81718167
 30
0.0
 10
9.4070481952
 20
2.7953676577
 30
0.0
 10
9.4253310144
 20
2.7744156285
 30
0.0
 10
9.4446314348
 20
2.7543760403
 30
0.0
 10
9.4649029092
 20
2.7352971222
 30
0.0
 10
9.4860965816
 20
2.7172248096
 30
0.0
 10
9.5081613579
 20
2.7002025825
 30
0.0
 10
9.5310440722
 20
2.6842714136
 30
0.0
 10
9.5546895781
 20
2.6694696215
 30
0.0
 10
9.5790409127
 20
2.6558328228
 30
0.0
 10
9.60403941
 20
2.6433938121
 30
0.0
 10
9.6296248582
 20
2.6321825102
 30
0.0
 10
9.6557356359
 20
2.6222258768
 30
0.0
 10
9.6823088632
 20
2.6135478515
 30
0.0
 10
9.7092805542
 20
2.6061693043
 30
0.0
 10
9.7365857649
 20
2.6001079666
 30
0.0
 10
9.7641587566
 20
2.5953784212
 30
0.0
 10
9.7919331451
 20
2.5919920239
 30
0.0
 10
9.8198420682
 20
2.5899569307
 30
0.0
 10
9.8478183386
 20
2.5892780164
 30
0.0
 10
9.8757946092
 20
2.5899569307
 30
0.0
 10
9.9037035327
 20
2.591992024
 30
0.0
 10
9.9314779212
 20
2.5953784213
 30
0.0
 10
9.9590509127
 20
2.6001079668
 30
0.0
 10
9.9863561231
 20
2.6061693045
 30
0.0
 10
10.0133278142
 20
2.6135478517
 30
0.0
 10
10.0399010417
 20
2.6222258772
 30
0.0
 10
10.0660118197
 20
2.6321825108
 30
0.0
 10
10.0915972682
 20
2.6433938129
 30
0.0
 10
10.1165957653
 20
2.6558328236
 30
0.0
 10
10.1409470995
 20
2.6694696221
 30
0.0
 10
10.1645926051
 20
2.6842714141
 30
0.0
 10
10.1874753191
 20
2.7002025829
 30
0.0
 10
10.2095400953
 20
2.7172248099
 30
0.0
 10
10.230733768
 20
2.7352971227
 30
0.0
 10
10.2510052426
 20
2.7543760411
 30
0.0
 10
10.2703056632
 20
2.7744156296
 30
0.0
 10
10.2885884822
 20
2.7953676587
 30
0.0
 10
10.3058096249
 20
2.8171816707
 30
0.0
 10
10.3219275447
 20
2.8398051463
 30
0.0
 10
10.3369033741
 20
2.8631835916
 30
0.0
 10
10.3507009734
 20
2.8872606982
 30
0.0
 10
10.3632870597
 20
2.9119784657
 30
0.0
 10
10.3746312487
 20
2.937277312
 30
0.0
 10
10.3847061879
 20
2.9630963852
 30
0.0
 10
10.3934874658
 20
2.9893730442
 30
0.0
 10
10.3997102823
 20
3.0116019377
 30
0.0
 10
10.4040214798
 20
3.0295480366
 30
0.0
 10
10.4078854843
 20
3.0475912739
 30
0.0
 10
10.411873931
 20
3.070313539
 30
0.0
 10
10.4147298456
 20
3.0932038384
 30
0.0
 10
10.4163306384
 20
3.1115807292
 30
0.0
 10
10.4174747622
 20
3.1299898098
 30
0.0
 10
10.4178183383
 20
3.1438250765
 30
0.0
 10
10.4178183383
 20
3.1530461093
 30
0.0
  0
SPLINE
  5
23E
100
AcDbEntity
  8
0
100
AcDbSpline
 62
7
  6
CONTINUOUS
 70
0
 71
3
 72
43
 73
39
 74
0
 42
0.0000001
 43
0.0000001
 44
0.0000000001
 40
0.0
 40
0.0
 40
0.0
 40
0.0
 40
0.0310675381
 40
0.0466031569
 40
0.0621395066
 40
0.0932128845
 40
0.1242917134
 40
0.1398348611
 40
0.1553799734
 40
0.1864744964
 40
0.2175791129
 40
0.2486951942
 40
0.2798240038
 40
0.3109666784
 40
0.342124226
 40
0.3732975081
 40
0.4044872361
 40
0.4356939665
 40
0.4669180884
 40
0.4981598301
 40
0.5294192483
 40
0.5606962325
 40
0.5919905073
 40
0.6233016292
 40
0.6546290003
 40
0.685971865
 40
0.7173293231
 40
0.7487003384
 40
0.780083743
 40
0.8114782578
 40
0.8428824949
 40
0.8585889452
 40
0.8742972661
 40
0.9057164414
 40
0.9371406875
 40
0.9528553486
 40
0.9685705922
 40
1.0
 40
1.0
 40
1.0
 40
1.0
 10
10.4177931185
 20
3.496042817
 30
0.0
 10
10.4177059215
 20
3.4868801832
 30
0.0
 10
10.4172356894
 20
3.4731357513
 30
0.0
 10
10.4159314209
 20
3.454853493
 30
0.0
 10
10.4141763056
 20
3.4366068794
 30
0.0
 10
10.4111386141
 20
3.4138857599
 30
0.0
 10
10.4069836177
 20
3.3913401086
 30
0.0
 10
10.4029956601
 20
3.3734418407
 30
0.0
 10
10.3985666874
 20
3.3556428372
 30
0.0
 10
10.3922083603
 20
3.3336016664
 30
0.0
 10
10.3832834343
 20
3.30755509
 30
0.0
 10
10.373083819
 20
3.2819695332
 30
0.0
 10
10.3616338899
 20
3.2569063156
 30
0.0
 10
10.3489608961
 20
3.2324249842
 30
0.0
 10
10.3350950114
 20
3.2085838489
 30
0.0
 10
10.3200692606
 20
3.1854396452
 30
0.0
 10
10.3039194106
 20
3.1630474709
 30
0.0
 10
10.2866839246
 20
3.1414606153
 30
0.0
 10
10.2684038274
 20
3.1207304655
 30
0.0
 10
10.2491226515
 20
3.1009063506
 30
0.0
 10
10.2288862897
 20
3.0820354612
 30
0.0
 10
10.2077429281
 20
3.0641626964
 30
0.0
 10
10.1857428904
 20
3.0473306021
 30
0.0
 10
10.1629385574
 20
3.0315792208
 30
0.0
 10
10.1393842037
 20
3.0169460494
 30
0.0
 10
10.115135908
 20
3.0034658947
 30
0.0
 10
10.0902513725
 20
2.9911708467
 30
0.0
 10
10.0647898649
 20
2.9800901516
 30
0.0
 10
10.0388118744
 20
2.9702501679
 30
0.0
 10
10.0123796354
 20
2.9616743793
 30
0.0
 10
9.9900266009
 20
2.9555984525
 30
0.0
 10
9.9719817518
 20
2.9513888602
 30
0.0
 10
9.953836207
 20
2.9476151256
 30
0.0
 10
9.9309882055
 20
2.9437203266
 30
0.0
 10
9.9079771145
 20
2.9409320053
 30
0.0
 10
9.8895032909
 20
2.9393689903
 30
0.0
 10
9.8709960024
 20
2.9382517911
 30
0.0
 10
9.8570881168
 20
2.9379163386
 30
0.0
 10
9.8478183383
 20
2.9379163386
 30
0.0
  0
SPLINE
  5
23F
100
AcDbEntity
  8
0
100
AcDbSpline
 62
7
  6
CONTINUOUS
 70
0
 71
3
 72
43
 73
39
 74
0
 42
0.0000001
 43
0.0000001
 44
0.0000000001
 40
0.0
 40
0.0
 40
0.0
 40
0.0
 40
0.0314294078
 40
0.0471446514
 40
0.0628593125
 40
0.0942835586
 40
0.1257027339
 40
0.1414110548
 40
0.1571175051
 40
0.1885217422
 40
0.219916257
 40
0.2512996616
 40
0.2826706769
 40
0.314028135
 40
0.3453709997
 40
0.3766983708
 40
0.4080094927
 40
0.4393037675
 40
0.4705807517
 40
0.5018401699
 40
0.5330819116
 40
0.5643060335
 40
0.5955127639
 40
0.6267024919
 40
0.657875774
 40
0.6890333216
 40
0.7201759962
 40
0.7513048058
 40
0.7824208871
 40
0.8135255036
 40
0.8446200266
 40
0.8601651389
 40
0.8757082866
 40
0.9067871155
 40
0.9378604934
 40
0.9533968431
 40
0.9689324619
 40
1.0
 40
1.0
 40
1.0
 40
1.0
 10
9.8478183383
 20
2.9379163386
 30
0.0
 10
9.8385485598
 20
2.9379163386
 30
0.0
 10
9.8246406741
 20
2.9382517911
 30
0.0
 10
9.8061333857
 20
2.9393689903
 30
0.0
 10
9.7876595621
 20
2.9409320053
 30
0.0
 10
9.7646484711
 20
2.9437203266
 30
0.0
 10
9.7418004695
 20
2.9476151256
 30
0.0
 10
9.7236549248
 20
2.9513888602
 30
0.0
 10
9.7056100757
 20
2.9555984525
 30
0.0
 10
9.6832570411
 20
2.9616743793
 30
0.0
 10
9.6568248022
 20
2.9702501679
 30
0.0
 10
9.6308468116
 20
2.9800901516
 30
0.0
 10
9.605385304
 20
2.9911708467
 30
0.0
 10
9.5805007685
 20
3.0034658947
 30
0.0
 10
9.5562524728
 20
3.0169460494
 30
0.0
 10
9.5326981191
 20
3.0315792208
 30
0.0
 10
9.5098937861
 20
3.0473306021
 30
0.0
 10
9.4878937484
 20
3.0641626964
 30
0.0
 10
9.4667503869
 20
3.0820354612
 30
0.0
 10
9.4465140251
 20
3.1009063506
 30
0.0
 10
9.4272328492
 20
3.1207304655
 30
0.0
 10
9.408952752
 20
3.1414606153
 30
0.0
 10
9.3917172659
 20
3.1630474709
 30
0.0
 10
9.375567416
 20
3.1854396452
 30
0.0
 10
9.3605416651
 20
3.2085838489
 30
0.0
 10
9.3466757804
 20
3.2324249842
 30
0.0
 10
9.3340027866
 20
3.2569063156
 30
0.0
 10
9.3225528576
 20
3.2819695332
 30
0.0
 10
9.3123532423
 20
3.30755509
 30
0.0
 10
9.3034283163
 20
3.3336016664
 30
0.0
 10
9.2970699892
 20
3.3556428372
 30
0.0
 10
9.2926410165
 20
3.3734418407
 30
0.0
 10
9.2886530589
 20
3.3913401086
 30
0.0
 10
9.2844980625
 20
3.4138857599
 30
0.0
 10
9.281460371
 20
3.4366068794
 30
0.0
 10
9.2797052557
 20
3.454853493
 30
0.0
 10
9.2784009872
 20
3.4731357513
 30
0.0
 10
9.2779307551
 20
3.4868801832
 30
0.0
 10
9.277843558
 20
3.496042817
 30
0.0
  0
SPLINE
  5
240
100
AcDbEntity
  8
0
100
AcDbSpline
 62
9
  6
CONTINUOUS
 70
0
 71
3
 72
75
 73
71
 74
0
 42
0.0000001
 43
0.0000001
 44
0.0000000001
 40
0.0
 40
0.0
 40
0.0
 40
0.0
 40
0.0155343021
 40
0.0233022943
 40
0.031070643
 40
0.0466075483
 40
0.0621470504
 40
0.0699186317
 40
0.077691169
 40
0.0932383059
 40
0.1087904074
 40
0.1243481759
 40
0.1399122584
 40
0.1554832406
 40
0.1710616407
 40
0.1866479051
 40
0.2022424037
 40
0.2178454265
 40
0.2334571811
 40
0.2490777907
 40
0.2647072931
 40
0.2803456405
 40
0.2959926999
 40
0.311648255
 40
0.3273120077
 40
0.3429835819
 40
0.3586625265
 40
0.3743483202
 40
0.3900403765
 40
0.4057380492
 40
0.4214406389
 40
0.4371473993
 40
0.4528575448
 40
0.4685702576
 40
0.4842846954
 40
0.5
 40
0.5157153046
 40
0.5314297424
 40
0.5471424552
 40
0.5628526007
 40
0.5785593611
 40
0.5942619508
 40
0.6099596235
 40
0.6256516798
 40
0.6413374735
 40
0.6570164181
 40
0.6726879923
 40
0.688351745
 40
0.7040073001
 40
0.7196543595
 40
0.7352927069
 40
0.7509222093
 40
0.7665428189
 40
0.7821545735
 40
0.7977575963
 40
0.8133520949
 40
0.8289383593
 40
0.8445167594
 40
0.8600877416
 40
0.8756518241
 40
0.8912095926
 40
0.9067616941
 40
0.922308831
 40
0.9300813683
 40
0.9378529496
 40
0.9533924517
 40
0.968929357
 40
0.9766977057
 40
0.9844656979
 40
1.0
 40
1.0
 40
1.0
 40
1.0
 10
10.4178183383
 20
3.1530461093
 30
0.0
 10
10.4178183383
 20
3.1438279154
 30
0.0
 10
10.417474832
 20
3.1299969016
 30
0.0
 10
10.4163309413
 20
3.1115934769
 30
0.0
 10
10.4147304702
 20
3.093222183
 30
0.0
 10
10.4118751197
 20
3.0703387857
 30
0.0
 10
10.4078874548
 20
3.047623338
 30
0.0
 10
10.404024195
 20
3.0295854464
 30
0.0
 10
10.3997137951
 20
3.0116445255
 30
0.0
 10
10.3934920891
 20
2.9894219101
 30
0.0
 10
10.3847123255
 20
2.963152514
 30
0.0
 10
10.3746390259
 20
2.9373403256
 30
0.0
 10
10.3632965602
 20
2.9120479511
 30
0.0
 10
10.3507122378
 20
2.8873362145
 30
0.0
 10
10.3369163979
 20
2.8632646777
 30
0.0
 10
10.3219422783
 20
2.8398913275
 30
0.0
 10
10.3058259741
 20
2.8172724666
 30
0.0
 10
10.2886063104
 20
2.7954625898
 30
0.0
 10
10.2703247936
 20
2.7745142247
 30
0.0
 10
10.2510254617
 20
2.7544778427
 30
0.0
 10
10.2307548298
 20
2.7354016931
 30
0.0
 10
10.2095617264
 20
2.7173317363
 30
0.0
 10
10.1874972244
 20
2.700311482
 30
0.0
 10
10.1646144736
 20
2.6843819353
 30
0.0
 10
10.1409686113
 20
2.6695814501
 30
0.0
 10
10.1166165974
 20
2.6559456803
 30
0.0
 10
10.0916171016
 20
2.6435074576
 30
0.0
 10
10.0660303455
 20
2.6322967403
 30
0.0
 10
10.0399179668
 20
2.6223405241
 30
0.0
 10
10.013342868
 20
2.6136627832
 30
0.0
 10
9.9863690628
 20
2.6062844189
 30
0.0
 10
9.9590615279
 20
2.6002231906
 30
0.0
 10
9.9314860386
 20
2.5954937045
 30
0.0
 10
9.9037090192
 20
2.5921073357
 30
0.0
 10
9.8757973751
 20
2.5900722539
 30
0.0
 10
9.8478183383
 20
2.5893933425
 30
0.0
 10
9.8198393015
 20
2.5900722539
 30
0.0
 10
9.7919276573
 20
2.5921073357
 30
0.0
 10
9.764150638
 20
2.5954937045
 30
0.0
 10
9.7365751486
 20
2.6002231906
 30
0.0
 10
9.7092676138
 20
2.6062844189
 30
0.0
 10
9.6822938086
 20
2.6136627832
 30
0.0
 10
9.6557187097
 20
2.6223405241
 30
0.0
 10
9.6296063311
 20
2.6322967403
 30
0.0
 10
9.6040195749
 20
2.6435074576
 30
0.0
 10
9.5790200792
 20
2.6559456803
 30
0.0
 10
9.5546680653
 20
2.6695814501
 30
0.0
 10
9.5310222029
 20
2.6843819353
 30
0.0
 10
9.5081394522
 20
2.700311482
 30
0.0
 10
9.4860749502
 20
2.7173317363
 30
0.0
 10
9.4648818468
 20
2.7354016931
 30
0.0
 10
9.4446112149
 20
2.7544778427
 30
0.0
 10
9.425311883
 20
2.7745142247
 30
0.0
 10
9.4070303661
 20
2.7954625898
 30
0.0
 10
9.3898107025
 20
2.8172724666
 30
0.0
 10
9.3736943983
 20
2.8398913275
 30
0.0
 10
9.3587202787
 20
2.8632646777
 30
0.0
 10
9.3449244388
 20
2.8873362145
 30
0.0
 10
9.3323401164
 20
2.9120479511
 30
0.0
 10
9.3209976507
 20
2.9373403256
 30
0.0
 10
9.3109243511
 20
2.963152514
 30
0.0
 10
9.3021445875
 20
2.9894219101
 30
0.0
 10
9.2959228814
 20
3.0116445255
 30
0.0
 10
9.2916124816
 20
3.0295854464
 30
0.0
 10
9.2877492218
 20
3.047623338
 30
0.0
 10
9.2837615569
 20
3.0703387857
 30
0.0
 10
9.2809062063
 20
3.093222183
 30
0.0
 10
9.2793057353
 20
3.1115934769
 30
0.0
 10
9.2781618445
 20
3.1299969016
 30
0.0
 10
9.2778183383
 20
3.1438279154
 30
0.0
 10
9.2778183383
 20
3.1530461093
 30
0.0
  0
SPLINE
  5
241
100
AcDbEntity
  8
0
100
AcDbSpline
 62
9
  6
CONTINUOUS
 70
0
 71
3
 72
26
 73
22
 74
0
 42
0.0000001
 43
0.0000001
 44
0.0000000001
 40
0.0
 40
0.0
 40
0.0
 40
0.0
 40
0.0849763928
 40
0.1692678851
 40
0.2522052747
 40
0.3331352271
 40
0.4114360421
 40
0.4865273671
 40
0.5578825607
 40
0.6250429079
 40
0.6876359795
 40
0.7453988639
 40
0.798209101
 40
0.8461265986
 40
0.8683475525
 40
0.8894825812
 40
0.9288233388
 40
0.947317721
 40
0.9652210945
 40
0.9827170398
 40
1.0
 40
1.0
 40
1.0
 40
1.0
 10
12.9128183383
 20
11.0601464681
 30
0.0
 10
12.9134718654
 20
11.0601464681
 30
0.0
 10
12.914773803
 20
11.060172303
 30
0.0
 10
12.9167104648
 20
11.0602883449
 30
0.0
 10
12.9186098437
 20
11.0604804902
 30
0.0
 10
12.9204537331
 20
11.0607468881
 30
0.0
 10
12.9222245053
 20
11.0610849604
 30
0.0
 10
12.9239052553
 20
11.061491445
 30
0.0
 10
12.9254799769
 20
11.0619624299
 30
0.0
 10
12.9269337423
 20
11.0624934117
 30
0.0
 10
12.9282528495
 20
11.0630793556
 30
0.0
 10
12.9294250773
 20
11.0637148773
 30
0.0
 10
12.930439498
 20
11.0643942184
 30
0.0
 10
12.9311632413
 20
11.0650070008
 30
0.0
 10
12.9316484055
 20
11.0655152302
 30
0.0
 10
12.9320512995
 20
11.0660078015
 30
0.0
 10
12.932376956
 20
11.0665254467
 30
0.0
 10
12.9326074622
 20
11.0670614196
 30
0.0
 10
12.9327289614
 20
11.0674586477
 30
0.0
 10
12.9328020231
 20
11.067858076
 30
0.0
 10
12.9328183383
 20
11.0681258257
 30
0.0
 10
12.9328183383
 20
11.0682587436
 30
0.0
  0
SPLINE
  5
242
100
AcDbEntity
  8
0
100
AcDbSpline
 62
9
  6
CONTINUOUS
 70
0
 71
3
 72
42
 73
38
 74
0
 42
0.0000001
 43
0.0000001
 44
0.0000000001
 40
0.0
 40
0.0
 40
0.0
 40
0.0
 40
0.0409196515
 40
0.0617503313
 40
0.0827975824
 40
0.125462426
 40
0.1687550163
 40
0.2125076061
 40
0.2565510176
 40
0.3448316664
 40
0.4322370984
 40
0.5174209236
 40
0.5990713651
 40
0.6759305482
 40
0.746813299
 40
0.7796683587
 40
0.810628099
 40
0.839573801
 40
0.866394855
 40
0.8909887821
 40
0.9132618299
 40
0.93312889
 40
0.9505137391
 40
0.9653508524
 40
0.9775859958
 40
0.9827139364
 40
0.9871763587
 40
0.9909696329
 40
0.9940912225
 40
0.9953996727
 40
0.9965397554
 40
0.9975116745
 40
0.9983165883
 40
0.9989570091
 40
0.9994381149
 40
0.9997726925
 40
1.0
 40
1.0
 40
1.0
 40
1.0
 10
12.9128183383
 20
11.7902512611
 30
0.0
 10
12.9128423197
 20
11.7898684197
 30
0.0
 10
12.9128797882
 20
11.7892907688
 30
0.0
 10
12.9129296806
 20
11.7885162072
 30
0.0
 10
12.912979546
 20
11.7877252506
 30
0.0
 10
12.9130411559
 20
11.7867240534
 30
0.0
 10
12.9131145836
 20
11.7855103356
 30
0.0
 10
12.9131869417
 20
11.7842836076
 30
0.0
 10
12.9132815691
 20
11.782635732
 30
0.0
 10
12.9133951071
 20
11.7805790568
 30
0.0
 10
12.9135223958
 20
11.7781369035
 30
0.0
 10
12.9136388211
 20
11.7757564324
 30
0.0
 10
12.9137411874
 20
11.7734742725
 30
0.0
 10
12.9138294276
 20
11.7713256946
 30
0.0
 10
12.9138941931
 20
11.7696339662
 30
0.0
 10
12.913938976
 20
11.7683720687
 30
0.0
 10
12.9139678847
 20
11.7675029866
 30
0.0
 10
12.9139924292
 20
11.766690358
 30
0.0
 10
12.9140119456
 20
11.765937285
 30
0.0
 10
12.914025836
 20
11.7652466485
 30
0.0
 10
12.9140339584
 20
11.7646211123
 30
0.0
 10
12.9140367598
 20
11.7640631104
 30
0.0
 10
12.9140348541
 20
11.7635748085
 30
0.0
 10
12.9140283691
 20
11.7631580965
 30
0.0
 10
12.9140188795
 20
11.7628563681
 30
0.0
 10
12.9140085467
 20
11.7626520252
 30
0.0
 10
12.9140003126
 20
11.7625268272
 30
0.0
 10
12.9139912033
 20
11.7624205557
 30
0.0
 10
12.9139826827
 20
11.7623439267
 30
0.0
 10
12.9139754611
 20
11.7622922091
 30
0.0
 10
12.9139703143
 20
11.7622605577
 30
0.0
 10
12.9139651692
 20
11.7622336961
 30
0.0
 10
12.9139599959
 20
11.7622116282
 30
0.0
 10
12.9139548371
 20
11.7621942989
 30
0.0
 10
12.9139495185
 20
11.7621816896
 30
0.0
 10
12.9139442839
 20
11.7621733479
 30
0.0
 10
12.9139393469
 20
11.7621704268
 30
0.0
 10
12.9139372194
 20
11.7621703076
 30
0.0
  0
SPLINE
  5
243
100
AcDbEntity
  8
0
100
AcDbSpline
 62
9
  6
CONTINUOUS
 70
0
 71
3
 72
25
 73
21
 74
0
 42
0.0000001
 43
0.0000001
 44
0.0000000001
 40
0.0
 40
0.0
 40
0.0
 40
0.0
 40
0.0172824056
 40
0.0347759494
 40
0.0526775541
 40
0.0711713572
 40
0.1105103386
 40
0.1538327584
 40
0.2017484826
 40
0.2545564283
 40
0.3123161853
 40
0.3749058023
 40
0.4420635892
 40
0.5134185744
 40
0.5885131028
 40
0.6668206415
 40
0.747760064
 40
0.8307090772
 40
0.9150127038
 40
1.0
 40
1.0
 40
1.0
 40
1.0
 10
12.9328183383
 20
11.7821389857
 30
0.0
 10
12.9328183383
 20
11.782271895
 30
0.0
 10
12.9328020377
 20
11.7825396141
 30
0.0
 10
12.9327289758
 20
11.7829389941
 30
0.0
 10
12.9326075137
 20
11.7833361729
 30
0.0
 10
12.9323770262
 20
11.7838721431
 30
0.0
 10
12.931960071
 20
11.7845348985
 30
0.0
 10
12.9312874496
 20
11.7852854498
 30
0.0
 10
12.930439891
 20
11.7860032345
 30
0.0
 10
12.9294254752
 20
11.7866826106
 30
0.0
 10
12.928253397
 20
11.7873181049
 30
0.0
 10
12.9269344064
 20
11.7879040496
 30
0.0
 10
12.9254807517
 20
11.7884350426
 30
0.0
 10
12.9239060899
 20
11.7889060597
 30
0.0
 10
12.9222253314
 20
11.7893125918
 30
0.0
 10
12.9204544759
 20
11.7896507179
 30
0.0
 10
12.9186104379
 20
11.7899171685
 30
0.0
 10
12.9167108672
 20
11.790109355
 30
0.0
 10
12.9147740017
 20
11.7902254214
 30
0.0
 10
12.9134719284
 20
11.7902512611
 30
0.0
 10
12.9128183383
 20
11.7902512611
 30
0.0
  0
SPLINE
  5
244
100
AcDbEntity
  8
0
100
AcDbSpline
 62
9
  6
CONTINUOUS
 70
0
 71
3
 72
54
 73
50
 74
0
 42
0.0000001
 43
0.0000001
 44
0.0000000001
 40
0.0
 40
0.0
 40
0.0
 40
0.0
 40
0.0075102414
 40
0.0150545006
 40
0.0226662589
 40
0.030377958
 40
0.038220564
 40
0.0462232177
 40
0.05441298
 40
0.0628146676
 40
0.07145078
 40
0.0803414973
 40
0.0895047325
 40
0.0989562202
 40
0.1087096365
 40
0.1187767351
 40
0.1291674863
 40
0.1398902118
 40
0.1509517194
 40
0.1623574324
 40
0.1741115075
 40
0.1862169383
 40
0.1986756518
 40
0.211488602
 40
0.2246558489
 40
0.238176627
 40
0.2520494069
 40
0.2662719578
 40
0.2808413993
 40
0.2957542449
 40
0.311006441
 40
0.3265934085
 40
0.3587499369
 40
0.3921789845
 40
0.4268280573
 40
0.4626388593
 40
0.4995479191
 40
0.5374871434
 40
0.5763843007
 40
0.6161634722
 40
0.656745451
 40
0.698048132
 40
0.7399868628
 40
0.7824747964
 40
0.8254232154
 40
0.8687418625
 40
0.9123392448
 40
0.9561229107
 40
1.0
 40
1.0
 40
1.0
 40
1.0
 10
10.4178183366
 20
9.7144512373
 30
0.0
 10
10.4178183366
 20
9.7160470466
 30
0.0
 10
10.4177032687
 20
9.7192470728
 30
0.0
 10
10.4171860025
 20
9.7240393291
 30
0.0
 10
10.416324383
 20
9.7288254341
 30
0.0
 10
10.4151191341
 20
9.7336019356
 30
0.0
 10
10.4135712287
 20
9.7383658724
 30
0.0
 10
10.4116818612
 20
9.7431142535
 30
0.0
 10
10.4094524229
 20
9.7478441968
 30
0.0
 10
10.4068844913
 20
9.7525528827
 30
0.0
 10
10.4039798121
 20
9.75723755
 30
0.0
 10
10.4007402923
 20
9.7618954783
 30
0.0
 10
10.3971679996
 20
9.7665239769
 30
0.0
 10
10.3932651708
 20
9.7711203787
 30
0.0
 10
10.3890342119
 20
9.7756820332
 30
0.0
 10
10.3844777004
 20
9.7802063017
 30
0.0
 10
10.3795983894
 20
9.7846905555
 30
0.0
 10
10.3743992149
 20
9.7891321802
 30
0.0
 10
10.3688832974
 20
9.7935285759
 30
0.0
 10
10.3630539396
 20
9.7978771575
 30
0.0
 10
10.3569146277
 20
9.8021753573
 30
0.0
 10
10.3504690338
 20
9.8064206298
 30
0.0
 10
10.3437210156
 20
9.8106104554
 30
0.0
 10
10.3366746115
 20
9.8147423398
 30
0.0
 10
10.3293340393
 20
9.8188138168
 30
0.0
 10
10.3217036959
 20
9.8228224521
 30
0.0
 10
10.313788156
 20
9.8267658481
 30
0.0
 10
10.3055921668
 20
9.8306416409
 30
0.0
 10
10.2971206436
 20
9.834447506
 30
0.0
 10
10.2883786751
 20
9.8381811509
 30
0.0
 10
10.2793714941
 20
9.8418403568
 30
0.0
 10
10.2668858696
 20
9.8466671482
 30
0.0
 10
10.2506469601
 20
9.852489127
 30
0.0
 10
10.2303890573
 20
9.8590736699
 30
0.0
 10
10.2092110424
 20
9.8653111459
 30
0.0
 10
10.1871638521
 20
9.8711864933
 30
0.0
 10
10.164300327
 20
9.8766855415
 30
0.0
 10
10.1406753762
 20
9.8817950065
 30
0.0
 10
10.116345754
 20
9.886502548
 30
0.0
 10
10.0913699411
 20
9.8907967861
 30
0.0
 10
10.0658079927
 20
9.8946673461
 30
0.0
 10
10.0397213915
 20
9.8981048673
 30
0.0
 10
10.013172897
 20
9.9011010455
 30
0.0
 10
9.9862263914
 20
9.9036486323
 30
0.0
 10
9.9589467214
 20
9.9057414751
 30
0.0
 10
9.9313995521
 20
9.9073745086
 30
0.0
 10
9.9036511734
 20
9.908543791
 30
0.0
 10
9.8757684611
 20
9.9092464924
 30
0.0
 10
9.8571415362
 20
9.909402719
 30
0.0
 10
9.8478183383
 20
9.909402719
 30
0.0
  0
SPLINE
  5
245
100
AcDbEntity
  8
0
100
AcDbSpline
 62
9
  6
CONTINUOUS
 70
0
 71
3
 72
50
 73
46
 74
0
 42
0.0000001
 43
0.0000001
 44
0.0000000001
 40
0.0
 40
0.0
 40
0.0
 40
0.0
 40
0.0158031643
 40
0.0237029678
 40
0.0316008354
 40
0.0394966074
 40
0.0473901867
 40
0.0552813906
 40
0.0631699877
 40
0.0789383079
 40
0.0946941357
 40
0.1104362734
 40
0.1261635588
 40
0.1418751144
 40
0.1575702277
 40
0.1732483275
 40
0.1889090779
 40
0.2201756528
 40
0.2513729699
 40
0.2825044235
 40
0.3135757861
 40
0.3445948776
 40
0.3755711763
 40
0.4065153908
 40
0.4374390686
 40
0.4683541697
 40
0.4992726997
 40
0.5302063322
 40
0.5611660832
 40
0.5921619969
 40
0.6232028739
 40
0.6542960261
 40
0.6854470722
 40
0.7166597742
 40
0.7479359186
 40
0.7792752528
 40
0.8106754682
 40
0.8421322832
 40
0.8736395105
 40
0.8894106946
 40
0.9051914203
 40
0.9209804946
 40
0.9367766302
 40
0.9683824381
 40
1.0
 40
1.0
 40
1.0
 40
1.0
 10
12.9128183383
 20
11.0601596608
 30
0.0
 10
12.9099368467
 20
11.0603247836
 30
0.0
 10
12.9056174512
 20
11.0606209003
 30
0.0
 10
12.8998677041
 20
11.0611220912
 30
0.0
 10
12.8955619055
 20
11.0615538925
 30
0.0
 10
12.8912632237
 20
11.062041459
 30
0.0
 10
12.8869722593
 20
11.0625831548
 30
0.0
 10
12.8826896049
 20
11.0631775953
 30
0.0
 10
12.8769924341
 20
11.064038981
 30
0.0
 10
12.8698953176
 20
11.0652456211
 30
0.0
 10
12.861422529
 20
11.0669029674
 30
0.0
 10
12.8530004739
 20
11.068767055
 30
0.0
 10
12.8446345716
 20
11.0708353585
 30
0.0
 10
12.8363302041
 20
11.0731059957
 30
0.0
 10
12.8280925658
 20
11.0755767679
 30
0.0
 10
12.8199265724
 20
11.0782453378
 30
0.0
 10
12.8091471879
 20
11.0820613263
 30
0.0
 10
12.7958737068
 20
11.0873125186
 30
0.0
 10
12.7802961209
 20
11.0943666066
 30
0.0
 10
12.7651083532
 20
11.1021473198
 30
0.0
 10
12.7503400613
 20
11.110632081
 30
0.0
 10
12.7360179435
 20
11.1197974583
 30
0.0
 10
12.7221671532
 20
11.1296204615
 30
0.0
 10
12.7088110352
 20
11.1400778225
 30
0.0
 10
12.6959718149
 20
11.1511465136
 30
0.0
 10
12.6836706961
 20
11.1628034185
 30
0.0
 10
12.6719282173
 20
11.1750253462
 30
0.0
 10
12.6607644235
 20
11.1877888296
 30
0.0
 10
12.6501990321
 20
11.2010699455
 30
0.0
 10
12.64025152
 20
11.2148440949
 30
0.0
 10
12.6309411737
 20
11.2290857879
 30
0.0
 10
12.6222870523
 20
11.2437684095
 30
0.0
 10
12.6143079427
 20
11.2588640292
 30
0.0
 10
12.6070221914
 20
11.2743431854
 30
0.0
 10
12.6004474634
 20
11.2901747244
 30
0.0
 10
12.5946007721
 20
11.3063257667
 30
0.0
 10
12.5894979897
 20
11.3227616526
 30
0.0
 10
12.5851534988
 20
11.3394455445
 30
0.0
 10
12.5821765017
 20
11.3535195929
 30
0.0
 10
12.5801856837
 20
11.3648639129
 30
0.0
 10
12.5788885451
 20
11.3734130136
 30
0.0
 10
12.5777893691
 20
11.3819944022
 30
0.0
 10
12.5765888743
 20
11.3934736063
 30
0.0
 10
12.5755866695
 20
11.407875893
 30
0.0
 10
12.5753183863
 20
11.4194243754
 30
0.0
 10
12.5753183383
 20
11.4251988646
 30
0.0
  0
SPLINE
  5
246
100
AcDbEntity
  8
0
100
AcDbSpline
 62
9
  6
CONTINUOUS
 70
0
 71
3
 72
43
 73
39
 74
0
 42
0.0000001
 43
0.0000001
 44
0.0000000001
 40
0.0
 40
0.0
 40
0.0
 40
0.0
 40
0.031068425
 40
0.046604383
 40
0.0621409975
 40
0.0932146655
 40
0.1242935254
 40
0.139836616
 40
0.1553816185
 40
0.1864757485
 40
0.2175798075
 40
0.2486952004
 40
0.2798232213
 40
0.3109650415
 40
0.3421216976
 40
0.3732940821
 40
0.4044829348
 40
0.435688836
 40
0.4669122006
 40
0.4981532752
 40
0.5294121352
 40
0.5606886852
 40
0.5919826592
 40
0.6232936243
 40
0.6546209848
 40
0.6859639881
 40
0.7173217322
 40
0.7486931744
 40
0.7800771416
 40
0.8114723417
 40
0.8428773756
 40
0.8585842756
 40
0.8742930675
 40
0.9057132137
 40
0.9371384926
 40
0.9528537006
 40
0.9685694987
 40
1.0
 40
1.0
 40
1.0
 40
1.0
 10
10.4178183366
 20
3.5770594688
 30
0.0
 10
10.4178183366
 20
3.5678412854
 30
0.0
 10
10.4174748313
 20
3.5540102687
 30
0.0
 10
10.4163309442
 20
3.535606844
 30
0.0
 10
10.4147304655
 20
3.51723554
 30
0.0
 10
10.4118751242
 20
3.4943521446
 30
0.0
 10
10.407887453
 20
3.4716366976
 30
0.0
 10
10.4040241935
 20
3.4535988063
 30
0.0
 10
10.3997137981
 20
3.4356578843
 30
0.0
 10
10.3934920861
 20
3.4134352705
 30
0.0
 10
10.3847123277
 20
3.3871658727
 30
0.0
 10
10.3746390243
 20
3.3613536857
 30
0.0
 10
10.3632965612
 20
3.3360613101
 30
0.0
 10
10.3507122374
 20
3.3113495742
 30
0.0
 10
10.3369163977
 20
3.2872780373
 30
0.0
 10
10.3219422788
 20
3.2639046866
 30
0.0
 10
10.305825973
 20
3.2412858268
 30
0.0
 10
10.2886063116
 20
3.2194759483
 30
0.0
 10
10.270324792
 20
3.1985275857
 30
0.0
 10
10.2510254632
 20
3.1784912006
 30
0.0
 10
10.2307548281
 20
3.1594150545
 30
0.0
 10
10.2095617279
 20
3.1413450939
 30
0.0
 10
10.1874972228
 20
3.1243248436
 30
0.0
 10
10.164614475
 20
3.1083952928
 30
0.0
 10
10.1409686098
 20
3.0935948116
 30
0.0
 10
10.1166165994
 20
3.0799590381
 30
0.0
 10
10.091617097
 20
3.067520818
 30
0.0
 10
10.0660303603
 20
3.0563101014
 30
0.0
 10
10.0399179133
 20
3.0463538732
 30
0.0
 10
10.0133430664
 20
3.0376761856
 30
0.0
 10
9.9908653181
 20
3.0315277064
 30
0.0
 10
9.9727177648
 20
3.0272677038
 30
0.0
 10
9.9544676966
 20
3.0234486906
 30
0.0
 10
9.9314860337
 20
3.0195070354
 30
0.0
 10
9.9083383219
 20
3.0166850923
 30
0.0
 10
9.8897540217
 20
3.0151032113
 30
0.0
 10
9.8711356491
 20
3.0139725178
 30
0.0
 10
9.8571439519
 20
3.0136330099
 30
0.0
 10
9.8478183383
 20
3.0136330099
 30
0.0
  0
SPLINE
  5
247
100
AcDbEntity
  8
0
100
AcDbSpline
 62
9
  6
CONTINUOUS
 70
0
 71
3
 72
47
 73
43
 74
0
 42
0.0000001
 43
0.0000001
 44
0.0000000001
 40
0.0
 40
0.0
 40
0.0
 40
0.0
 40
0.000012353
 40
0.0000495595
 40
0.0001115661
 40
0.0001983189
 40
0.0004458489
 40
0.0007917198
 40
0.0012354005
 40
0.0017761597
 40
0.002413243
 40
0.0031458888
 40
0.0048933829
 40
0.0070078064
 40
0.0094774708
 40
0.0122898247
 40
0.0154315543
 40
0.018887695
 40
0.0266829518
 40
0.0355573356
 40
0.0453957236
 40
0.056090495
 40
0.0675438972
 40
0.0796690404
 40
0.0923893369
 40
0.1193531276
 40
0.1479978009
 40
0.1779899504
 40
0.2090776939
 40
0.2410700158
 40
0.2738179458
 40
0.3072056973
 40
0.3411405117
 40
0.4103683497
 40
0.4810605998
 40
0.5529187333
 40
0.6257330018
 40
0.699350459
 40
0.7736591741
 40
0.8485773789
 40
0.924041613
 40
1.0
 40
1.0
 40
1.0
 40
1.0
 10
12.8237001338
 20
11.6921988646
 30
0.0
 10
12.82370045
 20
11.6921988855
 30
0.0
 10
12.8236976696
 20
11.6921984523
 30
0.0
 10
12.8236963396
 20
11.6921981087
 30
0.0
 10
12.8236908137
 20
11.6921971124
 30
0.0
 10
12.8236813365
 20
11.6921952832
 30
0.0
 10
12.8236638169
 20
11.6921919816
 30
0.0
 10
12.8236378641
 20
11.6921870414
 30
0.0
 10
12.8236042694
 20
11.6921806609
 30
0.0
 10
12.8235634332
 20
11.6921728942
 30
0.0
 10
12.8235152817
 20
11.6921637345
 30
0.0
 10
12.8234367349
 20
11.6921487863
 30
0.0
 10
12.823320958
 20
11.6921267356
 30
0.0
 10
12.8231614253
 20
11.6920962931
 30
0.0
 10
12.8229750754
 20
11.6920606531
 30
0.0
 10
12.8227628602
 20
11.6920199759
 30
0.0
 10
12.8225258129
 20
11.6919744315
 30
0.0
 10
12.8221632816
 20
11.6919045763
 30
0.0
 10
12.8216564497
 20
11.69180642
 30
0.0
 10
12.8209890644
 20
11.6916762513
 30
0.0
 10
12.8202488972
 20
11.6915307285
 30
0.0
 10
12.8194440823
 20
11.6913711043
 30
0.0
 10
12.8185820386
 20
11.6911985206
 30
0.0
 10
12.8176693982
 20
11.6910140004
 30
0.0
 10
12.8163673223
 20
11.6907480132
 30
0.0
 10
12.8146512192
 20
11.6903916373
 30
0.0
 10
12.8125033569
 20
11.6899355117
 30
0.0
 10
12.8102543384
 20
11.6894466054
 30
0.0
 10
12.8079239887
 20
11.6889277271
 30
0.0
 10
12.8055274479
 20
11.688381022
 30
0.0
 10
12.8030764113
 20
11.6878080963
 30
0.0
 10
12.8005800968
 20
11.687210124
 30
0.0
 10
12.7971784108
 20
11.6863750483
 30
0.0
 10
12.7928566832
 20
11.6852743849
 30
0.0
 10
12.7876085208
 20
11.6838713095
 30
0.0
 10
12.7822892592
 20
11.6823795241
 30
0.0
 10
12.7769170639
 20
11.6808002004
 30
0.0
 10
12.7715054533
 20
11.6791336912
 30
0.0
 10
12.7660647782
 20
11.6773798333
 30
0.0
 10
12.7606031637
 20
11.6755381771
 30
0.0
 10
12.7551272978
 20
11.673608054
 30
0.0
 10
12.7514823031
 20
11.6722656979
 30
0.0
 10
12.7496587861
 20
11.6715793158
 30
0.0
  0
SPLINE
  5
248
100
AcDbEntity
  8
0
100
AcDbSpline
 62
9
  6
CONTINUOUS
 70
0
 71
3
 72
43
 73
39
 74
0
 42
0.0000001
 43
0.0000001
 44
0.0000000001
 40
0.0
 40
0.0
 40
0.0
 40
0.0
 40
0.0316178928
 40
0.0632240223
 40
0.0948074456
 40
0.1263575526
 40
0.1578651099
 40
0.1893222383
 40
0.2207227751
 40
0.2520624264
 40
0.2833388869
 40
0.3145519045
 40
0.3457032667
 40
0.3767967322
 40
0.4078379245
 40
0.4388341507
 40
0.4697942162
 40
0.5007281618
 40
0.5316470056
 40
0.5625624215
 40
0.593486413
 40
0.6244309447
 40
0.6554075582
 40
0.6864269689
 40
0.7174986491
 40
0.7486304219
 40
0.7798280625
 40
0.8110949569
 40
0.842431796
 40
0.8738364482
 40
0.8895638868
 40
0.9053061525
 40
0.9210621903
 40
0.9368307452
 40
0.9526102762
 40
0.9683994522
 40
0.9841969993
 40
1.0
 40
1.0
 40
1.0
 40
1.0
 10
12.5753183383
 20
11.4251988646
 30
0.0
 10
12.5753183704
 20
11.4309733695
 30
0.0
 10
12.5755863269
 20
11.4425220062
 30
0.0
 10
12.5767886047
 20
11.4598011861
 30
0.0
 10
12.5787888542
 20
11.4769941908
 30
0.0
 10
12.5815800978
 20
11.4940582562
 30
0.0
 10
12.5851535427
 20
11.5109522576
 30
0.0
 10
12.5894979714
 20
11.527636366
 30
0.0
 10
12.5946009039
 20
11.5440722066
 30
0.0
 10
12.6004475748
 20
11.5602233098
 30
0.0
 10
12.6070223562
 20
11.5760548674
 30
0.0
 10
12.6143080856
 20
11.5915340802
 30
0.0
 10
12.6222873004
 20
11.6066296894
 30
0.0
 10
12.6309414042
 20
11.6213123679
 30
0.0
 10
12.6402518346
 20
11.6355540542
 30
0.0
 10
12.6501993582
 20
11.6493282446
 30
0.0
 10
12.6607648209
 20
11.6626093556
 30
0.0
 10
12.6719286471
 20
11.675372864
 30
0.0
 10
12.6836711871
 20
11.6875947895
 30
0.0
 10
12.6959723503
 20
11.6992517067
 30
0.0
 10
12.7088116344
 20
11.7103203868
 30
0.0
 10
12.7221677951
 20
11.7207777605
 30
0.0
 10
12.736018663
 20
11.7306007271
 30
0.0
 10
12.7503408078
 20
11.7397661365
 30
0.0
 10
12.7651092042
 20
11.7482508217
 30
0.0
 10
12.7802969523
 20
11.7560315784
 30
0.0
 10
12.7958747787
 20
11.7630856138
 30
0.0
 10
12.811811076
 20
11.7693903141
 30
0.0
 10
12.8280709109
 20
11.7749243276
 30
0.0
 10
12.8418533031
 20
11.7788747015
 30
0.0
 10
12.8530015381
 20
11.7816311217
 30
0.0
 10
12.8614237506
 20
11.7834947915
 30
0.0
 10
12.8698966026
 20
11.7851520041
 30
0.0
 10
12.8784144048
 20
11.7866013224
 30
0.0
 10
12.8869714099
 20
11.7878405866
 30
0.0
 10
12.8955617197
 20
11.7888684094
 30
0.0
 10
12.9041789003
 20
11.7896852329
 30
0.0
 10
12.9099368999
 20
11.7900876315
 30
0.0
 10
12.9128183383
 20
11.7902527688
 30
0.0
  0
SPLINE
  5
249
100
AcDbEntity
  8
0
100
AcDbSpline
 62
9
  6
CONTINUOUS
 70
0
 71
3
 72
101
 73
97
 74
0
 42
0.0000001
 43
0.0000001
 44
0.0000000001
 40
0.0
 40
0.0
 40
0.0
 40
0.0
 40
0.0000002201
 40
0.0000009383
 40
0.0000021554
 40
0.0000038715
 40
0.0000060867
 40
0.000008801
 40
0.0000157271
 40
0.0000246501
 40
0.0000355703
 40
0.0000484877
 40
0.0000634028
 40
0.0000992266
 40
0.0001430435
 40
0.0001948552
 40
0.0002546636
 40
0.0003224713
 40
0.0003982838
 40
0.0004821072
 40
0.0005739475
 40
0.0007817033
 40
0.0010216001
 40
0.0012936136
 40
0.00159743
 40
0.0019326639
 40
0.0022989297
 40
0.0026958279
 40
0.0031228865
 40
0.0040655075
 40
0.0051228597
 40
0.0062911396
 40
0.0075665973
 40
0.0089455275
 40
0.0104242559
 40
0.0119992047
 40
0.0136669391
 40
0.0154240158
 40
0.0191919423
 40
0.0232745555
 40
0.0276441969
 40
0.0322746064
 40
0.0371407405
 40
0.0422189342
 40
0.0474898356
 40
0.0529382875
 40
0.0585503912
 40
0.0643130602
 40
0.0702135009
 40
0.0762392019
 40
0.0823789925
 40
0.0886248824
 40
0.1014060978
 40
0.1145341001
 40
0.127966593
 40
0.1347847427
 40
0.141665294
 40
0.1556032459
 40
0.1697607797
 40
0.184119046
 40
0.198661634
 40
0.2133774039
 40
0.2282568252
 40
0.2432916671
 40
0.2584753227
 40
0.2738031327
 40
0.2892711678
 40
0.3048762053
 40
0.3206160732
 40
0.3364894518
 40
0.3686321921
 40
0.4013047417
 40
0.4345127342
 40
0.4682662925
 40
0.5025789219
 40
0.537465715
 40
0.5729420609
 40
0.6090216551
 40
0.6457145207
 40
0.68302451
 40
0.7019113563
 40
0.7209497258
 40
0.7401371406
 40
0.7594701496
 40
0.7789442263
 40
0.7985537024
 40
0.8182917416
 40
0.838150321
 40
0.8581201717
 40
0.8781907488
 40
0.8983502972
 40
0.91858594
 40
0.9388837963
 40
0.9592291301
 40
0.979606488
 40
1.0
 40
1.0
 40
1.0
 40
1.0
 10
10.1679947874
 20
12.3251988637
 30
0.0
 10
10.1679947028
 20
12.3251988294
 30
0.0
 10
10.1679954923
 20
12.3251986713
 30
0.0
 10
10.1679959139
 20
12.3251984243
 30
0.0
 10
10.1679976081
 20
12.3251979546
 30
0.0
 10
10.1679995358
 20
12.3251973338
 30
0.0
 10
10.1680022143
 20
12.3251965275
 30
0.0
 10
10.1680068968
 20
12.3251951049
 30
0.0
 10
10.1680142797
 20
12.32519289
 30
0.0
 10
10.1680249052
 20
12.3251897132
 30
0.0
 10
10.1680379221
 20
12.325185838
 30
0.0
 10
10.1680533199
 20
12.3251812652
 30
0.0
 10
10.1680786185
 20
12.3251737676
 30
0.0
 10
10.1681162042
 20
12.3251626562
 30
0.0
 10
10.1681684654
 20
12.3251472392
 30
0.0
 10
10.1682302702
 20
12.3251290369
 30
0.0
 10
10.1683016218
 20
12.3251080509
 30
0.0
 10
10.1683825249
 20
12.3250842827
 30
0.0
 10
10.1684729873
 20
12.3250577381
 30
0.0
 10
10.1685730182
 20
12.325028422
 30
0.0
 10
10.168725548
 20
12.3249837767
 30
0.0
 10
10.1689402
 20
12.3249210738
 30
0.0
 10
10.1692265979
 20
12.3248376329
 30
0.0
 10
10.1695512903
 20
12.3247432818
 30
0.0
 10
10.1699139675
 20
12.3246380309
 30
0.0
 10
10.1703141787
 20
12.3245219391
 30
0.0
 10
10.1707514376
 20
12.3243950721
 30
0.0
 10
10.171225224
 20
12.3242575065
 30
0.0
 10
10.1719283671
 20
12.3240530843
 30
0.0
 10
10.1728941825
 20
12.3237715306
 30
0.0
 10
10.1741544722
 20
12.3234023191
 30
0.0
 10
10.1755465514
 20
12.3229922485
 30
0.0
 10
10.1770657657
 20
12.3225420466
 30
0.0
 10
10.1787075292
 20
12.3220524904
 30
0.0
 10
10.1804673283
 20
12.3215243549
 30
0.0
 10
10.1823407666
 20
12.3209584231
 30
0.0
 10
10.1843235654
 20
12.3203555399
 30
0.0
 10
10.1871744623
 20
12.3194830101
 30
0.0
 10
10.1909791224
 20
12.3183064791
 30
0.0
 10
10.1958122244
 20
12.3167902842
 30
0.0
 10
10.2009791921
 20
12.315144142
 30
0.0
 10
10.2064471715
 20
12.313373135
 30
0.0
 10
10.2121848271
 20
12.3114818248
 30
0.0
 10
10.218163203
 20
12.309473061
 30
0.0
 10
10.2243578184
 20
12.3073503867
 30
0.0
 10
10.23074864
 20
12.3051179555
 30
0.0
 10
10.2373179241
 20
12.3027786731
 30
0.0
 10
10.2440489192
 20
12.3003354121
 30
0.0
 10
10.2509251259
 20
12.297790158
 30
0.0
 10
10.257930479
 20
12.2951439527
 30
0.0
 10
10.265050881
 20
12.2923976043
 30
0.0
 10
10.2747574138
 20
12.2885756416
 30
0.0
 10
10.2871064849
 20
12.2835594983
 30
0.0
 10
10.3021256629
 20
12.2772056335
 30
0.0
 10
10.3147876247
 20
12.2716275263
 30
0.0
 10
10.3250261986
 20
12.2669748992
 30
0.0
 10
10.3354178743
 20
12.2621536108
 30
0.0
 10
10.3484964363
 20
12.2558962132
 30
0.0
 10
10.3642486735
 20
12.2480503152
 30
0.0
 10
10.3800937481
 20
12.2398337817
 30
0.0
 10
10.3960030304
 20
12.2312438217
 30
0.0
 10
10.4119534118
 20
12.2222807215
 30
0.0
 10
10.4279241288
 20
12.2129427568
 30
0.0
 10
10.443895223
 20
12.2032267515
 30
0.0
 10
10.4598485509
 20
12.1931295788
 30
0.0
 10
10.4757680574
 20
12.1826488966
 30
0.0
 10
10.4916381513
 20
12.1717812341
 30
0.0
 10
10.5074433698
 20
12.160522386
 30
0.0
 10
10.5231693315
 20
12.1488684428
 30
0.0
 10
10.5440995162
 20
12.1327317376
 30
0.0
 10
10.5699889437
 20
12.1115423934
 30
0.0
 10
10.600390908
 20
12.0845703856
 30
0.0
 10
10.6301452287
 20
12.0559126794
 30
0.0
 10
10.6591343216
 20
12.0255331195
 30
0.0
 10
10.6872355662
 20
11.9933987281
 30
0.0
 10
10.7143161653
 20
11.959479482
 30
0.0
 10
10.7402337709
 20
11.9237531701
 30
0.0
 10
10.7648338222
 20
11.8862071098
 30
0.0
 10
10.7879489549
 20
11.8468441957
 30
0.0
 10
10.8057534345
 20
11.8126838857
 30
0.0
 10
10.8190825329
 20
11.7844872854
 30
0.0
 10
10.8286320417
 20
11.7628221254
 30
0.0
 10
10.8376689893
 20
11.7407383408
 30
0.0
 10
10.8461696487
 20
11.7182493058
 30
0.0
 10
10.8541088987
 20
11.6953706417
 30
0.0
 10
10.86146083
 20
11.6721202769
 30
0.0
 10
10.8681985494
 20
11.6485186415
 30
0.0
 10
10.8742985826
 20
11.6245899611
 30
0.0
 10
10.87974222
 20
11.6003621164
 30
0.0
 10
10.8845088104
 20
11.5758648421
 30
0.0
 10
10.8885783882
 20
11.5511304224
 30
0.0
 10
10.8919291259
 20
11.5261932467
 30
0.0
 10
10.8945466486
 20
11.5010910774
 30
0.0
 10
10.8964264471
 20
11.4758639425
 30
0.0
 10
10.8975606278
 20
11.4505528442
 30
0.0
 10
10.8978172026
 20
11.433652084
 30
0.0
 10
10.8978183383
 20
11.4251988646
 30
0.0
  0
SPLINE
  5
24A
100
AcDbEntity
  8
0
100
AcDbSpline
 62
9
  6
CONTINUOUS
 70
0
 71
3
 72
54
 73
50
 74
0
 42
0.0000001
 43
0.0000001
 44
0.0000000001
 40
0.0
 40
0.0
 40
0.0
 40
0.0
 40
0.0075102414
 40
0.0150545006
 40
0.0226662589
 40
0.030377958
 40
0.038220564
 40
0.0462232177
 40
0.05441298
 40
0.0628146676
 40
0.07145078
 40
0.0803414973
 40
0.0895047325
 40
0.0989562202
 40
0.1087096365
 40
0.1187767351
 40
0.1291674863
 40
0.1398902118
 40
0.1509517194
 40
0.1623574324
 40
0.1741115075
 40
0.1862169383
 40
0.1986756518
 40
0.211488602
 40
0.2246558489
 40
0.238176627
 40
0.2520494069
 40
0.2662719578
 40
0.2808413993
 40
0.2957542449
 40
0.311006441
 40
0.3265934085
 40
0.3587499369
 40
0.3921789845
 40
0.4268280573
 40
0.4626388593
 40
0.4995479191
 40
0.5374871434
 40
0.5763843007
 40
0.6161634722
 40
0.656745451
 40
0.698048132
 40
0.7399868628
 40
0.7824747964
 40
0.8254232154
 40
0.8687418625
 40
0.9123392448
 40
0.9561229107
 40
1.0
 40
1.0
 40
1.0
 40
1.0
 10
10.4178183366
 20
7.036327268
 30
0.0
 10
10.4178183366
 20
7.0379230773
 30
0.0
 10
10.4177032687
 20
7.0411231036
 30
0.0
 10
10.4171860025
 20
7.0459153598
 30
0.0
 10
10.416324383
 20
7.0507014649
 30
0.0
 10
10.4151191341
 20
7.0554779663
 30
0.0
 10
10.4135712287
 20
7.0602419031
 30
0.0
 10
10.4116818612
 20
7.0649902842
 30
0.0
 10
10.4094524229
 20
7.0697202275
 30
0.0
 10
10.4068844913
 20
7.0744289135
 30
0.0
 10
10.4039798121
 20
7.0791135807
 30
0.0
 10
10.4007402923
 20
7.0837715091
 30
0.0
 10
10.3971679996
 20
7.0884000076
 30
0.0
 10
10.3932651708
 20
7.0929964095
 30
0.0
 10
10.3890342119
 20
7.097558064
 30
0.0
 10
10.3844777004
 20
7.1020823324
 30
0.0
 10
10.3795983894
 20
7.1065665863
 30
0.0
 10
10.3743992149
 20
7.111008211
 30
0.0
 10
10.3688832974
 20
7.1154046066
 30
0.0
 10
10.3630539396
 20
7.1197531882
 30
0.0
 10
10.3569146277
 20
7.124051388
 30
0.0
 10
10.3504690338
 20
7.1282966606
 30
0.0
 10
10.3437210156
 20
7.1324864862
 30
0.0
 10
10.3366746115
 20
7.1366183706
 30
0.0
 10
10.3293340393
 20
7.1406898475
 30
0.0
 10
10.3217036959
 20
7.1446984829
 30
0.0
 10
10.313788156
 20
7.1486418789
 30
0.0
 10
10.3055921668
 20
7.1525176716
 30
0.0
 10
10.2971206436
 20
7.1563235367
 30
0.0
 10
10.2883786751
 20
7.1600571817
 30
0.0
 10
10.2793714941
 20
7.1637163875
 30
0.0
 10
10.2668858696
 20
7.168543179
 30
0.0
 10
10.2506469601
 20
7.1743651578
 30
0.0
 10
10.2303890573
 20
7.1809497007
 30
0.0
 10
10.2092110424
 20
7.1871871767
 30
0.0
 10
10.1871638521
 20
7.1930625241
 30
0.0
 10
10.164300327
 20
7.1985615722
 30
0.0
 10
10.1406753762
 20
7.2036710372
 30
0.0
 10
10.116345754
 20
7.2083785787
 30
0.0
 10
10.0913699411
 20
7.2126728168
 30
0.0
 10
10.0658079927
 20
7.2165433768
 30
0.0
 10
10.0397213915
 20
7.2199808981
 30
0.0
 10
10.013172897
 20
7.2229770763
 30
0.0
 10
9.9862263914
 20
7.2255246631
 30
0.0
 10
9.9589467214
 20
7.2276175058
 30
0.0
 10
9.9313995521
 20
7.2292505394
 30
0.0
 10
9.9036511734
 20
7.2304198218
 30
0.0
 10
9.8757684611
 20
7.2311225231
 30
0.0
 10
9.8571415362
 20
7.2312787497
 30
0.0
 10
9.8478183383
 20
7.2312787497
 30
0.0
  0
SPLINE
  5
24B
100
AcDbEntity
  8
0
100
AcDbSpline
 62
9
  6
CONTINUOUS
 70
0
 71
3
 72
47
 73
43
 74
0
 42
0.0000001
 43
0.0000001
 44
0.0000000001
 40
0.0
 40
0.0
 40
0.0
 40
0.0
 40
0.075957782
 40
0.1514209608
 40
0.2263390021
 40
0.3006478909
 40
0.3742653606
 40
0.4470797291
 40
0.518938161
 40
0.5896303999
 40
0.6588576923
 40
0.692792442
 40
0.7261802693
 40
0.7589285228
 40
0.7909214991
 40
0.822009227
 40
0.852000732
 40
0.8806456698
 40
0.9076100998
 40
0.9203301107
 40
0.9324552548
 40
0.9439090454
 40
0.9546036359
 40
0.9644421131
 40
0.9733168891
 40
0.9811119484
 40
0.9845681679
 40
0.9877100482
 40
0.9905224782
 40
0.9929921267
 40
0.9951064798
 40
0.996853942
 40
0.9975866215
 40
0.9982237688
 40
0.998764598
 40
0.99920833
 40
0.9995542123
 40
0.9998017223
 40
0.9998884605
 40
0.9999504534
 40
0.9999876501
 40
1.0
 40
1.0
 40
1.0
 40
1.0
 10
12.749657444
 20
11.1788190668
 30
0.0
 10
12.7514809852
 20
11.1781326864
 30
0.0
 10
12.7551259798
 20
11.1767902383
 30
0.0
 10
12.760601846
 20
11.1748599178
 30
0.0
 10
12.7660635406
 20
11.1730182324
 30
0.0
 10
12.7715043297
 20
11.1712643668
 30
0.0
 10
12.7769160467
 20
11.1695978068
 30
0.0
 10
12.7822883558
 20
11.1680184487
 30
0.0
 10
12.787607735
 20
11.1665266505
 30
0.0
 10
12.7928559912
 20
11.1651235462
 30
0.0
 10
12.7971777745
 20
11.1640228169
 30
0.0
 10
12.8005795112
 20
11.1631877213
 30
0.0
 10
12.8030758824
 20
11.1625897361
 30
0.0
 10
12.8055269943
 20
11.1620168
 30
0.0
 10
12.807923612
 20
11.1614701076
 30
0.0
 10
12.8102540058
 20
11.1609512159
 30
0.0
 10
12.8125030494
 20
11.1604622631
 30
0.0
 10
12.8146509613
 20
11.1600061346
 30
0.0
 10
12.816367118
 20
11.1596497724
 30
0.0
 10
12.8176692244
 20
11.1593837611
 30
0.0
 10
12.8185818842
 20
11.1591992322
 30
0.0
 10
12.8194439524
 20
11.1590266574
 30
0.0
 10
12.8202487883
 20
11.1588670186
 30
0.0
 10
12.820988977
 20
11.1587214894
 30
0.0
 10
12.8216563847
 20
11.158591329
 30
0.0
 10
12.8221632314
 20
11.1584931596
 30
0.0
 10
12.8225257707
 20
11.1584233042
 30
0.0
 10
12.8227628307
 20
11.1583777597
 30
0.0
 10
12.8229750555
 20
11.1583370814
 30
0.0
 10
12.8231614086
 20
11.1583014401
 30
0.0
 10
12.8233209411
 20
11.1582709959
 30
0.0
 10
12.8234367183
 20
11.158248944
 30
0.0
 10
12.8235152683
 20
11.1582339956
 30
0.0
 10
12.8235634251
 20
11.1582248358
 30
0.0
 10
12.8236042669
 20
11.158217069
 30
0.0
 10
12.8236378659
 20
11.1582106885
 30
0.0
 10
12.8236638202
 20
11.158205748
 30
0.0
 10
12.8236813396
 20
11.1582024465
 30
0.0
 10
12.8236908157
 20
11.1582006169
 30
0.0
 10
12.8236963406
 20
11.1581996209
 30
0.0
 10
12.8236976702
 20
11.1581992765
 30
0.0
 10
12.82370045
 20
11.1581988442
 30
0.0
 10
12.8237001338
 20
11.1581988646
 30
0.0
  0
SPLINE
  5
24C
100
AcDbEntity
  8
0
100
AcDbSpline
 62
9
  6
CONTINUOUS
 70
0
 71
3
 72
18
 73
14
 74
0
 42
0.0000001
 43
0.0000001
 44
0.0000000001
 40
0.0
 40
0.0
 40
0.0
 40
0.0
 40
0.1470427797
 40
0.2867840122
 40
0.4193204149
 40
0.5450494964
 40
0.6647053386
 40
0.7226199174
 40
0.7794539828
 40
0.8353963632
 40
0.8906527387
 40
0.9454443958
 40
1.0
 40
1.0
 40
1.0
 40
1.0
 10
12.7496588362
 20
11.6715791614
 30
0.0
 10
12.7509836881
 20
11.670842022
 30
0.0
 10
12.7536290589
 20
11.6695105842
 30
0.0
 10
12.7576622911
 20
11.667934555
 30
0.0
 10
12.7616272138
 20
11.6668441316
 30
0.0
 10
12.7654878525
 20
11.6662508547
 30
0.0
 10
12.7686248074
 20
11.6661766827
 30
0.0
 10
12.7710350801
 20
11.6663786535
 30
0.0
 10
12.7727750059
 20
11.6666544281
 30
0.0
 10
12.7744622109
 20
11.6670556279
 30
0.0
 10
12.7760928472
 20
11.6675813985
 30
0.0
 10
12.7776628886
 20
11.668230509
 30
0.0
 10
12.7786677469
 20
11.6687450197
 30
0.0
 10
12.7791575755
 20
11.6690215739
 30
0.0
  0
SPLINE
  5
24D
100
AcDbEntity
  8
0
100
AcDbSpline
 62
9
  6
CONTINUOUS
 70
0
 71
3
 72
18
 73
14
 74
0
 42
0.0000001
 43
0.0000001
 44
0.0000000001
 40
0.0
 40
0.0
 40
0.0
 40
0.0
 40
0.1470427675
 40
0.2867839804
 40
0.4193203686
 40
0.5450494474
 40
0.6647053009
 40
0.7226198894
 40
0.7794539657
 40
0.8353963564
 40
0.8906527403
 40
0.9454444002
 40
1.0
 40
1.0
 40
1.0
 40
1.0
 10
12.7496583139
 20
11.1788185581
 30
0.0
 10
12.7509831716
 20
11.1795556967
 30
0.0
 10
12.7536285538
 20
11.1808871322
 30
0.0
 10
12.7576618027
 20
11.1824631554
 30
0.0
 10
12.7616267408
 20
11.1835535709
 30
0.0
 10
12.7654873935
 20
11.1841468387
 30
0.0
 10
12.7686243587
 20
11.1842210023
 30
0.0
 10
12.7710346389
 20
11.1840190249
 30
0.0
 10
12.77277457
 20
11.1837432454
 30
0.0
 10
12.7744617798
 20
11.1833420409
 30
0.0
 10
12.7760924205
 20
11.1828162656
 30
0.0
 10
12.777662466
 20
11.1821671505
 30
0.0
 10
12.7786673268
 20
11.1816526369
 30
0.0
 10
12.7791571566
 20
11.1813760813
 30
0.0
  0
SPLINE
  5
24E
100
AcDbEntity
  8
0
100
AcDbSpline
 62
9
  6
CONTINUOUS
 70
0
 71
3
 72
22
 73
18
 74
0
 42
0.0000001
 43
0.0000001
 44
0.0000000001
 40
0.0
 40
0.0
 40
0.0
 40
0.0
 40
0.1225324429
 40
0.1838318039
 40
0.2452062397
 40
0.3066920992
 40
0.3683254124
 40
0.4301426207
 40
0.4921758606
 40
0.5544577025
 40
0.6170210816
 40
0.6798966613
 40
0.7431143408
 40
0.8067047173
 40
0.8706975948
 40
0.9351204654
 40
1.0
 40
1.0
 40
1.0
 40
1.0
 10
12.749656855
 20
11.1788190668
 30
0.0
 10
12.7442224707
 20
11.1813720933
 30
0.0
 10
12.7361625434
 20
11.1854057805
 30
0.0
 10
12.7256292194
 20
11.1911884056
 30
0.0
 10
12.7178319638
 20
11.1957331832
 30
0.0
 10
12.7101423227
 20
11.2004888231
 30
0.0
 10
12.7025636267
 20
11.2054591252
 30
0.0
 10
12.6950993916
 20
11.210646923
 30
0.0
 10
12.6877551214
 20
11.2160570566
 30
0.0
 10
12.6805366424
 20
11.2216935974
 30
0.0
 10
12.6734500536
 20
11.2275601146
 30
0.0
 10
12.6665030922
 20
11.2336611481
 30
0.0
 10
12.659704574
 20
11.2400012935
 30
0.0
 10
12.6530635726
 20
11.2465843277
 30
0.0
 10
12.6465898802
 20
11.2534137161
 30
0.0
 10
12.6402956889
 20
11.2604936187
 30
0.0
 10
12.6362425356
 20
11.2653653295
 30
0.0
 10
12.6342503867
 20
11.2678429069
 30
0.0
  0
SPLINE
  5
24F
100
AcDbEntity
  8
0
100
AcDbSpline
 62
9
  6
CONTINUOUS
 70
0
 71
3
 72
21
 73
17
 74
0
 42
0.0000001
 43
0.0000001
 44
0.0000000001
 40
0.0
 40
0.0
 40
0.0
 40
0.0
 40
0.1292844009
 40
0.1932764423
 40
0.256867285
 40
0.3200860032
 40
0.382961866
 40
0.4455257087
 40
0.5078094903
 40
0.569844046
 40
0.6316616785
 40
0.7547747173
 40
0.8161503246
 40
0.8774513709
 40
0.938721424
 40
1.0
 40
1.0
 40
1.0
 40
1.0
 10
12.6342882237
 20
11.5826018227
 30
0.0
 10
12.638257685
 20
11.5875356999
 30
0.0
 10
12.6444399202
 20
11.5947168792
 30
0.0
 10
12.6530970998
 20
11.6038482126
 30
0.0
 10
12.6597367418
 20
11.6104274112
 30
0.0
 10
12.6665336803
 20
11.6167636702
 30
0.0
 10
12.6734783483
 20
11.6228616562
 30
0.0
 10
12.6805624997
 20
11.6287253721
 30
0.0
 10
12.6877790519
 20
11.6343584985
 30
0.0
 10
12.6951209384
 20
11.6397659075
 30
0.0
 10
12.7050548484
 20
11.6466703381
 30
0.0
 10
12.7152377865
 20
11.6531524859
 30
0.0
 10
12.7256397246
 20
11.6592154086
 30
0.0
 10
12.7335386597
 20
11.6635516722
 30
0.0
 10
12.7415409691
 20
11.6676833369
 30
0.0
 10
12.7469425471
 20
11.6703028666
 30
0.0
 10
12.7496590906
 20
11.6715792641
 30
0.0
  0
SPLINE
  5
250
100
AcDbEntity
  8
0
100
AcDbSpline
 62
9
  6
CONTINUOUS
 70
0
 71
3
 72
54
 73
50
 74
0
 42
0.0000001
 43
0.0000001
 44
0.0000000001
 40
0.0
 40
0.0
 40
0.0
 40
0.0
 40
0.0438770893
 40
0.0876607552
 40
0.1312581375
 40
0.1745767846
 40
0.2175252036
 40
0.2600131372
 40
0.301951868
 40
0.343254549
 40
0.3838365278
 40
0.4236156993
 40
0.4625128566
 40
0.5004520809
 40
0.5373611407
 40
0.5731719427
 40
0.6078210155
 40
0.6412500631
 40
0.6734065915
 40
0.688993559
 40
0.7042457551
 40
0.7191586007
 40
0.7337280422
 40
0.7479505931
 40
0.761823373
 40
0.7753441511
 40
0.788511398
 40
0.8013243482
 40
0.8137830617
 40
0.8258884925
 40
0.8376425676
 40
0.8490482806
 40
0.8601097882
 40
0.8708325137
 40
0.8812232649
 40
0.8912903635
 40
0.9010437798
 40
0.9104952675
 40
0.9196585027
 40
0.92854922
 40
0.9371853324
 40
0.94558702
 40
0.9537767823
 40
0.961779436
 40
0.969622042
 40
0.9773337411
 40
0.9849454994
 40
0.9924897586
 40
1.0
 40
1.0
 40
1.0
 40
1.0
 10
9.8478183383
 20
9.909402719
 30
0.0
 10
9.8384951404
 20
9.909402719
 30
0.0
 10
9.8198682154
 20
9.9092464924
 30
0.0
 10
9.7919855032
 20
9.908543791
 30
0.0
 10
9.7642371245
 20
9.9073745086
 30
0.0
 10
9.7366899552
 20
9.9057414751
 30
0.0
 10
9.7094102852
 20
9.9036486323
 30
0.0
 10
9.6824637796
 20
9.9011010455
 30
0.0
 10
9.655915285
 20
9.8981048673
 30
0.0
 10
9.6298286839
 20
9.8946673461
 30
0.0
 10
9.6042667355
 20
9.8907967861
 30
0.0
 10
9.5792909225
 20
9.886502548
 30
0.0
 10
9.5549613004
 20
9.8817950065
 30
0.0
 10
9.5313363495
 20
9.8766855415
 30
0.0
 10
9.5084728245
 20
9.8711864933
 30
0.0
 10
9.4864256341
 20
9.8653111459
 30
0.0
 10
9.4652476193
 20
9.8590736699
 30
0.0
 10
9.4449897165
 20
9.852489127
 30
0.0
 10
9.428750807
 20
9.8466671482
 30
0.0
 10
9.4162651825
 20
9.8418403568
 30
0.0
 10
9.4072580015
 20
9.8381811509
 30
0.0
 10
9.3985160329
 20
9.834447506
 30
0.0
 10
9.3900445097
 20
9.8306416409
 30
0.0
 10
9.3818485206
 20
9.8267658481
 30
0.0
 10
9.3739329807
 20
9.8228224521
 30
0.0
 10
9.3663026373
 20
9.8188138168
 30
0.0
 10
9.3589620651
 20
9.8147423398
 30
0.0
 10
9.351915661
 20
9.8106104554
 30
0.0
 10
9.3451676428
 20
9.8064206298
 30
0.0
 10
9.3387220489
 20
9.8021753573
 30
0.0
 10
9.3325827369
 20
9.7978771575
 30
0.0
 10
9.3267533791
 20
9.7935285759
 30
0.0
 10
9.3212374616
 20
9.7891321802
 30
0.0
 10
9.3160382872
 20
9.7846905555
 30
0.0
 10
9.3111589762
 20
9.7802063017
 30
0.0
 10
9.3066024647
 20
9.7756820332
 30
0.0
 10
9.3023715058
 20
9.7711203787
 30
0.0
 10
9.298468677
 20
9.7665239769
 30
0.0
 10
9.2948963843
 20
9.7618954783
 30
0.0
 10
9.2916568645
 20
9.75723755
 30
0.0
 10
9.2887521853
 20
9.7525528827
 30
0.0
 10
9.2861842536
 20
9.7478441968
 30
0.0
 10
9.2839548153
 20
9.7431142535
 30
0.0
 10
9.2820654478
 20
9.7383658724
 30
0.0
 10
9.2805175424
 20
9.7336019356
 30
0.0
 10
9.2793122935
 20
9.7288254341
 30
0.0
 10
9.278450674
 20
9.7240393291
 30
0.0
 10
9.2779334078
 20
9.7192470728
 30
0.0
 10
9.2778183399
 20
9.7160470466
 30
0.0
 10
9.2778183399
 20
9.7144512373
 30
0.0
  0
SPLINE
  5
251
100
AcDbEntity
  8
0
100
AcDbSpline
 62
9
  6
CONTINUOUS
 70
0
 71
3
 72
43
 73
39
 74
0
 42
0.0000001
 43
0.0000001
 44
0.0000000001
 40
0.0
 40
0.0
 40
0.0
 40
0.0
 40
0.0314305013
 40
0.0471462994
 40
0.0628615074
 40
0.0942867863
 40
0.1257069325
 40
0.1414157244
 40
0.1571226244
 40
0.1885276583
 40
0.2199228584
 40
0.2513068256
 40
0.2826782678
 40
0.3140360119
 40
0.3453790152
 40
0.3767063757
 40
0.4080173408
 40
0.4393113148
 40
0.4705878648
 40
0.5018467248
 40
0.5330877994
 40
0.564311164
 40
0.5955170652
 40
0.6267059179
 40
0.6578783024
 40
0.6890349585
 40
0.7201767787
 40
0.7513047996
 40
0.7824201925
 40
0.8135242515
 40
0.8446183815
 40
0.860163384
 40
0.8757064746
 40
0.9067853345
 40
0.9378590025
 40
0.953395617
 40
0.968931575
 40
1.0
 40
1.0
 40
1.0
 40
1.0
 10
9.8478183383
 20
3.0136330099
 30
0.0
 10
9.8384927247
 20
3.0136330099
 30
0.0
 10
9.8245010275
 20
3.0139725178
 30
0.0
 10
9.8058826549
 20
3.0151032113
 30
0.0
 10
9.7872983547
 20
3.0166850923
 30
0.0
 10
9.7641506429
 20
3.0195070354
 30
0.0
 10
9.74116898
 20
3.0234486906
 30
0.0
 10
9.7229189117
 20
3.0272677038
 30
0.0
 10
9.7047713585
 20
3.0315277064
 30
0.0
 10
9.6822936101
 20
3.0376761856
 30
0.0
 10
9.6557187633
 20
3.0463538732
 30
0.0
 10
9.6296063162
 20
3.0563101014
 30
0.0
 10
9.6040195796
 20
3.067520818
 30
0.0
 10
9.5790200772
 20
3.0799590381
 30
0.0
 10
9.5546680668
 20
3.0935948116
 30
0.0
 10
9.5310222016
 20
3.1083952928
 30
0.0
 10
9.5081394538
 20
3.1243248436
 30
0.0
 10
9.4860749487
 20
3.1413450939
 30
0.0
 10
9.4648818485
 20
3.1594150545
 30
0.0
 10
9.4446112134
 20
3.1784912006
 30
0.0
 10
9.4253118846
 20
3.1985275857
 30
0.0
 10
9.407030365
 20
3.2194759483
 30
0.0
 10
9.3898107035
 20
3.2412858268
 30
0.0
 10
9.3736943978
 20
3.2639046866
 30
0.0
 10
9.3587202788
 20
3.2872780373
 30
0.0
 10
9.3449244392
 20
3.3113495742
 30
0.0
 10
9.3323401154
 20
3.3360613101
 30
0.0
 10
9.3209976523
 20
3.3613536857
 30
0.0
 10
9.3109243489
 20
3.3871658727
 30
0.0
 10
9.3021445904
 20
3.4134352705
 30
0.0
 10
9.2959228784
 20
3.4356578843
 30
0.0
 10
9.2916124831
 20
3.4535988063
 30
0.0
 10
9.2877492236
 20
3.4716366976
 30
0.0
 10
9.2837615524
 20
3.4943521446
 30
0.0
 10
9.2809062111
 20
3.51723554
 30
0.0
 10
9.2793057324
 20
3.535606844
 30
0.0
 10
9.2781618452
 20
3.5540102687
 30
0.0
 10
9.2778183399
 20
3.5678412854
 30
0.0
 10
9.2778183399
 20
3.5770594688
 30
0.0
  0
SPLINE
  5
252
100
AcDbEntity
  8
0
100
AcDbSpline
 62
9
  6
CONTINUOUS
 70
0
 71
3
 72
54
 73
50
 74
0
 42
0.0000001
 43
0.0000001
 44
0.0000000001
 40
0.0
 40
0.0
 40
0.0
 40
0.0
 40
0.0438770893
 40
0.0876607552
 40
0.1312581375
 40
0.1745767846
 40
0.2175252036
 40
0.2600131372
 40
0.301951868
 40
0.343254549
 40
0.3838365278
 40
0.4236156993
 40
0.4625128566
 40
0.5004520809
 40
0.5373611407
 40
0.5731719427
 40
0.6078210155
 40
0.6412500631
 40
0.6734065915
 40
0.688993559
 40
0.7042457551
 40
0.7191586007
 40
0.7337280422
 40
0.7479505931
 40
0.761823373
 40
0.7753441511
 40
0.788511398
 40
0.8013243482
 40
0.8137830617
 40
0.8258884925
 40
0.8376425676
 40
0.8490482806
 40
0.8601097882
 40
0.8708325137
 40
0.8812232649
 40
0.8912903635
 40
0.9010437798
 40
0.9104952675
 40
0.9196585027
 40
0.92854922
 40
0.9371853324
 40
0.94558702
 40
0.9537767823
 40
0.961779436
 40
0.969622042
 40
0.9773337411
 40
0.9849454994
 40
0.9924897586
 40
1.0
 40
1.0
 40
1.0
 40
1.0
 10
9.8478183383
 20
7.2312787497
 30
0.0
 10
9.8384951404
 20
7.2312787497
 30
0.0
 10
9.8198682154
 20
7.2311225231
 30
0.0
 10
9.7919855032
 20
7.2304198218
 30
0.0
 10
9.7642371245
 20
7.2292505394
 30
0.0
 10
9.7366899552
 20
7.2276175058
 30
0.0
 10
9.7094102852
 20
7.2255246631
 30
0.0
 10
9.6824637796
 20
7.2229770763
 30
0.0
 10
9.655915285
 20
7.2199808981
 30
0.0
 10
9.6298286839
 20
7.2165433768
 30
0.0
 10
9.6042667355
 20
7.2126728168
 30
0.0
 10
9.5792909225
 20
7.2083785787
 30
0.0
 10
9.5549613004
 20
7.2036710372
 30
0.0
 10
9.5313363495
 20
7.1985615722
 30
0.0
 10
9.5084728245
 20
7.1930625241
 30
0.0
 10
9.4864256341
 20
7.1871871767
 30
0.0
 10
9.4652476193
 20
7.1809497007
 30
0.0
 10
9.4449897165
 20
7.1743651578
 30
0.0
 10
9.428750807
 20
7.168543179
 30
0.0
 10
9.4162651825
 20
7.1637163875
 30
0.0
 10
9.4072580015
 20
7.1600571817
 30
0.0
 10
9.3985160329
 20
7.1563235367
 30
0.0
 10
9.3900445097
 20
7.1525176716
 30
0.0
 10
9.3818485206
 20
7.1486418789
 30
0.0
 10
9.3739329807
 20
7.1446984829
 30
0.0
 10
9.3663026373
 20
7.1406898475
 30
0.0
 10
9.3589620651
 20
7.1366183706
 30
0.0
 10
9.351915661
 20
7.1324864862
 30
0.0
 10
9.3451676428
 20
7.1282966606
 30
0.0
 10
9.3387220489
 20
7.124051388
 30
0.0
 10
9.3325827369
 20
7.1197531882
 30
0.0
 10
9.3267533791
 20
7.1154046066
 30
0.0
 10
9.3212374616
 20
7.111008211
 30
0.0
 10
9.3160382872
 20
7.1065665863
 30
0.0
 10
9.3111589762
 20
7.1020823324
 30
0.0
 10
9.3066024647
 20
7.097558064
 30
0.0
 10
9.3023715058
 20
7.0929964095
 30
0.0
 10
9.298468677
 20
7.0884000076
 30
0.0
 10
9.2948963843
 20
7.0837715091
 30
0.0
 10
9.2916568645
 20
7.0791135807
 30
0.0
 10
9.2887521853
 20
7.0744289135
 30
0.0
 10
9.2861842536
 20
7.0697202275
 30
0.0
 10
9.2839548153
 20
7.0649902842
 30
0.0
 10
9.2820654478
 20
7.0602419031
 30
0.0
 10
9.2805175424
 20
7.0554779663
 30
0.0
 10
9.2793122935
 20
7.0507014649
 30
0.0
 10
9.278450674
 20
7.0459153598
 30
0.0
 10
9.2779334078
 20
7.0411231036
 30
0.0
 10
9.2778183399
 20
7.0379230773
 30
0.0
 10
9.2778183399
 20
7.036327268
 30
0.0
  0
SPLINE
  5
253
100
AcDbEntity
  8
0
100
AcDbSpline
 62
9
  6
CONTINUOUS
 70
0
 71
3
 72
41
 73
37
 74
0
 42
0.0000001
 43
0.0000001
 44
0.0000000001
 40
0.0
 40
0.0
 40
0.0
 40
0.0
 40
0.0177993381
 40
0.0355925703
 40
0.0533723689
 40
0.0711327609
 40
0.0888673901
 40
0.1065700915
 40
0.1242349986
 40
0.1418564312
 40
0.1594290209
 40
0.1769476516
 40
0.2118025965
 40
0.2291320249
 40
0.2463904146
 40
0.2635743867
 40
0.2806808444
 40
0.3146491459
 40
0.348278805
 40
0.381556708
 40
0.414474212
 40
0.447026243
 40
0.4792108496
 40
0.5110287161
 40
0.5424825843
 40
0.5735767109
 40
0.604316419
 40
0.6347077196
 40
0.664756924
 40
0.7238473202
 40
0.7529061884
 40
0.7816448429
 40
0.8381682654
 40
0.8934298435
 40
0.947400959
 40
1.0
 40
1.0
 40
1.0
 40
1.0
 10
10.8978183383
 20
11.4251988646
 30
0.0
 10
10.8978175786
 20
11.4194359957
 30
0.0
 10
10.897697778
 20
11.4079119114
 30
0.0
 10
10.8971679755
 20
11.3906386164
 30
0.0
 10
10.8962905511
 20
11.3733920395
 30
0.0
 10
10.8950665922
 20
11.3561856333
 30
0.0
 10
10.8934989184
 20
11.3390321968
 30
0.0
 10
10.8915891254
 20
11.3219445779
 30
0.0
 10
10.8893391387
 20
11.3049353803
 30
0.0
 10
10.8867532086
 20
11.2880166629
 30
0.0
 10
10.8838375898
 20
11.2711996272
 30
0.0
 10
10.8795274643
 20
11.248966062
 30
0.0
 10
10.8745797212
 20
11.2269403649
 30
0.0
 10
10.8690121516
 20
11.2051561364
 30
0.0
 10
10.864546645
 20
11.1889986624
 30
0.0
 10
10.8597906817
 20
11.1729996392
 30
0.0
 10
10.8530885123
 20
11.151939209
 30
0.0
 10
10.8440322522
 20
11.1260455526
 30
0.0
 10
10.8321082862
 20
11.0956318222
 30
0.0
 10
10.8192154348
 20
11.0659866723
 30
0.0
 10
10.8054136409
 20
11.0371403629
 30
0.0
 10
10.7907668238
 20
11.0091129731
 30
0.0
 10
10.7753358315
 20
10.981918548
 30
0.0
 10
10.759178366
 20
10.9555659041
 30
0.0
 10
10.7423495187
 20
10.9300591594
 30
0.0
 10
10.7249018405
 20
10.9053983652
 30
0.0
 10
10.7068853165
 20
10.8815804667
 30
0.0
 10
10.6883467309
 20
10.8585995633
 30
0.0
 10
10.6631358119
 20
10.8292315814
 30
0.0
 10
10.6369192821
 20
10.8013170664
 30
0.0
 10
10.6098363005
 20
10.7748779532
 30
0.0
 10
10.5826301148
 20
10.7497752431
 30
0.0
 10
10.5479306654
 20
10.7203109955
 30
0.0
 10
10.5052171875
 20
10.6877805001
 30
0.0
 10
10.4619500722
 20
10.6581914082
 30
0.0
 10
10.4325350859
 20
10.6401258181
 30
0.0
 10
10.4178148771
 20
10.6315623039
 30
0.0
  0
SPLINE
  5
254
100
AcDbEntity
  8
0
100
AcDbSpline
 62
9
  6
CONTINUOUS
 70
0
 71
3
 72
36
 73
32
 74
0
 42
0.0000001
 43
0.0000001
 44
0.0000000001
 40
0.0
 40
0.0
 40
0.0
 40
0.0
 40
0.0006326385
 40
0.0011368622
 40
0.0017927983
 40
0.0026080898
 40
0.0035865895
 40
0.0047303844
 40
0.0060405482
 40
0.0091618496
 40
0.0129524245
 40
0.0174113578
 40
0.0225355552
 40
0.0347634717
 40
0.0495940541
 40
0.0669730243
 40
0.0868349216
 40
0.1091040471
 40
0.1336954661
 40
0.1605149265
 40
0.1894592079
 40
0.2204171306
 40
0.2532696717
 40
0.3241452465
 40
0.4009952458
 40
0.4826360958
 40
0.5678104188
 40
0.6552062162
 40
0.743477121
 40
0.8312633608
 40
1.0
 40
1.0
 40
1.0
 40
1.0
 10
12.9139372194
 20
11.0882274217
 30
0.0
 10
12.9139431413
 20
11.0882270899
 30
0.0
 10
12.9139519017
 20
11.0882180441
 30
0.0
 10
12.913959175
 20
11.0882034211
 30
0.0
 10
12.9139656583
 20
11.0881858571
 30
0.0
 10
12.9139717051
 20
11.0881637473
 30
0.0
 10
12.91397758
 20
11.0881368097
 30
0.0
 10
12.9139831745
 20
11.0881051201
 30
0.0
 10
12.9139907394
 20
11.0880533921
 30
0.0
 10
12.9139991662
 20
11.0879767507
 30
0.0
 10
12.9140077609
 20
11.0878704846
 30
0.0
 10
12.9140152677
 20
11.0877453199
 30
0.0
 10
12.9140243423
 20
11.0875410306
 30
0.0
 10
12.9140321328
 20
11.0872393865
 30
0.0
 10
12.9140366525
 20
11.0868227886
 30
0.0
 10
12.9140366333
 20
11.0863345955
 30
0.0
 10
12.9140320594
 20
11.0857766862
 30
0.0
 10
12.9140229126
 20
11.085151207
 30
0.0
 10
12.9140092143
 20
11.0844605686
 30
0.0
 10
12.9139910038
 20
11.0837074335
 30
0.0
 10
12.9139683414
 20
11.0828947068
 30
0.0
 10
12.913941307
 20
11.0820255228
 30
0.0
 10
12.9138984581
 20
11.0807635274
 30
0.0
 10
12.9138344417
 20
11.0790717585
 30
0.0
 10
12.9137441462
 20
11.0769232725
 30
0.0
 10
12.9136398782
 20
11.0746412161
 30
0.0
 10
12.9135232403
 20
11.0722607654
 30
0.0
 10
12.9133960428
 20
11.0698186109
 30
0.0
 10
12.9132602545
 20
11.0673523934
 30
0.0
 10
12.9130729387
 20
11.06412528
 30
0.0
 10
12.9129229346
 20
11.061724962
 30
0.0
 10
12.9128183383
 20
11.0601464681
 30
0.0
  0
SPLINE
  5
255
100
AcDbEntity
  8
0
100
AcDbSpline
 62
9
  6
CONTINUOUS
 70
0
 71
3
 72
75
 73
71
 74
0
 42
0.0000001
 43
0.0000001
 44
0.0000000001
 40
0.0
 40
0.0
 40
0.0
 40
0.0
 40
0.0155343021
 40
0.0233022943
 40
0.031070643
 40
0.0466075483
 40
0.0621470504
 40
0.0699186317
 40
0.077691169
 40
0.0932383059
 40
0.1087904074
 40
0.1243481759
 40
0.1399122584
 40
0.1554832406
 40
0.1710616407
 40
0.1866479051
 40
0.2022424037
 40
0.2178454265
 40
0.2334571811
 40
0.2490777907
 40
0.2647072931
 40
0.2803456405
 40
0.2959926999
 40
0.311648255
 40
0.3273120077
 40
0.3429835819
 40
0.3586625265
 40
0.3743483202
 40
0.3900403765
 40
0.4057380492
 40
0.4214406389
 40
0.4371473993
 40
0.4528575448
 40
0.4685702576
 40
0.4842846954
 40
0.5
 40
0.5157153046
 40
0.5314297424
 40
0.5471424552
 40
0.5628526007
 40
0.5785593611
 40
0.5942619508
 40
0.6099596235
 40
0.6256516798
 40
0.6413374735
 40
0.6570164181
 40
0.6726879923
 40
0.688351745
 40
0.7040073001
 40
0.7196543595
 40
0.7352927069
 40
0.7509222093
 40
0.7665428189
 40
0.7821545735
 40
0.7977575963
 40
0.8133520949
 40
0.8289383593
 40
0.8445167594
 40
0.8600877416
 40
0.8756518241
 40
0.8912095926
 40
0.9067616941
 40
0.922308831
 40
0.9300813683
 40
0.9378529496
 40
0.9533924517
 40
0.968929357
 40
0.9766977057
 40
0.9844656979
 40
1.0
 40
1.0
 40
1.0
 40
1.0
 10
10.4178183383
 20
3.4960426305
 30
0.0
 10
10.4178183383
 20
3.4868244365
 30
0.0
 10
10.417474832
 20
3.4729934228
 30
0.0
 10
10.4163309413
 20
3.4545899981
 30
0.0
 10
10.4147304702
 20
3.4362187041
 30
0.0
 10
10.4118751197
 20
3.4133353068
 30
0.0
 10
10.4078874548
 20
3.3906198591
 30
0.0
 10
10.404024195
 20
3.3725819676
 30
0.0
 10
10.3997137951
 20
3.3546410467
 30
0.0
 10
10.3934920891
 20
3.3324184312
 30
0.0
 10
10.3847123255
 20
3.3061490352
 30
0.0
 10
10.3746390259
 20
3.2803368467
 30
0.0
 10
10.3632965602
 20
3.2550444722
 30
0.0
 10
10.3507122378
 20
3.2303327356
 30
0.0
 10
10.3369163979
 20
3.2062611989
 30
0.0
 10
10.3219422783
 20
3.1828878487
 30
0.0
 10
10.3058259741
 20
3.1602689877
 30
0.0
 10
10.2886063104
 20
3.138459111
 30
0.0
 10
10.2703247936
 20
3.1175107459
 30
0.0
 10
10.2510254617
 20
3.0974743638
 30
0.0
 10
10.2307548298
 20
3.0783982142
 30
0.0
 10
10.2095617264
 20
3.0603282575
 30
0.0
 10
10.1874972244
 20
3.0433080031
 30
0.0
 10
10.1646144736
 20
3.0273784565
 30
0.0
 10
10.1409686113
 20
3.0125779713
 30
0.0
 10
10.1166165974
 20
2.9989422015
 30
0.0
 10
10.0916171016
 20
2.9865039787
 30
0.0
 10
10.0660303455
 20
2.9752932614
 30
0.0
 10
10.0399179668
 20
2.9653370453
 30
0.0
 10
10.013342868
 20
2.9566593044
 30
0.0
 10
9.9863690628
 20
2.9492809401
 30
0.0
 10
9.9590615279
 20
2.9432197117
 30
0.0
 10
9.9314860386
 20
2.9384902257
 30
0.0
 10
9.9037090192
 20
2.9351038569
 30
0.0
 10
9.8757973751
 20
2.9330687751
 30
0.0
 10
9.8478183383
 20
2.9323898636
 30
0.0
 10
9.8198393015
 20
2.9330687751
 30
0.0
 10
9.7919276573
 20
2.9351038569
 30
0.0
 10
9.764150638
 20
2.9384902257
 30
0.0
 10
9.7365751486
 20
2.9432197117
 30
0.0
 10
9.7092676138
 20
2.9492809401
 30
0.0
 10
9.6822938086
 20
2.9566593044
 30
0.0
 10
9.6557187097
 20
2.9653370453
 30
0.0
 10
9.6296063311
 20
2.9752932614
 30
0.0
 10
9.6040195749
 20
2.9865039787
 30
0.0
 10
9.5790200792
 20
2.9989422015
 30
0.0
 10
9.5546680653
 20
3.0125779713
 30
0.0
 10
9.5310222029
 20
3.0273784565
 30
0.0
 10
9.5081394522
 20
3.0433080031
 30
0.0
 10
9.4860749502
 20
3.0603282575
 30
0.0
 10
9.4648818468
 20
3.0783982142
 30
0.0
 10
9.4446112149
 20
3.0974743638
 30
0.0
 10
9.425311883
 20
3.1175107459
 30
0.0
 10
9.4070303661
 20
3.138459111
 30
0.0
 10
9.3898107025
 20
3.1602689877
 30
0.0
 10
9.3736943983
 20
3.1828878487
 30
0.0
 10
9.3587202787
 20
3.2062611989
 30
0.0
 10
9.3449244388
 20
3.2303327356
 30
0.0
 10
9.3323401164
 20
3.2550444722
 30
0.0
 10
9.3209976507
 20
3.2803368467
 30
0.0
 10
9.3109243511
 20
3.3061490352
 30
0.0
 10
9.3021445875
 20
3.3324184312
 30
0.0
 10
9.2959228814
 20
3.3546410467
 30
0.0
 10
9.2916124816
 20
3.3725819676
 30
0.0
 10
9.2877492218
 20
3.3906198591
 30
0.0
 10
9.2837615569
 20
3.4133353068
 30
0.0
 10
9.2809062063
 20
3.4362187041
 30
0.0
 10
9.2793057353
 20
3.4545899981
 30
0.0
 10
9.2781618445
 20
3.4729934228
 30
0.0
 10
9.2778183383
 20
3.4868244365
 30
0.0
 10
9.2778183383
 20
3.4960426305
 30
0.0
  0
ENDSEC
  0
SECTION
  2
OBJECTS
  0
DICTIONARY
  5
C
100
AcDbDictionary
280
0
281
1
  3
ACAD_GROUP
350
D
  3
ACAD_MLINESTYLE
350
17
  3
ACAD_LAYOUT
350
1A
  3
ACAD_PLOTSETTINGS
350
19
  3
ACAD_PLOTSTYLENAME
350
E
  0
DICTIONARY
  5
D
102
{ACAD_REACTORS
330
C
102
}
100
AcDbDictionary
280
0
281
1
  0
ACDBDICTIONARYWDFLT
  5
E
102
{ACAD_REACTORS
330
C
102
}
100
AcDbDictionary
281
1
  3
Normal
350
F
100
AcDbDictionaryWithDefault
340
F
  0
DICTIONARY
  5
17
102
{ACAD_REACTORS
330
C
102
}
100
AcDbDictionary
280
0
281
1
  3
Standard
350
18
  0
DICTIONARY
  5
19
102
{ACAD_REACTORS
330
C
102
}
100
AcDbDictionary
281
1
  0
DICTIONARY
  5
1A
102
{ACAD_REACTORS
330
C
102
}
100
AcDbDictionary
281
1
  3
Model
350
256
  3
Layout1
350
257
  0
ACDBPLACEHOLDER
  5
F
102
{ACAD_REACTORS
330
E
102
}
  0
MLINESTYLE
  5
18
102
{ACAD_REACTORS
330
17
102
}
100
AcDbMlineStyle
  2
STANDARD
 70
0
  3

 62
256
 51
90.0
 52
90.0
 71
2
 49
0.5
 62
256
  6
BYLAYER
 49
-0.5
 62
256
  6
BYLAYER
  0
LAYOUT
  5
256
102
{ACAD_REACTORS
330
1A
102
}
100
AcDbPlotSettings
  1

  2
none_device
  4
ANSI_C_(22.00_x_17.00_Inches)
  6

 40
0.0
 41
0.0
 42
0.0
 43
0.0
 44
558.8
 45
431.8
 46
0.0
 47
0.0
 48
0.0
 49
0.0
140
0.0
141
0.0
142
1.0
143
1.0
 70
1024
 72
0
 73
0
 74
0
  7

 75
0
147
1.0
148
0.0
149
0.0
100
AcDbLayout
  1
Model
 70
0
 71
0
 10
0.0
 20
0.0
 11
22.0
 21
17.0
 12
0.0
 22
0.0
 32
0.0
 14
0.0
 24
0.0
 34
0.0
 15
0.0
 25
0.0
 35
0.0
146
0.0
 13
0.0
 23
0.0
 33
0.0
 16
1.0
 26
0.0
 36
0.0
 17
0.0
 27
1.0
 37
0.0
 76
0
330
205
345
0
346
0
  0
LAYOUT
  5
257
102
{ACAD_REACTORS
330
1A
102
}
100
AcDbPlotSettings
  1

  2
none_device
  4
ANSI_C_(22.00_x_17.00_Inches)
  6

 40
0.0
 41
0.0
 42
0.0
 43
0.0
 44
558.8
 45
431.8
 46
0.0
 47
0.0
 48
0.0
 49
0.0
140
0.0
141
0.0
142
1.0
143
1.0
 70
0
 72
0
 73
0
 74
0
  7

 75
0
147
1.0
148
0.0
149
0.0
100
AcDbLayout
  1
Layout1
 70
0
 71
1
 10
0.0
 20
0.0
 11
22.0
 21
17.0
 12
0.0
 22
0.0
 32
0.0
 14
0.0
 24
0.0
 34
0.0
 15
0.0
 25
0.0
 35
0.0
146
0.0
 13
0.0
 23
0.0
 33
0.0
 16
1.0
 26
0.0
 36
0.0
 17
0.0
 27
1.0
 37
0.0
 76
0
330
206
345
0
346
0
  0
ENDSEC
  0
EOF
