999
DXF file: 1400-5143_RIGHT.dxf
999
Pro/ENGINEER 2019352 by Parametric Technology Corporation
  0
SECTION
  2
HEADER
  9
$ACADVER
  1
AC1032
  9
$DWGCODEPAGE
  3
ANSI_1252
  9
$EXTMAX
 10
11.0
 20
8.5
 30
0.0
  9
$EXTMIN
 10
0.0
 20
0.0
 30
0.0
  9
$LIMMIN
 10
0.0
 20
0.0
  9
$LIMMAX
 10
11.0
 20
8.5
  9
$VIEWCTR
 10
5.5
 20
4.25
  9
$VIEWSIZE
 40
8.5
  9
$CLAYER
  8
0
  9
$LTSCALE
 40
0.605
  9
$CELTYPE
  6
BYLAYER
  9
$DIMSCALE
 40
1.0
  9
$DIMASZ
 40
0.1
  9
$DIMEXO
 40
0.0625
  9
$DIMDLI
 40
0.418
  9
$DIMEXE
 40
0.125
  9
$DIMCEN
 40
0.099
  9
$DIMLFAC
 40
1.0
  9
$DIMBLK
  1
_FILLED
  9
$DIMALT
 70
1
  9
$DIMALTD
 70
2
  9
$DIMALTTD
 70
2
  9
$DIMALTF
 40
25.4
  9
$DIMTXT
 40
0.08
  9
$DIMTOL
 70
1
  9
$DIMLIM
 70
0
  9
$DIMTFAC
 40
1.0
  9
$DIMTP
 40
0.001
  9
$DIMTM
 40
0.001
  9
$DIMGAP
 40
0.09
  9
$DIMDSEP
 70
46
  9
$AUNITS
 70
0
  9
$PDMODE
 70
3
  9
$PDSIZE
 40
0.3125
  9
$HANDSEED
  5
2F3
  9
$TILEMODE
 70
1
  9
$MEASUREMENT
 70
0
  9
$INSUNITS
 70
1
  0
ENDSEC
  0
SECTION
  2
CLASSES
  0
CLASS
  1
ACDBDICTIONARYWDFLT
  2
AcDbDictionaryWithDefault
  3
AutoCAD 2000
 90
0
 91
1
280
0
281
0
  0
CLASS
  1
ACDBPLACEHOLDER
  2
AcDbPlaceHolder
  3
AutoCAD 2000
 90
0
 91
1
280
0
281
0
  0
CLASS
  1
LAYOUT
  2
AcDbLayout
  3
AutoCAD 2000
 90
0
 91
0
280
0
281
0
  0
ENDSEC
  0
SECTION
  2
TABLES
  0
TABLE
  2
VPORT
  5
8
100
AcDbSymbolTable
 70
2
  0
VPORT
  5
1F4
100
AcDbSymbolTableRecord
100
AcDbViewportTableRecord
  2
*ACTIVE
 70
0
 10
0.0
 20
0.0
 11
1.0
 21
1.0
 12
5.5
 22
4.25
 13
0.0
 23
0.0
 14
1.0
 24
1.0
 15
0.0
 25
0.0
 16
0.0
 26
0.0
 36
1.0
 17
0.0
 27
0.0
 37
0.0
 40
8.5
 41
1.2941176471
 42
50.0
 43
0.0
 44
0.0
 50
0.0
 51
0.0
 71
0
 72
100
 73
1
 74
1
 75
0
 76
0
 77
0
 78
0
  0
ENDTAB
  0
TABLE
  2
LTYPE
  5
5
100
AcDbSymbolTable
 70
6
  0
LTYPE
  5
14
100
AcDbSymbolTableRecord
100
AcDbLinetypeTableRecord
  2
BYBLOCK
 70
0
  3

 72
65
 73
0
 40
0.0
  0
LTYPE
  5
15
100
AcDbSymbolTableRecord
100
AcDbLinetypeTableRecord
  2
BYLAYER
 70
0
  3

 72
65
 73
0
 40
0.0
  0
LTYPE
  5
16
100
AcDbSymbolTableRecord
100
AcDbLinetypeTableRecord
  2
CONTINUOUS
 70
64
  3
Solid line
 72
65
 73
0
 40
0.0
  0
LTYPE
  5
1F5
100
AcDbSymbolTableRecord
100
AcDbLinetypeTableRecord
  2
CENTER
 70
64
  3
____ _ ____ _ ____ _ ____ _ ____ _ ____ _ ____
 72
65
 73
4
 40
0.6
 49
0.375
 74
0
 49
-0.075
 74
0
 49
0.075
 74
0
 49
-0.075
 74
0
  0
LTYPE
  5
1F6
100
AcDbSymbolTableRecord
100
AcDbLinetypeTableRecord
  2
HIDDEN
 70
64
  3
- - - - - - - - - - - - - - - - - - - -
 72
65
 73
2
 40
0.2
 49
0.1
 74
0
 49
-0.1
 74
0
  0
LTYPE
  5
1F7
100
AcDbSymbolTableRecord
100
AcDbLinetypeTableRecord
  2
PHANTOM
 70
64
  3
_____ _ _ _____ _ _ _____ _ _ _____
 72
65
 73
6
 40
0.8
 49
0.45
 74
0
 49
-0.05
 74
0
 49
0.1
 74
0
 49
-0.05
 74
0
 49
0.1
 74
0
 49
-0.05
 74
0
  0
LTYPE
  5
1F8
100
AcDbSymbolTableRecord
100
AcDbLinetypeTableRecord
  2
DOT
 70
64
  3
. . . . . . . . . . . . . . . . . . . .
 72
65
 73
2
 40
0.2
 49
0.1
 74
0
 49
-0.1
 74
0
  0
LTYPE
  5
1F9
100
AcDbSymbolTableRecord
100
AcDbLinetypeTableRecord
  2
DASHED
 70
64
  3
- - - - - - - - - - - - - - - - - - - -
 72
65
 73
2
 40
0.2
 49
0.1
 74
0
 49
-0.1
 74
0
  0
ENDTAB
  0
TABLE
  2
LAYER
  5
2
100
AcDbSymbolTable
 70
36
  0
LAYER
  5
10
100
AcDbSymbolTableRecord
100
AcDbLayerTableRecord
  2
0
 70
0
 62
7
  6
CONTINUOUS
370
-3
390
F
  0
LAYER
  5
1FA
100
AcDbSymbolTableRecord
100
AcDbLayerTableRecord
  2
DEFAULT_1
 70
0
 62
7
  6
CENTER
370
-3
390
F
  0
LAYER
  5
1FB
100
AcDbSymbolTableRecord
100
AcDbLayerTableRecord
  2
DEFAULT_2
 70
0
 62
8
  6
HIDDEN
370
-3
390
F
  0
LAYER
  5
1FC
100
AcDbSymbolTableRecord
100
AcDbLayerTableRecord
  2
DEFAULT_3
 70
0
 62
7
  6
PHANTOM
370
-3
390
F
  0
LAYER
  5
1FD
100
AcDbSymbolTableRecord
100
AcDbLayerTableRecord
  2
DEFAULT_COORDINATE_SYSTEM
 70
0
 62
7
  6
CONTINUOUS
370
-3
390
F
  0
LAYER
  5
1FE
100
AcDbSymbolTableRecord
100
AcDbLayerTableRecord
  2
DEFAULT_DATUM_AXES
 70
0
 62
7
  6
CONTINUOUS
370
-3
390
F
  0
LAYER
  5
1FF
100
AcDbSymbolTableRecord
100
AcDbLayerTableRecord
  2
DEFAULT_DATUM_PLANES
 70
0
 62
7
  6
CONTINUOUS
370
-3
390
F
  0
ENDTAB
  0
TABLE
  2
STYLE
  5
3
100
AcDbSymbolTable
 70
1
  0
STYLE
  5
11
100
AcDbSymbolTableRecord
100
AcDbTextStyleTableRecord
  2
STANDARD
 70
0
 40
0.0
 41
0.8
 50
0.0
 71
0
 42
0.2
  3
txt
  4

  0
STYLE
  5
200
100
AcDbSymbolTableRecord
100
AcDbTextStyleTableRecord
  2
TEXTSTYLE_1
 70
0
 40
0.0
 41
0.8
 50
0.0
 71
0
 42
0.2
  3
gdt
  4

  0
ENDTAB
  0
TABLE
  2
VIEW
  5
6
100
AcDbSymbolTable
 70
0
  0
ENDTAB
  0
TABLE
  2
UCS
  5
7
100
AcDbSymbolTable
 70
0
  0
ENDTAB
  0
TABLE
  2
APPID
  5
9
100
AcDbSymbolTable
 70
1
  0
APPID
  5
201
100
AcDbSymbolTableRecord
100
AcDbRegAppTableRecord
  2
ACAD
 70
0
  0
ENDTAB
  0
TABLE
  2
BLOCK_RECORD
  5
1
100
AcDbSymbolTable
 70
0
  0
BLOCK_RECORD
  5
202
100
AcDbSymbolTableRecord
100
AcDbBlockTableRecord
  2
*Model_Space
  0
BLOCK_RECORD
  5
203
100
AcDbSymbolTableRecord
100
AcDbBlockTableRecord
  2
*Paper_Space
  0
BLOCK_RECORD
  5
204
100
AcDbSymbolTableRecord
100
AcDbBlockTableRecord
  2
_FILLED
  0
ENDTAB
  0
TABLE
  2
DIMSTYLE
  5
A
100
AcDbSymbolTable
 70
1
100
AcDbDimStyleTable
 71
0
  0
DIMSTYLE
105
205
100
AcDbSymbolTableRecord
100
AcDbDimStyleTableRecord
  2
STANDARD
 70
0
  3

  4

 40
1.0
 41
0.1
 42
0.0625
 43
0.38
 44
0.125
 45
0.0
 46
0.0
 47
0.001
 48
0.001
140
0.08
141
0.09
142
0.0
143
25.4
144
1.0
145
0.0
146
1.0
147
0.09
 71
1.0
 72
0.0
 73
1
 74
1
 75
0
 76
0
 77
0
 78
4
 79
1
170
1
171
2
172
0
173
0
174
0
175
0
176
0
177
0
178
0
270
2
179
3
271
3
272
3
273
2
274
2
275
0
280
0
281
0
282
0
283
1
284
4
285
0
286
0
287
3
288
0
340
11
278
46
341
204
342
204
343
204
344
204
  0
ENDTAB
  0
ENDSEC
  0
SECTION
  2
BLOCKS
  0
BLOCK
  5
20
100
AcDbEntity
  8
0
100
AcDbBlockBegin
  2
*Model_Space
 70
0
 10
0.0
 20
0.0
 30
0.0
  3
*Model_Space
  1

  0
ENDBLK
  5
21
100
AcDbEntity
  8
0
100
AcDbBlockEnd
  0
BLOCK
  5
1C
100
AcDbEntity
  8
0
100
AcDbBlockBegin
  2
*Paper_Space
 70
0
 10
0.0
 20
0.0
 30
0.0
  3
*Paper_Space
  1

  0
ENDBLK
  5
1D
100
AcDbEntity
  8
0
100
AcDbBlockEnd
  0
BLOCK
  5
206
100
AcDbEntity
  8
0
100
AcDbBlockBegin
  2
_FILLED
 70
64
 10
0.0
 20
0.0
  3
_FILLED
  1

  0
SOLID
  5
207
100
AcDbEntity
  8
0
  6
BYBLOCK
 62
0
100
AcDbTrace
 10
0.0
 20
0.0
 11
-1.0
 21
0.2
 12
-1.0
 22
-0.2
 13
-1.0
 23
-0.2
  0
ENDBLK
  5
208
100
AcDbEntity
  8
0
  6
BYBLOCK
 62
0
100
AcDbBlockEnd
  0
ENDSEC
  0
SECTION
  2
ENTITIES
  0
MTEXT
  5
209
100
AcDbEntity
  8
0
100
AcDbMText
 62
2
  6
CONTINUOUS
  7
STANDARD
 71
3
 72
1
 10
5.718017377
 20
1.3914986282
 30
0.0
 11
1.0
 21
0.0
 31
0.0
 73
2
 44
0.9
  1
SCALE 0.300
 40
0.08
 41
0.704
  0
LINE
  5
20A
100
AcDbEntity
  8
0
100
AcDbLine
 62
7
  6
CONTINUOUS
 10
0.0
 20
0.0
 11
0.0
 21
8.5
  0
LINE
  5
20B
100
AcDbEntity
  8
0
100
AcDbLine
 62
7
  6
CONTINUOUS
 10
0.0
 20
0.0
 11
11.0
 21
0.0
  0
LINE
  5
20C
100
AcDbEntity
  8
0
100
AcDbLine
 62
7
  6
CONTINUOUS
 10
0.0
 20
8.5
 11
11.0
 21
8.5
  0
LINE
  5
20D
100
AcDbEntity
  8
0
100
AcDbLine
 62
7
  6
CONTINUOUS
 10
11.0
 20
0.0
 11
11.0
 21
8.5
  0
LINE
  5
20E
100
AcDbEntity
  8
0
100
AcDbLine
 62
7
  6
CONTINUOUS
 10
6.3211862978
 20
1.6893542946
 11
6.9151863083
 21
1.6893542946
  0
LINE
  5
20F
100
AcDbEntity
  8
0
100
AcDbLine
 62
7
  6
CONTINUOUS
 10
6.9151863031
 20
1.8078542946
 11
6.3211863031
 21
1.8078542946
  0
LINE
  5
210
100
AcDbEntity
  8
0
100
AcDbLine
 62
7
  6
CONTINUOUS
 10
6.9061862798
 20
1.8168542946
 11
6.3301863263
 21
1.8168542946
  0
LINE
  5
211
100
AcDbEntity
  8
0
100
AcDbLine
 62
7
  6
CONTINUOUS
 10
4.0947165466
 20
5.877294626
 11
4.0720015452
 21
5.7290245052
  0
LINE
  5
212
100
AcDbEntity
  8
0
100
AcDbLine
 62
7
  6
CONTINUOUS
 10
3.9675125388
 20
5.0469819497
 11
4.0704114951
 21
5.7186455968
  0
LINE
  5
213
100
AcDbEntity
  8
0
100
AcDbLine
 62
7
  6
CONTINUOUS
 10
4.0053119299
 20
5.0381560769
 11
4.0042216099
 21
5.0310391111
  0
LINE
  5
214
100
AcDbEntity
  8
0
100
AcDbLine
 62
7
  6
CONTINUOUS
 10
4.3605884183
 20
5.3715252518
 11
4.3611165765
 21
5.3724688775
  0
LINE
  5
215
100
AcDbEntity
  8
0
100
AcDbLine
 62
7
  6
CONTINUOUS
 10
4.3611162554
 20
5.3724682805
 11
4.3617551588
 21
5.3735960193
  0
LINE
  5
216
100
AcDbEntity
  8
0
100
AcDbLine
 62
7
  6
CONTINUOUS
 10
4.3616022872
 20
5.3733275493
 11
4.3621815285
 21
5.3743404866
  0
LWPOLYLINE
  5
217
100
AcDbEntity
  8
0
100
AcDbPolyline
 62
7
  6
CONTINUOUS
 90
16
 70
0
 10
4.3638802199
 20
5.3772484215
 10
4.3639183375
 20
5.3773147805
 10
4.3639547503
 20
5.3773820904
 10
4.3639894345
 20
5.3774503074
 10
4.3640223675
 20
5.3775193872
 10
4.3640535278
 20
5.3775892848
 10
4.3640828952
 20
5.3776599547
 10
4.3641104506
 20
5.377731351
 10
4.3641361759
 20
5.3778034272
 10
4.3641600545
 20
5.3778761364
 10
4.3641820707
 20
5.3779494312
 10
4.3642022103
 20
5.3780232639
 10
4.36422046
 20
5.3780975865
 10
4.364236808
 20
5.3781723505
 10
4.3642512437
 20
5.3782475074
 10
4.364263521
 20
5.3783214616
  0
LINE
  5
218
100
AcDbEntity
  8
0
100
AcDbLine
 62
7
  6
CONTINUOUS
 10
4.362180989
 20
5.3743395779
 11
4.3627879032
 21
5.3753890709
  0
LINE
  5
219
100
AcDbEntity
  8
0
100
AcDbLine
 62
7
  6
CONTINUOUS
 10
4.3627879032
 20
5.3753890709
 11
4.3633427715
 21
5.3763383436
  0
LWPOLYLINE
  5
21A
100
AcDbEntity
  8
0
100
AcDbPolyline
 62
7
  6
CONTINUOUS
 90
3
 70
0
 10
4.3633427715
 20
5.3763383436
 10
4.3637047196
 20
5.3769517517
 10
4.3638802199
 20
5.3772484215
  0
LINE
  5
21B
100
AcDbEntity
  8
0
100
AcDbLine
 62
7
  6
CONTINUOUS
 10
4.1348807832
 20
5.0102533504
 11
4.1346966662
 21
5.0090515433
  0
LINE
  5
21C
100
AcDbEntity
  8
0
100
AcDbLine
 62
7
  6
CONTINUOUS
 10
4.3506451888
 20
5.3511763384
 11
4.3512002894
 21
5.3524871443
  0
LINE
  5
21D
100
AcDbEntity
  8
0
100
AcDbLine
 62
7
  6
CONTINUOUS
 10
4.3512002894
 20
5.3524871443
 11
4.3517567508
 21
5.3537736968
  0
LINE
  5
21E
100
AcDbEntity
  8
0
100
AcDbLine
 62
7
  6
CONTINUOUS
 10
4.3517567508
 20
5.3537736968
 11
4.3523133499
 21
5.3550347993
  0
LINE
  5
21F
100
AcDbEntity
  8
0
100
AcDbLine
 62
7
  6
CONTINUOUS
 10
4.3523133499
 20
5.3550347993
 11
4.3528687735
 21
5.3562691078
  0
LINE
  5
220
100
AcDbEntity
  8
0
100
AcDbLine
 62
7
  6
CONTINUOUS
 10
4.3528687735
 20
5.3562691078
 11
4.3534217065
 21
5.3574753322
  0
LINE
  5
221
100
AcDbEntity
  8
0
100
AcDbLine
 62
7
  6
CONTINUOUS
 10
4.3534217065
 20
5.3574753322
 11
4.3542450597
 21
5.3592323477
  0
LINE
  5
222
100
AcDbEntity
  8
0
100
AcDbLine
 62
7
  6
CONTINUOUS
 10
4.3539709194
 20
5.3586524062
 11
4.3547860976
 21
5.3603631158
  0
LINE
  5
223
100
AcDbEntity
  8
0
100
AcDbLine
 62
7
  6
CONTINUOUS
 10
4.3545151276
 20
5.3597991733
 11
4.355054031
 21
5.360916459
  0
LINE
  5
224
100
AcDbEntity
  8
0
100
AcDbLine
 62
7
  6
CONTINUOUS
 10
4.3550529243
 20
5.3609142633
 11
4.3555830437
 21
5.3619966382
  0
LINE
  5
225
100
AcDbEntity
  8
0
100
AcDbLine
 62
7
  6
CONTINUOUS
 10
4.3555830437
 20
5.3619966382
 11
4.3561040889
 21
5.3630450215
  0
LINE
  5
226
100
AcDbEntity
  8
0
100
AcDbLine
 62
7
  6
CONTINUOUS
 10
4.3561049335
 20
5.363046709
 11
4.3566156517
 21
5.3640601305
  0
LINE
  5
227
100
AcDbEntity
  8
0
100
AcDbLine
 62
7
  6
CONTINUOUS
 10
4.3566148052
 20
5.3640584494
 11
4.3571150732
 21
5.3650381603
  0
LINE
  5
228
100
AcDbEntity
  8
0
100
AcDbLine
 62
7
  6
CONTINUOUS
 10
4.3568659559
 20
5.3645518709
 11
4.3573602208
 21
5.3655137222
  0
LINE
  5
229
100
AcDbEntity
  8
0
100
AcDbLine
 62
7
  6
CONTINUOUS
 10
4.3571141265
 20
5.3650363371
 11
4.3576021786
 21
5.3659802617
  0
LINE
  5
22A
100
AcDbEntity
  8
0
100
AcDbLine
 62
7
  6
CONTINUOUS
 10
4.357359202
 20
5.3655117988
 11
4.3578408064
 21
5.3664376688
  0
LINE
  5
22B
100
AcDbEntity
  8
0
100
AcDbLine
 62
7
  6
CONTINUOUS
 10
4.3576010822
 20
5.3659782234
 11
4.3580760109
 21
5.3668859223
  0
LINE
  5
22C
100
AcDbEntity
  8
0
100
AcDbLine
 62
7
  6
CONTINUOUS
 10
4.3578396519
 20
5.3664355483
 11
4.358307683
 21
5.3673249697
  0
LINE
  5
22D
100
AcDbEntity
  8
0
100
AcDbLine
 62
7
  6
CONTINUOUS
 10
4.3580748225
 20
5.366883761
 11
4.3585356653
 21
5.3677546675
  0
LINE
  5
22E
100
AcDbEntity
  8
0
100
AcDbLine
 62
7
  6
CONTINUOUS
 10
4.3585356653
 20
5.3677546675
 11
4.3589802069
 21
5.3685859585
  0
LINE
  5
22F
100
AcDbEntity
  8
0
100
AcDbLine
 62
7
  6
CONTINUOUS
 10
4.3589791134
 20
5.3685840189
 11
4.3596156244
 21
5.3697596676
  0
LINE
  5
230
100
AcDbEntity
  8
0
100
AcDbLine
 62
7
  6
CONTINUOUS
 10
4.3596156244
 20
5.3697596676
 11
4.3602133009
 21
5.3708486954
  0
LINE
  5
231
100
AcDbEntity
  8
0
100
AcDbLine
 62
7
  6
CONTINUOUS
 10
4.3602133009
 20
5.3708486954
 11
4.360588063
 21
5.3715245761
  0
LWPOLYLINE
  5
232
100
AcDbEntity
  8
0
100
AcDbPolyline
 62
7
  6
CONTINUOUS
 90
16
 70
0
 10
4.3413669052
 20
5.228865856
 10
4.3413773678
 20
5.228940383
 10
4.3413860877
 20
5.2290164241
 10
4.3413928647
 20
5.2290926593
 10
4.3413976945
 20
5.2291690392
 10
4.3414005743
 20
5.2292455138
 10
4.3414015026
 20
5.2293220324
 10
4.341400479
 20
5.2293985451
 10
4.3413975046
 20
5.2294750022
 10
4.3413925818
 20
5.2295513527
 10
4.3413857143
 20
5.2296275462
 10
4.3413769069
 20
5.229703534
 10
4.3413661658
 20
5.2297792669
 10
4.3413534985
 20
5.2298546959
 10
4.3413389134
 20
5.2299297719
 10
4.3413224207
 20
5.2300044463
  0
LINE
  5
233
100
AcDbEntity
  8
0
100
AcDbLine
 62
7
  6
CONTINUOUS
 10
4.2657701029
 20
4.9909698487
 11
4.266860423
 21
4.9980868145
  0
LINE
  5
234
100
AcDbEntity
  8
0
100
AcDbLine
 62
7
  6
CONTINUOUS
 10
4.3372582968
 20
5.2980859779
 11
4.3396206569
 21
5.3135060705
  0
LINE
  5
235
100
AcDbEntity
  8
0
100
AcDbLine
 62
7
  6
CONTINUOUS
 10
4.3374109565
 20
5.2973877536
 11
4.33987287
 21
5.3134674322
  0
LINE
  5
236
100
AcDbEntity
  8
0
100
AcDbLine
 62
7
  6
CONTINUOUS
 10
4.432772422
 20
5.8255044228
 11
4.4318638219
 21
5.819573618
  0
LINE
  5
237
100
AcDbEntity
  8
0
100
AcDbLine
 62
7
  6
CONTINUOUS
 10
4.4223235213
 20
5.7573001672
 11
4.4100574206
 21
5.677234302
  0
LINE
  5
238
100
AcDbEntity
  8
0
100
AcDbLine
 62
7
  6
CONTINUOUS
 10
4.3055684141
 20
4.9951917465
 11
4.341367308
 21
5.2288657943
  0
LINE
  5
239
100
AcDbEntity
  8
0
100
AcDbLine
 62
7
  6
CONTINUOUS
 10
4.3642639258
 20
5.3783213996
 11
4.4084673705
 21
5.6668553936
  0
LINE
  5
23A
100
AcDbEntity
  8
0
100
AcDbLine
 62
7
  6
CONTINUOUS
 10
4.3779714634
 20
5.3549767414
 11
4.3600720423
 21
5.2381398862
  0
LINE
  5
23B
100
AcDbEntity
  8
0
100
AcDbLine
 62
7
  6
CONTINUOUS
 10
4.3877681241
 20
5.3451613601
 11
4.3723578565
 21
5.2445722295
  0
LWPOLYLINE
  5
23C
100
AcDbEntity
  8
0
100
AcDbPolyline
 62
7
  6
CONTINUOUS
 90
52
 70
0
 10
4.33987287
 20
5.3134674322
 10
4.3399733101
 20
5.3141134992
 10
4.3400979341
 20
5.3148904269
 10
4.3402267513
 20
5.3156674064
 10
4.340359723
 20
5.3164442472
 10
4.340496825
 20
5.3172208493
 10
4.3406380504
 20
5.3179972024
 10
4.3407833678
 20
5.3187731564
 10
4.3409327459
 20
5.3195485653
 10
4.341086181
 20
5.3203234219
 10
4.3412436408
 20
5.3210975694
 10
4.3414050944
 20
5.3218708609
 10
4.3415705436
 20
5.3226433014
 10
4.3417399532
 20
5.3234147185
 10
4.3419132944
 20
5.3241849715
 10
4.3420905822
 20
5.324954108
 10
4.3422717824
 20
5.3257219738
 10
4.3424568405
 20
5.326488441
 10
4.3426457445
 20
5.327253592
 10
4.3428384352
 20
5.3280173096
 10
4.3430348509
 20
5.3287794712
 10
4.3432349803
 20
5.3295401456
 10
4.3434387626
 20
5.3302992084
 10
4.3436461355
 20
5.331056532
 10
4.343857088
 20
5.3318121749
 10
4.3440715568
 20
5.3325660022
 10
4.3442894786
 20
5.3333178831
 10
4.3445108453
 20
5.3340678749
 10
4.3447355929
 20
5.3348158406
 10
4.344963654
 20
5.3355616351
 10
4.3451950174
 20
5.3363052966
 10
4.3454296284
 20
5.337046727
 10
4.3456673885
 20
5.3377857477
 10
4.3459082206
 20
5.3385222714
 10
4.3461520442
 20
5.339256201
 10
4.3463987561
 20
5.3399873759
 10
4.3466482434
 20
5.3407156125
 10
4.3469004095
 20
5.3414407813
 10
4.3471551545
 20
5.342162747
 10
4.3474123571
 20
5.342881319
 10
4.3476719239
 20
5.3435963896
 10
4.3479337395
 20
5.3443077942
 10
4.348197646
 20
5.34501526
 10
4.3484635409
 20
5.3457186699
 10
4.3487313046
 20
5.346417866
 10
4.3490007502
 20
5.347112521
 10
4.3492717608
 20
5.3478025029
 10
4.3495442155
 20
5.348487694
 10
4.3498179184
 20
5.3491678004
 10
4.3500927462
 20
5.3498427163
 10
4.3503685712
 20
5.3505123274
 10
4.3506451888
 20
5.3511763384
  0
LINE
  5
23D
100
AcDbEntity
  8
0
100
AcDbLine
 62
7
  6
CONTINUOUS
 10
6.5244363031
 20
2.9060013788
 11
6.5184363031
 21
2.9060013788
  0
LINE
  5
23E
100
AcDbEntity
  8
0
100
AcDbLine
 62
7
  6
CONTINUOUS
 10
6.7119363031
 20
2.9060013788
 11
6.7179363031
 21
2.9060013788
  0
LINE
  5
23F
100
AcDbEntity
  8
0
100
AcDbLine
 62
7
  6
CONTINUOUS
 10
4.3367829436
 20
5.2560294715
 11
4.3366371843
 21
5.2574233316
  0
LWPOLYLINE
  5
240
100
AcDbEntity
  8
0
100
AcDbPolyline
 62
7
  6
CONTINUOUS
 90
52
 70
0
 10
4.3366371843
 20
5.2574233316
 10
4.3364999997
 20
5.2588398156
 10
4.3364348772
 20
5.2595559274
 10
4.3363721864
 20
5.2602771027
 10
4.3363120306
 20
5.2610030179
 10
4.3362544958
 20
5.2617335228
 10
4.3361996664
 20
5.2624684757
 10
4.3361476383
 20
5.2632075568
 10
4.3360984904
 20
5.2639506167
 10
4.336052297
 20
5.2646974991
 10
4.3360091406
 20
5.265447866
 10
4.3359690912
 20
5.2662015459
 10
4.3359322156
 20
5.2669583971
 10
4.3358985866
 20
5.2677181204
 10
4.3358682686
 20
5.26848053
 10
4.3358413223
 20
5.2692455038
 10
4.3358178088
 20
5.2700128344
 10
4.335797779
 20
5.2707823592
 10
4.3357812804
 20
5.2715539193
 10
4.3357683597
 20
5.2723273065
 10
4.3357590616
 20
5.2731023393
 10
4.3357534283
 20
5.2738788863
 10
4.3357515016
 20
5.2746568157
 10
4.3357533219
 20
5.2754359374
 10
4.3357589233
 20
5.2762161369
 10
4.3357683338
 20
5.276997395
 10
4.3357815798
 20
5.277779554
 10
4.3357986865
 20
5.2785624641
 10
4.3358196826
 20
5.2793461226
 10
4.3358445932
 20
5.2801303736
 10
4.3358734428
 20
5.2809150807
 10
4.335906256
 20
5.281700272
 10
4.3359430435
 20
5.2824857854
 10
4.335983816
 20
5.283271487
 10
4.3360285956
 20
5.2840574465
 10
4.3360773942
 20
5.2848435201
 10
4.3361302232
 20
5.2856295693
 10
4.3361871059
 20
5.2864156753
 10
4.3362480418
 20
5.2872016897
 10
4.3363130291
 20
5.2879874764
 10
4.3363820867
 20
5.2887731343
 10
4.3364552141
 20
5.2895585163
 10
4.3365324119
 20
5.2903434947
 10
4.3366137022
 20
5.2911282013
 10
4.336699075
 20
5.2919125031
 10
4.3367885192
 20
5.2926962692
 10
4.3368820561
 20
5.2934796378
 10
4.3369796767
 20
5.2942624679
 10
4.337081371
 20
5.2950446383
 10
4.3371871579
 20
5.295826307
 10
4.3372970312
 20
5.2966074279
 10
4.3374109565
 20
5.2973877536
  0
LINE
  5
241
100
AcDbEntity
  8
0
100
AcDbLine
 62
7
  6
CONTINUOUS
 10
6.7117665525
 20
3.1389212137
 11
6.7177556884
 21
3.1391042946
  0
LINE
  5
242
100
AcDbEntity
  8
0
100
AcDbLine
 62
7
  6
CONTINUOUS
 10
6.5244363031
 20
3.1331042946
 11
6.5184363031
 21
3.1331042946
  0
LINE
  5
243
100
AcDbEntity
  8
0
100
AcDbLine
 62
7
  6
CONTINUOUS
 10
6.7119363031
 20
3.1331042946
 11
6.7179363031
 21
3.1331042946
  0
LINE
  5
244
100
AcDbEntity
  8
0
100
AcDbLine
 62
7
  6
CONTINUOUS
 10
6.5246060537
 20
3.1389212137
 11
6.5186169177
 21
3.1391042946
  0
LINE
  5
245
100
AcDbEntity
  8
0
100
AcDbLine
 62
7
  6
CONTINUOUS
 10
6.5383974619
 20
2.8564129673
 11
6.538810498
 21
2.8562852302
  0
LINE
  5
246
100
AcDbEntity
  8
0
100
AcDbLine
 62
7
  6
CONTINUOUS
 10
4.3376109347
 20
5.2494557433
 11
4.3374350307
 21
5.2507124802
  0
LINE
  5
247
100
AcDbEntity
  8
0
100
AcDbLine
 62
7
  6
CONTINUOUS
 10
4.3374350307
 20
5.2507124802
 11
4.3372633897
 21
5.2519997481
  0
LINE
  5
248
100
AcDbEntity
  8
0
100
AcDbLine
 62
7
  6
CONTINUOUS
 10
4.3372633897
 20
5.2519997481
 11
4.3370969148
 21
5.2533159859
  0
LINE
  5
249
100
AcDbEntity
  8
0
100
AcDbLine
 62
7
  6
CONTINUOUS
 10
4.3370969148
 20
5.2533159859
 11
4.3369364733
 21
5.2546597819
  0
LINE
  5
24A
100
AcDbEntity
  8
0
100
AcDbLine
 62
7
  6
CONTINUOUS
 10
4.3369364733
 20
5.2546597819
 11
4.3367829436
 21
5.2560294715
  0
LINE
  5
24B
100
AcDbEntity
  8
0
100
AcDbLine
 62
7
  6
CONTINUOUS
 10
5.2430393796
 20
6.3055543232
 11
5.3600102686
 21
6.6269291995
  0
LINE
  5
24C
100
AcDbEntity
  8
0
100
AcDbLine
 62
7
  6
CONTINUOUS
 10
6.524606053
 20
3.322793641
 11
6.5186169378
 21
3.3227936414
  0
LINE
  5
24D
100
AcDbEntity
  8
0
100
AcDbLine
 62
7
  6
CONTINUOUS
 10
6.7117665506
 20
3.3227937636
 11
6.7177556249
 21
3.3227937627
  0
LINE
  5
24E
100
AcDbEntity
  8
0
100
AcDbLine
 62
7
  6
CONTINUOUS
 10
4.3413224207
 20
5.2300044463
 11
4.3412783984
 21
5.2301924164
  0
LINE
  5
24F
100
AcDbEntity
  8
0
100
AcDbLine
 62
7
  6
CONTINUOUS
 10
4.3412783984
 20
5.2301924164
 11
4.3410092399
 21
5.2313494177
  0
LINE
  5
250
100
AcDbEntity
  8
0
100
AcDbLine
 62
7
  6
CONTINUOUS
 10
4.3410469772
 20
5.2311856094
 11
4.3407881566
 21
5.2323210134
  0
LINE
  5
251
100
AcDbEntity
  8
0
100
AcDbLine
 62
7
  6
CONTINUOUS
 10
4.3408369507
 20
5.232105027
 11
4.340571983
 21
5.2332884943
  0
LINE
  5
252
100
AcDbEntity
  8
0
100
AcDbLine
 62
7
  6
CONTINUOUS
 10
4.340571983
 20
5.2332884943
 11
4.34032297
 21
5.2344265267
  0
LINE
  5
253
100
AcDbEntity
  8
0
100
AcDbLine
 62
7
  6
CONTINUOUS
 10
4.34032297
 20
5.2344265267
 11
4.3401164591
 21
5.2353919142
  0
LINE
  5
254
100
AcDbEntity
  8
0
100
AcDbLine
 62
7
  6
CONTINUOUS
 10
4.3401162088
 20
5.235393054
 11
4.339894747
 21
5.2364516719
  0
LINE
  5
255
100
AcDbEntity
  8
0
100
AcDbLine
 62
7
  6
CONTINUOUS
 10
4.3399704018
 20
5.2360872806
 11
4.3397393443
 21
5.2372096653
  0
LINE
  5
256
100
AcDbEntity
  8
0
100
AcDbLine
 62
7
  6
CONTINUOUS
 10
4.3398180906
 20
5.2368240048
 11
4.3395781054
 21
5.2380099926
  0
LINE
  5
257
100
AcDbEntity
  8
0
100
AcDbLine
 62
7
  6
CONTINUOUS
 10
4.3396596788
 20
5.2376032433
 11
4.3394116177
 21
5.2388521714
  0
LINE
  5
258
100
AcDbEntity
  8
0
100
AcDbLine
 62
7
  6
CONTINUOUS
 10
4.3394116177
 20
5.2388521714
 11
4.3392401841
 21
5.2397379594
  0
LINE
  5
259
100
AcDbEntity
  8
0
100
AcDbLine
 62
7
  6
CONTINUOUS
 10
4.3393264707
 20
5.2392896025
 11
4.3391529924
 21
5.2401959961
  0
LINE
  5
25A
100
AcDbEntity
  8
0
100
AcDbLine
 62
7
  6
CONTINUOUS
 10
4.3392402427
 20
5.2397374396
 11
4.3390649135
 21
5.2406641682
  0
LINE
  5
25B
100
AcDbEntity
  8
0
100
AcDbLine
 62
7
  6
CONTINUOUS
 10
4.3391530145
 20
5.2401956379
 11
4.3389760344
 21
5.2411423971
  0
LINE
  5
25C
100
AcDbEntity
  8
0
100
AcDbLine
 62
7
  6
CONTINUOUS
 10
4.3389760209
 20
5.2411422011
 11
4.3387962158
 21
5.2421287597
  0
LINE
  5
25D
100
AcDbEntity
  8
0
100
AcDbLine
 62
7
  6
CONTINUOUS
 10
4.3387962158
 20
5.2421287597
 11
4.3386142795
 21
5.2431542286
  0
LINE
  5
25E
100
AcDbEntity
  8
0
100
AcDbLine
 62
7
  6
CONTINUOUS
 10
4.3386142795
 20
5.2431542286
 11
4.3384309622
 21
5.244218041
  0
LINE
  5
25F
100
AcDbEntity
  8
0
100
AcDbLine
 62
7
  6
CONTINUOUS
 10
4.3384309622
 20
5.244218041
 11
4.338247049
 21
5.2453194476
  0
LINE
  5
260
100
AcDbEntity
  8
0
100
AcDbLine
 62
7
  6
CONTINUOUS
 10
4.338247049
 20
5.2453194476
 11
4.3380633592
 21
5.2464576274
  0
LINE
  5
261
100
AcDbEntity
  8
0
100
AcDbLine
 62
7
  6
CONTINUOUS
 10
4.3380633592
 20
5.2464576274
 11
4.3378807845
 21
5.2476313143
  0
LWPOLYLINE
  5
262
100
AcDbEntity
  8
0
100
AcDbPolyline
 62
7
  6
CONTINUOUS
 90
3
 70
0
 10
4.3378807845
 20
5.2476313143
 10
4.3377001932
 20
5.2488393583
 10
4.3376109347
 20
5.2494557433
  0
LINE
  5
263
100
AcDbEntity
  8
0
100
AcDbLine
 62
7
  6
CONTINUOUS
 10
6.8581863031
 20
3.7008542946
 11
6.7021863031
 21
3.7008542946
  0
LINE
  5
264
100
AcDbEntity
  8
0
100
AcDbLine
 62
7
  6
CONTINUOUS
 10
6.5341863031
 20
3.7008542946
 11
6.3781863031
 21
3.7008542946
  0
LINE
  5
265
100
AcDbEntity
  8
0
100
AcDbLine
 62
7
  6
CONTINUOUS
 10
6.8491863031
 20
3.7098542946
 11
6.7021863031
 21
3.7098542946
  0
LINE
  5
266
100
AcDbEntity
  8
0
100
AcDbLine
 62
7
  6
CONTINUOUS
 10
6.5341863031
 20
3.7098542946
 11
6.3871863031
 21
3.7098542946
  0
LINE
  5
267
100
AcDbEntity
  8
0
100
AcDbLine
 62
7
  6
CONTINUOUS
 10
6.3792845501
 20
3.7198383589
 11
6.5341863031
 21
3.7198383589
  0
LINE
  5
268
100
AcDbEntity
  8
0
100
AcDbLine
 62
7
  6
CONTINUOUS
 10
6.7021863031
 20
3.7198383589
 11
6.857088056
 21
3.7198383589
  0
LINE
  5
269
100
AcDbEntity
  8
0
100
AcDbLine
 62
7
  6
CONTINUOUS
 10
6.0464765703
 20
6.0131271006
 11
6.1634474594
 21
6.3345019769
  0
LINE
  5
26A
100
AcDbEntity
  8
0
100
AcDbLine
 62
7
  6
CONTINUOUS
 10
6.5341863031
 20
4.0383542946
 11
6.7021863031
 21
4.0383542946
  0
LINE
  5
26B
100
AcDbEntity
  8
0
100
AcDbLine
 62
7
  6
CONTINUOUS
 10
6.5401863031
 20
4.0443542946
 11
6.6961863031
 21
4.0443542946
  0
LINE
  5
26C
100
AcDbEntity
  8
0
100
AcDbLine
 62
7
  6
CONTINUOUS
 10
6.4433045501
 20
4.3018383589
 11
6.793068056
 21
4.3018383589
  0
LINE
  5
26D
100
AcDbEntity
  8
0
100
AcDbLine
 62
7
  6
CONTINUOUS
 10
6.4522505893
 20
4.3098542946
 11
6.7841220168
 21
4.3098542946
  0
LINE
  5
26E
100
AcDbEntity
  8
0
100
AcDbLine
 62
7
  6
CONTINUOUS
 10
6.4471863031
 20
4.3158542946
 11
6.7891863031
 21
4.3158542946
  0
LINE
  5
26F
100
AcDbEntity
  8
0
100
AcDbLine
 62
7
  6
CONTINUOUS
 10
6.7205272121
 20
2.9005896148
 11
6.7179363031
 21
2.9060013788
  0
LINE
  5
270
100
AcDbEntity
  8
0
100
AcDbLine
 62
7
  6
CONTINUOUS
 10
6.5160307405
 20
3.3282076358
 11
6.5186169515
 21
3.3227936417
  0
LINE
  5
271
100
AcDbEntity
  8
0
100
AcDbLine
 62
7
  6
CONTINUOUS
 10
4.156351179
 20
4.998627838
 11
4.1443871961
 21
5.0004607217
  0
LINE
  5
272
100
AcDbEntity
  8
0
100
AcDbLine
 62
7
  6
CONTINUOUS
 10
4.0127312608
 20
5.0206304278
 11
4.0710944955
 21
5.0116891728
  0
LINE
  5
273
100
AcDbEntity
  8
0
100
AcDbLine
 62
7
  6
CONTINUOUS
 10
4.0750243396
 20
5.0110871202
 11
4.0951007033
 21
5.0080114187
  0
LINE
  5
274
100
AcDbEntity
  8
0
100
AcDbLine
 62
7
  6
CONTINUOUS
 10
4.1109147336
 20
5.0055887073
 11
4.1228787165
 21
5.0037558236
  0
LINE
  5
275
100
AcDbEntity
  8
0
100
AcDbLine
 62
7
  6
CONTINUOUS
 10
4.1721652093
 20
4.9962051266
 11
4.192241573
 21
4.9931294251
  0
LINE
  5
276
100
AcDbEntity
  8
0
100
AcDbLine
 62
7
  6
CONTINUOUS
 10
4.196171417
 20
4.9925273725
 11
4.2545346518
 21
4.9835861175
  0
LINE
  5
277
100
AcDbEntity
  8
0
100
AcDbLine
 62
7
  6
CONTINUOUS
 10
4.2657701029
 20
4.9909698487
 11
4.0042216099
 21
5.0310391111
  0
LINE
  5
278
100
AcDbEntity
  8
0
100
AcDbLine
 62
7
  6
CONTINUOUS
 10
4.3021487083
 20
4.9926806446
 11
3.9700236446
 21
5.0435622468
  0
LINE
  5
279
100
AcDbEntity
  8
0
100
AcDbLine
 62
7
  6
CONTINUOUS
 10
4.3055684141
 20
4.9951917465
 11
3.9675125388
 21
5.0469819497
  0
LINE
  5
27A
100
AcDbEntity
  8
0
100
AcDbLine
 62
7
  6
CONTINUOUS
 10
6.3211863031
 20
1.8078542946
 11
6.3211863031
 21
1.6893542946
  0
LINE
  5
27B
100
AcDbEntity
  8
0
100
AcDbLine
 62
7
  6
CONTINUOUS
 10
6.3781863031
 20
1.8168542946
 11
6.3781863031
 21
3.7008542946
  0
LINE
  5
27C
100
AcDbEntity
  8
0
100
AcDbLine
 62
7
  6
CONTINUOUS
 10
6.3792845501
 20
3.7198383589
 11
6.4433045501
 21
4.3018383589
  0
LINE
  5
27D
100
AcDbEntity
  8
0
100
AcDbLine
 62
7
  6
CONTINUOUS
 10
4.3389327188
 20
5.2413784333
 11
4.3600720423
 21
5.2381398862
  0
LINE
  5
27E
100
AcDbEntity
  8
0
100
AcDbLine
 62
7
  6
CONTINUOUS
 10
4.3372582968
 20
5.2980859779
 11
4.3375105098
 21
5.2980473389
  0
LINE
  5
27F
100
AcDbEntity
  8
0
100
AcDbLine
 62
7
  6
CONTINUOUS
 10
4.3396206569
 20
5.3135060705
 11
4.33987287
 21
5.3134674322
  0
LINE
  5
280
100
AcDbEntity
  8
0
100
AcDbLine
 62
7
  6
CONTINUOUS
 10
6.4471863031
 20
4.3158542946
 11
6.4471863031
 21
5.4408542946
  0
LINE
  5
281
100
AcDbEntity
  8
0
100
AcDbLine
 62
7
  6
CONTINUOUS
 10
6.5184363031
 20
3.1331042946
 11
6.5184363031
 21
2.9060013788
  0
LINE
  5
282
100
AcDbEntity
  8
0
100
AcDbLine
 62
7
  6
CONTINUOUS
 10
6.5186169378
 20
3.3227936039
 11
6.5186169177
 21
3.1391042946
  0
LINE
  5
283
100
AcDbEntity
  8
0
100
AcDbLine
 62
7
  6
CONTINUOUS
 10
6.5244363031
 20
3.1331042946
 11
6.5244363031
 21
2.9060013788
  0
LINE
  5
284
100
AcDbEntity
  8
0
100
AcDbLine
 62
7
  6
CONTINUOUS
 10
6.524606053
 20
3.3227936411
 11
6.5246060537
 21
3.1389212137
  0
LINE
  5
285
100
AcDbEntity
  8
0
100
AcDbLine
 62
7
  6
CONTINUOUS
 10
6.5341863031
 20
2.8621400999
 11
6.5341863031
 21
4.0383542946
  0
LINE
  5
286
100
AcDbEntity
  8
0
100
AcDbLine
 62
7
  6
CONTINUOUS
 10
4.3539714577
 20
5.3586535453
 11
4.3779714634
 21
5.3549767414
  0
LINE
  5
287
100
AcDbEntity
  8
0
100
AcDbLine
 62
7
  6
CONTINUOUS
 10
6.857088056
 20
3.7198383589
 11
6.793068056
 21
4.3018383589
  0
LINE
  5
288
100
AcDbEntity
  8
0
100
AcDbLine
 62
7
  6
CONTINUOUS
 10
6.7021863031
 20
2.8621400999
 11
6.7021863031
 21
4.0383542946
  0
LINE
  5
289
100
AcDbEntity
  8
0
100
AcDbLine
 62
7
  6
CONTINUOUS
 10
6.7117665525
 20
3.1389212137
 11
6.7117665506
 21
3.3227937632
  0
LINE
  5
28A
100
AcDbEntity
  8
0
100
AcDbLine
 62
7
  6
CONTINUOUS
 10
6.7119363031
 20
2.9060013788
 11
6.7119363031
 21
3.1331042946
  0
LINE
  5
28B
100
AcDbEntity
  8
0
100
AcDbLine
 62
7
  6
CONTINUOUS
 10
6.7177556884
 20
3.1391042946
 11
6.7177556249
 21
3.3227936444
  0
LINE
  5
28C
100
AcDbEntity
  8
0
100
AcDbLine
 62
7
  6
CONTINUOUS
 10
6.7179363031
 20
2.9060013788
 11
6.7179363031
 21
3.1331042946
  0
LINE
  5
28D
100
AcDbEntity
  8
0
100
AcDbLine
 62
7
  6
CONTINUOUS
 10
6.7891863031
 20
4.3158542946
 11
6.7891863031
 21
5.4408542946
  0
LINE
  5
28E
100
AcDbEntity
  8
0
100
AcDbLine
 62
7
  6
CONTINUOUS
 10
6.4471863031
 20
5.4408542946
 11
6.7891863031
 21
5.4408542946
  0
LINE
  5
28F
100
AcDbEntity
  8
0
100
AcDbLine
 62
7
  6
CONTINUOUS
 10
4.4084673705
 20
5.6668553936
 11
4.0704114951
 21
5.7186455968
  0
LINE
  5
290
100
AcDbEntity
  8
0
100
AcDbLine
 62
7
  6
CONTINUOUS
 10
4.4059562647
 20
5.6702750965
 11
4.073831201
 21
5.7211566986
  0
LINE
  5
291
100
AcDbEntity
  8
0
100
AcDbLine
 62
7
  6
CONTINUOUS
 10
4.4100574206
 20
5.677234302
 11
4.0720015452
 21
5.7290245052
  0
LINE
  5
292
100
AcDbEntity
  8
0
100
AcDbLine
 62
7
  6
CONTINUOUS
 10
6.8581863031
 20
1.8168542946
 11
6.8581863031
 21
3.7008542946
  0
LINE
  5
293
100
AcDbEntity
  8
0
100
AcDbLine
 62
7
  6
CONTINUOUS
 10
6.9151863031
 20
1.8078542946
 11
6.9151863031
 21
1.6893542946
  0
LINE
  5
294
100
AcDbEntity
  8
0
100
AcDbLine
 62
7
  6
CONTINUOUS
 10
6.7203417461
 20
3.3282076683
 11
6.7177555476
 21
3.3227936882
  0
LINE
  5
295
100
AcDbEntity
  8
0
100
AcDbLine
 62
7
  6
CONTINUOUS
 10
6.515845394
 20
2.9005896148
 11
6.5184363031
 21
2.9060013788
  0
LINE
  5
296
100
AcDbEntity
  8
0
100
AcDbLine
 62
7
  6
CONTINUOUS
 10
4.432772422
 20
5.8255044228
 11
4.0947165466
 21
5.877294626
  0
LINE
  5
297
100
AcDbEntity
  8
0
100
AcDbLine
 62
7
  6
CONTINUOUS
 10
6.6975583954
 20
2.8562840747
 11
6.6979767022
 21
2.8564134542
  0
LINE
  5
298
100
AcDbEntity
  8
0
100
AcDbLine
 62
7
  6
CONTINUOUS
 10
6.0464765703
 20
6.0131271006
 11
5.2430393796
 21
6.3055543232
  0
LINE
  5
299
100
AcDbEntity
  8
0
100
AcDbLine
 62
7
  6
CONTINUOUS
 10
6.1634474594
 20
6.3345019769
 11
5.3600102686
 21
6.6269291995
  0
ARC
  5
29A
100
AcDbEntity
  8
0
100
AcDbCircle
 62
7
  6
CONTINUOUS
 10
5.0347491123
 20
5.7332815171
 40
0.951
100
AcDbArc
 50
70.0
 51
171.29
  0
ARC
  5
29B
100
AcDbEntity
  8
0
100
AcDbCircle
 62
7
  6
CONTINUOUS
 10
5.0347491123
 20
5.7332815171
 40
0.609
100
AcDbArc
 50
70.0
 51
171.29
  0
ARC
  5
29C
100
AcDbEntity
  8
0
100
AcDbCircle
 62
7
  6
CONTINUOUS
 10
4.2186910583
 20
5.3195889953
 40
0.171
100
AcDbArc
 50
333.9793829162
 51
8.6006170838
  0
ARC
  5
29D
100
AcDbEntity
  8
0
100
AcDbCircle
 62
7
  6
CONTINUOUS
 10
4.3618438124
 20
5.2497049556
 40
0.0117
100
AcDbArc
 50
261.29
 51
333.9793829162
  0
ARC
  5
29E
100
AcDbEntity
  8
0
100
AcDbCircle
 62
7
  6
CONTINUOUS
 10
4.3761996933
 20
5.3434116719
 40
0.0117
100
AcDbArc
 50
8.6006170838
 51
81.29
  0
ARC
  5
29F
100
AcDbEntity
  8
0
100
AcDbCircle
 62
7
  6
CONTINUOUS
 10
3.9704779412
 20
5.0465276497
 40
0.003
100
AcDbArc
 50
171.29
 51
261.29
  0
ARC
  5
2A0
100
AcDbEntity
  8
0
100
AcDbCircle
 62
7
  6
CONTINUOUS
 10
4.3026030117
 20
4.9956460465
 40
0.003
100
AcDbArc
 50
261.29
 51
351.29
  0
ARC
  5
2A1
100
AcDbEntity
  8
0
100
AcDbCircle
 62
7
  6
CONTINUOUS
 10
4.0733768976
 20
5.7181912967
 40
0.003
100
AcDbArc
 50
81.29
 51
171.29
  0
ARC
  5
2A2
100
AcDbEntity
  8
0
100
AcDbCircle
 62
7
  6
CONTINUOUS
 10
4.4055019681
 20
5.6673096936
 40
0.003
100
AcDbArc
 50
351.29
 51
81.29
  0
ARC
  5
2A3
100
AcDbEntity
  8
0
100
AcDbCircle
 62
7
  6
CONTINUOUS
 10
6.3301863031
 20
1.8078542946
 40
0.009
100
AcDbArc
 50
90.0
 51
180.0
  0
ARC
  5
2A4
100
AcDbEntity
  8
0
100
AcDbCircle
 62
7
  6
CONTINUOUS
 10
6.6159175084
 20
3.1341847731
 40
0.2115665061
100
AcDbArc
 50
63.0608167386
 51
65.9354592747
  0
ARC
  5
2A5
100
AcDbEntity
  8
0
100
AcDbCircle
 62
7
  6
CONTINUOUS
 10
6.3882305893
 20
3.7188542946
 40
0.009
100
AcDbArc
 50
173.7227015104
 51
270.0
  0
ARC
  5
2A6
100
AcDbEntity
  8
0
100
AcDbCircle
 62
7
  6
CONTINUOUS
 10
6.3871863031
 20
3.7008542946
 40
0.009
100
AcDbArc
 50
90.0
 51
180.0
  0
ARC
  5
2A7
100
AcDbEntity
  8
0
100
AcDbCircle
 62
7
  6
CONTINUOUS
 10
6.5184363031
 20
2.9060013788
 40
0.006
100
AcDbArc
 50
244.4169980226
 51
360.0
  0
ARC
  5
2A8
100
AcDbEntity
  8
0
100
AcDbCircle
 62
7
  6
CONTINUOUS
 10
6.5401863031
 20
2.8621400999
 40
0.006
100
AcDbArc
 50
180.0000000011
 51
252.6540672169
  0
ARC
  5
2A9
100
AcDbEntity
  8
0
100
AcDbCircle
 62
7
  6
CONTINUOUS
 10
6.9061863031
 20
1.8078542946
 40
0.009
100
AcDbArc
 50
0.0
 51
90.0
  0
ARC
  5
2AA
100
AcDbEntity
  8
0
100
AcDbCircle
 62
7
  6
CONTINUOUS
 10
6.6181863031
 20
3.1143542946
 40
0.27
100
AcDbArc
 50
252.8152144237
 51
287.1847959011
  0
ARC
  5
2AB
100
AcDbEntity
  8
0
100
AcDbCircle
 62
7
  6
CONTINUOUS
 10
6.6181863031
 20
3.1143542946
 40
0.237
100
AcDbArc
 50
110.7586395677
 51
249.2413641407
  0
ARC
  5
2AC
100
AcDbEntity
  8
0
100
AcDbCircle
 62
7
  6
CONTINUOUS
 10
6.6181863031
 20
3.1143542946
 40
0.237
100
AcDbArc
 50
290.7585984642
 51
69.2413348517
  0
ARC
  5
2AD
100
AcDbEntity
  8
0
100
AcDbCircle
 62
7
  6
CONTINUOUS
 10
6.6181863031
 20
3.1143542946
 40
0.231
100
AcDbArc
 50
295.5830019774
 51
64.4666763057
  0
ARC
  5
2AE
100
AcDbEntity
  8
0
100
AcDbCircle
 62
7
  6
CONTINUOUS
 10
6.6181863031
 20
3.1143542946
 40
0.231
100
AcDbArc
 50
115.533337767
 51
244.4169980226
  0
ARC
  5
2AF
100
AcDbEntity
  8
0
100
AcDbCircle
 62
7
  6
CONTINUOUS
 10
6.620205064
 20
3.1347101062
 40
0.2109847815
100
AcDbArc
 50
114.0607202325
 51
116.9432987556
  0
ARC
  5
2B0
100
AcDbEntity
  8
0
100
AcDbCircle
 62
7
  6
CONTINUOUS
 10
6.6181863031
 20
3.1331042946
 40
0.09975
100
AcDbArc
 50
0.0
 51
3.448444264
  0
ARC
  5
2B1
100
AcDbEntity
  8
0
100
AcDbCircle
 62
7
  6
CONTINUOUS
 10
6.6181863031
 20
3.1331042946
 40
0.09975
100
AcDbArc
 50
176.551555736
 51
180.0
  0
ARC
  5
2B2
100
AcDbEntity
  8
0
100
AcDbCircle
 62
7
  6
CONTINUOUS
 10
6.6181863031
 20
3.1331042946
 40
0.09375
100
AcDbArc
 50
176.3500078956
 51
180.0
  0
ARC
  5
2B3
100
AcDbEntity
  8
0
100
AcDbCircle
 62
7
  6
CONTINUOUS
 10
6.6181863031
 20
3.1331042946
 40
0.09375
100
AcDbArc
 50
0.0
 51
3.6497579997
  0
ARC
  5
2B4
100
AcDbEntity
  8
0
100
AcDbCircle
 62
7
  6
CONTINUOUS
 10
6.6181863031
 20
3.0206042946
 40
0.09375
100
AcDbArc
 50
180.0
 51
206.3606709355
  0
ARC
  5
2B5
100
AcDbEntity
  8
0
100
AcDbCircle
 62
7
  6
CONTINUOUS
 10
6.6181863031
 20
3.0206042946
 40
0.09375
100
AcDbArc
 50
333.6393299743
 51
360.0
  0
ARC
  5
2B6
100
AcDbEntity
  8
0
100
AcDbCircle
 62
7
  6
CONTINUOUS
 10
6.6181863031
 20
3.1331042946
 40
0.09375
100
AcDbArc
 50
153.6405313792
 51
176.3305995951
  0
ARC
  5
2B7
100
AcDbEntity
  8
0
100
AcDbCircle
 62
7
  6
CONTINUOUS
 10
6.6181863031
 20
3.1331042946
 40
0.09375
100
AcDbArc
 50
3.6694003018
 51
26.3592989151
  0
ARC
  5
2B8
100
AcDbEntity
  8
0
100
AcDbCircle
 62
7
  6
CONTINUOUS
 10
6.8481420168
 20
3.7188542946
 40
0.009
100
AcDbArc
 50
270.0
 51
6.2772984896
  0
ARC
  5
2B9
100
AcDbEntity
  8
0
100
AcDbCircle
 62
7
  6
CONTINUOUS
 10
6.8491863031
 20
3.7008542946
 40
0.009
100
AcDbArc
 50
0.0
 51
90.0
  0
ARC
  5
2BA
100
AcDbEntity
  8
0
100
AcDbCircle
 62
7
  6
CONTINUOUS
 10
6.7179363031
 20
2.9060013788
 40
0.006
100
AcDbArc
 50
180.0
 51
295.5830019774
  0
ARC
  5
2BB
100
AcDbEntity
  8
0
100
AcDbCircle
 62
7
  6
CONTINUOUS
 10
6.6961863031
 20
2.8621400999
 40
0.006
100
AcDbArc
 50
287.3616745343
 51
359.9999999989
  0
ARC
  5
2BC
100
AcDbEntity
  8
0
100
AcDbCircle
 62
7
  6
CONTINUOUS
 10
5.8381863031
 20
5.4408542946
 40
0.951
100
AcDbArc
 50
0.0
 51
70.0
  0
ARC
  5
2BD
100
AcDbEntity
  8
0
100
AcDbCircle
 62
7
  6
CONTINUOUS
 10
5.8381863031
 20
5.4408542946
 40
0.609
100
AcDbArc
 50
0.0
 51
70.0
  0
ARC
  5
2BE
100
AcDbEntity
  8
0
100
AcDbCircle
 62
7
  6
CONTINUOUS
 10
6.7841220168
 20
4.3008542946
 40
0.009
100
AcDbArc
 50
6.2772984896
 51
90.0
  0
ARC
  5
2BF
100
AcDbEntity
  8
0
100
AcDbCircle
 62
7
  6
CONTINUOUS
 10
6.4522505893
 20
4.3008542946
 40
0.009
100
AcDbArc
 50
90.0
 51
173.7227015104
  0
ARC
  5
2C0
100
AcDbEntity
  8
0
100
AcDbCircle
 62
7
  6
CONTINUOUS
 10
6.5401863031
 20
4.0383542946
 40
0.006
100
AcDbArc
 50
90.0
 51
180.0
  0
ARC
  5
2C1
100
AcDbEntity
  8
0
100
AcDbCircle
 62
7
  6
CONTINUOUS
 10
6.6961863031
 20
4.0383542946
 40
0.006
100
AcDbArc
 50
0.0
 51
90.0
  0
SPLINE
  5
2C2
100
AcDbEntity
  8
0
100
AcDbSpline
 62
7
  6
CONTINUOUS
 70
0
 71
3
 72
13
 73
9
 74
0
 42
0.0000001
 43
0.0000001
 44
0.0000000001
 40
0.0
 40
0.0
 40
0.0
 40
0.0
 40
0.194395702
 40
0.3813255649
 40
0.5537139016
 40
0.7051186084
 40
0.9229165321
 40
1.0
 40
1.0
 40
1.0
 40
1.0
 10
4.4242010645
 20
5.7888800404
 30
0.0
 10
4.4245119124
 20
5.7909090721
 30
0.0
 10
4.425194712
 20
5.7948784207
 30
0.0
 10
4.4263918648
 20
5.8006025904
 30
0.0
 10
4.4276715582
 20
5.8058424718
 30
0.0
 10
4.4291921087
 20
5.8113561505
 30
0.0
 10
4.4305948211
 20
5.815856457
 30
0.0
 10
4.4315968433
 20
5.8188047178
 30
0.0
 10
4.4318638219
 20
5.819573618
 30
0.0
  0
SPLINE
  5
2C3
100
AcDbEntity
  8
0
100
AcDbSpline
 62
7
  6
CONTINUOUS
 70
0
 71
3
 72
13
 73
9
 74
0
 42
0.0000001
 43
0.0000001
 44
0.0000000001
 40
0.0
 40
0.0
 40
0.0
 40
0.0
 40
0.0770834678
 40
0.2948813915
 40
0.4462860985
 40
0.6186744351
 40
0.8056042979
 40
1.0
 40
1.0
 40
1.0
 40
1.0
 10
4.4223235213
 20
5.7573001672
 30
0.0
 10
4.4222989761
 20
5.7581137289
 30
0.0
 10
4.4222255429
 20
5.7612267496
 30
0.0
 10
4.4222344389
 20
5.765940589
 30
0.0
 10
4.4224342784
 20
5.7716566007
 30
0.0
 10
4.4227819606
 20
5.7770392664
 30
0.0
 10
4.4233533809
 20
5.7828592984
 30
0.0
 10
4.4238902166
 20
5.7868510087
 30
0.0
 10
4.4242010645
 20
5.7888800404
 30
0.0
  0
LINE
  5
2C4
100
AcDbEntity
  8
0
100
AcDbLine
 62
7
  6
CONTINUOUS
 10
6.7117441061
 20
3.1391042331
 11
6.7117665525
 21
3.1389212137
  0
LINE
  5
2C5
100
AcDbEntity
  8
0
100
AcDbLine
 62
7
  6
CONTINUOUS
 10
6.5246060537
 20
3.1389212137
 11
6.5246285
 21
3.1391042332
  0
SPLINE
  5
2C6
100
AcDbEntity
  8
0
100
AcDbSpline
 62
7
  6
CONTINUOUS
 70
0
 71
3
 72
72
 73
68
 74
0
 42
0.0000001
 43
0.0000001
 44
0.0000000001
 40
0.0
 40
0.0
 40
0.0
 40
0.0
 40
0.0187686069
 40
0.0372190708
 40
0.0553489105
 40
0.0731607367
 40
0.0906606552
 40
0.1078575779
 40
0.1247627515
 40
0.1413886082
 40
0.1577487315
 40
0.173857201
 40
0.1897282085
 40
0.2053761799
 40
0.2208151614
 40
0.236059209
 40
0.2511219731
 40
0.2660168274
 40
0.2807569142
 40
0.2953551124
 40
0.309824188
 40
0.3241768611
 40
0.3384260802
 40
0.3525852204
 40
0.3666685809
 40
0.3806921648
 40
0.4086375752
 40
0.4366775499
 40
0.4509142324
 40
0.4655613786
 40
0.4732090762
 40
0.4812867212
 40
0.4855854594
 40
0.4901275157
 40
0.5000003452
 40
0.5098709219
 40
0.5187123031
 40
0.5267903728
 40
0.5344387138
 40
0.5490857716
 40
0.563322464
 40
0.5913623643
 40
0.619307818
 40
0.6333313987
 40
0.6474147567
 40
0.6615739004
 40
0.6758231227
 40
0.6901757987
 40
0.7046448793
 40
0.7192430725
 40
0.7339831626
 40
0.7488780232
 40
0.7639407803
 40
0.77918483
 40
0.7946238218
 40
0.8102717814
 40
0.8261427887
 40
0.8422512639
 40
0.8586113695
 40
0.8752372465
 40
0.8921424034
 40
0.9093393178
 40
0.9268392506
 40
0.9446510798
 40
0.9627809191
 40
0.9812313892
 40
1.0
 40
1.0
 40
1.0
 40
1.0
 10
6.5341862596
 20
3.3363382049
 30
0.0
 10
6.5308108118
 20
3.3350741842
 30
0.0
 10
6.5241727378
 20
3.3324160583
 30
0.0
 10
6.5144888572
 20
3.3280257243
 30
0.0
 10
6.5051712389
 20
3.3232968787
 30
0.0
 10
6.496225941
 20
3.3182594727
 30
0.0
 10
6.4876549422
 20
3.3129413544
 30
0.0
 10
6.4794573872
 20
3.3073682787
 30
0.0
 10
6.4716301836
 20
3.30156383
 30
0.0
 10
6.464168579
 20
3.2955494642
 30
0.0
 10
6.4570666998
 20
3.2893446313
 30
0.0
 10
6.4503179138
 20
3.2829669113
 30
0.0
 10
6.4439151449
 20
3.276432159
 30
0.0
 10
6.4378511391
 20
3.2697546857
 30
0.0
 10
6.4321185864
 20
3.2629473671
 30
0.0
 10
6.426710317
 20
3.2560218116
 30
0.0
 10
6.421619343
 20
3.2489884639
 30
0.0
 10
6.416838973
 20
3.2418567224
 30
0.0
 10
6.412362831
 20
3.2346350284
 30
0.0
 10
6.4081849024
 20
3.2273309199
 30
0.0
 10
6.4042995498
 20
3.2199510943
 30
0.0
 10
6.4007015248
 20
3.2125014016
 30
0.0
 10
6.3973859688
 20
3.2049868141
 30
0.0
 10
6.394348428
 20
3.1974113602
 30
0.0
 10
6.3915848132
 20
3.1897777411
 30
0.0
 10
6.3882644161
 20
3.1795364499
 30
0.0
 10
6.3847664743
 20
3.1665436185
 30
0.0
 10
6.3821451654
 20
3.1533040094
 30
0.0
 10
6.3805734422
 20
3.1424840515
 30
0.0
 10
6.379809792
 20
3.1355084164
 30
0.0
 10
6.3793355153
 20
3.1296946648
 30
0.0
 10
6.3790989788
 20
3.1258561707
 30
0.0
 10
6.378951465
 20
3.1226104119
 30
0.0
 10
6.3788304536
 20
3.1190185785
 30
0.0
 10
6.3787654822
 20
3.1143545617
 30
0.0
 10
6.3788420215
 20
3.1088649252
 30
0.0
 10
6.3790453347
 20
3.1037236681
 30
0.0
 10
6.3793354916
 20
3.0990142061
 30
0.0
 10
6.3798097809
 20
3.0932002555
 30
0.0
 10
6.3805734453
 20
3.0862245179
 30
0.0
 10
6.3821451622
 20
3.0754045869
 30
0.0
 10
6.3847664732
 20
3.0621649833
 30
0.0
 10
6.3882644102
 20
3.0491721573
 30
0.0
 10
6.3915848091
 20
3.0389308591
 30
0.0
 10
6.3943484232
 20
3.0312972401
 30
0.0
 10
6.3973859644
 20
3.0237217856
 30
0.0
 10
6.4007015209
 20
3.0162071962
 30
0.0
 10
6.4042995466
 20
3.0087575015
 30
0.0
 10
6.4081848991
 20
3.0013776752
 30
0.0
 10
6.4123628277
 20
2.994073566
 30
0.0
 10
6.4168389702
 20
2.9868518712
 30
0.0
 10
6.42161934
 20
2.9797201291
 30
0.0
 10
6.4267103143
 20
2.9726867812
 30
0.0
 10
6.4321185841
 20
2.9657612247
 30
0.0
 10
6.4378511367
 20
2.9589539059
 30
0.0
 10
6.4439151422
 20
2.9522764328
 30
0.0
 10
6.4503179104
 20
2.9457416815
 30
0.0
 10
6.4570666942
 20
2.9393639626
 30
0.0
 10
6.4641685748
 20
2.9331591288
 30
0.0
 10
6.4716301768
 20
2.9271447641
 30
0.0
 10
6.4794573798
 20
2.921340316
 30
0.0
 10
6.4876549328
 20
2.9157672411
 30
0.0
 10
6.4962259326
 20
2.9104491213
 30
0.0
 10
6.5051712332
 20
2.9054117134
 30
0.0
 10
6.514488853
 20
2.9006828668
 30
0.0
 10
6.5241727351
 20
2.8962925319
 30
0.0
 10
6.5308108109
 20
2.8936344051
 30
0.0
 10
6.5341862594
 20
2.8923703842
 30
0.0
  0
SPLINE
  5
2C7
100
AcDbEntity
  8
0
100
AcDbSpline
 62
7
  6
CONTINUOUS
 70
0
 71
3
 72
72
 73
68
 74
0
 42
0.0000001
 43
0.0000001
 44
0.0000000001
 40
0.0
 40
0.0
 40
0.0
 40
0.0
 40
0.0187687477
 40
0.0372193306
 40
0.0553493026
 40
0.0731612646
 40
0.0906613117
 40
0.107858362
 40
0.1247636621
 40
0.1413896406
 40
0.1577498909
 40
0.1738584816
 40
0.1897296086
 40
0.2053777026
 40
0.2208168005
 40
0.2360609679
 40
0.2511238489
 40
0.2660188195
 40
0.2807590197
 40
0.2953573353
 40
0.3098265201
 40
0.3241793084
 40
0.3384286454
 40
0.3525879018
 40
0.366671373
 40
0.3806950637
 40
0.408640711
 40
0.4366809348
 40
0.4509177657
 40
0.4655648631
 40
0.4732126582
 40
0.481290045
 40
0.485589504
 40
0.490131428
 40
0.5000044419
 40
0.5050475452
 40
0.5098742072
 40
0.5144215024
 40
0.5187171539
 40
0.5267949625
 40
0.5344433796
 40
0.5490904316
 40
0.5633272637
 40
0.5913674049
 40
0.6193130826
 40
0.6474162298
 40
0.675820678
 40
0.690173466
 40
0.704642659
 40
0.7192409698
 40
0.7339811715
 40
0.7488761509
 40
0.7639390222
 40
0.7791831922
 40
0.7946223004
 40
0.8102703821
 40
0.8261415082
 40
0.8422501046
 40
0.8586103352
 40
0.875236336
 40
0.8921416176
 40
0.9093386588
 40
0.9268387209
 40
0.9446506833
 40
0.9627806549
 40
0.9812312506
 40
1.0
 40
1.0
 40
1.0
 40
1.0
 10
6.7021867602
 20
2.8923705393
 30
0.0
 10
6.7055621995
 20
2.8936345639
 30
0.0
 10
6.7122002531
 20
2.8962926955
 30
0.0
 10
6.7218841044
 20
2.9006830358
 30
0.0
 10
6.7312016945
 20
2.9054118857
 30
0.0
 10
6.7401469676
 20
2.9104492956
 30
0.0
 10
6.7487179426
 20
2.9157674162
 30
0.0
 10
6.7569154743
 20
2.9213404923
 30
0.0
 10
6.7647426556
 20
2.9271449395
 30
0.0
 10
6.7722042394
 20
2.9331593031
 30
0.0
 10
6.7793060987
 20
2.939364133
 30
0.0
 10
6.7860548662
 20
2.9457418491
 30
0.0
 10
6.7924576178
 20
2.9522765966
 30
0.0
 10
6.7985216069
 20
2.9589540641
 30
0.0
 10
6.8042541445
 20
2.9657613768
 30
0.0
 10
6.8096623998
 20
2.9726869253
 30
0.0
 10
6.8147533605
 20
2.9797202662
 30
0.0
 10
6.8195337184
 20
2.9868519994
 30
0.0
 10
6.8240098492
 20
2.9940736855
 30
0.0
 10
6.8281877674
 20
3.0013777845
 30
0.0
 10
6.8320731106
 20
3.0087576012
 30
0.0
 10
6.8356711271
 20
3.0162072852
 30
0.0
 10
6.8389866747
 20
3.023721866
 30
0.0
 10
6.8420242085
 20
3.0312973118
 30
0.0
 10
6.8447878172
 20
3.0389309207
 30
0.0
 10
6.8481082073
 20
3.0491722002
 30
0.0
 10
6.8516061438
 20
3.0621650208
 30
0.0
 10
6.8542274488
 20
3.0754046265
 30
0.0
 10
6.8557991632
 20
3.0862245501
 30
0.0
 10
6.8565628155
 20
3.0932001572
 30
0.0
 10
6.8570370793
 20
3.0990138149
 30
0.0
 10
6.8572736383
 20
3.1028523788
 30
0.0
 10
6.8574211315
 20
3.1060981732
 30
0.0
 10
6.8575421716
 20
3.1096901135
 30
0.0
 10
6.8575941235
 20
3.113427041
 30
0.0
 10
6.8575672606
 20
3.1172184488
 30
0.0
 10
6.8575094623
 20
3.1199865851
 30
0.0
 10
6.8574212135
 20
3.1226102809
 30
0.0
 10
6.8572735662
 20
3.1258564447
 30
0.0
 10
6.8570371109
 20
3.1296944848
 30
0.0
 10
6.8565628244
 20
3.1355083322
 30
0.0
 10
6.855799161
 20
3.1424840557
 30
0.0
 10
6.8542274614
 20
3.153303924
 30
0.0
 10
6.8516060772
 20
3.1665437527
 30
0.0
 10
6.8474050119
 20
3.1821485581
 30
0.0
 10
6.8421383286
 20
3.1975008626
 30
0.0
 10
6.8368534852
 20
3.2100533026
 30
0.0
 10
6.8320731412
 20
3.2199509117
 30
0.0
 10
6.8281877703
 20
3.2273308043
 30
0.0
 10
6.82400986
 20
3.2346348843
 30
0.0
 10
6.8195337268
 20
3.2418565768
 30
0.0
 10
6.8147533704
 20
3.2489883093
 30
0.0
 10
6.8096624094
 20
3.256021651
 30
0.0
 10
6.8042541544
 20
3.2629472003
 30
0.0
 10
6.7985216172
 20
3.2697545135
 30
0.0
 10
6.7924576288
 20
3.276431981
 30
0.0
 10
6.7860548784
 20
3.2829667276
 30
0.0
 10
6.779306114
 20
3.2893444427
 30
0.0
 10
6.7722042536
 20
3.2955492737
 30
0.0
 10
6.764742673
 20
3.3015636365
 30
0.0
 10
6.7569154927
 20
3.3073680835
 30
0.0
 10
6.7487179636
 20
3.3129411591
 30
0.0
 10
6.7401469883
 20
3.3182592814
 30
0.0
 10
6.731201713
 20
3.3232966935
 30
0.0
 10
6.7218841211
 20
3.3280255452
 30
0.0
 10
6.7122002678
 20
3.3324158876
 30
0.0
 10
6.7055622118
 20
3.3350740207
 30
0.0
 10
6.7021867723
 20
3.3363380455
 30
0.0
  0
SPLINE
  5
2C8
100
AcDbEntity
  8
0
100
AcDbSpline
 62
7
  6
CONTINUOUS
 70
0
 71
3
 72
48
 73
44
 74
0
 42
0.0000001
 43
0.0000001
 44
0.0000000001
 40
0.0
 40
0.0
 40
0.0
 40
0.0
 40
0.0000049794
 40
0.0000198706
 40
0.0000446735
 40
0.0000793882
 40
0.0001785533
 40
0.0003173655
 40
0.0004958221
 40
0.0007139201
 40
0.0009716564
 40
0.0012690277
 40
0.0019826616
 40
0.0028547728
 40
0.0038852937
 40
0.0050741346
 40
0.0064209186
 40
0.0079250653
 40
0.0114030898
 40
0.0155033922
 40
0.0202210309
 40
0.025550931
 40
0.0314878894
 40
0.0380266422
 40
0.0451615395
 40
0.0528849131
 40
0.0611883111
 40
0.07950087
 40
0.1000306049
 40
0.1227084895
 40
0.1474586792
 40
0.174201005
 40
0.2028562378
 40
0.2333448765
 40
0.2994966827
 40
0.372012722
 40
0.4502485813
 40
0.5335497511
 40
0.6212332089
 40
0.712564718
 40
0.8067388086
 40
0.9028696453
 40
1.0
 40
1.0
 40
1.0
 40
1.0
 10
4.3413673075
 20
5.2288657943
 30
0.0
 10
4.3413672617
 20
5.2288659006
 30
0.0
 10
4.3413671968
 20
5.2288663647
 30
0.0
 10
4.3413669081
 20
5.2288673601
 30
0.0
 10
4.3413665232
 20
5.2288690502
 30
0.0
 10
4.341365636
 20
5.2288726322
 30
0.0
 10
4.3413641479
 20
5.2288787999
 30
0.0
 10
4.3413618536
 20
5.2288882115
 30
0.0
 10
4.3413589141
 20
5.2289003143
 30
0.0
 10
4.3413553202
 20
5.2289151049
 30
0.0
 10
4.3413510765
 20
5.2289325846
 30
0.0
 10
4.3413441166
 20
5.2289612675
 30
0.0
 10
4.3413337963
 20
5.2290038423
 30
0.0
 10
4.3413194804
 20
5.2290629979
 30
0.0
 10
4.3413025966
 20
5.2291329063
 30
0.0
 10
4.3412831621
 20
5.2292135585
 30
0.0
 10
4.3412611919
 20
5.2293049333
 30
0.0
 10
4.3412268382
 20
5.2294481025
 30
0.0
 10
4.3411776785
 20
5.2296535935
 30
0.0
 10
4.3411113969
 20
5.2299318546
 30
0.0
 10
4.3410354961
 20
5.2302521105
 30
0.0
 10
4.3409502271
 20
5.2306140563
 30
0.0
 10
4.340855879
 20
5.2310173879
 30
0.0
 10
4.340752776
 20
5.2314617948
 30
0.0
 10
4.3406412948
 20
5.2319469188
 30
0.0
 10
4.3405217786
 20
5.2324723168
 30
0.0
 10
4.3403464068
 20
5.2332516804
 30
0.0
 10
4.3401097661
 20
5.2343226231
 30
0.0
 10
4.339808981
 20
5.2357218376
 30
0.0
 10
4.3394869454
 20
5.2372696353
 30
0.0
 10
4.3391479006
 20
5.2389614718
 30
0.0
 10
4.3387963058
 20
5.2407925544
 30
0.0
 10
4.3384369954
 20
5.242758019
 30
0.0
 10
4.3379407164
 20
5.2456303052
 30
0.0
 10
4.3373335824
 20
5.2495187131
 30
0.0
 10
4.3366769085
 20
5.2545222929
 30
0.0
 10
4.3361188441
 20
5.2599392952
 30
0.0
 10
4.3357055004
 20
5.2657233211
 30
0.0
 10
4.3354821008
 20
5.2718229529
 30
0.0
 10
4.3354905941
 20
5.2781799028
 30
0.0
 10
4.3357664806
 20
5.2847278799
 30
0.0
 10
4.3363350654
 20
5.2913924387
 30
0.0
 10
4.3369161221
 20
5.2958524519
 30
0.0
 10
4.3372582968
 20
5.2980859779
 30
0.0
  0
LINE
  5
2C9
100
AcDbEntity
  8
0
100
AcDbLine
 62
7
  6
CONTINUOUS
 10
6.7021876399
 20
2.9013456531
 11
6.7119363031
 21
2.9060013788
  0
LINE
  5
2CA
100
AcDbEntity
  8
0
100
AcDbLine
 62
7
  6
CONTINUOUS
 10
6.5244363031
 20
2.9060013788
 11
6.534184958
 21
2.9013456659
  0
SPLINE
  5
2CB
100
AcDbEntity
  8
0
100
AcDbSpline
 62
7
  6
CONTINUOUS
 70
0
 71
3
 72
27
 73
23
 74
0
 42
0.0000001
 43
0.0000001
 44
0.0000000001
 40
0.0
 40
0.0
 40
0.0
 40
0.0
 40
0.0624099125
 40
0.0936315905
 40
0.1248551051
 40
0.1872777286
 40
0.249712359
 40
0.280950603
 40
0.3121928166
 40
0.3746588724
 40
0.437142367
 40
0.499643002
 40
0.5621593995
 40
0.6246891879
 40
0.6872291493
 40
0.7185172059
 40
0.7498063188
 40
0.8123546446
 40
0.8749006276
 40
0.9061869304
 40
0.9374708694
 40
1.0
 40
1.0
 40
1.0
 40
1.0
 10
6.5160307405
 20
3.3282076358
 30
0.0
 10
6.5162574273
 20
3.3283159217
 30
0.0
 10
6.516608314
 20
3.3284570918
 30
0.0
 10
6.5170904597
 20
3.328599808
 30
0.0
 10
6.5175807551
 20
3.3287118909
 30
0.0
 10
6.5182054819
 20
3.3287936195
 30
0.0
 10
6.5188355924
 20
3.3287960246
 30
0.0
 10
6.5193366429
 20
3.3287504286
 30
0.0
 10
6.5198339486
 20
3.3286733625
 30
0.0
 10
6.5204451513
 20
3.3285184075
 30
0.0
 10
6.5211492735
 20
3.3282417918
 30
0.0
 10
6.5218133141
 20
3.3278788327
 30
0.0
 10
6.5224266873
 20
3.3274352765
 30
0.0
 10
6.5229796545
 20
3.3269182141
 30
0.0
 10
6.5233829699
 20
3.3264326721
 30
0.0
 10
6.5236670403
 20
3.3260164434
 30
0.0
 10
6.5239244495
 20
3.3255831735
 30
0.0
 10
6.5241943724
 20
3.3250125277
 30
0.0
 10
6.5243905717
 20
3.3244125464
 30
0.0
 10
6.5245014193
 20
3.323920947
 30
0.0
 10
6.5245811783
 20
3.3234234944
 30
0.0
 10
6.5246056568
 20
3.3230453427
 30
0.0
 10
6.5246060922
 20
3.3227936406
 30
0.0
  0
SPLINE
  5
2CC
100
AcDbEntity
  8
0
100
AcDbSpline
 62
7
  6
CONTINUOUS
 70
0
 71
3
 72
27
 73
23
 74
0
 42
0.0000001
 43
0.0000001
 44
0.0000000001
 40
0.0
 40
0.0
 40
0.0
 40
0.0
 40
0.0625292085
 40
0.0938131295
 40
0.1250994159
 40
0.1876453529
 40
0.2501936236
 40
0.2814827073
 40
0.3127707343
 40
0.3753106373
 40
0.4378403726
 40
0.5003567263
 40
0.5628573296
 40
0.6253408067
 40
0.68780686
 40
0.7190490782
 40
0.7502873305
 40
0.8127219878
 40
0.8751446503
 40
0.9063681924
 40
0.937589888
 40
1.0
 40
1.0
 40
1.0
 40
1.0
 10
6.7117664207
 20
3.3227937645
 30
0.0
 10
6.7117668551
 20
3.3230454681
 30
0.0
 10
6.7117913271
 20
3.3234236225
 30
0.0
 10
6.7118710852
 20
3.3239210782
 30
0.0
 10
6.7119819303
 20
3.3244126804
 30
0.0
 10
6.712178128
 20
3.3250126653
 30
0.0
 10
6.7124480499
 20
3.3255833146
 30
0.0
 10
6.712705459
 20
3.3260165871
 30
0.0
 10
6.7129895296
 20
3.3264328183
 30
0.0
 10
6.7133928458
 20
3.3269183632
 30
0.0
 10
6.7139458149
 20
3.3274354284
 30
0.0
 10
6.7145591907
 20
3.3278789868
 30
0.0
 10
6.7152232347
 20
3.3282419473
 30
0.0
 10
6.7159273606
 20
3.3285185636
 30
0.0
 10
6.7165385668
 20
3.3286735183
 30
0.0
 10
6.7170358752
 20
3.3287505837
 30
0.0
 10
6.7175369287
 20
3.3287961787
 30
0.0
 10
6.7181670428
 20
3.3287937719
 30
0.0
 10
6.7187917729
 20
3.3287120408
 30
0.0
 10
6.7192820708
 20
3.3285999555
 30
0.0
 10
6.7197642195
 20
3.3284572368
 30
0.0
 10
6.7201151079
 20
3.3283160634
 30
0.0
 10
6.7203417964
 20
3.3282077762
 30
0.0
  0
SPLINE
  5
2CD
100
AcDbEntity
  8
0
100
AcDbSpline
 62
7
  6
CONTINUOUS
 70
0
 71
3
 72
53
 73
49
 74
0
 42
0.0000001
 43
0.0000001
 44
0.0000000001
 40
0.0
 40
0.0
 40
0.0
 40
0.0
 40
0.0971282679
 40
0.1453827541
 40
0.1932646869
 40
0.2406548749
 40
0.2874415943
 40
0.3335170275
 40
0.3787761285
 40
0.4231214174
 40
0.4664610365
 40
0.5087049827
 40
0.5497648392
 40
0.6279986775
 40
0.7005130533
 40
0.7666636714
 40
0.7971514722
 40
0.8258055791
 40
0.8525472117
 40
0.8772969917
 40
0.8999746001
 40
0.9205037609
 40
0.9388154773
 40
0.947118467
 40
0.9548415414
 40
0.9619762637
 40
0.9685148958
 40
0.9744516835
 40
0.9797813373
 40
0.9844986792
 40
0.9885986443
 40
0.9920762959
 40
0.9935802475
 40
0.9949268405
 40
0.9961155036
 40
0.9971458605
 40
0.9980178241
 40
0.9987313308
 40
0.9990286464
 40
0.9992863312
 40
0.9995043816
 40
0.9996827937
 40
0.9998215639
 40
0.9999206886
 40
0.9999553838
 40
0.9999801673
 40
0.9999950394
 40
1.0
 40
1.0
 40
1.0
 40
1.0
 10
4.3396206569
 20
5.3135060705
 30
0.0
 10
4.3399628717
 20
5.3157395906
 30
0.0
 10
4.3405507247
 20
5.3190718021
 30
0.0
 10
4.3414784793
 20
5.3234713778
 30
0.0
 10
4.3422390641
 20
5.3267228886
 30
0.0
 10
4.3430612211
 20
5.3299240877
 30
0.0
 10
4.3439389895
 20
5.3330668636
 30
0.0
 10
4.3448662332
 20
5.3361436367
 30
0.0
 10
4.3458366731
 20
5.3391474085
 30
0.0
 10
4.3468432796
 20
5.3420720034
 30
0.0
 10
4.3478787911
 20
5.3449119171
 30
0.0
 10
4.3489359938
 20
5.3476620841
 30
0.0
 10
4.3503424245
 20
5.3511471305
 30
0.0
 10
4.3521078765
 20
5.3552460269
 30
0.0
 10
4.3542323755
 20
5.3598235019
 30
0.0
 10
4.3559757389
 20
5.3633518215
 30
0.0
 10
4.3573091432
 20
5.3659437881
 30
0.0
 10
4.3582403965
 20
5.3677115121
 30
0.0
 10
4.3591240366
 20
5.3693533461
 30
0.0
 10
4.359954019
 20
5.3708660951
 30
0.0
 10
4.3607246435
 20
5.3722465072
 30
0.0
 10
4.3614305162
 20
5.3734914941
 30
0.0
 10
4.3619769135
 20
5.3744424546
 30
0.0
 10
4.3623775586
 20
5.3751335525
 30
0.0
 10
4.3626488795
 20
5.3755990657
 30
0.0
 10
4.3629004766
 20
5.3760285645
 30
0.0
 10
4.3631318894
 20
5.3764217247
 30
0.0
 10
4.3633426525
 20
5.3767783111
 30
0.0
 10
4.363532363
 20
5.3770981222
 30
0.0
 10
4.3637006527
 20
5.3773809552
 30
0.0
 10
4.3638471916
 20
5.3776265951
 30
0.0
 10
4.3639556093
 20
5.3778079287
 30
0.0
 10
4.3640312436
 20
5.3779342331
 30
0.0
 10
4.3640795574
 20
5.3780148292
 30
0.0
 10
4.3641222417
 20
5.3780859543
 30
0.0
 10
4.3641592759
 20
5.3781475927
 30
0.0
 10
4.3641906411
 20
5.3781997413
 30
0.0
 10
4.3642132306
 20
5.3782372678
 30
0.0
 10
4.3642284557
 20
5.3782625476
 30
0.0
 10
4.3642377359
 20
5.3782779524
 30
0.0
 10
4.3642455912
 20
5.3782909863
 30
0.0
 10
4.3642520176
 20
5.3783016515
 30
0.0
 10
4.364257022
 20
5.3783099429
 30
0.0
 10
4.3642602879
 20
5.3783153796
 30
0.0
 10
4.3642622042
 20
5.3783185316
 30
0.0
 10
4.3642630789
 20
5.3783200259
 30
0.0
 10
4.3642636472
 20
5.3783208918
 30
0.0
 10
4.364263852
 20
5.3783213107
 30
0.0
 10
4.3642639253
 20
5.3783213997
 30
0.0
  0
SPLINE
  5
2CE
100
AcDbEntity
  8
0
100
AcDbSpline
 62
7
  6
CONTINUOUS
 70
0
 71
3
 72
93
 73
89
 74
0
 42
0.0000001
 43
0.0000001
 44
0.0000000001
 40
0.0
 40
0.0
 40
0.0
 40
0.0
 40
0.0000098287
 40
0.0000220618
 40
0.0000391742
 40
0.0000880373
 40
0.0001564186
 40
0.0002443186
 40
0.0003517381
 40
0.0004786721
 40
0.0006251064
 40
0.000976417
 40
0.0014055517
 40
0.0019123874
 40
0.0024967936
 40
0.0031586384
 40
0.0038977693
 40
0.0056071897
 40
0.0076235758
 40
0.009945259
 40
0.0125701799
 40
0.0154958883
 40
0.0187196104
 40
0.0222384295
 40
0.0301488911
 40
0.0392008227
 40
0.0493648978
 40
0.0606089066
 40
0.0728990007
 40
0.0861998394
 40
0.1004745195
 40
0.1156850099
 40
0.1487562464
 40
0.185091056
 40
0.224351991
 40
0.2661846937
 40
0.310214603
 40
0.3560440323
 40
0.403251066
 40
0.4999942158
 40
0.5486058596
 40
0.572764648
 40
0.596747191
 40
0.6439542212
 40
0.6670685487
 40
0.6897845792
 40
0.7338144928
 40
0.7756471777
 40
0.7956220235
 40
0.8149087101
 40
0.8512434936
 40
0.868207761
 40
0.8843150852
 40
0.8995255582
 40
0.9138002215
 40
0.9271010867
 40
0.9393912215
 40
0.9506352199
 40
0.9607992272
 40
0.9698512453
 40
0.97395099
 40
0.9777618957
 40
0.9812806605
 40
0.984504225
 40
0.9874297967
 40
0.9900547584
 40
0.992376686
 40
0.9943934108
 40
0.9952867494
 40
0.9961031243
 40
0.9968423441
 40
0.99750422
 40
0.998088593
 40
0.9985953311
 40
0.9990243066
 40
0.9992096024
 40
0.9993754247
 40
0.9995217639
 40
0.999648611
 40
0.9997559568
 40
0.9998437956
 40
0.9999121232
 40
0.9999389692
 40
0.9999609358
 40
0.9999780228
 40
0.9999902294
 40
0.9999975553
 40
1.0
 40
1.0
 40
1.0
 40
1.0
 10
6.5341863031
 20
2.8621400999
 30
0.0
 10
6.5341868186
 20
2.8621398874
 30
0.0
 10
6.53418805
 20
2.8621396214
 30
0.0
 10
6.5341901671
 20
2.8621389522
 30
0.0
 10
6.5341944345
 20
2.8621377318
 30
0.0
 10
6.5342017445
 20
2.8621355763
 30
0.0
 10
6.534212921
 20
2.8621323291
 30
0.0
 10
6.5342272846
 20
2.8621281473
 30
0.0
 10
6.5342448422
 20
2.8621230517
 30
0.0
 10
6.5342655912
 20
2.8621170392
 30
0.0
 10
6.5342996347
 20
2.8621071921
 30
0.0
 10
6.5343501573
 20
2.8620926157
 30
0.0
 10
6.5344203411
 20
2.8620724279
 30
0.0
 10
6.5345032516
 20
2.862048648
 30
0.0
 10
6.534598872
 20
2.8620212965
 30
0.0
 10
6.534707184
 20
2.8619903953
 30
0.0
 10
6.5348769026
 20
2.8619420953
 30
0.0
 10
6.5351205997
 20
2.8618730006
 30
0.0
 10
6.5354507745
 20
2.8617797754
 30
0.0
 10
6.5358310263
 20
2.8616727688
 30
0.0
 10
6.536261061
 20
2.8615522305
 30
0.0
 10
6.536740553
 20
2.8614185325
 30
0.0
 10
6.5372691589
 20
2.8612721672
 30
0.0
 10
6.5380707447
 20
2.8610519397
 30
0.0
 10
6.5391922084
 20
2.860747944
 30
0.0
 10
6.540679435
 20
2.8603523793
 30
0.0
 10
6.542351737
 20
2.8599169775
 30
0.0
 10
6.5442047416
 20
2.8594466444
 30
0.0
 10
6.5462336216
 20
2.8589460682
 30
0.0
 10
6.5484332523
 20
2.8584200211
 30
0.0
 10
6.5507983341
 20
2.8578737703
 30
0.0
 10
6.5542627733
 20
2.8571038625
 30
0.0
 10
6.5589628561
 20
2.8561260122
 30
0.0
 10
6.5650221799
 20
2.8549879886
 30
0.0
 10
6.5715946852
 20
2.8538970127
 30
0.0
 10
6.578622511
 20
2.852893553
 30
0.0
 10
6.5860425025
 20
2.8520149282
 30
0.0
 10
6.5937859198
 20
2.8512941051
 30
0.0
 10
6.6045292254
 20
2.8505740184
 30
0.0
 10
6.6154559119
 20
2.8502801169
 30
0.0
 10
6.6250727421
 20
2.8504101294
 30
0.0
 10
6.6305587427
 20
2.8505952332
 30
0.0
 10
6.6359621149
 20
2.8508501413
 30
0.0
 10
6.6413008883
 20
2.8512078608
 30
0.0
 10
6.6465594116
 20
2.8516639967
 30
0.0
 10
6.6516323659
 20
2.8521690752
 30
0.0
 10
6.6577500969
 20
2.8528936984
 30
0.0
 10
6.6636947321
 20
2.8537422968
 30
0.0
 10
6.6682372908
 20
2.8544713201
 30
0.0
 10
6.6724641807
 20
2.8551971939
 30
0.0
 10
6.676511665
 20
2.8559573237
 30
0.0
 10
6.680370271
 20
2.856741961
 30
0.0
 10
6.6830493175
 20
2.857312654
 30
0.0
 10
6.6855742848
 20
2.857873763
 30
0.0
 10
6.6879393713
 20
2.858419986
 30
0.0
 10
6.6901389962
 20
2.8589460716
 30
0.0
 10
6.6921678668
 20
2.8594466989
 30
0.0
 10
6.6940208674
 20
2.8599170386
 30
0.0
 10
6.6956931931
 20
2.8603523505
 30
0.0
 10
6.6969714841
 20
2.8606923935
 30
0.0
 10
6.69790052
 20
2.8609432935
 30
0.0
 10
6.6985261188
 20
2.8611137647
 30
0.0
 10
6.6991034383
 20
2.86127234
 30
0.0
 10
6.6996320559
 20
2.8614185885
 30
0.0
 10
6.700111564
 20
2.8615521756
 30
0.0
 10
6.7005416023
 20
2.8616727321
 30
0.0
 10
6.7009218447
 20
2.8617799028
 30
0.0
 10
6.7012074438
 20
2.8618607404
 30
0.0
 10
6.7014108091
 20
2.8619184927
 30
0.0
 10
6.7015444359
 20
2.8619565179
 30
0.0
 10
6.7016654167
 20
2.8619910063
 30
0.0
 10
6.701773728
 20
2.8620219277
 30
0.0
 10
6.7018693486
 20
2.8620492582
 30
0.0
 10
6.7019522583
 20
2.8620729809
 30
0.0
 10
6.7020133978
 20
2.862090488
 30
0.0
 10
6.702055942
 20
2.8621026772
 30
0.0
 10
6.7020830711
 20
2.8621104532
 30
0.0
 10
6.7021070118
 20
2.8621173184
 30
0.0
 10
6.7021277627
 20
2.8621232724
 30
0.0
 10
6.7021453228
 20
2.8621283136
 30
0.0
 10
6.7021596905
 20
2.862132443
 30
0.0
 10
6.7021696699
 20
2.8621353095
 30
0.0
 10
6.7021760546
 20
2.8621371509
 30
0.0
 10
6.7021796511
 20
2.8621381766
 30
0.0
 10
6.7021824359
 20
2.8621390028
 30
0.0
 10
6.7021844543
 20
2.8621395291
 30
0.0
 10
6.7021856136
 20
2.8621399599
 30
0.0
 10
6.7021861864
 20
2.862140025
 30
0.0
 10
6.7021863031
 20
2.8621400999
 30
0.0
  0
SPLINE
  5
2CF
100
AcDbEntity
  8
0
100
AcDbSpline
 62
7
  6
CONTINUOUS
 70
0
 71
3
 72
86
 73
82
 74
0
 42
0.0000001
 43
0.0000001
 44
0.0000000001
 40
0.0
 40
0.0
 40
0.0
 40
0.0
 40
0.0177917949
 40
0.0353538091
 40
0.0526851146
 40
0.0697882634
 40
0.0866686975
 40
0.1033339701
 40
0.1197929295
 40
0.1360555725
 40
0.1521322979
 40
0.1680338751
 40
0.1837711272
 40
0.1993547023
 40
0.2147952484
 40
0.2301029119
 40
0.2603550652
 40
0.2753232505
 40
0.2901971435
 40
0.3049858764
 40
0.3196986695
 40
0.3489305948
 40
0.3779791063
 40
0.4069546975
 40
0.4360632445
 40
0.4508214475
 40
0.4659424708
 40
0.4698274359
 40
0.4737789745
 40
0.4757853102
 40
0.4778150832
 40
0.4798721063
 40
0.4819602937
 40
0.4840810327
 40
0.4862375274
 40
0.4884351398
 40
0.490677789
 40
0.492963963
 40
0.4952869765
 40
0.4976364249
 40
0.5000010307
 40
0.5023660654
 40
0.5047146873
 40
0.5070349537
 40
0.5093197529
 40
0.513766432
 40
0.5180430104
 40
0.5201278571
 40
0.5221845583
 40
0.5242151827
 40
0.5262214469
 40
0.5282066765
 40
0.5301736627
 40
0.5340592493
 40
0.5378923512
 40
0.5416853016
 40
0.549180177
 40
0.5639382882
 40
0.5785321444
 40
0.5930502598
 40
0.6220258936
 40
0.651074386
 40
0.6803062957
 40
0.6950190824
 40
0.7098078249
 40
0.724681718
 40
0.7396498982
 40
0.769902048
 40
0.8006452838
 40
0.8162288673
 40
0.8319661253
 40
0.8478676914
 40
0.8639444324
 40
0.8802070646
 40
0.8966660294
 40
0.9133313069
 40
0.9302117339
 40
0.9473148868
 40
0.9646461936
 40
0.9822082057
 40
1.0
 40
1.0
 40
1.0
 40
1.0
 10
6.534185995
 20
3.3644383799
 30
0.0
 10
6.5307805249
 20
3.3630042406
 30
0.0
 10
6.5240829154
 20
3.3599864903
 30
0.0
 10
6.514334385
 20
3.3550083365
 30
0.0
 10
6.5049573703
 20
3.3496439551
 30
0.0
 10
6.4959577307
 20
3.3439285412
 30
0.0
 10
6.487337565
 20
3.3378938515
 30
0.0
 10
6.4790962607
 20
3.3315690554
 30
0.0
 10
6.4712301242
 20
3.3249817598
 30
0.0
 10
6.4637347908
 20
3.3181559653
 30
0.0
 10
6.4566038717
 20
3.3111143564
 30
0.0
 10
6.4498307407
 20
3.3038769034
 30
0.0
 10
6.4434082296
 20
3.2964617331
 30
0.0
 10
6.4373287072
 20
3.2888854486
 30
0.0
 10
6.4315850105
 20
3.2811623603
 30
0.0
 10
6.4243934928
 20
3.270729839
 30
0.0
 10
6.4178070388
 20
3.2600084497
 30
0.0
 10
6.4118244104
 20
3.2490530222
 30
0.0
 10
6.4076546487
 20
3.2407725972
 30
0.0
 10
6.4037810699
 20
3.2324081097
 30
0.0
 10
6.3990148267
 20
3.2211777334
 30
0.0
 10
6.3937609505
 20
3.2069458124
 30
0.0
 10
6.3885528654
 20
3.1895765807
 30
0.0
 10
6.3844238003
 20
3.1719463426
 30
0.0
 10
6.3818730758
 20
3.1570241845
 30
0.0
 10
6.3803627117
 20
3.1448651102
 30
0.0
 10
6.379716184
 20
3.1378811655
 30
0.0
 10
6.37937221
 20
3.1331255817
 30
0.0
 10
6.379241951
 20
3.131085472
 30
0.0
 10
6.3791469601
 20
3.1294292574
 30
0.0
 10
6.3790799382
 20
3.1281655632
 30
0.0
 10
6.3790177659
 20
3.126884601
 30
0.0
 10
6.3789607952
 20
3.125584486
 30
0.0
 10
6.3789088306
 20
3.1242634864
 30
0.0
 10
6.3788621324
 20
3.1229195492
 30
0.0
 10
6.3788213764
 20
3.1215500869
 30
0.0
 10
6.3787873918
 20
3.1201534981
 30
0.0
 10
6.3787606024
 20
3.1187307038
 30
0.0
 10
6.3787412228
 20
3.1172856069
 30
0.0
 10
6.3787290356
 20
3.1158241423
 30
0.0
 10
6.3787243408
 20
3.1143539056
 30
0.0
 10
6.3787282684
 20
3.1128838368
 30
0.0
 10
6.3787408453
 20
3.1114230269
 30
0.0
 10
6.3787609569
 20
3.1099789678
 30
0.0
 10
6.3787967389
 20
3.10809937
 30
0.0
 10
6.3788573335
 20
3.1058138949
 30
0.0
 10
6.3789407138
 20
3.1035706976
 30
0.0
 10
6.3790179825
 20
3.101824064
 30
0.0
 10
6.3790801019
 20
3.1005436842
 30
0.0
 10
6.3791469637
 20
3.0992798863
 30
0.0
 10
6.3792186355
 20
3.0980312202
 30
0.0
 10
6.3792948597
 20
3.0967960656
 30
0.0
 10
6.379401914
 20
3.0951717739
 30
0.0
 10
6.3795469485
 20
3.0931653918
 30
0.0
 10
6.3797390382
 20
3.0907822741
 30
0.0
 10
6.380016346
 20
3.0876540857
 30
0.0
 10
6.3805579493
 20
3.0822716549
 30
0.0
 10
6.3815014921
 20
3.0746761177
 30
0.0
 10
6.382900903
 20
3.0656715089
 30
0.0
 10
6.3851150826
 20
3.0538108502
 30
0.0
 10
6.3885529021
 20
3.0391317351
 30
0.0
 10
6.3937609374
 20
3.021762851
 30
0.0
 10
6.3990148227
 20
3.0075308507
 30
0.0
 10
6.403781074
 20
2.996300497
 30
0.0
 10
6.407654647
 20
2.9879359902
 30
0.0
 10
6.4118243847
 20
2.9796556047
 30
0.0
 10
6.4178071497
 20
2.9686999848
 30
0.0
 10
6.4260722327
 20
2.9552460108
 30
0.0
 10
6.4353394186
 20
2.942302249
 30
0.0
 10
6.4434081858
 20
2.93224692
 30
0.0
 10
6.4498307325
 20
2.9248316663
 30
0.0
 10
6.4566038941
 20
2.9175942715
 30
0.0
 10
6.463734756
 20
2.9105525976
 30
0.0
 10
6.4712301375
 20
2.9037268539
 30
0.0
 10
6.4790962511
 20
2.8971395332
 30
0.0
 10
6.4873375336
 20
2.8908147052
 30
0.0
 10
6.4959577368
 20
2.8847800686
 30
0.0
 10
6.5049573567
 20
2.8790646262
 30
0.0
 10
6.5143343725
 20
2.8737002435
 30
0.0
 10
6.5240829122
 20
2.8687221084
 30
0.0
 10
6.530780525
 20
2.8657043674
 30
0.0
 10
6.5341859941
 20
2.8642702262
 30
0.0
  0
SPLINE
  5
2D0
100
AcDbEntity
  8
0
100
AcDbSpline
 62
7
  6
CONTINUOUS
 70
0
 71
3
 72
90
 73
86
 74
0
 42
0.0000001
 43
0.0000001
 44
0.0000000001
 40
0.0
 40
0.0
 40
0.0
 40
0.0
 40
0.0177917054
 40
0.0353536345
 40
0.0526848549
 40
0.0697879158
 40
0.0866682684
 40
0.1033334586
 40
0.1197923353
 40
0.1360549003
 40
0.1521315452
 40
0.1680330467
 40
0.1837702234
 40
0.1993537203
 40
0.214794196
 40
0.2301017811
 40
0.2603537877
 40
0.2753219079
 40
0.290195722
 40
0.3049843851
 40
0.3196971116
 40
0.3489289009
 40
0.377977271
 40
0.4069527215
 40
0.4214708537
 40
0.4360644794
 40
0.4434148677
 40
0.4508230123
 40
0.458317849
 40
0.4621107449
 40
0.4659446998
 40
0.4698296519
 40
0.4737811041
 40
0.4757875137
 40
0.4778169269
 40
0.4798735547
 40
0.4819616275
 40
0.4840834121
 40
0.4862409101
 40
0.4884378457
 40
0.4906792351
 40
0.4929646189
 40
0.4952881613
 40
0.4976384751
 40
0.5000031903
 40
0.5023686204
 40
0.504717916
 40
0.5070378534
 40
0.5093211972
 40
0.5137666502
 40
0.5159261494
 40
0.5180455403
 40
0.520130301
 40
0.5221867707
 40
0.5242171945
 40
0.5262234119
 40
0.5301752998
 40
0.5340609683
 40
0.5416870496
 40
0.5491818918
 40
0.556590214
 40
0.5639403809
 40
0.5785341669
 40
0.5930522197
 40
0.6220277191
 40
0.6510760836
 40
0.6803078586
 40
0.6950205764
 40
0.7098092443
 40
0.724683063
 40
0.7396511768
 40
0.7699031801
 40
0.8006462667
 40
0.8162297715
 40
0.8319669554
 40
0.8478684449
 40
0.8639451063
 40
0.8802076595
 40
0.8966665422
 40
0.9133317376
 40
0.9302120821
 40
0.9473151478
 40
0.9646463693
 40
0.9822082947
 40
1.0
 40
1.0
 40
1.0
 40
1.0
 10
6.7021867209
 20
2.8642702433
 30
0.0
 10
6.7055921928
 20
2.8657043718
 30
0.0
 10
6.7122897992
 20
2.8687221205
 30
0.0
 10
6.7220383035
 20
2.8737003112
 30
0.0
 10
6.7314153103
 20
2.8790646913
 30
0.0
 10
6.7404149523
 20
2.8847800897
 30
0.0
 10
6.7490351044
 20
2.8908147877
 30
0.0
 10
6.7572764029
 20
2.8971395809
 30
0.0
 10
6.7651425363
 20
2.9037268713
 30
0.0
 10
6.7726378563
 20
2.9105526714
 30
0.0
 10
6.779768779
 20
2.9175942692
 30
0.0
 10
6.7865419002
 20
2.924831725
 30
0.0
 10
6.7929644035
 20
2.9322468951
 30
0.0
 10
6.7990439306
 20
2.9398231704
 30
0.0
 10
6.804787611
 20
2.9475462642
 30
0.0
 10
6.8119791358
 20
2.9579787726
 30
0.0
 10
6.8185655874
 20
2.9687001576
 30
0.0
 10
6.8245481976
 20
2.979655588
 30
0.0
 10
6.8287179688
 20
2.9879360029
 30
0.0
 10
6.8325915422
 20
2.9963004904
 30
0.0
 10
6.8373577783
 20
3.0075308535
 30
0.0
 10
6.8426116687
 20
3.0217628556
 30
0.0
 10
6.847819679
 20
3.0391317265
 30
0.0
 10
6.8512575718
 20
3.0538108602
 30
0.0
 10
6.8534716461
 20
3.0656714508
 30
0.0
 10
6.8546348941
 20
3.0731556882
 30
0.0
 10
6.8554329761
 20
3.0791995074
 30
0.0
 10
6.85596752
 20
3.0837904452
 30
0.0
 10
6.8563562342
 20
3.0876540252
 30
0.0
 10
6.8566336402
 20
3.0907823734
 30
0.0
 10
6.8568255054
 20
3.0931655556
 30
0.0
 10
6.8570003774
 20
3.0955830611
 30
0.0
 10
6.8571306656
 20
3.0976231688
 30
0.0
 10
6.8572256118
 20
3.0992793162
 30
0.0
 10
6.8572926878
 20
3.1005428712
 30
0.0
 10
6.8573548946
 20
3.1018236565
 30
0.0
 10
6.8574119197
 20
3.1031238863
 30
0.0
 10
6.8574637291
 20
3.1044453001
 30
0.0
 10
6.8575102659
 20
3.1057895335
 30
0.0
 10
6.8575511489
 20
3.1071588037
 30
0.0
 10
6.8575853183
 20
3.1085548275
 30
0.0
 10
6.85761228
 20
3.1099773091
 30
0.0
 10
6.8576315118
 20
3.1114225403
 30
0.0
 10
6.8576433257
 20
3.1128843269
 30
0.0
 10
6.8576478441
 20
3.114354854
 30
0.0
 10
6.857644398
 20
3.1158251746
 30
0.0
 10
6.8576321021
 20
3.1172861477
 30
0.0
 10
6.8576119119
 20
3.118729982
 30
0.0
 10
6.857575756
 20
3.1206089551
 30
0.0
 10
6.8575266067
 20
3.1224543323
 30
0.0
 10
6.8574643209
 20
3.1242652107
 30
0.0
 10
6.8574121717
 20
3.1255858423
 30
0.0
 10
6.8573546722
 20
3.1268848316
 30
0.0
 10
6.8572925329
 20
3.128165108
 30
0.0
 10
6.8572256488
 20
3.1294288108
 30
0.0
 10
6.8571305681
 20
3.1310852114
 30
0.0
 10
6.8570003578
 20
3.1331255241
 30
0.0
 10
6.8567688523
 20
3.1363288141
 30
0.0
 10
6.8564359157
 20
3.1402623821
 30
0.0
 10
6.8559674984
 20
3.1449181189
 30
0.0
 10
6.8554330259
 20
3.1495090637
 30
0.0
 10
6.854634824
 20
3.1555528895
 30
0.0
 10
6.8534716978
 20
3.1630371162
 30
0.0
 10
6.8512575272
 20
3.1748977175
 30
0.0
 10
6.8478197022
 20
3.1895768569
 30
0.0
 10
6.8426116693
 20
3.2069457288
 30
0.0
 10
6.8373577878
 20
3.2211777294
 30
0.0
 10
6.8325915412
 20
3.2324080797
 30
0.0
 10
6.8287179679
 20
3.2407725807
 30
0.0
 10
6.8245482283
 20
3.2490529601
 30
0.0
 10
6.8185654776
 20
3.2600085817
 30
0.0
 10
6.8103003926
 20
3.2734625468
 30
0.0
 10
6.8010332195
 20
3.2864063073
 30
0.0
 10
6.792964449
 20
3.2964616249
 30
0.0
 10
6.7865419133
 20
3.3038768814
 30
0.0
 10
6.7797687578
 20
3.3111142756
 30
0.0
 10
6.7726378968
 20
3.3181559428
 30
0.0
 10
6.7651425248
 20
3.324981688
 30
0.0
 10
6.757276417
 20
3.3315690064
 30
0.0
 10
6.7490351419
 20
3.3378938337
 30
0.0
 10
6.7404149479
 20
3.3439284724
 30
0.0
 10
6.7314153309
 20
3.3496439071
 30
0.0
 10
6.7220383232
 20
3.3550082894
 30
0.0
 10
6.7122898018
 20
3.3599864456
 30
0.0
 10
6.7055921929
 20
3.363004185
 30
0.0
 10
6.7021867246
 20
3.3644383219
 30
0.0
  0
ELLIPSE
  5
2D1
100
AcDbEntity
  8
0
100
AcDbEllipse
 62
7
  6
CONTINUOUS
 10
4.2781509691
 20
5.0658728972
 30
0.0
 11
0.2249725071
 21
0.1014769805
 31
0.0
 40
0.0549449437
 41
-2.1674769265
 42
-2.0842777229
  0
ELLIPSE
  5
2D2
100
AcDbEntity
  8
0
100
AcDbEllipse
 62
7
  6
CONTINUOUS
 10
4.1332651565
 20
4.9997074927
 30
0.0
 11
0.082778671
 21
-0.070349238
 31
0.0
 40
0.2168892597
 41
1.272662537
 42
1.3583622634
  0
ELLIPSE
  5
2D3
100
AcDbEntity
  8
0
100
AcDbEllipse
 62
7
  6
CONTINUOUS
 10
4.2652632506
 20
5.0678472973
 30
0.0
 11
0.2151973295
 21
0.0989936466
 31
0.0
 40
0.1730990572
 41
-1.9953170383
 42
-1.9121178347
  0
ELLIPSE
  5
2D4
100
AcDbEntity
  8
0
100
AcDbEllipse
 62
7
  6
CONTINUOUS
 10
4.1332651565
 20
4.9997074927
 30
0.0
 11
0.0830309523
 21
-0.0734782509
 31
0.0
 40
0.0717446904
 41
1.5001189359
 42
1.6169948129
  0
ELLIPSE
  5
2D5
100
AcDbEntity
  8
0
100
AcDbEllipse
 62
7
  6
CONTINUOUS
 10
4.1332651565
 20
4.9997074927
 30
0.0
 11
0.0827912593
 21
-0.0635902811
 31
0.0
 40
0.365809989
 41
1.024197395
 42
1.0465245493
  0
ELLIPSE
  5
2D6
100
AcDbEntity
  8
0
100
AcDbEllipse
 62
7
  6
CONTINUOUS
 10
4.2407493534
 20
5.0716028295
 30
0.0
 11
0.1973831015
 21
0.0931809616
 31
0.0
 40
0.3175215947
 41
-1.8116761715
 42
-1.7284769679
  0
ELLIPSE
  5
2D7
100
AcDbEntity
  8
0
100
AcDbEllipse
 62
7
  6
CONTINUOUS
 10
4.2070088683
 20
5.0767718761
 30
0.0
 11
0.175400299
 21
0.081337528
 31
0.0
 40
0.5099348041
 41
-1.5970917109
 42
-1.5138925073
  0
ELLIPSE
  5
2D8
100
AcDbEntity
  8
0
100
AcDbEllipse
 62
7
  6
CONTINUOUS
 10
4.1673445493
 20
5.0828484549
 30
0.0
 11
0.1596938529
 21
0.0463523853
 31
0.0
 40
0.7641869673
 41
-1.226898569
 42
-1.1436993654
  0
ELLIPSE
  5
2D9
100
AcDbEntity
  8
0
100
AcDbEllipse
 62
7
  6
CONTINUOUS
 10
4.1332651565
 20
4.9997074927
 30
0.0
 11
0.1012202793
 21
0.0452509388
 31
0.0
 40
0.0717446904
 41
1.5245978406
 42
1.6414737176
  0
ELLIPSE
  5
2DA
100
AcDbEntity
  8
0
100
AcDbEllipse
 62
7
  6
CONTINUOUS
 10
4.0148325964
 20
5.1062133055
 30
0.0
 11
0.1842747862
 21
-0.164173718
 31
0.0
 40
0.0549449437
 41
-1.0573149307
 42
-0.9741157271
  0
ELLIPSE
  5
2DB
100
AcDbEntity
  8
0
100
AcDbEllipse
 62
7
  6
CONTINUOUS
 10
4.1332651565
 20
4.9997074927
 30
0.0
 11
0.1000428239
 21
0.0423409617
 31
0.0
 40
0.2168892597
 41
1.7832303902
 42
1.8689301166
  0
ELLIPSE
  5
2DC
100
AcDbEntity
  8
0
100
AcDbEllipse
 62
7
  6
CONTINUOUS
 10
4.0277203148
 20
5.1042389054
 30
0.0
 11
0.1756913838
 21
-0.1588778473
 31
0.0
 40
0.1730990572
 41
-1.2294748189
 42
-1.1462756153
  0
ELLIPSE
  5
2DD
100
AcDbEntity
  8
0
100
AcDbEllipse
 62
7
  6
CONTINUOUS
 10
4.1332651565
 20
4.9997074927
 30
0.0
 11
0.0980313798
 21
0.0358882298
 31
0.0
 40
0.365809989
 41
2.0950681043
 42
2.1173952585
  0
ELLIPSE
  5
2DE
100
AcDbEntity
  8
0
100
AcDbEllipse
 62
7
  6
CONTINUOUS
 10
4.0522342121
 20
5.1004833732
 30
0.0
 11
0.1604343556
 21
-0.1479986417
 31
0.0
 40
0.3175215947
 41
-1.4131156857
 42
-1.3299164821
  0
ELLIPSE
  5
2DF
100
AcDbEntity
  8
0
100
AcDbEllipse
 62
7
  6
CONTINUOUS
 10
4.0859746972
 20
5.0953143266
 30
0.0
 11
-0.1430053893
 21
0.1301173201
 31
0.0
 40
0.5099348041
 41
1.5138925073
 42
1.5970917109
  0
ELLIPSE
  5
2E0
100
AcDbEntity
  8
0
100
AcDbEllipse
 62
7
  6
CONTINUOUS
 10
4.1256390162
 20
5.0892377478
 30
0.0
 11
-0.138492943
 21
0.0920346405
 31
0.0
 40
0.7641869673
 41
1.1436993654
 42
1.226898569
  0
ELLIPSE
  5
2E1
100
AcDbEntity
  8
0
100
AcDbEllipse
 62
7
  6
CONTINUOUS
 10
4.0277203148
 20
5.1042389054
 30
0.0
 11
0.1756913838
 21
-0.1588778473
 31
0.0
 40
0.1730990572
 41
0.6330679237
 42
0.7162671273
  0
ELLIPSE
  5
2E2
100
AcDbEntity
  8
0
100
AcDbEllipse
 62
7
  6
CONTINUOUS
 10
4.1694509827
 20
5.0057259502
 30
0.0
 11
0.006654234
 21
-0.0056550834
 31
0.0
 40
0.2168892597
 41
4.8070999327
 42
7.5156440885
  0
ELLIPSE
  5
2E3
100
AcDbEntity
  8
0
100
AcDbEllipse
 62
7
  6
CONTINUOUS
 10
4.1349958564
 20
5.0110044799
 30
0.0
 11
0.0066745138
 21
-0.0059066118
 31
0.0
 40
0.0717446904
 41
-1.5245978406
 42
1.4599151803
  0
ELLIPSE
  5
2E4
100
AcDbEntity
  8
0
100
AcDbEllipse
 62
7
  6
CONTINUOUS
 10
4.0522342121
 20
5.1004833732
 30
0.0
 11
0.1604343556
 21
-0.1479986417
 31
0.0
 40
0.3175215947
 41
0.449427057
 42
0.5326262606
  0
ELLIPSE
  5
2E5
100
AcDbEntity
  8
0
100
AcDbEllipse
 62
7
  6
CONTINUOUS
 10
4.2005334011
 20
5.0009641197
 30
0.0
 11
0.0066552459
 21
-0.0051117589
 31
0.0
 40
0.365809989
 41
5.1406791265
 42
6.9836048751
  0
ELLIPSE
  5
2E6
100
AcDbEntity
  8
0
100
AcDbEllipse
 62
7
  6
CONTINUOUS
 10
4.0148325964
 20
5.1062133055
 30
0.0
 11
0.1842747862
 21
-0.164173718
 31
0.0
 40
0.0549449437
 41
0.8052278119
 42
0.8884270155
  0
ELLIPSE
  5
2E7
100
AcDbEntity
  8
0
100
AcDbEllipse
 62
7
  6
CONTINUOUS
 10
4.0859746972
 20
5.0953143266
 30
0.0
 11
-0.1430053893
 21
0.1301173201
 31
0.0
 40
0.5099348041
 41
-2.9067500572
 42
-2.8235508536
  0
ELLIPSE
  5
2E8
100
AcDbEntity
  8
0
100
AcDbEllipse
 62
7
  6
CONTINUOUS
 10
4.1256390162
 20
5.0892377478
 30
0.0
 11
-0.138492943
 21
0.0920346405
 31
0.0
 40
0.7641869673
 41
-3.2769431992
 42
-3.1937439956
  0
ELLIPSE
  5
2E9
100
AcDbEntity
  8
0
100
AcDbEllipse
 62
7
  6
CONTINUOUS
 10
4.1349958564
 20
5.0110044799
 30
0.0
 11
0.0081366784
 21
0.0036375353
 31
0.0
 40
0.0717446904
 41
7.9648627805
 42
10.9493758014
  0
ELLIPSE
  5
2EA
100
AcDbEntity
  8
0
100
AcDbEllipse
 62
7
  6
CONTINUOUS
 10
4.2781509691
 20
5.0658728972
 30
0.0
 11
0.2249725071
 21
0.1014769805
 31
0.0
 40
0.0549449437
 41
2.2531656381
 42
2.3363648417
  0
ELLIPSE
  5
2EB
100
AcDbEntity
  8
0
100
AcDbEllipse
 62
7
  6
CONTINUOUS
 10
4.1005407301
 20
5.0162830096
 30
0.0
 11
0.0080420276
 21
0.0034036143
 31
0.0
 40
0.2168892597
 41
1.9091338723
 42
4.617678028
  0
ELLIPSE
  5
2EC
100
AcDbEntity
  8
0
100
AcDbEllipse
 62
7
  6
CONTINUOUS
 10
4.2652632506
 20
5.0678472973
 30
0.0
 11
0.2151973295
 21
0.0989936466
 31
0.0
 40
0.1730990572
 41
2.4253255262
 42
2.5085247298
  0
ELLIPSE
  5
2ED
100
AcDbEntity
  8
0
100
AcDbEllipse
 62
7
  6
CONTINUOUS
 10
4.0694583116
 20
5.0210448401
 30
0.0
 11
0.007880336
 21
0.0028849059
 31
0.0
 40
0.365809989
 41
2.441173086
 42
4.2840988343
  0
ELLIPSE
  5
2EE
100
AcDbEntity
  8
0
100
AcDbEllipse
 62
7
  6
CONTINUOUS
 10
4.2407493534
 20
5.0716028295
 30
0.0
 11
0.1973831015
 21
0.0931809616
 31
0.0
 40
0.3175215947
 41
2.608966393
 42
2.6921655966
  0
ELLIPSE
  5
2EF
100
AcDbEntity
  8
0
100
AcDbEllipse
 62
7
  6
CONTINUOUS
 10
4.2070088683
 20
5.0767718761
 30
0.0
 11
0.175400299
 21
0.081337528
 31
0.0
 40
0.5099348041
 41
2.8235508536
 42
2.9067500572
  0
ELLIPSE
  5
2F0
100
AcDbEntity
  8
0
100
AcDbEllipse
 62
7
  6
CONTINUOUS
 10
4.1673445493
 20
5.0828484549
 30
0.0
 11
0.1596938529
 21
0.0463523853
 31
0.0
 40
0.7641869673
 41
-3.0894413116
 42
-3.006242108
  0
ENDSEC
  0
SECTION
  2
OBJECTS
  0
DICTIONARY
  5
C
100
AcDbDictionary
280
0
281
1
  3
ACAD_GROUP
350
D
  3
ACAD_MLINESTYLE
350
17
  3
ACAD_LAYOUT
350
1A
  3
ACAD_PLOTSETTINGS
350
19
  3
ACAD_PLOTSTYLENAME
350
E
  0
DICTIONARY
  5
D
102
{ACAD_REACTORS
330
C
102
}
100
AcDbDictionary
280
0
281
1
  0
ACDBDICTIONARYWDFLT
  5
E
102
{ACAD_REACTORS
330
C
102
}
100
AcDbDictionary
281
1
  3
Normal
350
F
100
AcDbDictionaryWithDefault
340
F
  0
DICTIONARY
  5
17
102
{ACAD_REACTORS
330
C
102
}
100
AcDbDictionary
280
0
281
1
  3
Standard
350
18
  0
DICTIONARY
  5
19
102
{ACAD_REACTORS
330
C
102
}
100
AcDbDictionary
281
1
  0
DICTIONARY
  5
1A
102
{ACAD_REACTORS
330
C
102
}
100
AcDbDictionary
281
1
  3
Model
350
2F1
  3
Layout1
350
2F2
  0
ACDBPLACEHOLDER
  5
F
102
{ACAD_REACTORS
330
E
102
}
  0
MLINESTYLE
  5
18
102
{ACAD_REACTORS
330
17
102
}
100
AcDbMlineStyle
  2
STANDARD
 70
0
  3

 62
256
 51
90.0
 52
90.0
 71
2
 49
0.5
 62
256
  6
BYLAYER
 49
-0.5
 62
256
  6
BYLAYER
  0
LAYOUT
  5
2F1
102
{ACAD_REACTORS
330
1A
102
}
100
AcDbPlotSettings
  1

  2
none_device
  4
ANSI_A_(11.00_x_8.50_Inches)
  6

 40
0.0
 41
0.0
 42
0.0
 43
0.0
 44
279.4
 45
215.9
 46
0.0
 47
0.0
 48
0.0
 49
0.0
140
0.0
141
0.0
142
1.0
143
1.0
 70
1024
 72
0
 73
0
 74
0
  7

 75
0
147
1.0
148
0.0
149
0.0
100
AcDbLayout
  1
Model
 70
0
 71
0
 10
0.0
 20
0.0
 11
11.0
 21
8.5
 12
0.0
 22
0.0
 32
0.0
 14
0.0
 24
0.0
 34
0.0
 15
0.0
 25
0.0
 35
0.0
146
0.0
 13
0.0
 23
0.0
 33
0.0
 16
1.0
 26
0.0
 36
0.0
 17
0.0
 27
1.0
 37
0.0
 76
0
330
202
345
0
346
0
  0
LAYOUT
  5
2F2
102
{ACAD_REACTORS
330
1A
102
}
100
AcDbPlotSettings
  1

  2
none_device
  4
ANSI_A_(11.00_x_8.50_Inches)
  6

 40
0.0
 41
0.0
 42
0.0
 43
0.0
 44
279.4
 45
215.9
 46
0.0
 47
0.0
 48
0.0
 49
0.0
140
0.0
141
0.0
142
1.0
143
1.0
 70
0
 72
0
 73
0
 74
0
  7

 75
0
147
1.0
148
0.0
149
0.0
100
AcDbLayout
  1
Layout1
 70
0
 71
1
 10
0.0
 20
0.0
 11
11.0
 21
8.5
 12
0.0
 22
0.0
 32
0.0
 14
0.0
 24
0.0
 34
0.0
 15
0.0
 25
0.0
 35
0.0
146
0.0
 13
0.0
 23
0.0
 33
0.0
 16
1.0
 26
0.0
 36
0.0
 17
0.0
 27
1.0
 37
0.0
 76
0
330
203
345
0
346
0
  0
ENDSEC
  0
EOF
