999
DXF file: 1400-5143_TOP.dxf
999
Pro/ENGINEER 2019352 by Parametric Technology Corporation
  0
SECTION
  2
HEADER
  9
$ACADVER
  1
AC1032
  9
$DWGCODEPAGE
  3
ANSI_1252
  9
$EXTMAX
 10
11.0
 20
8.5
 30
0.0
  9
$EXTMIN
 10
0.0
 20
0.0
 30
0.0
  9
$LIMMIN
 10
0.0
 20
0.0
  9
$LIMMAX
 10
11.0
 20
8.5
  9
$VIEWCTR
 10
5.5
 20
4.25
  9
$VIEWSIZE
 40
8.5
  9
$CLAYER
  8
0
  9
$LTSCALE
 40
0.605
  9
$CELTYPE
  6
BYLAYER
  9
$DIMSCALE
 40
1.0
  9
$DIMASZ
 40
0.1
  9
$DIMEXO
 40
0.0625
  9
$DIMDLI
 40
0.418
  9
$DIMEXE
 40
0.125
  9
$DIMCEN
 40
0.099
  9
$DIMLFAC
 40
1.0
  9
$DIMBLK
  1
_FILLED
  9
$DIMALT
 70
1
  9
$DIMALTD
 70
2
  9
$DIMALTTD
 70
2
  9
$DIMALTF
 40
25.4
  9
$DIMTXT
 40
0.08
  9
$DIMTOL
 70
1
  9
$DIMLIM
 70
0
  9
$DIMTFAC
 40
1.0
  9
$DIMTP
 40
0.001
  9
$DIMTM
 40
0.001
  9
$DIMGAP
 40
0.09
  9
$DIMDSEP
 70
46
  9
$AUNITS
 70
0
  9
$PDMODE
 70
3
  9
$PDSIZE
 40
0.3125
  9
$HANDSEED
  5
25D
  9
$TILEMODE
 70
1
  9
$MEASUREMENT
 70
0
  9
$INSUNITS
 70
1
  0
ENDSEC
  0
SECTION
  2
CLASSES
  0
CLASS
  1
ACDBDICTIONARYWDFLT
  2
AcDbDictionaryWithDefault
  3
AutoCAD 2000
 90
0
 91
1
280
0
281
0
  0
CLASS
  1
ACDBPLACEHOLDER
  2
AcDbPlaceHolder
  3
AutoCAD 2000
 90
0
 91
1
280
0
281
0
  0
CLASS
  1
LAYOUT
  2
AcDbLayout
  3
AutoCAD 2000
 90
0
 91
0
280
0
281
0
  0
ENDSEC
  0
SECTION
  2
TABLES
  0
TABLE
  2
VPORT
  5
8
100
AcDbSymbolTable
 70
2
  0
VPORT
  5
1F4
100
AcDbSymbolTableRecord
100
AcDbViewportTableRecord
  2
*ACTIVE
 70
0
 10
0.0
 20
0.0
 11
1.0
 21
1.0
 12
5.5
 22
4.25
 13
0.0
 23
0.0
 14
1.0
 24
1.0
 15
0.0
 25
0.0
 16
0.0
 26
0.0
 36
1.0
 17
0.0
 27
0.0
 37
0.0
 40
8.5
 41
1.2941176471
 42
50.0
 43
0.0
 44
0.0
 50
0.0
 51
0.0
 71
0
 72
100
 73
1
 74
1
 75
0
 76
0
 77
0
 78
0
  0
ENDTAB
  0
TABLE
  2
LTYPE
  5
5
100
AcDbSymbolTable
 70
6
  0
LTYPE
  5
14
100
AcDbSymbolTableRecord
100
AcDbLinetypeTableRecord
  2
BYBLOCK
 70
0
  3

 72
65
 73
0
 40
0.0
  0
LTYPE
  5
15
100
AcDbSymbolTableRecord
100
AcDbLinetypeTableRecord
  2
BYLAYER
 70
0
  3

 72
65
 73
0
 40
0.0
  0
LTYPE
  5
16
100
AcDbSymbolTableRecord
100
AcDbLinetypeTableRecord
  2
CONTINUOUS
 70
64
  3
Solid line
 72
65
 73
0
 40
0.0
  0
LTYPE
  5
1F5
100
AcDbSymbolTableRecord
100
AcDbLinetypeTableRecord
  2
CENTER
 70
64
  3
____ _ ____ _ ____ _ ____ _ ____ _ ____ _ ____
 72
65
 73
4
 40
0.6
 49
0.375
 74
0
 49
-0.075
 74
0
 49
0.075
 74
0
 49
-0.075
 74
0
  0
LTYPE
  5
1F6
100
AcDbSymbolTableRecord
100
AcDbLinetypeTableRecord
  2
HIDDEN
 70
64
  3
- - - - - - - - - - - - - - - - - - - -
 72
65
 73
2
 40
0.2
 49
0.1
 74
0
 49
-0.1
 74
0
  0
LTYPE
  5
1F7
100
AcDbSymbolTableRecord
100
AcDbLinetypeTableRecord
  2
PHANTOM
 70
64
  3
_____ _ _ _____ _ _ _____ _ _ _____
 72
65
 73
6
 40
0.8
 49
0.45
 74
0
 49
-0.05
 74
0
 49
0.1
 74
0
 49
-0.05
 74
0
 49
0.1
 74
0
 49
-0.05
 74
0
  0
LTYPE
  5
1F8
100
AcDbSymbolTableRecord
100
AcDbLinetypeTableRecord
  2
DOT
 70
64
  3
. . . . . . . . . . . . . . . . . . . .
 72
65
 73
2
 40
0.2
 49
0.1
 74
0
 49
-0.1
 74
0
  0
LTYPE
  5
1F9
100
AcDbSymbolTableRecord
100
AcDbLinetypeTableRecord
  2
DASHED
 70
64
  3
- - - - - - - - - - - - - - - - - - - -
 72
65
 73
2
 40
0.2
 49
0.1
 74
0
 49
-0.1
 74
0
  0
ENDTAB
  0
TABLE
  2
LAYER
  5
2
100
AcDbSymbolTable
 70
36
  0
LAYER
  5
10
100
AcDbSymbolTableRecord
100
AcDbLayerTableRecord
  2
0
 70
0
 62
7
  6
CONTINUOUS
370
-3
390
F
  0
LAYER
  5
1FA
100
AcDbSymbolTableRecord
100
AcDbLayerTableRecord
  2
DEFAULT_1
 70
0
 62
7
  6
CENTER
370
-3
390
F
  0
LAYER
  5
1FB
100
AcDbSymbolTableRecord
100
AcDbLayerTableRecord
  2
DEFAULT_2
 70
0
 62
8
  6
HIDDEN
370
-3
390
F
  0
LAYER
  5
1FC
100
AcDbSymbolTableRecord
100
AcDbLayerTableRecord
  2
DEFAULT_3
 70
0
 62
7
  6
PHANTOM
370
-3
390
F
  0
LAYER
  5
1FD
100
AcDbSymbolTableRecord
100
AcDbLayerTableRecord
  2
DEFAULT_COORDINATE_SYSTEM
 70
0
 62
7
  6
CONTINUOUS
370
-3
390
F
  0
LAYER
  5
1FE
100
AcDbSymbolTableRecord
100
AcDbLayerTableRecord
  2
DEFAULT_DATUM_AXES
 70
0
 62
7
  6
CONTINUOUS
370
-3
390
F
  0
LAYER
  5
1FF
100
AcDbSymbolTableRecord
100
AcDbLayerTableRecord
  2
DEFAULT_DATUM_PLANES
 70
0
 62
7
  6
CONTINUOUS
370
-3
390
F
  0
ENDTAB
  0
TABLE
  2
STYLE
  5
3
100
AcDbSymbolTable
 70
1
  0
STYLE
  5
11
100
AcDbSymbolTableRecord
100
AcDbTextStyleTableRecord
  2
STANDARD
 70
0
 40
0.0
 41
0.8
 50
0.0
 71
0
 42
0.2
  3
txt
  4

  0
STYLE
  5
200
100
AcDbSymbolTableRecord
100
AcDbTextStyleTableRecord
  2
TEXTSTYLE_1
 70
0
 40
0.0
 41
0.8
 50
0.0
 71
0
 42
0.2
  3
gdt
  4

  0
ENDTAB
  0
TABLE
  2
VIEW
  5
6
100
AcDbSymbolTable
 70
0
  0
ENDTAB
  0
TABLE
  2
UCS
  5
7
100
AcDbSymbolTable
 70
0
  0
ENDTAB
  0
TABLE
  2
APPID
  5
9
100
AcDbSymbolTable
 70
1
  0
APPID
  5
201
100
AcDbSymbolTableRecord
100
AcDbRegAppTableRecord
  2
ACAD
 70
0
  0
ENDTAB
  0
TABLE
  2
BLOCK_RECORD
  5
1
100
AcDbSymbolTable
 70
0
  0
BLOCK_RECORD
  5
202
100
AcDbSymbolTableRecord
100
AcDbBlockTableRecord
  2
*Model_Space
  0
BLOCK_RECORD
  5
203
100
AcDbSymbolTableRecord
100
AcDbBlockTableRecord
  2
*Paper_Space
  0
BLOCK_RECORD
  5
204
100
AcDbSymbolTableRecord
100
AcDbBlockTableRecord
  2
_FILLED
  0
ENDTAB
  0
TABLE
  2
DIMSTYLE
  5
A
100
AcDbSymbolTable
 70
1
100
AcDbDimStyleTable
 71
0
  0
DIMSTYLE
105
205
100
AcDbSymbolTableRecord
100
AcDbDimStyleTableRecord
  2
STANDARD
 70
0
  3

  4

 40
1.0
 41
0.1
 42
0.0625
 43
0.38
 44
0.125
 45
0.0
 46
0.0
 47
0.001
 48
0.001
140
0.08
141
0.09
142
0.0
143
25.4
144
1.0
145
0.0
146
1.0
147
0.09
 71
1.0
 72
0.0
 73
1
 74
1
 75
0
 76
0
 77
0
 78
4
 79
1
170
1
171
2
172
0
173
0
174
0
175
0
176
0
177
0
178
0
270
2
179
3
271
3
272
3
273
2
274
2
275
0
280
0
281
0
282
0
283
1
284
4
285
0
286
0
287
3
288
0
340
11
278
46
341
204
342
204
343
204
344
204
  0
ENDTAB
  0
ENDSEC
  0
SECTION
  2
BLOCKS
  0
BLOCK
  5
20
100
AcDbEntity
  8
0
100
AcDbBlockBegin
  2
*Model_Space
 70
0
 10
0.0
 20
0.0
 30
0.0
  3
*Model_Space
  1

  0
ENDBLK
  5
21
100
AcDbEntity
  8
0
100
AcDbBlockEnd
  0
BLOCK
  5
1C
100
AcDbEntity
  8
0
100
AcDbBlockBegin
  2
*Paper_Space
 70
0
 10
0.0
 20
0.0
 30
0.0
  3
*Paper_Space
  1

  0
ENDBLK
  5
1D
100
AcDbEntity
  8
0
100
AcDbBlockEnd
  0
BLOCK
  5
206
100
AcDbEntity
  8
0
100
AcDbBlockBegin
  2
_FILLED
 70
64
 10
0.0
 20
0.0
  3
_FILLED
  1

  0
SOLID
  5
207
100
AcDbEntity
  8
0
  6
BYBLOCK
 62
0
100
AcDbTrace
 10
0.0
 20
0.0
 11
-1.0
 21
0.2
 12
-1.0
 22
-0.2
 13
-1.0
 23
-0.2
  0
ENDBLK
  5
208
100
AcDbEntity
  8
0
  6
BYBLOCK
 62
0
100
AcDbBlockEnd
  0
ENDSEC
  0
SECTION
  2
ENTITIES
  0
MTEXT
  5
209
100
AcDbEntity
  8
0
100
AcDbMText
 62
2
  6
CONTINUOUS
  7
STANDARD
 71
3
 72
1
 10
5.5541707198
 20
2.4151426458
 30
0.0
 11
1.0
 21
0.0
 31
0.0
 73
2
 44
0.9
  1
SCALE 0.300
 40
0.08
 41
0.704
  0
LINE
  5
20A
100
AcDbEntity
  8
0
100
AcDbLine
 62
7
  6
CONTINUOUS
 10
0.0
 20
0.0
 11
0.0
 21
8.5
  0
LINE
  5
20B
100
AcDbEntity
  8
0
100
AcDbLine
 62
7
  6
CONTINUOUS
 10
0.0
 20
0.0
 11
11.0
 21
0.0
  0
LINE
  5
20C
100
AcDbEntity
  8
0
100
AcDbLine
 62
7
  6
CONTINUOUS
 10
0.0
 20
8.5
 11
11.0
 21
8.5
  0
LINE
  5
20D
100
AcDbEntity
  8
0
100
AcDbLine
 62
7
  6
CONTINUOUS
 10
11.0
 20
0.0
 11
11.0
 21
8.5
  0
LINE
  5
20E
100
AcDbEntity
  8
0
100
AcDbLine
 62
7
  6
CONTINUOUS
 10
4.9662107233
 20
5.3636720764
 11
4.9662107233
 21
2.9865152563
  0
LINE
  5
20F
100
AcDbEntity
  8
0
100
AcDbLine
 62
7
  6
CONTINUOUS
 10
4.9662107233
 20
2.9849252062
 11
4.9662107233
 21
2.8820262498
  0
LINE
  5
210
100
AcDbEntity
  8
0
100
AcDbLine
 62
7
  6
CONTINUOUS
 10
5.3082107233
 20
5.3636720764
 11
5.3082107233
 21
2.9865152563
  0
LINE
  5
211
100
AcDbEntity
  8
0
100
AcDbLine
 62
7
  6
CONTINUOUS
 10
5.3082107233
 20
2.9849252062
 11
5.3082107233
 21
2.8820262498
  0
LINE
  5
212
100
AcDbEntity
  8
0
100
AcDbLine
 62
7
  6
CONTINUOUS
 10
5.5927007446
 20
5.1280970776
 11
5.5927007446
 21
5.5992470752
  0
LINE
  5
213
100
AcDbEntity
  8
0
100
AcDbLine
 62
7
  6
CONTINUOUS
 10
5.5975607233
 20
5.1266720764
 11
5.5975607233
 21
5.6006720764
  0
LINE
  5
214
100
AcDbEntity
  8
0
100
AcDbLine
 62
7
  6
CONTINUOUS
 10
5.9557607074
 20
5.4658275199
 11
5.9557607233
 21
5.6006720764
  0
LINE
  5
215
100
AcDbEntity
  8
0
100
AcDbLine
 62
7
  6
CONTINUOUS
 10
5.9557607233
 20
5.1266720764
 11
5.9557607299
 21
5.2615165238
  0
LINE
  5
216
100
AcDbEntity
  8
0
100
AcDbLine
 62
7
  6
CONTINUOUS
 10
5.9617607233
 20
5.2641027407
 11
5.9617607233
 21
5.1326720981
  0
LINE
  5
217
100
AcDbEntity
  8
0
100
AcDbLine
 62
7
  6
CONTINUOUS
 10
5.9617607233
 20
5.4632413067
 11
5.9617607233
 21
5.5946720764
  0
LINE
  5
218
100
AcDbEntity
  8
0
100
AcDbLine
 62
7
  6
CONTINUOUS
 10
5.5927007446
 20
5.1280970776
 11
5.3082107233
 21
5.1256143708
  0
LINE
  5
219
100
AcDbEntity
  8
0
100
AcDbLine
 62
7
  6
CONTINUOUS
 10
5.5975607233
 20
5.1266720764
 11
5.9557607233
 21
5.1266720764
  0
LINE
  5
21A
100
AcDbEntity
  8
0
100
AcDbLine
 62
7
  6
CONTINUOUS
 10
5.9304839234
 20
5.2835720764
 11
5.9130490165
 21
5.2835720764
  0
LINE
  5
21B
100
AcDbEntity
  8
0
100
AcDbLine
 62
7
  6
CONTINUOUS
 10
5.9040914892
 20
5.2897581051
 11
5.9082709418
 21
5.2897581199
  0
LINE
  5
21C
100
AcDbEntity
  8
0
100
AcDbLine
 62
7
  6
CONTINUOUS
 10
5.9040916216
 20
5.4375861277
 11
5.9082714639
 21
5.4375861233
  0
LINE
  5
21D
100
AcDbEntity
  8
0
100
AcDbLine
 62
7
  6
CONTINUOUS
 10
5.9130490384
 20
5.4437720764
 11
5.9304839234
 21
5.4437720764
  0
LINE
  5
21E
100
AcDbEntity
  8
0
100
AcDbLine
 62
7
  6
CONTINUOUS
 10
5.5975607233
 20
5.6006720764
 11
5.9557607233
 21
5.6006720764
  0
LINE
  5
21F
100
AcDbEntity
  8
0
100
AcDbLine
 62
7
  6
CONTINUOUS
 10
5.5927007446
 20
5.5992470752
 11
5.1549132983
 21
5.6030677483
  0
LINE
  5
220
100
AcDbEntity
  8
0
100
AcDbLine
 62
7
  6
CONTINUOUS
 10
5.1549132983
 20
5.6030677483
 11
5.1547393622
 21
5.6030705277
  0
LINE
  5
221
100
AcDbEntity
  8
0
100
AcDbLine
 62
7
  6
CONTINUOUS
 10
5.1547393622
 20
5.6030705277
 11
5.154565297
 21
5.6030743218
  0
LINE
  5
222
100
AcDbEntity
  8
0
100
AcDbLine
 62
7
  6
CONTINUOUS
 10
5.154565297
 20
5.6030743218
 11
5.1543951132
 21
5.6030790108
  0
LINE
  5
223
100
AcDbEntity
  8
0
100
AcDbLine
 62
7
  6
CONTINUOUS
 10
5.1543951132
 20
5.6030790108
 11
5.1542327627
 21
5.6030843874
  0
LINE
  5
224
100
AcDbEntity
  8
0
100
AcDbLine
 62
7
  6
CONTINUOUS
 10
5.1542327627
 20
5.6030843874
 11
5.1540823728
 21
5.6030901553
  0
LINE
  5
225
100
AcDbEntity
  8
0
100
AcDbLine
 62
7
  6
CONTINUOUS
 10
5.1540823728
 20
5.6030901553
 11
5.1539482303
 21
5.6030959398
  0
LINE
  5
226
100
AcDbEntity
  8
0
100
AcDbLine
 62
7
  6
CONTINUOUS
 10
5.1539482303
 20
5.6030959398
 11
5.153808244
 21
5.6031026203
  0
LINE
  5
227
100
AcDbEntity
  8
0
100
AcDbLine
 62
7
  6
CONTINUOUS
 10
5.153808244
 20
5.6031026203
 11
5.1536747298
 21
5.6031096061
  0
LINE
  5
228
100
AcDbEntity
  8
0
100
AcDbLine
 62
7
  6
CONTINUOUS
 10
5.1536747298
 20
5.6031096061
 11
5.1535888602
 21
5.6031144172
  0
LINE
  5
229
100
AcDbEntity
  8
0
100
AcDbLine
 62
7
  6
CONTINUOUS
 10
5.1535888602
 20
5.6031144172
 11
5.1533858637
 21
5.6031268041
  0
LINE
  5
22A
100
AcDbEntity
  8
0
100
AcDbLine
 62
7
  6
CONTINUOUS
 10
5.1532980758
 20
5.6031325134
 11
5.1534174133
 21
5.6031247802
  0
ARC
  5
22B
100
AcDbEntity
  8
0
100
AcDbCircle
 62
7
  6
CONTINUOUS
 10
5.1410804018
 20
2.9849252009
 40
0.1671303215
100
AcDbArc
 50
0.0000017887
 51
0.2166880999
  0
ARC
  5
22C
100
AcDbEntity
  8
0
100
AcDbCircle
 62
7
  6
CONTINUOUS
 10
5.133341043
 20
2.9849252009
 40
0.1671303197
100
AcDbArc
 50
179.783314567
 51
179.9999982112
  0
ARC
  5
22D
100
AcDbEntity
  8
0
100
AcDbCircle
 62
7
  6
CONTINUOUS
 10
5.1411269877
 20
2.9865152553
 40
0.1670837352
100
AcDbArc
 50
359.4547650067
 51
0.0000003252
  0
ARC
  5
22E
100
AcDbEntity
  8
0
100
AcDbCircle
 62
7
  6
CONTINUOUS
 10
5.1332944589
 20
2.9865152553
 40
0.1670837352
100
AcDbArc
 50
179.9999996747
 51
180.5452349933
  0
ARC
  5
22F
100
AcDbEntity
  8
0
100
AcDbCircle
 62
7
  6
CONTINUOUS
 10
5.1372107233
 20
5.3636720764
 40
0.297
100
AcDbArc
 50
305.153524004
 51
306.7399598636
  0
ARC
  5
230
100
AcDbEntity
  8
0
100
AcDbCircle
 62
7
  6
CONTINUOUS
 10
5.1372107233
 20
5.3636720764
 40
0.297
100
AcDbArc
 50
53.2600401364
 51
234.846475996
  0
ARC
  5
231
100
AcDbEntity
  8
0
100
AcDbCircle
 62
7
  6
CONTINUOUS
 10
5.1372107233
 20
5.3636720764
 40
0.288
100
AcDbArc
 50
55.7787665482
 51
233.5757608033
  0
ARC
  5
232
100
AcDbEntity
  8
0
100
AcDbCircle
 62
7
  6
CONTINUOUS
 10
5.1372107233
 20
5.3636720764
 40
0.24
100
AcDbArc
 50
315.4391579053
 51
224.560954727
  0
ARC
  5
233
100
AcDbEntity
  8
0
100
AcDbCircle
 62
7
  6
CONTINUOUS
 10
5.1372107233
 20
5.3636720764
 40
0.2389557137
100
AcDbArc
 50
315.6936572074
 51
224.3063427926
  0
ARC
  5
234
100
AcDbEntity
  8
0
100
AcDbCircle
 62
7
  6
CONTINUOUS
 10
5.1372107233
 20
5.3636720764
 40
0.2389017529
100
AcDbArc
 50
315.7076502398
 51
224.2923497602
  0
ARC
  5
235
100
AcDbEntity
  8
0
100
AcDbCircle
 62
7
  6
CONTINUOUS
 10
5.1372107233
 20
5.3636720764
 40
0.1748817529
100
AcDbArc
 50
347.9062265391
 51
192.0937734609
  0
ARC
  5
236
100
AcDbEntity
  8
0
100
AcDbCircle
 62
7
  6
CONTINUOUS
 10
5.1372107233
 20
5.3636720764
 40
0.171
100
AcDbArc
 50
0.0
 51
180.0
  0
ARC
  5
237
100
AcDbEntity
  8
0
100
AcDbCircle
 62
7
  6
CONTINUOUS
 10
5.9532880488
 20
5.3857163131
 40
0.105992994
100
AcDbArc
 50
237.8887539855
 51
244.8672001045
  0
ARC
  5
238
100
AcDbEntity
  8
0
100
AcDbCircle
 62
7
  6
CONTINUOUS
 10
5.95324532
 20
5.3416941074
 40
0.1059144309
100
AcDbArc
 50
115.126822511
 51
122.1100811117
  0
ARC
  5
239
100
AcDbEntity
  8
0
100
AcDbCircle
 62
7
  6
CONTINUOUS
 10
5.9617607233
 20
5.3636720764
 40
0.09375
100
AcDbArc
 50
93.4484629134
 51
266.5515626123
  0
CIRCLE
  5
23A
100
AcDbEntity
  8
0
100
AcDbCircle
 62
7
  6
CONTINUOUS
 10
5.9584193847
 20
5.3636720764
 40
0.084
  0
CIRCLE
  5
23B
100
AcDbEntity
  8
0
100
AcDbCircle
 62
7
  6
CONTINUOUS
 10
5.9584193847
 20
5.3636720764
 40
0.078
  0
ARC
  5
23C
100
AcDbEntity
  8
0
100
AcDbCircle
 62
7
  6
CONTINUOUS
 10
5.9304839234
 20
5.2655720764
 40
0.018
100
AcDbArc
 50
74.1048938384
 51
90.0
  0
ARC
  5
23D
100
AcDbEntity
  8
0
100
AcDbCircle
 62
7
  6
CONTINUOUS
 10
5.9304839234
 20
5.4617720764
 40
0.018
100
AcDbArc
 50
270.0
 51
285.8951061616
  0
ARC
  5
23E
100
AcDbEntity
  8
0
100
AcDbCircle
 62
7
  6
CONTINUOUS
 10
5.5975607233
 20
5.1356720764
 40
0.009
100
AcDbArc
 50
237.3165221451
 51
270.0
  0
ARC
  5
23F
100
AcDbEntity
  8
0
100
AcDbCircle
 62
7
  6
CONTINUOUS
 10
5.5975607233
 20
5.5916720764
 40
0.009
100
AcDbArc
 50
90.0
 51
122.6834778549
  0
ARC
  5
240
100
AcDbEntity
  8
0
100
AcDbCircle
 62
7
  6
CONTINUOUS
 10
5.9557607233
 20
5.1326720764
 40
0.006
100
AcDbArc
 50
270.0
 51
360.0
  0
ARC
  5
241
100
AcDbEntity
  8
0
100
AcDbCircle
 62
7
  6
CONTINUOUS
 10
5.9557607233
 20
5.5946720764
 40
0.006
100
AcDbArc
 50
0.0
 51
90.0
  0
ARC
  5
242
100
AcDbEntity
  8
0
100
AcDbCircle
 62
7
  6
CONTINUOUS
 10
5.9557607233
 20
5.4632414618
 40
0.006
100
AcDbArc
 50
273.4481528663
 51
359.9993931083
  0
ARC
  5
243
100
AcDbEntity
  8
0
100
AcDbCircle
 62
7
  6
CONTINUOUS
 10
5.9557607233
 20
5.2641026911
 40
0.006
100
AcDbArc
 50
0.0001914348
 51
86.5514482942
  0
SPLINE
  5
244
100
AcDbEntity
  8
0
100
AcDbSpline
 62
7
  6
CONTINUOUS
 70
0
 71
3
 72
39
 73
35
 74
0
 42
0.0000001
 43
0.0000001
 44
0.0000000001
 40
0.0
 40
0.0
 40
0.0
 40
0.0
 40
0.0314296892
 40
0.0628576136
 40
0.0942821508
 40
0.1257016177
 40
0.1571143925
 40
0.1885189217
 40
0.2199137285
 40
0.2512974251
 40
0.282668732
 40
0.3140264819
 40
0.3453696381
 40
0.3766973005
 40
0.4080087137
 40
0.4393032795
 40
0.4705805546
 40
0.5018402635
 40
0.5330822958
 40
0.5643067082
 40
0.5955137287
 40
0.6267037468
 40
0.6578773189
 40
0.6890351561
 40
0.7201781204
 40
0.7513072196
 40
0.7824235902
 40
0.813528496
 40
0.8446233082
 40
0.8757094959
 40
0.9067886137
 40
0.9378622807
 40
0.968932173
 40
1.0
 40
1.0
 40
1.0
 40
1.0
 10
5.1372107233
 20
2.8174873186
 30
0.0
 10
5.1344297905
 20
2.8174873186
 30
0.0
 10
5.1288671474
 20
2.8176214772
 30
0.0
 10
5.1205437148
 20
2.8182247178
 30
0.0
 10
5.1122597501
 20
2.819228523
 30
0.0
 10
5.1040352195
 20
2.820630506
 30
0.0
 10
5.0958896304
 20
2.8224273291
 30
0.0
 10
5.0878423886
 20
2.8246147202
 30
0.0
 10
5.0799126415
 20
2.8271874718
 30
0.0
 10
5.0721192641
 20
2.8301394643
 30
0.0
 10
5.0644808056
 20
2.8334636738
 30
0.0
 10
5.057015446
 20
2.837152189
 30
0.0
 10
5.0497409562
 20
2.8411962358
 30
0.0
 10
5.0426746502
 20
2.8455861886
 30
0.0
 10
5.0358333492
 20
2.8503116028
 30
0.0
 10
5.0292333387
 20
2.8553612333
 30
0.0
 10
5.0228903286
 20
2.860723062
 30
0.0
 10
5.0168194213
 20
2.8663843313
 30
0.0
 10
5.0110350673
 20
2.8723315656
 30
0.0
 10
5.0055510389
 20
2.8785506122
 30
0.0
 10
5.0003803928
 20
2.8850266696
 30
0.0
 10
4.995535438
 20
2.891744323
 30
0.0
 10
4.991027713
 20
2.898687585
 30
0.0
 10
4.9868679481
 20
2.9058399272
 30
0.0
 10
4.9830660499
 20
2.9131843258
 30
0.0
 10
4.9796310716
 20
2.9207032982
 30
0.0
 10
4.9765711909
 20
2.9283789451
 30
0.0
 10
4.9738936973
 20
2.9361929961
 30
0.0
 10
4.9716049639
 20
2.9441268469
 30
0.0
 10
4.9697104431
 20
2.952161616
 30
0.0
 10
4.9682146466
 20
2.9602781562
 30
0.0
 10
4.9671211342
 20
2.9684572152
 30
0.0
 10
4.9664325162
 20
2.9766790576
 30
0.0
 10
4.9662444478
 20
2.9821764957
 30
0.0
 10
4.9662182889
 20
2.9849252861
 30
0.0
  0
SPLINE
  5
245
100
AcDbEntity
  8
0
100
AcDbSpline
 62
7
  6
CONTINUOUS
 70
0
 71
3
 72
71
 73
67
 74
0
 42
0.0000001
 43
0.0000001
 44
0.0000000001
 40
0.0
 40
0.0
 40
0.0
 40
0.0
 40
0.0155375766
 40
0.0310759748
 40
0.0466160653
 40
0.0621586596
 40
0.0777045525
 40
0.0932545078
 40
0.1088092498
 40
0.124369456
 40
0.1399357508
 40
0.1555086991
 40
0.1710888013
 40
0.1866764884
 40
0.2022721175
 40
0.2178759692
 40
0.2334882443
 40
0.2491090625
 40
0.2647384608
 40
0.2803763937
 40
0.2960227339
 40
0.3116772729
 40
0.3273397238
 40
0.3430097241
 40
0.3586868389
 40
0.3743705654
 40
0.3900603379
 40
0.4057555326
 40
0.4214554748
 40
0.437159444
 40
0.4528666816
 40
0.4685763981
 40
0.4842877804
 40
0.4999999997
 40
0.5157122193
 40
0.5314236018
 40
0.5471333183
 40
0.5628405557
 40
0.5785445248
 40
0.5942444669
 40
0.6099396617
 40
0.6256294341
 40
0.641313161
 40
0.656990276
 40
0.6726602763
 40
0.688322727
 40
0.7039772659
 40
0.719623606
 40
0.7352615389
 40
0.7508909372
 40
0.7665117557
 40
0.7821240311
 40
0.7977278827
 40
0.8133235116
 40
0.8289111986
 40
0.8444913008
 40
0.860064249
 40
0.8756305438
 40
0.8911907504
 40
0.9067454926
 40
0.9222954479
 40
0.9378413405
 40
0.9533839347
 40
0.9689240252
 40
0.9844624234
 40
1.0
 40
1.0
 40
1.0
 40
1.0
 10
4.9662107233
 20
2.8820262498
 30
0.0
 10
4.9662107233
 20
2.8792599409
 30
0.0
 10
4.9663481334
 20
2.8737261926
 30
0.0
 10
4.9669659759
 20
2.8654464482
 30
0.0
 10
4.967994054
 20
2.8572064678
 30
0.0
 10
4.9694298876
 20
2.8490263822
 30
0.0
 10
4.971270007
 20
2.840925841
 30
0.0
 10
4.9735099715
 20
2.8329243917
 30
0.0
 10
4.9761443723
 20
2.825041316
 30
0.0
 10
4.9791668487
 20
2.8172956149
 30
0.0
 10
4.9825701074
 20
2.8097059558
 30
0.0
 10
4.9863459324
 20
2.8022906267
 30
0.0
 10
4.9904852126
 20
2.7950674945
 30
0.0
 10
4.9949779613
 20
2.7880539608
 30
0.0
 10
4.9998133376
 20
2.7812669182
 30
0.0
 10
5.0049796797
 20
2.7747227141
 30
0.0
 10
5.0104645266
 20
2.7684371065
 30
0.0
 10
5.0162546511
 20
2.7624252285
 30
0.0
 10
5.0223360949
 20
2.7567015546
 30
0.0
 10
5.0286941957
 20
2.7512798596
 30
0.0
 10
5.0353136291
 20
2.7461731921
 30
0.0
 10
5.0421784432
 20
2.7413938411
 30
0.0
 10
5.049272095
 20
2.7369533036
 30
0.0
 10
5.0565774952
 20
2.7328622638
 30
0.0
 10
5.0640770445
 20
2.7291305612
 30
0.0
 10
5.0717526786
 20
2.7257671698
 30
0.0
 10
5.0795859122
 20
2.7227801803
 30
0.0
 10
5.0875578805
 20
2.7201767728
 30
0.0
 10
5.0956493876
 20
2.7179632077
 30
0.0
 10
5.1038409512
 20
2.7161448079
 30
0.0
 10
5.1121128484
 20
2.7147259425
 30
0.0
 10
5.1204451652
 20
2.7137100248
 30
0.0
 10
5.128817842
 20
2.7130994958
 30
0.0
 10
5.1372107232
 20
2.7128958221
 30
0.0
 10
5.1456036044
 20
2.7130994958
 30
0.0
 10
5.1539762813
 20
2.7137100248
 30
0.0
 10
5.1623085981
 20
2.7147259425
 30
0.0
 10
5.1705804953
 20
2.7161448078
 30
0.0
 10
5.1787720588
 20
2.7179632076
 30
0.0
 10
5.1868635659
 20
2.7201767727
 30
0.0
 10
5.1948355341
 20
2.7227801802
 30
0.0
 10
5.2026687678
 20
2.7257671697
 30
0.0
 10
5.210344402
 20
2.7291305611
 30
0.0
 10
5.2178439514
 20
2.7328622638
 30
0.0
 10
5.2251493515
 20
2.7369533036
 30
0.0
 10
5.2322430033
 20
2.7413938411
 30
0.0
 10
5.2391078173
 20
2.746173192
 30
0.0
 10
5.2457272508
 20
2.7512798595
 30
0.0
 10
5.2520853515
 20
2.7567015545
 30
0.0
 10
5.2581667954
 20
2.7624252285
 30
0.0
 10
5.26395692
 20
2.7684371065
 30
0.0
 10
5.2694417669
 20
2.7747227141
 30
0.0
 10
5.274608109
 20
2.7812669183
 30
0.0
 10
5.2794434853
 20
2.7880539608
 30
0.0
 10
5.283936234
 20
2.7950674944
 30
0.0
 10
5.2880755142
 20
2.8022906266
 30
0.0
 10
5.2918513391
 20
2.8097059557
 30
0.0
 10
5.2952545979
 20
2.8172956148
 30
0.0
 10
5.2982770743
 20
2.8250413161
 30
0.0
 10
5.3009114751
 20
2.8329243919
 30
0.0
 10
5.3031514397
 20
2.8409258411
 30
0.0
 10
5.304991559
 20
2.8490263823
 30
0.0
 10
5.3064273926
 20
2.8572064679
 30
0.0
 10
5.3074554707
 20
2.8654464482
 30
0.0
 10
5.3080733132
 20
2.8737261926
 30
0.0
 10
5.3082107233
 20
2.8792599409
 30
0.0
 10
5.3082107233
 20
2.8820262498
 30
0.0
  0
SPLINE
  5
246
100
AcDbEntity
  8
0
100
AcDbSpline
 62
7
  6
CONTINUOUS
 70
0
 71
3
 72
39
 73
35
 74
0
 42
0.0000001
 43
0.0000001
 44
0.0000000001
 40
0.0
 40
0.0
 40
0.0
 40
0.0
 40
0.031067827
 40
0.0621377193
 40
0.0932113863
 40
0.1242905041
 40
0.1553766918
 40
0.186471504
 40
0.2175764098
 40
0.2486927804
 40
0.2798218796
 40
0.3109648439
 40
0.3421226811
 40
0.3732962532
 40
0.4044862713
 40
0.4356932918
 40
0.4669177042
 40
0.4981597365
 40
0.5294194454
 40
0.5606967205
 40
0.5919912863
 40
0.6233026995
 40
0.6546303619
 40
0.6859735181
 40
0.717331268
 40
0.7487025749
 40
0.7800862715
 40
0.8114810783
 40
0.8428856075
 40
0.8742983823
 40
0.9057178492
 40
0.9371423864
 40
0.9685703108
 40
1.0
 40
1.0
 40
1.0
 40
1.0
 10
5.3082031577
 20
2.9849252861
 30
0.0
 10
5.3081769988
 20
2.9821764957
 30
0.0
 10
5.3079889304
 20
2.9766790576
 30
0.0
 10
5.3073003124
 20
2.9684572152
 30
0.0
 10
5.3062067999
 20
2.9602781562
 30
0.0
 10
5.3047110035
 20
2.952161616
 30
0.0
 10
5.3028164827
 20
2.9441268469
 30
0.0
 10
5.3005277493
 20
2.9361929961
 30
0.0
 10
5.2978502557
 20
2.9283789451
 30
0.0
 10
5.294790375
 20
2.9207032982
 30
0.0
 10
5.2913553966
 20
2.9131843258
 30
0.0
 10
5.2875534985
 20
2.9058399272
 30
0.0
 10
5.2833937336
 20
2.898687585
 30
0.0
 10
5.2788860086
 20
2.891744323
 30
0.0
 10
5.2740410538
 20
2.8850266696
 30
0.0
 10
5.2688704076
 20
2.8785506122
 30
0.0
 10
5.2633863793
 20
2.8723315656
 30
0.0
 10
5.2576020253
 20
2.8663843313
 30
0.0
 10
5.2515311179
 20
2.860723062
 30
0.0
 10
5.2451881079
 20
2.8553612333
 30
0.0
 10
5.2385880974
 20
2.8503116028
 30
0.0
 10
5.2317467964
 20
2.8455861886
 30
0.0
 10
5.2246804903
 20
2.8411962358
 30
0.0
 10
5.2174060006
 20
2.837152189
 30
0.0
 10
5.209940641
 20
2.8334636738
 30
0.0
 10
5.2023021825
 20
2.8301394643
 30
0.0
 10
5.1945088051
 20
2.8271874718
 30
0.0
 10
5.1865790579
 20
2.8246147202
 30
0.0
 10
5.1785318162
 20
2.8224273291
 30
0.0
 10
5.1703862271
 20
2.820630506
 30
0.0
 10
5.1621616964
 20
2.819228523
 30
0.0
 10
5.1538777318
 20
2.8182247178
 30
0.0
 10
5.1455542992
 20
2.8176214772
 30
0.0
 10
5.1399916561
 20
2.8174873186
 30
0.0
 10
5.1372107233
 20
2.8174873186
 30
0.0
  0
SPLINE
  5
247
100
AcDbEntity
  8
0
100
AcDbSpline
 62
7
  6
CONTINUOUS
 70
0
 71
3
 72
50
 73
46
 74
0
 42
0.0000001
 43
0.0000001
 44
0.0000000001
 40
0.0
 40
0.0
 40
0.0
 40
0.0
 40
0.0438774661
 40
0.0876615407
 40
0.1312593114
 40
0.1745783443
 40
0.2175271479
 40
0.2600154605
 40
0.3019545667
 40
0.3432576165
 40
0.383839958
 40
0.4236194851
 40
0.4625169901
 40
0.5004565529
 40
0.5373659436
 40
0.5731770644
 40
0.6078264478
 40
0.6412557938
 40
0.6734126091
 40
0.7042509349
 40
0.7337322081
 40
0.7618263171
 40
0.7753472153
 40
0.7885145798
 40
0.8013276449
 40
0.8137864696
 40
0.825892008
 40
0.8376461889
 40
0.8490520045
 40
0.8601136102
 40
0.8708364304
 40
0.8812272748
 40
0.891294465
 40
0.9010479684
 40
0.9196577837
 40
0.9285485816
 40
0.9371847719
 40
0.945586534
 40
0.9537763686
 40
0.9617790942
 40
0.9696217707
 40
0.9773335387
 40
0.9849453649
 40
0.9924896915
 40
1.0
 40
1.0
 40
1.0
 40
1.0
 10
5.1372107233
 20
4.9089332327
 30
0.0
 10
5.1344137649
 20
4.9089332327
 30
0.0
 10
5.1288256873
 20
4.9088863648
 30
0.0
 10
5.1204608735
 20
4.9086755542
 30
0.0
 10
5.112136359
 20
4.9083247699
 30
0.0
 10
5.1038722083
 20
4.9078348592
 30
0.0
 10
5.0956883073
 20
4.9072070071
 30
0.0
 10
5.0876043557
 20
4.9064427304
 30
0.0
 10
5.0796398073
 20
4.9055438774
 30
0.0
 10
5.071813827
 20
4.9045126208
 30
0.0
 10
5.0641452424
 20
4.9033514529
 30
0.0
 10
5.0566524985
 20
4.9020631814
 30
0.0
 10
5.0493536119
 20
4.9006509191
 30
0.0
 10
5.0422661265
 20
4.8991180793
 30
0.0
 10
5.0354070697
 20
4.8974683654
 30
0.0
 10
5.0287929099
 20
4.8957057603
 30
0.0
 10
5.0224395151
 20
4.8938345191
 30
0.0
 10
5.0163621098
 20
4.8918591517
 30
0.0
 10
5.0105752457
 20
4.8897844153
 30
0.0
 10
5.0050927235
 20
4.8876152879
 30
0.0
 10
4.9999276983
 20
4.8853569826
 30
0.0
 10
4.9958476851
 20
4.883380764
 30
0.0
 10
4.9927560159
 20
4.8817565675
 30
0.0
 10
4.9905538406
 20
4.8805351175
 30
0.0
 10
4.9884399202
 20
4.8792955541
 30
0.0
 10
4.9864155146
 20
4.8780386059
 30
0.0
 10
4.9844818365
 20
4.8767650241
 30
0.0
 10
4.9826400428
 20
4.8754755643
 30
0.0
 10
4.9808912351
 20
4.8741709897
 30
0.0
 10
4.979236461
 20
4.8728520719
 30
0.0
 10
4.9776767054
 20
4.8715195807
 30
0.0
 10
4.9762129246
 20
4.8701743173
 30
0.0
 10
4.9748459258
 20
4.868816992
 30
0.0
 10
4.9731797334
 20
4.8670205528
 30
0.0
 10
4.9716780449
 20
4.8651755207
 30
0.0
 10
4.970362292
 20
4.8632837022
 30
0.0
 10
4.9694908741
 20
4.8618782768
 30
0.0
 10
4.9687204985
 20
4.8604656774
 30
0.0
 10
4.9680516666
 20
4.8590466926
 30
0.0
 10
4.9674848562
 20
4.8576221788
 30
0.0
 10
4.9670204842
 20
4.8561929977
 30
0.0
 10
4.9666589096
 20
4.8547600473
 30
0.0
 10
4.9664004242
 20
4.8533242157
 30
0.0
 10
4.9662452441
 20
4.8518865389
 30
0.0
 10
4.9662107237
 20
4.850926531
 30
0.0
 10
4.9662107237
 20
4.8504477882
 30
0.0
  0
SPLINE
  5
248
100
AcDbEntity
  8
0
100
AcDbSpline
 62
7
  6
CONTINUOUS
 70
0
 71
3
 72
50
 73
46
 74
0
 42
0.0000001
 43
0.0000001
 44
0.0000000001
 40
0.0
 40
0.0
 40
0.0
 40
0.0
 40
0.0075103085
 40
0.0150546351
 40
0.0226664613
 40
0.0303782293
 40
0.0382209058
 40
0.0462236314
 40
0.054413466
 40
0.0628152281
 40
0.0714514184
 40
0.0803422163
 40
0.0989520316
 40
0.108705535
 40
0.1187727252
 40
0.1291635696
 40
0.1398863898
 40
0.1509479955
 40
0.1623538111
 40
0.174107992
 40
0.1862135304
 40
0.1986723551
 40
0.2114854202
 40
0.2246527847
 40
0.2381736829
 40
0.2662677919
 40
0.2957490651
 40
0.3265873909
 40
0.3587442062
 40
0.3921735522
 40
0.4268229356
 40
0.4626340564
 40
0.4995434471
 40
0.5374830099
 40
0.5763805149
 40
0.616160042
 40
0.6567423835
 40
0.6980454333
 40
0.7399845395
 40
0.7824728521
 40
0.8254216557
 40
0.8687406886
 40
0.9123384593
 40
0.9561225339
 40
1.0
 40
1.0
 40
1.0
 40
1.0
 10
5.3082107229
 20
4.8504477882
 30
0.0
 10
5.3082107229
 20
4.850926531
 30
0.0
 10
5.3081762024
 20
4.8518865389
 30
0.0
 10
5.3080210224
 20
4.8533242157
 30
0.0
 10
5.307762537
 20
4.8547600473
 30
0.0
 10
5.3074009623
 20
4.8561929977
 30
0.0
 10
5.3069365903
 20
4.8576221788
 30
0.0
 10
5.30636978
 20
4.8590466926
 30
0.0
 10
5.3057009481
 20
4.8604656774
 30
0.0
 10
5.3049305725
 20
4.8618782768
 30
0.0
 10
5.3040591546
 20
4.8632837022
 30
0.0
 10
5.3027434017
 20
4.8651755207
 30
0.0
 10
5.3012417132
 20
4.8670205528
 30
0.0
 10
5.2995755208
 20
4.868816992
 30
0.0
 10
5.2982085219
 20
4.8701743173
 30
0.0
 10
5.2967447412
 20
4.8715195807
 30
0.0
 10
5.2951849856
 20
4.8728520719
 30
0.0
 10
5.2935302115
 20
4.8741709897
 30
0.0
 10
5.2917814037
 20
4.8754755643
 30
0.0
 10
5.28993961
 20
4.8767650241
 30
0.0
 10
5.288005932
 20
4.8780386059
 30
0.0
 10
5.2859815264
 20
4.8792955541
 30
0.0
 10
5.283867606
 20
4.8805351175
 30
0.0
 10
5.2816654307
 20
4.8817565675
 30
0.0
 10
5.2785737615
 20
4.883380764
 30
0.0
 10
5.2744937483
 20
4.8853569826
 30
0.0
 10
5.2693287231
 20
4.8876152879
 30
0.0
 10
5.2638462009
 20
4.8897844153
 30
0.0
 10
5.2580593368
 20
4.8918591517
 30
0.0
 10
5.2519819314
 20
4.8938345191
 30
0.0
 10
5.2456285367
 20
4.8957057603
 30
0.0
 10
5.2390143769
 20
4.8974683654
 30
0.0
 10
5.2321553201
 20
4.8991180793
 30
0.0
 10
5.2250678346
 20
4.9006509191
 30
0.0
 10
5.2177689481
 20
4.9020631814
 30
0.0
 10
5.2102762042
 20
4.9033514529
 30
0.0
 10
5.2026076196
 20
4.9045126208
 30
0.0
 10
5.1947816393
 20
4.9055438774
 30
0.0
 10
5.1868170909
 20
4.9064427304
 30
0.0
 10
5.1787331392
 20
4.9072070071
 30
0.0
 10
5.1705492383
 20
4.9078348592
 30
0.0
 10
5.1622850876
 20
4.9083247699
 30
0.0
 10
5.153960573
 20
4.9086755542
 30
0.0
 10
5.1455957593
 20
4.9088863648
 30
0.0
 10
5.1400076817
 20
4.9089332327
 30
0.0
 10
5.1372107233
 20
4.9089332327
 30
0.0
  0
SPLINE
  5
249
100
AcDbEntity
  8
0
100
AcDbSpline
 62
7
  6
CONTINUOUS
 70
0
 71
3
 72
50
 73
46
 74
0
 42
0.0000001
 43
0.0000001
 44
0.0000000001
 40
0.0
 40
0.0
 40
0.0
 40
0.0
 40
0.0438774661
 40
0.0876615407
 40
0.1312593114
 40
0.1745783443
 40
0.2175271479
 40
0.2600154605
 40
0.3019545667
 40
0.3432576165
 40
0.383839958
 40
0.4236194851
 40
0.4625169901
 40
0.5004565529
 40
0.5373659436
 40
0.5731770644
 40
0.6078264478
 40
0.6412557938
 40
0.6734126091
 40
0.7042509349
 40
0.7337322081
 40
0.7618263171
 40
0.7753472153
 40
0.7885145798
 40
0.8013276449
 40
0.8137864696
 40
0.825892008
 40
0.8376461889
 40
0.8490520045
 40
0.8601136102
 40
0.8708364304
 40
0.8812272748
 40
0.891294465
 40
0.9010479684
 40
0.9196577837
 40
0.9285485816
 40
0.9371847719
 40
0.945586534
 40
0.9537763686
 40
0.9617790942
 40
0.9696217707
 40
0.9773335387
 40
0.9849453649
 40
0.9924896915
 40
1.0
 40
1.0
 40
1.0
 40
1.0
 10
5.1372107233
 20
4.1054960419
 30
0.0
 10
5.1344137649
 20
4.1054960419
 30
0.0
 10
5.1288256873
 20
4.105449174
 30
0.0
 10
5.1204608735
 20
4.1052383634
 30
0.0
 10
5.112136359
 20
4.1048875791
 30
0.0
 10
5.1038722083
 20
4.1043976684
 30
0.0
 10
5.0956883073
 20
4.1037698163
 30
0.0
 10
5.0876043557
 20
4.1030055396
 30
0.0
 10
5.0796398073
 20
4.1021066866
 30
0.0
 10
5.071813827
 20
4.10107543
 30
0.0
 10
5.0641452424
 20
4.0999142621
 30
0.0
 10
5.0566524985
 20
4.0986259906
 30
0.0
 10
5.0493536119
 20
4.0972137283
 30
0.0
 10
5.0422661265
 20
4.0956808885
 30
0.0
 10
5.0354070697
 20
4.0940311746
 30
0.0
 10
5.0287929099
 20
4.0922685695
 30
0.0
 10
5.0224395151
 20
4.0903973284
 30
0.0
 10
5.0163621098
 20
4.0884219609
 30
0.0
 10
5.0105752457
 20
4.0863472245
 30
0.0
 10
5.0050927235
 20
4.0841780971
 30
0.0
 10
4.9999276983
 20
4.0819197919
 30
0.0
 10
4.9958476851
 20
4.0799435732
 30
0.0
 10
4.9927560159
 20
4.0783193767
 30
0.0
 10
4.9905538406
 20
4.0770979267
 30
0.0
 10
4.9884399202
 20
4.0758583633
 30
0.0
 10
4.9864155146
 20
4.0746014151
 30
0.0
 10
4.9844818365
 20
4.0733278333
 30
0.0
 10
4.9826400428
 20
4.0720383736
 30
0.0
 10
4.9808912351
 20
4.0707337989
 30
0.0
 10
4.979236461
 20
4.0694148811
 30
0.0
 10
4.9776767054
 20
4.06808239
 30
0.0
 10
4.9762129246
 20
4.0667371265
 30
0.0
 10
4.9748459258
 20
4.0653798012
 30
0.0
 10
4.9731797334
 20
4.063583362
 30
0.0
 10
4.9716780449
 20
4.0617383299
 30
0.0
 10
4.970362292
 20
4.0598465115
 30
0.0
 10
4.9694908741
 20
4.0584410861
 30
0.0
 10
4.9687204985
 20
4.0570284866
 30
0.0
 10
4.9680516666
 20
4.0556095018
 30
0.0
 10
4.9674848562
 20
4.054184988
 30
0.0
 10
4.9670204842
 20
4.0527558069
 30
0.0
 10
4.9666589096
 20
4.0513228565
 30
0.0
 10
4.9664004242
 20
4.0498870249
 30
0.0
 10
4.9662452441
 20
4.0484493481
 30
0.0
 10
4.9662107237
 20
4.0474893402
 30
0.0
 10
4.9662107237
 20
4.0470105974
 30
0.0
  0
SPLINE
  5
24A
100
AcDbEntity
  8
0
100
AcDbSpline
 62
7
  6
CONTINUOUS
 70
0
 71
3
 72
18
 73
14
 74
0
 42
0.0000001
 43
0.0000001
 44
0.0000000001
 40
0.0
 40
0.0
 40
0.0
 40
0.0
 40
0.1470426073
 40
0.2867839351
 40
0.4193203073
 40
0.5450493557
 40
0.6647052082
 40
0.7226197992
 40
0.7794539
 40
0.8353962484
 40
0.8906527972
 40
0.9454441828
 40
1.0
 40
1.0
 40
1.0
 40
1.0
 10
5.9082713608
 20
5.2897579835
 30
0.0
 10
5.9086688179
 20
5.2899791249
 30
0.0
 10
5.9094624328
 20
5.2903785558
 30
0.0
 10
5.9106724077
 20
5.2908513633
 30
0.0
 10
5.9118618901
 20
5.291178488
 30
0.0
 10
5.9130200864
 20
5.2913564679
 30
0.0
 10
5.9139611763
 20
5.2913787172
 30
0.0
 10
5.9146842608
 20
5.2913181241
 30
0.0
 10
5.9152062403
 20
5.2912353901
 30
0.0
 10
5.9157124041
 20
5.2911150288
 30
0.0
 10
5.9162015958
 20
5.2909572955
 30
0.0
 10
5.9166726102
 20
5.2907625613
 30
0.0
 10
5.9169740683
 20
5.2906082068
 30
0.0
 10
5.9171210179
 20
5.2905252397
 30
0.0
  0
SPLINE
  5
24B
100
AcDbEntity
  8
0
100
AcDbSpline
 62
7
  6
CONTINUOUS
 70
0
 71
3
 72
18
 73
14
 74
0
 42
0.0000001
 43
0.0000001
 44
0.0000000001
 40
0.0
 40
0.0
 40
0.0
 40
0.0
 40
0.1470426051
 40
0.2867839405
 40
0.4193203195
 40
0.5450493678
 40
0.664705211
 40
0.7226197953
 40
0.7794538893
 40
0.8353962325
 40
0.8906527796
 40
0.9454441698
 40
1.0
 40
1.0
 40
1.0
 40
1.0
 10
5.9082715344
 20
5.4375861656
 30
0.0
 10
5.9086689894
 20
5.4373650243
 30
0.0
 10
5.9094626001
 20
5.4369655934
 30
0.0
 10
5.9106725689
 20
5.4364927847
 30
0.0
 10
5.9118620454
 20
5.4361656583
 30
0.0
 10
5.9130202364
 20
5.4359876759
 30
0.0
 10
5.9139613223
 20
5.4359654243
 30
0.0
 10
5.9146844039
 20
5.4360260154
 30
0.0
 10
5.9152063814
 20
5.4361087479
 30
0.0
 10
5.9157125432
 20
5.4362291076
 30
0.0
 10
5.9162017332
 20
5.4363868394
 30
0.0
 10
5.916672746
 20
5.4365815721
 30
0.0
 10
5.9169742031
 20
5.4367359256
 30
0.0
 10
5.9171211522
 20
5.4368188921
 30
0.0
  0
SPLINE
  5
24C
100
AcDbEntity
  8
0
100
AcDbSpline
 62
7
  6
CONTINUOUS
 70
0
 71
3
 72
33
 73
29
 74
0
 42
0.0000001
 43
0.0000001
 44
0.0000000001
 40
0.0
 40
0.0
 40
0.0
 40
0.0
 40
0.0342495389
 40
0.0513645196
 40
0.068467079
 40
0.1026178501
 40
0.1366718284
 40
0.2043649361
 40
0.2379629363
 40
0.2713625674
 40
0.3045457137
 40
0.3374973542
 40
0.3702053221
 40
0.4026603327
 40
0.4348558142
 40
0.4667877286
 40
0.4984541615
 40
0.5298549629
 40
0.5918605115
 40
0.6528387733
 40
0.6829584189
 40
0.712837985
 40
0.7718994819
 40
0.830086402
 40
0.8874585067
 40
0.9158597839
 40
0.9440795938
 40
1.0
 40
1.0
 40
1.0
 40
1.0
 10
5.4069489272
 20
5.3636720764
 30
0.0
 10
5.4069485695
 20
5.3611829062
 30
0.0
 10
5.4068819354
 20
5.3574494497
 30
0.0
 10
5.4066633531
 20
5.3524780589
 30
0.0
 10
5.4063585465
 20
5.3475183641
 30
0.0
 10
5.4058169321
 20
5.3413407008
 30
0.0
 10
5.4046123937
 20
5.3315362244
 30
0.0
 10
5.4029039016
 20
5.3218397055
 30
0.0
 10
5.4007155399
 20
5.3122970768
 30
0.0
 10
5.3988501872
 20
5.3052576826
 30
0.0
 10
5.3967644801
 20
5.298329611
 30
0.0
 10
5.3944674901
 20
5.2915217448
 30
0.0
 10
5.3919698471
 20
5.2848414408
 30
0.0
 10
5.3892813756
 20
5.2782950432
 30
0.0
 10
5.3864116481
 20
5.2718878429
 30
0.0
 10
5.3833696556
 20
5.2656243262
 30
0.0
 10
5.3801646803
 20
5.2595077405
 30
0.0
 10
5.3757057929
 20
5.2515852135
 30
0.0
 10
5.3697743262
 20
5.2420529654
 30
0.0
 10
5.3633641508
 20
5.2329502356
 30
0.0
 10
5.3580079419
 20
5.2259765097
 30
0.0
 10
5.3525532353
 20
5.219258124
 30
0.0
 10
5.3454857273
 20
5.2112267827
 30
0.0
 10
5.3366199393
 20
5.2021389083
 30
0.0
 10
5.3289472827
 20
5.1950190129
 30
0.0
 10
5.3226735305
 20
5.1896071376
 30
0.0
 10
5.3163547741
 20
5.1844126922
 30
0.0
 10
5.3114957862
 20
5.1806952247
 30
0.0
 10
5.3082123226
 20
5.1783001847
 30
0.0
  0
SPLINE
  5
24D
100
AcDbEntity
  8
0
100
AcDbSpline
 62
7
  6
CONTINUOUS
 70
0
 71
3
 72
39
 73
35
 74
0
 42
0.0000001
 43
0.0000001
 44
0.0000000001
 40
0.0
 40
0.0
 40
0.0
 40
0.0
 40
0.0314307862
 40
0.0628597877
 40
0.0942853613
 40
0.1257058028
 40
0.1571194741
 40
0.1885248037
 40
0.2199202993
 40
0.251304562
 40
0.2826762995
 40
0.3140343387
 40
0.3453776371
 40
0.3767052925
 40
0.4080165524
 40
0.439310821
 40
0.4705876654
 40
0.5018468198
 40
0.5330881884
 40
0.564311847
 40
0.5955180419
 40
0.6267071882
 40
0.6578798662
 40
0.6890368156
 40
0.7201789289
 40
0.7513072429
 40
0.7824229287
 40
0.8135272805
 40
0.8446217032
 40
0.8757076986
 40
0.906786851
 40
0.9378608116
 40
0.9689312825
 40
1.0
 40
1.0
 40
1.0
 40
1.0
 10
5.1372107233
 20
2.84020232
 30
0.0
 10
5.1344130402
 20
2.84020232
 30
0.0
 10
5.1288168823
 20
2.8403381002
 30
0.0
 10
5.1204435507
 20
2.8409486265
 30
0.0
 10
5.1121104038
 20
2.8419645354
 30
0.0
 10
5.103837769
 20
2.8433833829
 30
0.0
 10
5.0956455051
 20
2.8452017497
 30
0.0
 10
5.0875533647
 20
2.8474152603
 30
0.0
 10
5.0795808346
 20
2.850018582
 30
0.0
 10
5.071747121
 20
2.8530054466
 30
0.0
 10
5.0640710945
 20
2.8563686626
 30
0.0
 10
5.0565712452
 20
2.8601001283
 30
0.0
 10
5.0492656416
 20
2.8641908603
 30
0.0
 10
5.0421718825
 20
2.8686310052
 30
0.0
 10
5.0353070575
 20
2.8734098695
 30
0.0
 10
5.0286877067
 20
2.8785159456
 30
0.0
 10
5.0223297761
 20
2.883936933
 30
0.0
 10
5.0162485858
 20
2.8896597772
 30
0.0
 10
5.0104587874
 20
2.8956706929
 30
0.0
 10
5.0049743308
 20
2.9019552011
 30
0.0
 10
4.9998084333
 20
2.9084981654
 30
0.0
 10
4.9949735407
 20
2.9152838227
 30
0.0
 10
4.9904813056
 20
2.9222958282
 30
0.0
 10
4.9863425534
 20
2.9295172895
 30
0.0
 10
4.9825672566
 20
2.9369308088
 30
0.0
 10
4.9791645163
 20
2.9445185271
 30
0.0
 10
4.9761425306
 20
2.9522621625
 30
0.0
 10
4.9735085842
 20
2.9601430595
 30
0.0
 10
4.971269026
 20
2.968142229
 30
0.0
 10
4.9694292514
 20
2.9762404027
 30
0.0
 10
4.9679936979
 20
2.98441805
 30
0.0
 10
4.9669658232
 20
2.9926555387
 30
0.0
 10
4.9663481053
 20
3.0009327524
 30
0.0
 10
4.9662107237
 20
3.0064648026
 30
0.0
 10
4.9662107237
 20
3.0092302577
 30
0.0
  0
LINE
  5
24E
100
AcDbEntity
  8
0
100
AcDbLine
 62
7
  6
CONTINUOUS
 10
5.9557607366
 20
5.2615165139
 11
5.9561216532
 21
5.2700918656
  0
LINE
  5
24F
100
AcDbEntity
  8
0
100
AcDbLine
 62
7
  6
CONTINUOUS
 10
5.9561215724
 20
5.457252194
 11
5.9557606915
 21
5.4658275698
  0
SPLINE
  5
250
100
AcDbEntity
  8
0
100
AcDbSpline
 62
7
  6
CONTINUOUS
 70
0
 71
3
 72
43
 73
39
 74
0
 42
0.0000001
 43
0.0000001
 44
0.0000000001
 40
0.0
 40
0.0
 40
0.0
 40
0.0
 40
0.1514186416
 40
0.2263372221
 40
0.3006469089
 40
0.3742648593
 40
0.447079618
 40
0.5189383757
 40
0.5896314482
 40
0.6588601108
 40
0.6927947757
 40
0.7261828764
 40
0.7589304735
 40
0.7909224754
 40
0.8220112556
 40
0.8520039964
 40
0.8806477091
 40
0.9076117212
 40
0.9203318017
 40
0.9324567767
 40
0.943910177
 40
0.9546048733
 40
0.9644428829
 40
0.9733175166
 40
0.9811128796
 40
0.9845685802
 40
0.9877099354
 40
0.9905225894
 40
0.9929926525
 40
0.995106909
 40
0.9968537973
 40
0.9982237095
 40
0.998764707
 40
0.9992085742
 40
0.9995544671
 40
0.9998018458
 40
0.9999504427
 40
1.0
 40
1.0
 40
1.0
 40
1.0
 10
5.9082711593
 20
5.2897581199
 30
0.0
 10
5.9093616969
 20
5.2893476357
 30
0.0
 10
5.9110006334
 20
5.2887571445
 30
0.0
 10
5.9131930032
 20
5.288017875
 30
0.0
 10
5.9148252487
 20
5.2874917113
 30
0.0
 10
5.9164487648
 20
5.2869917408
 30
0.0
 10
5.9180604565
 20
5.2865179299
 30
0.0
 10
5.91965627
 20
5.2860703807
 30
0.0
 10
5.9212307578
 20
5.2856494504
 30
0.0
 10
5.9225273064
 20
5.28531925
 30
0.0
 10
5.9235478331
 20
5.2850687192
 30
0.0
 10
5.9242967364
 20
5.2848893245
 30
0.0
 10
5.9250320537
 20
5.2847174389
 30
0.0
 10
5.9257510274
 20
5.2845534194
 30
0.0
 10
5.926450154
 20
5.2843977618
 30
0.0
 10
5.9271248753
 20
5.2842510941
 30
0.0
 10
5.9277692386
 20
5.2841142404
 30
0.0
 10
5.9282840704
 20
5.2840073324
 30
0.0
 10
5.928674698
 20
5.2839275392
 30
0.0
 10
5.9289484901
 20
5.2838721791
 30
0.0
 10
5.9292071051
 20
5.2838204045
 30
0.0
 10
5.9294485499
 20
5.2837725196
 30
0.0
 10
5.9296706007
 20
5.2837288585
 30
0.0
 10
5.9298708194
 20
5.2836898096
 30
0.0
 10
5.9300228708
 20
5.2836603652
 30
0.0
 10
5.9301316258
 20
5.2836394063
 30
0.0
 10
5.9302027364
 20
5.2836257413
 30
0.0
 10
5.9302664055
 20
5.283613539
 30
0.0
 10
5.930322313
 20
5.2836028496
 30
0.0
 10
5.930370179
 20
5.2835937156
 30
0.0
 10
5.9304096998
 20
5.2835861833
 30
0.0
 10
5.9304374053
 20
5.2835809154
 30
0.0
 10
5.930455126
 20
5.2835775426
 30
0.0
 10
5.9304653592
 20
5.2835756094
 30
0.0
 10
5.9304727543
 20
5.2835741778
 30
0.0
 10
5.9304793738
 20
5.2835729826
 30
0.0
 10
5.9304809675
 20
5.2835725716
 30
0.0
 10
5.9304843038
 20
5.2835720504
 30
0.0
 10
5.9304839234
 20
5.2835720764
 30
0.0
  0
SPLINE
  5
251
100
AcDbEntity
  8
0
100
AcDbSpline
 62
7
  6
CONTINUOUS
 70
0
 71
3
 72
25
 73
21
 74
0
 42
0.0000001
 43
0.0000001
 44
0.0000000001
 40
0.0
 40
0.0
 40
0.0
 40
0.0
 40
0.0839012003
 40
0.1671449417
 40
0.2490848658
 40
0.329094099
 40
0.406577537
 40
0.4809812907
 40
0.5518050973
 40
0.6186176325
 40
0.6810750503
 40
0.7389436148
 40
0.7921287716
 40
0.8407143376
 40
0.8850141379
 40
0.9256305672
 40
0.9448617542
 40
0.96355355
 40
0.9818725886
 40
1.0
 40
1.0
 40
1.0
 40
1.0
 10
5.9557607074
 20
5.4658275195
 30
0.0
 10
5.955956778
 20
5.4658275194
 30
0.0
 10
5.956347433
 20
5.4658192417
 30
0.0
 10
5.9569285188
 20
5.4657822559
 30
0.0
 10
5.9574984205
 20
5.4657209761
 30
0.0
 10
5.9580516718
 20
5.4656360224
 30
0.0
 10
5.9585829886
 20
5.4655282077
 30
0.0
 10
5.9590873007
 20
5.4653985715
 30
0.0
 10
5.9595598074
 20
5.4652483563
 30
0.0
 10
5.9599960299
 20
5.4650789939
 30
0.0
 10
5.9603918636
 20
5.4648920787
 30
0.0
 10
5.9607436208
 20
5.4646893245
 30
0.0
 10
5.9610480547
 20
5.4644725341
 30
0.0
 10
5.9613023604
 20
5.4642434699
 30
0.0
 10
5.9615040544
 20
5.4640039785
 30
0.0
 10
5.9616286265
 20
5.4637931511
 30
0.0
 10
5.9616975486
 20
5.4636227346
 30
0.0
 10
5.9617339467
 20
5.4634961714
 30
0.0
 10
5.9617558406
 20
5.4633689342
 30
0.0
 10
5.961760723
 20
5.4632836833
 30
0.0
 10
5.9617607233
 20
5.463241321
 30
0.0
  0
SPLINE
  5
252
100
AcDbEntity
  8
0
100
AcDbSpline
 62
7
  6
CONTINUOUS
 70
0
 71
3
 72
88
 73
84
 74
0
 42
0.0000001
 43
0.0000001
 44
0.0000000001
 40
0.0
 40
0.0
 40
0.0
 40
0.0
 40
0.0000008841
 40
0.0000044348
 40
0.000010671
 40
0.0000196103
 40
0.0000456684
 40
0.0000827478
 40
0.0001308813
 40
0.0001899344
 40
0.0002597581
 40
0.0003402028
 40
0.0005321081
 40
0.0007634965
 40
0.0010321296
 40
0.0013359334
 40
0.0016728824
 40
0.0020410131
 40
0.0028631917
 40
0.0037884119
 40
0.0048043982
 40
0.005900783
 40
0.0070679066
 40
0.0082964909
 40
0.0095775696
 40
0.0122659962
 40
0.0150892271
 40
0.0180212313
 40
0.02103997
 40
0.0241263048
 40
0.0272691753
 40
0.0304593303
 40
0.0336884846
 40
0.0402408171
 40
0.0468913329
 40
0.0536170582
 40
0.0604016066
 40
0.0672334228
 40
0.0741043879
 40
0.0810082575
 40
0.0879400971
 40
0.0948964612
 40
0.1088721188
 40
0.1229193543
 40
0.1370282168
 40
0.1511925288
 40
0.1654085517
 40
0.1796741542
 40
0.193988315
 40
0.2083509108
 40
0.2227623405
 40
0.2372235391
 40
0.2662992779
 40
0.2955931551
 40
0.32512257
 40
0.3549076848
 40
0.3849710168
 40
0.4153371314
 40
0.4460325933
 40
0.4770854751
 40
0.5085254741
 40
0.5403831389
 40
0.5726896928
 40
0.6054757299
 40
0.6387704774
 40
0.6725996064
 40
0.7069833568
 40
0.7419331766
 40
0.7596227127
 40
0.777452504
 40
0.7954199656
 40
0.8135211961
 40
0.831750907
 40
0.8501023533
 40
0.8685673398
 40
0.8871360962
 40
0.9057972875
 40
0.9245381033
 40
0.9433444212
 40
0.962200999
 40
0.9716433744
 40
0.9810922066
 40
1.0
 40
1.0
 40
1.0
 40
1.0
 10
5.1550433625
 20
5.6030664516
 30
0.0
 10
5.15504325
 20
5.6030664438
 30
0.0
 10
5.1550444697
 20
5.6030663479
 30
0.0
 10
5.1550450879
 20
5.6030662984
 30
0.0
 10
5.1550479214
 20
5.6030661005
 30
0.0
 10
5.1550528829
 20
5.6030657687
 30
0.0
 10
5.1550622745
 20
5.6030651607
 30
0.0
 10
5.1550763318
 20
5.6030642739
 30
0.0
 10
5.1550947394
 20
5.6030631295
 30
0.0
 10
5.1551172586
 20
5.6030617419
 30
0.0
 10
5.1551439123
 20
5.6030601083
 30
0.0
 10
5.1551874724
 20
5.6030574478
 30
0.0
 10
5.1552516056
 20
5.6030535404
 30
0.0
 10
5.1553396944
 20
5.6030481573
 30
0.0
 10
5.1554420276
 20
5.6030418656
 30
0.0
 10
5.1555577959
 20
5.6030346962
 30
0.0
 10
5.1556862267
 20
5.6030266772
 30
0.0
 10
5.1558806399
 20
5.6030144323
 30
0.0
 10
5.1561499221
 20
5.6029972272
 30
0.0
 10
5.1565016407
 20
5.6029743204
 30
0.0
 10
5.1568882277
 20
5.6029486517
 30
0.0
 10
5.1573055667
 20
5.6029204245
 30
0.0
 10
5.1577499217
 20
5.6028898019
 30
0.0
 10
5.1582177346
 20
5.6028569325
 30
0.0
 10
5.1588790385
 20
5.6028094666
 30
0.0
 10
5.1597430518
 20
5.6027451919
 30
0.0
 10
5.1608167569
 20
5.6026613595
 30
0.0
 10
5.161932148
 20
5.6025702797
 30
0.0
 10
5.1630806329
 20
5.6024722352
 30
0.0
 10
5.1642555093
 20
5.6023672457
 30
0.0
 10
5.1654517363
 20
5.6022556422
 30
0.0
 10
5.1666656427
 20
5.6021375339
 30
0.0
 10
5.1683117108
 20
5.6019706288
 30
0.0
 10
5.1703955614
 20
5.601746283
 30
0.0
 10
5.1729204707
 20
5.6014530892
 30
0.0
 10
5.1754722047
 20
5.6011349003
 30
0.0
 10
5.178044044
 20
5.600791825
 30
0.0
 10
5.1806311651
 20
5.6004239381
 30
0.0
 10
5.1832300422
 20
5.6000313206
 30
0.0
 10
5.1858379855
 20
5.5996139838
 30
0.0
 10
5.1884528956
 20
5.5991718828
 30
0.0
 10
5.1919518047
 20
5.5985484737
 30
0.0
 10
5.1963335889
 20
5.5977073457
 30
0.0
 10
5.2015923473
 20
5.5965999333
 30
0.0
 10
5.2068537478
 20
5.595392486
 30
0.0
 10
5.2121132459
 20
5.5940844843
 30
0.0
 10
5.2173672573
 20
5.5926753296
 30
0.0
 10
5.2226127928
 20
5.5911643473
 30
0.0
 10
5.2278472648
 20
5.5895507963
 30
0.0
 10
5.233068334
 20
5.5878338829
 30
0.0
 10
5.2382738683
 20
5.5860127362
 30
0.0
 10
5.2452031812
 20
5.5834398699
 30
0.0
 10
5.2538174055
 20
5.579956338
 30
0.0
 10
5.2640420069
 20
5.5753503938
 30
0.0
 10
5.2741568725
 20
5.5703017054
 30
0.0
 10
5.2841449609
 20
5.5647999295
 30
0.0
 10
5.2939880504
 20
5.5588338085
 30
0.0
 10
5.3036660874
 20
5.5523911631
 30
0.0
 10
5.3131570034
 20
5.5454592926
 30
0.0
 10
5.322435906
 20
5.5380245884
 30
0.0
 10
5.3314751518
 20
5.5300735463
 30
0.0
 10
5.3402431804
 20
5.5215922502
 30
0.0
 10
5.3487048142
 20
5.5125678993
 30
0.0
 10
5.3568196885
 20
5.5029884283
 30
0.0
 10
5.3645430493
 20
5.4928448288
 30
0.0
 10
5.3718238904
 20
5.4821310515
 30
0.0
 10
5.3786063504
 20
5.4708476269
 30
0.0
 10
5.383770983
 20
5.4610148992
 30
0.0
 10
5.3875926976
 20
5.4528784335
 30
0.0
 10
5.3903056958
 20
5.4466177641
 30
0.0
 10
5.39284524
 20
5.4402282335
 30
0.0
 10
5.3952025148
 20
5.4337149032
 30
0.0
 10
5.3973684728
 20
5.4270838876
 30
0.0
 10
5.3993334006
 20
5.4203421624
 30
0.0
 10
5.4010896895
 20
5.4134984217
 30
0.0
 10
5.4026303515
 20
5.4065624321
 30
0.0
 10
5.4039481478
 20
5.3995448376
 30
0.0
 10
5.4050356281
 20
5.3924571697
 30
0.0
 10
5.4058859116
 20
5.385312075
 30
0.0
 10
5.4063945621
 20
5.3793242362
 30
0.0
 10
5.4066807517
 20
5.374517895
 30
0.0
 10
5.4068859777
 20
5.369700925
 30
0.0
 10
5.4069485741
 20
5.3660837241
 30
0.0
 10
5.4069489272
 20
5.3636720764
 30
0.0
  0
SPLINE
  5
253
100
AcDbEntity
  8
0
100
AcDbSpline
 62
7
  6
CONTINUOUS
 70
0
 71
3
 72
44
 73
40
 74
0
 42
0.0000001
 43
0.0000001
 44
0.0000000001
 40
0.0
 40
0.0
 40
0.0
 40
0.0
 40
0.0000495238
 40
0.000198219
 40
0.000445706
 40
0.0007915992
 40
0.0012353402
 40
0.0017761787
 40
0.0031460531
 40
0.0048932346
 40
0.0070073975
 40
0.0094770472
 40
0.0122896976
 40
0.0154313836
 40
0.018887134
 40
0.0266820969
 40
0.0355568884
 40
0.0453947282
 40
0.0560893641
 40
0.0675427292
 40
0.0796675202
 40
0.0923873886
 40
0.1193515974
 40
0.1479948944
 40
0.1779871404
 40
0.2090762722
 40
0.24106855
 40
0.2738157348
 40
0.3072032298
 40
0.3411376242
 40
0.4103662906
 40
0.4810596247
 40
0.5529182338
 40
0.6257324385
 40
0.699350061
 40
0.7736594674
 40
0.8485778243
 40
0.9240417551
 40
1.0
 40
1.0
 40
1.0
 40
1.0
 10
5.9304839234
 20
5.4437720764
 30
0.0
 10
5.9304843037
 20
5.4437721011
 30
0.0
 10
5.9304809664
 20
5.4437715828
 30
0.0
 10
5.9304793727
 20
5.4437711694
 30
0.0
 10
5.930472751
 20
5.4437699758
 30
0.0
 10
5.9304653562
 20
5.4437685435
 30
0.0
 10
5.9304551254
 20
5.4437666104
 30
0.0
 10
5.9304374075
 20
5.4437632369
 30
0.0
 10
5.9304097013
 20
5.4437579691
 30
0.0
 10
5.9303701792
 20
5.4437504388
 30
0.0
 10
5.9303223153
 20
5.4437413044
 30
0.0
 10
5.9302664126
 20
5.4437306133
 30
0.0
 10
5.9302027445
 20
5.4437184116
 30
0.0
 10
5.9301316311
 20
5.4437047486
 30
0.0
 10
5.9300228771
 20
5.4436837899
 30
0.0
 10
5.9298708287
 20
5.4436543431
 30
0.0
 10
5.929670614
 20
5.4436152983
 30
0.0
 10
5.9294485657
 20
5.4435716358
 30
0.0
 10
5.9292071245
 20
5.4435237523
 30
0.0
 10
5.9289485135
 20
5.4434719789
 30
0.0
 10
5.9286747267
 20
5.4434166191
 30
0.0
 10
5.9282841039
 20
5.4433368244
 30
0.0
 10
5.9277692779
 20
5.443229924
 30
0.0
 10
5.9271249255
 20
5.4430930681
 30
0.0
 10
5.9264502145
 20
5.442946397
 30
0.0
 10
5.9257510904
 20
5.4427907478
 30
0.0
 10
5.9250321186
 20
5.4426267359
 30
0.0
 10
5.9242968134
 20
5.4424548479
 30
0.0
 10
5.9235479269
 20
5.4422754493
 30
0.0
 10
5.9225274147
 20
5.4420249199
 30
0.0
 10
5.9212308747
 20
5.4416947252
 30
0.0
 10
5.9196563939
 20
5.4412738111
 30
0.0
 10
5.9180605944
 20
5.4408262687
 30
0.0
 10
5.9164489254
 20
5.4403524532
 30
0.0
 10
5.9148254282
 20
5.4398524888
 30
0.0
 10
5.9131932065
 20
5.4393263301
 30
0.0
 10
5.9115547086
 20
5.4387738255
 30
0.0
 10
5.9099119508
 20
5.4381947561
 30
0.0
 10
5.9088184553
 20
5.43779203
 30
0.0
 10
5.9082713989
 20
5.4375861115
 30
0.0
  0
SPLINE
  5
254
100
AcDbEntity
  8
0
100
AcDbSpline
 62
7
  6
CONTINUOUS
 70
0
 71
3
 72
24
 73
20
 74
0
 42
0.0000001
 43
0.0000001
 44
0.0000000001
 40
0.0
 40
0.0
 40
0.0
 40
0.0
 40
0.1671127642
 40
0.2490555843
 40
0.3290676041
 40
0.4065537062
 40
0.4809600376
 40
0.5517862834
 40
0.6186010867
 40
0.6810605984
 40
0.7389310993
 40
0.7921180322
 40
0.8407052232
 40
0.8850065284
 40
0.9256243859
 40
0.9448562793
 40
0.9635482127
 40
0.9818695245
 40
1.0
 40
1.0
 40
1.0
 40
1.0
 10
5.9557607366
 20
5.2615165139
 30
0.0
 10
5.9561512516
 20
5.2615165134
 30
0.0
 10
5.9567336875
 20
5.2615408241
 30
0.0
 10
5.9574984344
 20
5.2616230322
 30
0.0
 10
5.9580516988
 20
5.2617079932
 30
0.0
 10
5.9585830101
 20
5.2618158073
 30
0.0
 10
5.9590873214
 20
5.2619454448
 30
0.0
 10
5.959559826
 20
5.2620956608
 30
0.0
 10
5.9599960465
 20
5.262265024
 30
0.0
 10
5.9603918781
 20
5.2624519399
 30
0.0
 10
5.9607436332
 20
5.2626546948
 30
0.0
 10
5.9610480649
 20
5.2628714857
 30
0.0
 10
5.9613023686
 20
5.2631005503
 30
0.0
 10
5.9615040603
 20
5.2633400422
 30
0.0
 10
5.9616286311
 20
5.2635508699
 30
0.0
 10
5.9616975504
 20
5.2637212857
 30
0.0
 10
5.9617339508
 20
5.2638478508
 30
0.0
 10
5.9617558414
 20
5.2639750967
 30
0.0
 10
5.9617607231
 20
5.2640603569
 30
0.0
 10
5.9617607233
 20
5.2641027248
 30
0.0
  0
SPLINE
  5
255
100
AcDbEntity
  8
0
100
AcDbSpline
 62
7
  6
CONTINUOUS
 70
0
 71
3
 72
71
 73
67
 74
0
 42
0.0000001
 43
0.0000001
 44
0.0000000001
 40
0.0
 40
0.0
 40
0.0
 40
0.0
 40
0.0155343711
 40
0.0310695953
 40
0.0466065745
 40
0.0621461507
 40
0.0776891484
 40
0.0932363598
 40
0.1087885357
 40
0.1243463786
 40
0.1399105356
 40
0.1554815922
 40
0.1710600669
 40
0.1866464059
 40
0.2022409791
 40
0.2178440766
 40
0.2334559058
 40
0.2490765902
 40
0.2647061674
 40
0.2803445895
 40
0.2959917238
 40
0.3116473538
 40
0.3273111815
 40
0.3429828307
 40
0.3586618503
 40
0.374347719
 40
0.3900398504
 40
0.4057375982
 40
0.421440263
 40
0.4371470986
 40
0.4528573193
 40
0.4685701072
 40
0.4842846203
 40
0.5
 40
0.5157153797
 40
0.5314298928
 40
0.5471426807
 40
0.5628529014
 40
0.578559737
 40
0.5942624018
 40
0.6099601496
 40
0.625652281
 40
0.6413381497
 40
0.6570171693
 40
0.6726888185
 40
0.6883526462
 40
0.7040082762
 40
0.7196554105
 40
0.7352938326
 40
0.7509234098
 40
0.7665440942
 40
0.7821559234
 40
0.7977590209
 40
0.8133535941
 40
0.8289399331
 40
0.8445184078
 40
0.8600894644
 40
0.8756536214
 40
0.8912114643
 40
0.9067636402
 40
0.9223108516
 40
0.9378538493
 40
0.9533934255
 40
0.9689304047
 40
0.9844656289
 40
1.0
 40
1.0
 40
1.0
 40
1.0
 10
5.3082107233
 20
2.9849252062
 30
0.0
 10
5.3082107233
 20
2.9821597489
 30
0.0
 10
5.308073341
 20
2.9766276985
 30
0.0
 10
5.3074556231
 20
2.9683504849
 30
0.0
 10
5.3064277492
 20
2.9601129982
 30
0.0
 10
5.3049921943
 20
2.9519353514
 30
0.0
 10
5.3031524213
 20
2.9438371773
 30
0.0
 10
5.3009128621
 20
2.935838008
 30
0.0
 10
5.2982789157
 20
2.9279571111
 30
0.0
 10
5.295256931
 20
2.9202134753
 30
0.0
 10
5.2918541893
 20
2.9126257576
 30
0.0
 10
5.2880788935
 20
2.9052122379
 30
0.0
 10
5.2839401411
 20
2.8979907766
 30
0.0
 10
5.2794479054
 20
2.8909787716
 30
0.0
 10
5.2746130139
 20
2.8841931135
 30
0.0
 10
5.2694471154
 20
2.8776501499
 30
0.0
 10
5.2639626592
 20
2.8713656414
 30
0.0
 10
5.2581728611
 20
2.8653547253
 30
0.0
 10
5.2520916701
 20
2.859631882
 30
0.0
 10
5.2457337401
 20
2.8542108938
 30
0.0
 10
5.239114389
 20
2.8491048181
 30
0.0
 10
5.232249564
 20
2.8443259539
 30
0.0
 10
5.2251558052
 20
2.8398858084
 30
0.0
 10
5.2178502012
 20
2.8357950772
 30
0.0
 10
5.2103503521
 20
2.832063611
 30
0.0
 10
5.2026743256
 20
2.828700395
 30
0.0
 10
5.1948406118
 20
2.8257135307
 30
0.0
 10
5.1868680821
 20
2.8231102085
 30
0.0
 10
5.1787759408
 20
2.8208966983
 30
0.0
 10
5.17058368
 20
2.8190783313
 30
0.0
 10
5.1623110335
 20
2.8176594838
 30
0.0
 10
5.1539779275
 20
2.8166435747
 30
0.0
 10
5.1456044344
 20
2.8160330491
 30
0.0
 10
5.1372107233
 20
2.8158293763
 30
0.0
 10
5.1288170122
 20
2.8160330491
 30
0.0
 10
5.1204435191
 20
2.8166435747
 30
0.0
 10
5.1121104131
 20
2.8176594838
 30
0.0
 10
5.1038377666
 20
2.8190783313
 30
0.0
 10
5.0956455058
 20
2.8208966983
 30
0.0
 10
5.0875533644
 20
2.8231102085
 30
0.0
 10
5.0795808348
 20
2.8257135307
 30
0.0
 10
5.0717471209
 20
2.828700395
 30
0.0
 10
5.0640710944
 20
2.832063611
 30
0.0
 10
5.0565712454
 20
2.8357950772
 30
0.0
 10
5.0492656414
 20
2.8398858084
 30
0.0
 10
5.0421718826
 20
2.8443259539
 30
0.0
 10
5.0353070576
 20
2.8491048181
 30
0.0
 10
5.0286877064
 20
2.8542108938
 30
0.0
 10
5.0223297765
 20
2.859631882
 30
0.0
 10
5.0162485854
 20
2.8653547253
 30
0.0
 10
5.0104587874
 20
2.8713656414
 30
0.0
 10
5.0049743311
 20
2.8776501499
 30
0.0
 10
4.9998084327
 20
2.8841931135
 30
0.0
 10
4.9949735412
 20
2.8909787716
 30
0.0
 10
4.9904813055
 20
2.8979907766
 30
0.0
 10
4.9863425531
 20
2.9052122379
 30
0.0
 10
4.9825672573
 20
2.9126257576
 30
0.0
 10
4.9791645156
 20
2.9202134753
 30
0.0
 10
4.9761425309
 20
2.9279571111
 30
0.0
 10
4.9735085844
 20
2.935838008
 30
0.0
 10
4.9712690253
 20
2.9438371773
 30
0.0
 10
4.9694292523
 20
2.9519353514
 30
0.0
 10
4.9679936974
 20
2.9601129982
 30
0.0
 10
4.9669658235
 20
2.9683504849
 30
0.0
 10
4.9663481055
 20
2.9766276985
 30
0.0
 10
4.9662107233
 20
2.9821597489
 30
0.0
 10
4.9662107233
 20
2.9849252062
 30
0.0
  0
SPLINE
  5
256
100
AcDbEntity
  8
0
100
AcDbSpline
 62
7
  6
CONTINUOUS
 70
0
 71
3
 72
71
 73
67
 74
0
 42
0.0000001
 43
0.0000001
 44
0.0000000001
 40
0.0
 40
0.0
 40
0.0
 40
0.0
 40
0.0155343711
 40
0.0310695953
 40
0.0466065745
 40
0.0621461507
 40
0.0776891484
 40
0.0932363598
 40
0.1087885357
 40
0.1243463786
 40
0.1399105356
 40
0.1554815922
 40
0.1710600669
 40
0.1866464059
 40
0.2022409791
 40
0.2178440766
 40
0.2334559058
 40
0.2490765902
 40
0.2647061674
 40
0.2803445895
 40
0.2959917238
 40
0.3116473538
 40
0.3273111815
 40
0.3429828307
 40
0.3586618503
 40
0.374347719
 40
0.3900398504
 40
0.4057375982
 40
0.421440263
 40
0.4371470986
 40
0.4528573193
 40
0.4685701072
 40
0.4842846203
 40
0.5
 40
0.5157153797
 40
0.5314298928
 40
0.5471426807
 40
0.5628529014
 40
0.578559737
 40
0.5942624018
 40
0.6099601496
 40
0.625652281
 40
0.6413381497
 40
0.6570171693
 40
0.6726888185
 40
0.6883526462
 40
0.7040082762
 40
0.7196554105
 40
0.7352938326
 40
0.7509234098
 40
0.7665440942
 40
0.7821559234
 40
0.7977590209
 40
0.8133535941
 40
0.8289399331
 40
0.8445184078
 40
0.8600894644
 40
0.8756536214
 40
0.8912114643
 40
0.9067636402
 40
0.9223108516
 40
0.9378538493
 40
0.9533934255
 40
0.9689304047
 40
0.9844656289
 40
1.0
 40
1.0
 40
1.0
 40
1.0
 10
5.3082107233
 20
2.8820262498
 30
0.0
 10
5.3082107233
 20
2.8792607926
 30
0.0
 10
5.308073341
 20
2.8737287422
 30
0.0
 10
5.3074556231
 20
2.8654515285
 30
0.0
 10
5.3064277492
 20
2.8572140419
 30
0.0
 10
5.3049921943
 20
2.849036395
 30
0.0
 10
5.3031524213
 20
2.840938221
 30
0.0
 10
5.3009128621
 20
2.8329390517
 30
0.0
 10
5.2982789157
 20
2.8250581548
 30
0.0
 10
5.295256931
 20
2.8173145189
 30
0.0
 10
5.2918541893
 20
2.8097268013
 30
0.0
 10
5.2880788935
 20
2.8023132815
 30
0.0
 10
5.2839401411
 20
2.7950918203
 30
0.0
 10
5.2794479054
 20
2.7880798152
 30
0.0
 10
5.2746130139
 20
2.7812941571
 30
0.0
 10
5.2694471154
 20
2.7747511935
 30
0.0
 10
5.2639626592
 20
2.7684666851
 30
0.0
 10
5.2581728611
 20
2.762455769
 30
0.0
 10
5.2520916701
 20
2.7567329256
 30
0.0
 10
5.2457337401
 20
2.7513119374
 30
0.0
 10
5.239114389
 20
2.7462058618
 30
0.0
 10
5.232249564
 20
2.7414269975
 30
0.0
 10
5.2251558052
 20
2.7369868521
 30
0.0
 10
5.2178502012
 20
2.7328961208
 30
0.0
 10
5.2103503521
 20
2.7291646546
 30
0.0
 10
5.2026743256
 20
2.7258014386
 30
0.0
 10
5.1948406118
 20
2.7228145744
 30
0.0
 10
5.1868680821
 20
2.7202112522
 30
0.0
 10
5.1787759408
 20
2.717997742
 30
0.0
 10
5.17058368
 20
2.716179375
 30
0.0
 10
5.1623110335
 20
2.7147605275
 30
0.0
 10
5.1539779275
 20
2.7137446183
 30
0.0
 10
5.1456044344
 20
2.7131340928
 30
0.0
 10
5.1372107233
 20
2.71293042
 30
0.0
 10
5.1288170122
 20
2.7131340928
 30
0.0
 10
5.1204435191
 20
2.7137446183
 30
0.0
 10
5.1121104131
 20
2.7147605275
 30
0.0
 10
5.1038377666
 20
2.716179375
 30
0.0
 10
5.0956455058
 20
2.717997742
 30
0.0
 10
5.0875533644
 20
2.7202112522
 30
0.0
 10
5.0795808348
 20
2.7228145744
 30
0.0
 10
5.0717471209
 20
2.7258014386
 30
0.0
 10
5.0640710944
 20
2.7291646546
 30
0.0
 10
5.0565712454
 20
2.7328961208
 30
0.0
 10
5.0492656414
 20
2.7369868521
 30
0.0
 10
5.0421718826
 20
2.7414269975
 30
0.0
 10
5.0353070576
 20
2.7462058618
 30
0.0
 10
5.0286877064
 20
2.7513119374
 30
0.0
 10
5.0223297765
 20
2.7567329256
 30
0.0
 10
5.0162485854
 20
2.762455769
 30
0.0
 10
5.0104587874
 20
2.7684666851
 30
0.0
 10
5.0049743311
 20
2.7747511935
 30
0.0
 10
4.9998084327
 20
2.7812941571
 30
0.0
 10
4.9949735412
 20
2.7880798152
 30
0.0
 10
4.9904813055
 20
2.7950918203
 30
0.0
 10
4.9863425531
 20
2.8023132815
 30
0.0
 10
4.9825672573
 20
2.8097268013
 30
0.0
 10
4.9791645156
 20
2.8173145189
 30
0.0
 10
4.9761425309
 20
2.8250581548
 30
0.0
 10
4.9735085844
 20
2.8329390517
 30
0.0
 10
4.9712690253
 20
2.840938221
 30
0.0
 10
4.9694292523
 20
2.849036395
 30
0.0
 10
4.9679936974
 20
2.8572140419
 30
0.0
 10
4.9669658235
 20
2.8654515285
 30
0.0
 10
4.9663481055
 20
2.8737287422
 30
0.0
 10
4.9662107233
 20
2.8792607926
 30
0.0
 10
4.9662107233
 20
2.8820262498
 30
0.0
  0
SPLINE
  5
257
100
AcDbEntity
  8
0
100
AcDbSpline
 62
7
  6
CONTINUOUS
 70
0
 71
3
 72
39
 73
35
 74
0
 42
0.0000001
 43
0.0000001
 44
0.0000000001
 40
0.0
 40
0.0
 40
0.0
 40
0.0
 40
0.0316473435
 40
0.0632562527
 40
0.0948124096
 40
0.1263039252
 40
0.1577221189
 40
0.189061653
 40
0.2203206548
 40
0.2515005371
 40
0.2826057749
 40
0.3136435053
 40
0.3446231128
 40
0.3755557356
 40
0.406453807
 40
0.4373305679
 40
0.4681996177
 40
0.4990744997
 40
0.5299682965
 40
0.5608932822
 40
0.591860584
 40
0.6228799039
 40
0.6539592531
 40
0.6851047324
 40
0.7163203782
 40
0.7476080133
 40
0.7789671984
 40
0.8103952137
 40
0.8418871285
 40
0.8734359195
 40
0.9050326999
 40
0.9366669582
 40
0.9683268922
 40
1.0
 40
1.0
 40
1.0
 40
1.0
 10
5.9557607299
 20
5.2615165238
 30
0.0
 10
5.9541528416
 20
5.2616159429
 30
0.0
 10
5.9509433746
 20
5.2618944702
 30
0.0
 10
5.9461599637
 20
5.2625503024
 30
0.0
 10
5.9414225331
 20
5.2634404651
 30
0.0
 10
5.9367443187
 20
5.264561167
 30
0.0
 10
5.9321373956
 20
5.2659072092
 30
0.0
 10
5.9276131033
 20
5.2674733021
 30
0.0
 10
5.9231816829
 20
5.2692532297
 30
0.0
 10
5.9188525991
 20
5.2712408597
 30
0.0
 10
5.9146343347
 20
5.2734295733
 30
0.0
 10
5.9105347115
 20
5.2758129132
 30
0.0
 10
5.9065608129
 20
5.2783842706
 30
0.0
 10
5.9027192263
 20
5.2811371835
 30
0.0
 10
5.8990160771
 20
5.2840652156
 30
0.0
 10
5.8954571716
 20
5.287162018
 30
0.0
 10
5.892048084
 20
5.2904212893
 30
0.0
 10
5.8887942173
 20
5.293836718
 30
0.0
 10
5.8857009062
 20
5.2974019688
 30
0.0
 10
5.8827734046
 20
5.3011105657
 30
0.0
 10
5.8800169881
 20
5.3049558875
 30
0.0
 10
5.8774368723
 20
5.3089310253
 30
0.0
 10
5.8750383151
 20
5.3130287906
 30
0.0
 10
5.8728264752
 20
5.317241572
 30
0.0
 10
5.8708064757
 20
5.3215613392
 30
0.0
 10
5.8689832576
 20
5.3259795464
 30
0.0
 10
5.8673615871
 20
5.3304871356
 30
0.0
 10
5.8659459976
 20
5.3350745148
 30
0.0
 10
5.8647405122
 20
5.339731503
 30
0.0
 10
5.8637488371
 20
5.3444474432
 30
0.0
 10
5.8629740711
 20
5.349211172
 30
0.0
 10
5.8624189681
 20
5.3540111933
 30
0.0
 10
5.8620852338
 20
5.3588354473
 30
0.0
 10
5.8620107363
 20
5.3620598059
 30
0.0
 10
5.8620107233
 20
5.3636720764
 30
0.0
  0
SPLINE
  5
258
100
AcDbEntity
  8
0
100
AcDbSpline
 62
7
  6
CONTINUOUS
 70
0
 71
3
 72
35
 73
31
 74
0
 42
0.0000001
 43
0.0000001
 44
0.0000000001
 40
0.0
 40
0.0
 40
0.0
 40
0.0
 40
0.0633204989
 40
0.1265390027
 40
0.1895672287
 40
0.2523420046
 40
0.2836317355
 40
0.3148494667
 40
0.3459970312
 40
0.3770784567
 40
0.4080998511
 40
0.4390692229
 40
0.4699962768
 40
0.5008921399
 40
0.5317690856
 40
0.5626402001
 40
0.5935190237
 40
0.6244191629
 40
0.6553538518
 40
0.6863355336
 40
0.7173753362
 40
0.7484826544
 40
0.77966462
 40
0.8109257096
 40
0.8422673393
 40
0.8736876346
 40
0.9051812599
 40
0.9367395333
 40
0.968350543
 40
1.0
 40
1.0
 40
1.0
 40
1.0
 10
5.8620107233
 20
5.3636720764
 30
0.0
 10
5.8620107409
 20
5.3668950923
 30
0.0
 10
5.8623076519
 20
5.3733398603
 30
0.0
 10
5.8636383699
 20
5.3829098411
 30
0.0
 10
5.8658367902
 20
5.3922903176
 30
0.0
 10
5.8683731879
 20
5.3998863596
 30
0.0
 10
5.8708064601
 20
5.4057827376
 30
0.0
 10
5.8728264655
 20
5.4101025894
 30
0.0
 10
5.8750383108
 20
5.4143153432
 30
0.0
 10
5.8774368663
 20
5.4184131146
 30
0.0
 10
5.8800169774
 20
5.4223882528
 30
0.0
 10
5.8827733961
 20
5.4262335723
 30
0.0
 10
5.885700892
 20
5.4299421726
 30
0.0
 10
5.8887942077
 20
5.4335074182
 30
0.0
 10
5.8920480674
 20
5.4369228525
 30
0.0
 10
5.8954571596
 20
5.4401821174
 30
0.0
 10
5.8990160575
 20
5.4432789273
 30
0.0
 10
5.9027192114
 20
5.4462069517
 30
0.0
 10
5.9065607902
 20
5.4489598741
 30
0.0
 10
5.9105346934
 20
5.4515312231
 30
0.0
 10
5.9146343136
 20
5.4539145658
 30
0.0
 10
5.9188525741
 20
5.4561032854
 30
0.0
 10
5.9231816621
 20
5.4580909021
 30
0.0
 10
5.9276130703
 20
5.4598708585
 30
0.0
 10
5.9321373745
 20
5.4614369142
 30
0.0
 10
5.9367442855
 20
5.4627829934
 30
0.0
 10
5.941422508
 20
5.4639036677
 30
0.0
 10
5.9461599434
 20
5.4647937858
 30
0.0
 10
5.9509433394
 20
5.465449727
 30
0.0
 10
5.9541528172
 20
5.4657281385
 30
0.0
 10
5.9557607074
 20
5.4658275199
 30
0.0
  0
SPLINE
  5
259
100
AcDbEntity
  8
0
100
AcDbSpline
 62
7
  6
CONTINUOUS
 70
0
 71
3
 72
39
 73
35
 74
0
 42
0.0000001
 43
0.0000001
 44
0.0000000001
 40
0.0
 40
0.0
 40
0.0
 40
0.0
 40
0.0310687175
 40
0.0621391884
 40
0.093213149
 40
0.1242923014
 40
0.1553782968
 40
0.1864727195
 40
0.2175770713
 40
0.2486927571
 40
0.2798210711
 40
0.3109631844
 40
0.3421201338
 40
0.3732928118
 40
0.4044819581
 40
0.435688153
 40
0.4669118116
 40
0.4981531802
 40
0.5294123346
 40
0.560689179
 40
0.5919834476
 40
0.6232947075
 40
0.6546223629
 40
0.6859656613
 40
0.7173237005
 40
0.748695438
 40
0.7800797007
 40
0.8114751963
 40
0.8428805259
 40
0.8742941972
 40
0.9057146387
 40
0.9371402123
 40
0.9685692138
 40
1.0
 40
1.0
 40
1.0
 40
1.0
 10
5.3082107229
 20
3.0092302577
 30
0.0
 10
5.3082107229
 20
3.0064648026
 30
0.0
 10
5.3080733412
 20
3.0009327524
 30
0.0
 10
5.3074556234
 20
2.9926555387
 30
0.0
 10
5.3064277487
 20
2.98441805
 30
0.0
 10
5.3049921952
 20
2.9762404027
 30
0.0
 10
5.3031524206
 20
2.968142229
 30
0.0
 10
5.3009128624
 20
2.9601430595
 30
0.0
 10
5.298278916
 20
2.9522621625
 30
0.0
 10
5.2952569303
 20
2.9445185271
 30
0.0
 10
5.29185419
 20
2.9369308088
 30
0.0
 10
5.2880788932
 20
2.9295172895
 30
0.0
 10
5.283940141
 20
2.9222958282
 30
0.0
 10
5.2794479059
 20
2.9152838227
 30
0.0
 10
5.2746130133
 20
2.9084981654
 30
0.0
 10
5.2694471158
 20
2.9019552011
 30
0.0
 10
5.2639626592
 20
2.8956706929
 30
0.0
 10
5.2581728608
 20
2.8896597772
 30
0.0
 10
5.2520916705
 20
2.883936933
 30
0.0
 10
5.2457337399
 20
2.8785159456
 30
0.0
 10
5.239114389
 20
2.8734098695
 30
0.0
 10
5.2322495641
 20
2.8686310052
 30
0.0
 10
5.225155805
 20
2.8641908603
 30
0.0
 10
5.2178502013
 20
2.8601001283
 30
0.0
 10
5.2103503521
 20
2.8563686626
 30
0.0
 10
5.2026743256
 20
2.8530054466
 30
0.0
 10
5.1948406119
 20
2.850018582
 30
0.0
 10
5.1868680819
 20
2.8474152603
 30
0.0
 10
5.1787759415
 20
2.8452017497
 30
0.0
 10
5.1705836776
 20
2.8433833829
 30
0.0
 10
5.1623110428
 20
2.8419645354
 30
0.0
 10
5.1539778959
 20
2.8409486265
 30
0.0
 10
5.1456045643
 20
2.8403381002
 30
0.0
 10
5.1400084064
 20
2.84020232
 30
0.0
 10
5.1372107233
 20
2.84020232
 30
0.0
  0
SPLINE
  5
25A
100
AcDbEntity
  8
0
100
AcDbSpline
 62
7
  6
CONTINUOUS
 70
0
 71
3
 72
50
 73
46
 74
0
 42
0.0000001
 43
0.0000001
 44
0.0000000001
 40
0.0
 40
0.0
 40
0.0
 40
0.0
 40
0.0075103085
 40
0.0150546351
 40
0.0226664613
 40
0.0303782293
 40
0.0382209058
 40
0.0462236314
 40
0.054413466
 40
0.0628152281
 40
0.0714514184
 40
0.0803422163
 40
0.0989520316
 40
0.108705535
 40
0.1187727252
 40
0.1291635696
 40
0.1398863898
 40
0.1509479955
 40
0.1623538111
 40
0.174107992
 40
0.1862135304
 40
0.1986723551
 40
0.2114854202
 40
0.2246527847
 40
0.2381736829
 40
0.2662677919
 40
0.2957490651
 40
0.3265873909
 40
0.3587442062
 40
0.3921735522
 40
0.4268229356
 40
0.4626340564
 40
0.4995434471
 40
0.5374830099
 40
0.5763805149
 40
0.616160042
 40
0.6567423835
 40
0.6980454333
 40
0.7399845395
 40
0.7824728521
 40
0.8254216557
 40
0.8687406886
 40
0.9123384593
 40
0.9561225339
 40
1.0
 40
1.0
 40
1.0
 40
1.0
 10
5.3082107229
 20
4.0470105974
 30
0.0
 10
5.3082107229
 20
4.0474893402
 30
0.0
 10
5.3081762024
 20
4.0484493481
 30
0.0
 10
5.3080210224
 20
4.0498870249
 30
0.0
 10
5.307762537
 20
4.0513228565
 30
0.0
 10
5.3074009623
 20
4.0527558069
 30
0.0
 10
5.3069365903
 20
4.054184988
 30
0.0
 10
5.30636978
 20
4.0556095018
 30
0.0
 10
5.3057009481
 20
4.0570284866
 30
0.0
 10
5.3049305725
 20
4.0584410861
 30
0.0
 10
5.3040591546
 20
4.0598465115
 30
0.0
 10
5.3027434017
 20
4.0617383299
 30
0.0
 10
5.3012417132
 20
4.063583362
 30
0.0
 10
5.2995755208
 20
4.0653798012
 30
0.0
 10
5.2982085219
 20
4.0667371265
 30
0.0
 10
5.2967447412
 20
4.06808239
 30
0.0
 10
5.2951849856
 20
4.0694148811
 30
0.0
 10
5.2935302115
 20
4.0707337989
 30
0.0
 10
5.2917814037
 20
4.0720383736
 30
0.0
 10
5.28993961
 20
4.0733278333
 30
0.0
 10
5.288005932
 20
4.0746014151
 30
0.0
 10
5.2859815264
 20
4.0758583633
 30
0.0
 10
5.283867606
 20
4.0770979267
 30
0.0
 10
5.2816654307
 20
4.0783193767
 30
0.0
 10
5.2785737615
 20
4.0799435732
 30
0.0
 10
5.2744937483
 20
4.0819197919
 30
0.0
 10
5.2693287231
 20
4.0841780971
 30
0.0
 10
5.2638462009
 20
4.0863472245
 30
0.0
 10
5.2580593368
 20
4.0884219609
 30
0.0
 10
5.2519819314
 20
4.0903973284
 30
0.0
 10
5.2456285367
 20
4.0922685695
 30
0.0
 10
5.2390143769
 20
4.0940311746
 30
0.0
 10
5.2321553201
 20
4.0956808885
 30
0.0
 10
5.2250678346
 20
4.0972137283
 30
0.0
 10
5.2177689481
 20
4.0986259906
 30
0.0
 10
5.2102762042
 20
4.0999142621
 30
0.0
 10
5.2026076196
 20
4.10107543
 30
0.0
 10
5.1947816393
 20
4.1021066866
 30
0.0
 10
5.1868170909
 20
4.1030055396
 30
0.0
 10
5.1787331392
 20
4.1037698163
 30
0.0
 10
5.1705492383
 20
4.1043976684
 30
0.0
 10
5.1622850876
 20
4.1048875791
 30
0.0
 10
5.153960573
 20
4.1052383634
 30
0.0
 10
5.1455957593
 20
4.105449174
 30
0.0
 10
5.1400076817
 20
4.1054960419
 30
0.0
 10
5.1372107233
 20
4.1054960419
 30
0.0
  0
ENDSEC
  0
SECTION
  2
OBJECTS
  0
DICTIONARY
  5
C
100
AcDbDictionary
280
0
281
1
  3
ACAD_GROUP
350
D
  3
ACAD_MLINESTYLE
350
17
  3
ACAD_LAYOUT
350
1A
  3
ACAD_PLOTSETTINGS
350
19
  3
ACAD_PLOTSTYLENAME
350
E
  0
DICTIONARY
  5
D
102
{ACAD_REACTORS
330
C
102
}
100
AcDbDictionary
280
0
281
1
  0
ACDBDICTIONARYWDFLT
  5
E
102
{ACAD_REACTORS
330
C
102
}
100
AcDbDictionary
281
1
  3
Normal
350
F
100
AcDbDictionaryWithDefault
340
F
  0
DICTIONARY
  5
17
102
{ACAD_REACTORS
330
C
102
}
100
AcDbDictionary
280
0
281
1
  3
Standard
350
18
  0
DICTIONARY
  5
19
102
{ACAD_REACTORS
330
C
102
}
100
AcDbDictionary
281
1
  0
DICTIONARY
  5
1A
102
{ACAD_REACTORS
330
C
102
}
100
AcDbDictionary
281
1
  3
Model
350
25B
  3
Layout1
350
25C
  0
ACDBPLACEHOLDER
  5
F
102
{ACAD_REACTORS
330
E
102
}
  0
MLINESTYLE
  5
18
102
{ACAD_REACTORS
330
17
102
}
100
AcDbMlineStyle
  2
STANDARD
 70
0
  3

 62
256
 51
90.0
 52
90.0
 71
2
 49
0.5
 62
256
  6
BYLAYER
 49
-0.5
 62
256
  6
BYLAYER
  0
LAYOUT
  5
25B
102
{ACAD_REACTORS
330
1A
102
}
100
AcDbPlotSettings
  1

  2
none_device
  4
ANSI_A_(11.00_x_8.50_Inches)
  6

 40
0.0
 41
0.0
 42
0.0
 43
0.0
 44
279.4
 45
215.9
 46
0.0
 47
0.0
 48
0.0
 49
0.0
140
0.0
141
0.0
142
1.0
143
1.0
 70
1024
 72
0
 73
0
 74
0
  7

 75
0
147
1.0
148
0.0
149
0.0
100
AcDbLayout
  1
Model
 70
0
 71
0
 10
0.0
 20
0.0
 11
11.0
 21
8.5
 12
0.0
 22
0.0
 32
0.0
 14
0.0
 24
0.0
 34
0.0
 15
0.0
 25
0.0
 35
0.0
146
0.0
 13
0.0
 23
0.0
 33
0.0
 16
1.0
 26
0.0
 36
0.0
 17
0.0
 27
1.0
 37
0.0
 76
0
330
202
345
0
346
0
  0
LAYOUT
  5
25C
102
{ACAD_REACTORS
330
1A
102
}
100
AcDbPlotSettings
  1

  2
none_device
  4
ANSI_A_(11.00_x_8.50_Inches)
  6

 40
0.0
 41
0.0
 42
0.0
 43
0.0
 44
279.4
 45
215.9
 46
0.0
 47
0.0
 48
0.0
 49
0.0
140
0.0
141
0.0
142
1.0
143
1.0
 70
0
 72
0
 73
0
 74
0
  7

 75
0
147
1.0
148
0.0
149
0.0
100
AcDbLayout
  1
Layout1
 70
0
 71
1
 10
0.0
 20
0.0
 11
11.0
 21
8.5
 12
0.0
 22
0.0
 32
0.0
 14
0.0
 24
0.0
 34
0.0
 15
0.0
 25
0.0
 35
0.0
146
0.0
 13
0.0
 23
0.0
 33
0.0
 16
1.0
 26
0.0
 36
0.0
 17
0.0
 27
1.0
 37
0.0
 76
0
330
203
345
0
346
0
  0
ENDSEC
  0
EOF
