999
DXF file: 1400-5402_front.dxf
999
Pro/ENGINEER 2018400 by Parametric Technology Corporation
  0
SECTION
  2
HEADER
  9
$ACADVER
  1
AC1027
  9
$DWGCODEPAGE
  3
ANSI_1252
  9
$EXTMAX
 10
11.0
 20
8.5
 30
0.0
  9
$EXTMIN
 10
0.0
 20
0.0
 30
0.0
  9
$LIMMIN
 10
0.0
 20
0.0
  9
$LIMMAX
 10
11.0
 20
8.5
  9
$VIEWCTR
 10
5.5
 20
4.25
  9
$VIEWSIZE
 40
8.5
  9
$CLAYER
  8
0
  9
$LTSCALE
 40
0.605
  9
$CELTYPE
  6
BYLAYER
  9
$DIMSCALE
 40
1.0
  9
$DIMASZ
 40
0.1
  9
$DIMEXO
 40
0.0625
  9
$DIMDLI
 40
0.418
  9
$DIMEXE
 40
0.125
  9
$DIMCEN
 40
0.099
  9
$DIMLFAC
 40
1.0
  9
$DIMBLK
  1
_FILLED
  9
$DIMALT
 70
1
  9
$DIMALTD
 70
1
  9
$DIMALTTD
 70
2
  9
$DIMALTF
 40
25.4
  9
$DIMTXT
 40
0.08
  9
$DIMTOL
 70
1
  9
$DIMLIM
 70
0
  9
$DIMTFAC
 40
1.0
  9
$DIMTP
 40
0.01
  9
$DIMTM
 40
0.01
  9
$DIMGAP
 40
0.09
  9
$DIMDSEP
 70
46
  9
$AUNITS
 70
0
  9
$PDMODE
 70
3
  9
$PDSIZE
 40
0.3125
  9
$HANDSEED
  5
2A0
  9
$TILEMODE
 70
1
  9
$MEASUREMENT
 70
0
  9
$INSUNITS
 70
1
  0
ENDSEC
  0
SECTION
  2
CLASSES
  0
CLASS
  1
ACDBDICTIONARYWDFLT
  2
AcDbDictionaryWithDefault
  3
AutoCAD 2000
 90
0
 91
1
280
0
281
0
  0
CLASS
  1
ACDBPLACEHOLDER
  2
AcDbPlaceHolder
  3
AutoCAD 2000
 90
0
 91
1
280
0
281
0
  0
CLASS
  1
LAYOUT
  2
AcDbLayout
  3
AutoCAD 2000
 90
0
 91
0
280
0
281
0
  0
ENDSEC
  0
SECTION
  2
TABLES
  0
TABLE
  2
VPORT
  5
8
100
AcDbSymbolTable
 70
2
  0
VPORT
  5
1F4
100
AcDbSymbolTableRecord
100
AcDbViewportTableRecord
  2
*ACTIVE
 70
0
 10
0.0
 20
0.0
 11
1.0
 21
1.0
 12
5.5
 22
4.25
 13
0.0
 23
0.0
 14
1.0
 24
1.0
 15
0.0
 25
0.0
 16
0.0
 26
0.0
 36
1.0
 17
0.0
 27
0.0
 37
0.0
 40
8.5
 41
1.2941176471
 42
50.0
 43
0.0
 44
0.0
 50
0.0
 51
0.0
 71
0
 72
100
 73
1
 74
1
 75
0
 76
0
 77
0
 78
0
  0
ENDTAB
  0
TABLE
  2
LTYPE
  5
5
100
AcDbSymbolTable
 70
6
  0
LTYPE
  5
14
100
AcDbSymbolTableRecord
100
AcDbLinetypeTableRecord
  2
BYBLOCK
 70
0
  3

 72
65
 73
0
 40
0.0
  0
LTYPE
  5
15
100
AcDbSymbolTableRecord
100
AcDbLinetypeTableRecord
  2
BYLAYER
 70
0
  3

 72
65
 73
0
 40
0.0
  0
LTYPE
  5
16
100
AcDbSymbolTableRecord
100
AcDbLinetypeTableRecord
  2
CONTINUOUS
 70
64
  3
Solid line
 72
65
 73
0
 40
0.0
  0
LTYPE
  5
1F5
100
AcDbSymbolTableRecord
100
AcDbLinetypeTableRecord
  2
CENTER
 70
64
  3
____ _ ____ _ ____ _ ____ _ ____ _ ____ _ ____
 72
65
 73
4
 40
0.6
 49
0.375
 74
0
 49
-0.075
 74
0
 49
0.075
 74
0
 49
-0.075
 74
0
  0
LTYPE
  5
1F6
100
AcDbSymbolTableRecord
100
AcDbLinetypeTableRecord
  2
HIDDEN
 70
64
  3
- - - - - - - - - - - - - - - - - - - -
 72
65
 73
2
 40
0.2
 49
0.1
 74
0
 49
-0.1
 74
0
  0
LTYPE
  5
1F7
100
AcDbSymbolTableRecord
100
AcDbLinetypeTableRecord
  2
PHANTOM
 70
64
  3
_____ _ _ _____ _ _ _____ _ _ _____
 72
65
 73
6
 40
0.8
 49
0.45
 74
0
 49
-0.05
 74
0
 49
0.1
 74
0
 49
-0.05
 74
0
 49
0.1
 74
0
 49
-0.05
 74
0
  0
LTYPE
  5
1F8
100
AcDbSymbolTableRecord
100
AcDbLinetypeTableRecord
  2
DOT
 70
64
  3
. . . . . . . . . . . . . . . . . . . .
 72
65
 73
2
 40
0.2
 49
0.1
 74
0
 49
-0.1
 74
0
  0
LTYPE
  5
1F9
100
AcDbSymbolTableRecord
100
AcDbLinetypeTableRecord
  2
DASHED
 70
64
  3
- - - - - - - - - - - - - - - - - - - -
 72
65
 73
2
 40
0.2
 49
0.1
 74
0
 49
-0.1
 74
0
  0
ENDTAB
  0
TABLE
  2
LAYER
  5
2
100
AcDbSymbolTable
 70
36
  0
LAYER
  5
10
100
AcDbSymbolTableRecord
100
AcDbLayerTableRecord
  2
0
 70
0
 62
7
  6
CONTINUOUS
370
-3
390
F
  0
LAYER
  5
1FA
100
AcDbSymbolTableRecord
100
AcDbLayerTableRecord
  2
DEFAULT_1
 70
0
 62
7
  6
CENTER
370
-3
390
F
  0
LAYER
  5
1FB
100
AcDbSymbolTableRecord
100
AcDbLayerTableRecord
  2
DEFAULT_2
 70
0
 62
8
  6
HIDDEN
370
-3
390
F
  0
LAYER
  5
1FC
100
AcDbSymbolTableRecord
100
AcDbLayerTableRecord
  2
DEFAULT_3
 70
0
 62
7
  6
PHANTOM
370
-3
390
F
  0
LAYER
  5
1FD
100
AcDbSymbolTableRecord
100
AcDbLayerTableRecord
  2
DEFAULT_COORDINATE_SYSTEM
 70
0
 62
7
  6
CONTINUOUS
370
-3
390
F
  0
LAYER
  5
1FE
100
AcDbSymbolTableRecord
100
AcDbLayerTableRecord
  2
DEFAULT_DATUM_AXES
 70
0
 62
7
  6
CONTINUOUS
370
-3
390
F
  0
LAYER
  5
1FF
100
AcDbSymbolTableRecord
100
AcDbLayerTableRecord
  2
DEFAULT_DATUM_PLANES
 70
0
 62
7
  6
CONTINUOUS
370
-3
390
F
  0
ENDTAB
  0
TABLE
  2
STYLE
  5
3
100
AcDbSymbolTable
 70
1
  0
STYLE
  5
11
100
AcDbSymbolTableRecord
100
AcDbTextStyleTableRecord
  2
STANDARD
 70
0
 40
0.0
 41
0.8
 50
0.0
 71
0
 42
0.2
  3
txt
  4

  0
STYLE
  5
200
100
AcDbSymbolTableRecord
100
AcDbTextStyleTableRecord
  2
TEXTSTYLE_1
 70
0
 40
0.0
 41
0.8
 50
0.0
 71
0
 42
0.2
  3
gdt
  4

  0
ENDTAB
  0
TABLE
  2
VIEW
  5
6
100
AcDbSymbolTable
 70
0
  0
ENDTAB
  0
TABLE
  2
UCS
  5
7
100
AcDbSymbolTable
 70
0
  0
ENDTAB
  0
TABLE
  2
APPID
  5
9
100
AcDbSymbolTable
 70
1
  0
APPID
  5
201
100
AcDbSymbolTableRecord
100
AcDbRegAppTableRecord
  2
ACAD
 70
0
  0
ENDTAB
  0
TABLE
  2
BLOCK_RECORD
  5
1
100
AcDbSymbolTable
 70
0
  0
BLOCK_RECORD
  5
202
100
AcDbSymbolTableRecord
100
AcDbBlockTableRecord
  2
*Model_Space
  0
BLOCK_RECORD
  5
203
100
AcDbSymbolTableRecord
100
AcDbBlockTableRecord
  2
*Paper_Space
  0
BLOCK_RECORD
  5
204
100
AcDbSymbolTableRecord
100
AcDbBlockTableRecord
  2
_FILLED
  0
ENDTAB
  0
TABLE
  2
DIMSTYLE
  5
A
100
AcDbSymbolTable
 70
1
100
AcDbDimStyleTable
 71
0
  0
DIMSTYLE
105
205
100
AcDbSymbolTableRecord
100
AcDbDimStyleTableRecord
  2
STANDARD
 70
0
  3

  4

 40
1.0
 41
0.1
 42
0.0625
 43
0.38
 44
0.125
 45
0.0
 46
0.0
 47
0.01
 48
0.01
140
0.08
141
0.09
142
0.0
143
25.4
144
1.0
145
0.0
146
1.0
147
0.09
 71
1.0
 72
0.0
 73
1
 74
1
 75
0
 76
0
 77
0
 78
4
 79
1
170
1
171
1
172
0
173
0
174
0
175
0
176
0
177
0
178
0
270
2
179
2
271
2
272
2
273
2
274
2
275
0
280
0
281
0
282
0
283
1
284
4
285
0
286
0
287
3
288
0
340
11
278
46
341
204
342
204
343
204
344
204
  0
ENDTAB
  0
ENDSEC
  0
SECTION
  2
BLOCKS
  0
BLOCK
  5
20
100
AcDbEntity
  8
0
100
AcDbBlockBegin
  2
*Model_Space
 70
0
 10
0.0
 20
0.0
 30
0.0
  3
*Model_Space
  1

  0
ENDBLK
  5
21
100
AcDbEntity
  8
0
100
AcDbBlockEnd
  0
BLOCK
  5
1C
100
AcDbEntity
  8
0
100
AcDbBlockBegin
  2
*Paper_Space
 70
0
 10
0.0
 20
0.0
 30
0.0
  3
*Paper_Space
  1

  0
ENDBLK
  5
1D
100
AcDbEntity
  8
0
100
AcDbBlockEnd
  0
BLOCK
  5
206
100
AcDbEntity
  8
0
100
AcDbBlockBegin
  2
_FILLED
 70
64
 10
0.0
 20
0.0
  3
_FILLED
  1

  0
SOLID
  5
207
100
AcDbEntity
  8
0
  6
BYBLOCK
 62
0
100
AcDbTrace
 10
0.0
 20
0.0
 11
-1.0
 21
0.2
 12
-1.0
 22
-0.2
 13
-1.0
 23
-0.2
  0
ENDBLK
  5
208
100
AcDbEntity
  8
0
  6
BYBLOCK
 62
0
100
AcDbBlockEnd
  0
ENDSEC
  0
SECTION
  2
ENTITIES
  0
MTEXT
  5
209
100
AcDbEntity
  8
0
100
AcDbMText
 62
2
  6
CONTINUOUS
  7
STANDARD
 71
3
 72
1
 10
5.1512325311
 20
0.4060647516
 30
0.0
 11
1.0
 21
0.0
 31
0.0
 73
2
 44
0.9
  1
SCALE  .500
 40
0.08
 41
0.704
  0
LINE
  5
20A
100
AcDbEntity
  8
0
100
AcDbLine
 62
7
  6
CONTINUOUS
 10
0.0
 20
0.0
 11
0.0
 21
8.5
  0
LINE
  5
20B
100
AcDbEntity
  8
0
100
AcDbLine
 62
7
  6
CONTINUOUS
 10
0.0
 20
0.0
 11
11.0
 21
0.0
  0
LINE
  5
20C
100
AcDbEntity
  8
0
100
AcDbLine
 62
7
  6
CONTINUOUS
 10
0.0
 20
8.5
 11
11.0
 21
8.5
  0
LINE
  5
20D
100
AcDbEntity
  8
0
100
AcDbLine
 62
7
  6
CONTINUOUS
 10
11.0
 20
0.0
 11
11.0
 21
8.5
  0
LINE
  5
20E
100
AcDbEntity
  8
0
100
AcDbLine
 62
7
  6
CONTINUOUS
 10
2.656232583
 20
0.5010647516
 11
3.6462324791
 21
0.5010647516
  0
LINE
  5
20F
100
AcDbEntity
  8
0
100
AcDbLine
 62
7
  6
CONTINUOUS
 10
6.656232583
 20
0.5010647516
 11
7.6462324791
 21
0.5010647516
  0
LINE
  5
210
100
AcDbEntity
  8
0
100
AcDbLine
 62
7
  6
CONTINUOUS
 10
2.6562325311
 20
0.6985647516
 11
3.6462325311
 21
0.6985647516
  0
LINE
  5
211
100
AcDbEntity
  8
0
100
AcDbLine
 62
7
  6
CONTINUOUS
 10
6.6562325311
 20
0.6985647516
 11
7.6462325311
 21
0.6985647516
  0
LINE
  5
212
100
AcDbEntity
  8
0
100
AcDbLine
 62
7
  6
CONTINUOUS
 10
2.6712325311
 20
0.7135647516
 11
3.6312325311
 21
0.7135647516
  0
LINE
  5
213
100
AcDbEntity
  8
0
100
AcDbLine
 62
7
  6
CONTINUOUS
 10
6.6712325311
 20
0.7135647516
 11
7.6312325311
 21
0.7135647516
  0
LINE
  5
214
100
AcDbEntity
  8
0
100
AcDbLine
 62
7
  6
CONTINUOUS
 10
3.5087325311
 20
1.4260647516
 11
3.1512325311
 21
1.7385647516
  0
LINE
  5
215
100
AcDbEntity
  8
0
100
AcDbLine
 62
7
  6
CONTINUOUS
 10
3.5087325311
 20
1.4260647516
 11
3.5086767745
 21
1.4261140895
  0
LINE
  5
216
100
AcDbEntity
  8
0
100
AcDbLine
 62
7
  6
CONTINUOUS
 10
2.8387325311
 20
2.1795647516
 11
2.8537325311
 21
2.1645647516
  0
LWPOLYLINE
  5
217
100
AcDbEntity
  8
0
100
AcDbPolyline
 62
7
  6
CONTINUOUS
 90
3
 70
0
 10
3.4637325311
 20
1.3810647516
 10
3.4636831673
 20
1.3811204157
 10
3.4635342509
 20
1.3812922856
  0
LINE
  5
218
100
AcDbEntity
  8
0
100
AcDbLine
 62
7
  6
CONTINUOUS
 10
3.4637325311
 20
1.3810647516
 11
3.1512325311
 21
1.7385647516
  0
LINE
  5
219
100
AcDbEntity
  8
0
100
AcDbLine
 62
7
  6
CONTINUOUS
 10
6.7937325311
 20
1.4260647516
 11
3.5087325311
 21
1.4260647516
  0
LINE
  5
21A
100
AcDbEntity
  8
0
100
AcDbLine
 62
7
  6
CONTINUOUS
 10
2.4637325311
 20
3.2513149799
 11
2.4637325311
 21
3.4738145232
  0
LINE
  5
21B
100
AcDbEntity
  8
0
100
AcDbLine
 62
7
  6
CONTINUOUS
 10
2.6562325311
 20
0.6985647516
 11
2.6562325311
 21
0.5010647516
  0
LINE
  5
21C
100
AcDbEntity
  8
0
100
AcDbLine
 62
7
  6
CONTINUOUS
 10
3.4487325311
 20
2.1645647516
 11
3.4637325308
 21
2.1495647518
  0
LINE
  5
21D
100
AcDbEntity
  8
0
100
AcDbLine
 62
7
  6
CONTINUOUS
 10
2.8387325311
 20
0.7135647516
 11
2.8387325311
 21
2.1495647516
  0
LINE
  5
21E
100
AcDbEntity
  8
0
100
AcDbLine
 62
7
  6
CONTINUOUS
 10
2.8387325311
 20
2.1795647516
 11
2.8387325311
 21
2.9320647516
  0
LINE
  5
21F
100
AcDbEntity
  8
0
100
AcDbLine
 62
7
  6
CONTINUOUS
 10
2.9637325311
 20
3.5125647516
 11
2.9637325311
 21
3.4738147516
  0
LINE
  5
220
100
AcDbEntity
  8
0
100
AcDbLine
 62
7
  6
CONTINUOUS
 10
2.9637325311
 20
3.2513147516
 11
2.9637325311
 21
3.2125647516
  0
LINE
  5
221
100
AcDbEntity
  8
0
100
AcDbLine
 62
7
  6
CONTINUOUS
 10
3.0199825311
 20
3.2125647516
 11
3.0199825311
 21
2.9625647516
  0
LINE
  5
222
100
AcDbEntity
  8
0
100
AcDbLine
 62
7
  6
CONTINUOUS
 10
6.7937325311
 20
2.0510647516
 11
5.4462325311
 21
2.0510647516
  0
LINE
  5
223
100
AcDbEntity
  8
0
100
AcDbLine
 62
7
  6
CONTINUOUS
 10
4.8562325311
 20
2.0510647516
 11
3.5087325311
 21
2.0510647516
  0
LINE
  5
224
100
AcDbEntity
  8
0
100
AcDbLine
 62
7
  6
CONTINUOUS
 10
3.2824825311
 20
3.2125647516
 11
3.2824825311
 21
2.9625647516
  0
LINE
  5
225
100
AcDbEntity
  8
0
100
AcDbLine
 62
7
  6
CONTINUOUS
 10
3.3387325311
 20
3.5125647516
 11
3.3387325311
 21
3.4738147516
  0
LINE
  5
226
100
AcDbEntity
  8
0
100
AcDbLine
 62
7
  6
CONTINUOUS
 10
3.3387325311
 20
3.2513147516
 11
3.3387325311
 21
3.2125647516
  0
LINE
  5
227
100
AcDbEntity
  8
0
100
AcDbLine
 62
7
  6
CONTINUOUS
 10
2.8387325311
 20
2.1495647516
 11
3.4637325311
 21
2.1495647516
  0
LINE
  5
228
100
AcDbEntity
  8
0
100
AcDbLine
 62
7
  6
CONTINUOUS
 10
6.8387325311
 20
2.1495647516
 11
7.4637325311
 21
2.1495647516
  0
LINE
  5
229
100
AcDbEntity
  8
0
100
AcDbLine
 62
7
  6
CONTINUOUS
 10
2.8537325311
 20
2.1645647516
 11
3.4487325311
 21
2.1645647516
  0
LINE
  5
22A
100
AcDbEntity
  8
0
100
AcDbLine
 62
7
  6
CONTINUOUS
 10
6.8537325311
 20
2.1645647516
 11
7.4487325311
 21
2.1645647516
  0
LINE
  5
22B
100
AcDbEntity
  8
0
100
AcDbLine
 62
7
  6
CONTINUOUS
 10
2.8387325311
 20
2.1795647516
 11
3.4637325311
 21
2.1795647516
  0
LINE
  5
22C
100
AcDbEntity
  8
0
100
AcDbLine
 62
7
  6
CONTINUOUS
 10
6.8387325311
 20
2.1795647516
 11
7.4637325311
 21
2.1795647516
  0
LINE
  5
22D
100
AcDbEntity
  8
0
100
AcDbLine
 62
7
  6
CONTINUOUS
 10
5.4012325311
 20
2.2635647516
 11
4.9012325311
 21
2.2635647516
  0
LINE
  5
22E
100
AcDbEntity
  8
0
100
AcDbLine
 62
7
  6
CONTINUOUS
 10
5.4012328676
 20
2.2794647516
 11
4.9012321945
 21
2.2794647516
  0
LINE
  5
22F
100
AcDbEntity
  8
0
100
AcDbLine
 62
7
  6
CONTINUOUS
 10
3.4637325311
 20
0.7135647516
 11
3.4637325311
 21
1.3810647516
  0
LINE
  5
230
100
AcDbEntity
  8
0
100
AcDbLine
 62
7
  6
CONTINUOUS
 10
3.4637325311
 20
2.0960647516
 11
3.4637325311
 21
2.1495647516
  0
LINE
  5
231
100
AcDbEntity
  8
0
100
AcDbLine
 62
7
  6
CONTINUOUS
 10
3.4637325311
 20
2.1795647516
 11
3.4637325311
 21
2.9320647516
  0
LINE
  5
232
100
AcDbEntity
  8
0
100
AcDbLine
 62
7
  6
CONTINUOUS
 10
3.6462325311
 20
0.6985647516
 11
3.6462325311
 21
0.5010647516
  0
LINE
  5
233
100
AcDbEntity
  8
0
100
AcDbLine
 62
7
  6
CONTINUOUS
 10
3.8387325311
 20
3.2513149799
 11
3.8387325311
 21
3.4738145232
  0
LINE
  5
234
100
AcDbEntity
  8
0
100
AcDbLine
 62
7
  6
CONTINUOUS
 10
2.8387325311
 20
2.9320647516
 11
3.4637325311
 21
2.9320647516
  0
LINE
  5
235
100
AcDbEntity
  8
0
100
AcDbLine
 62
7
  6
CONTINUOUS
 10
6.8387325311
 20
2.9320647516
 11
7.4637325311
 21
2.9320647516
  0
LINE
  5
236
100
AcDbEntity
  8
0
100
AcDbLine
 62
7
  6
CONTINUOUS
 10
2.8537325311
 20
2.9470647516
 11
3.4487325311
 21
2.9470647516
  0
LINE
  5
237
100
AcDbEntity
  8
0
100
AcDbLine
 62
7
  6
CONTINUOUS
 10
6.8537325311
 20
2.9470647516
 11
7.4487325311
 21
2.9470647516
  0
LINE
  5
238
100
AcDbEntity
  8
0
100
AcDbLine
 62
7
  6
CONTINUOUS
 10
3.0199827682
 20
2.9625647516
 11
3.2824822939
 21
2.9625647516
  0
LINE
  5
239
100
AcDbEntity
  8
0
100
AcDbLine
 62
7
  6
CONTINUOUS
 10
7.0199825311
 20
2.9625647516
 11
7.2824825311
 21
2.9625647516
  0
LINE
  5
23A
100
AcDbEntity
  8
0
100
AcDbLine
 62
7
  6
CONTINUOUS
 10
2.9637325311
 20
3.2125647516
 11
3.3387325311
 21
3.2125647516
  0
LINE
  5
23B
100
AcDbEntity
  8
0
100
AcDbLine
 62
7
  6
CONTINUOUS
 10
6.9637325311
 20
3.2125647516
 11
7.3387325311
 21
3.2125647516
  0
LINE
  5
23C
100
AcDbEntity
  8
0
100
AcDbLine
 62
7
  6
CONTINUOUS
 10
7.8387325311
 20
3.2513147516
 11
7.3387325311
 21
3.2513147516
  0
LINE
  5
23D
100
AcDbEntity
  8
0
100
AcDbLine
 62
7
  6
CONTINUOUS
 10
3.8387325311
 20
3.2513147516
 11
3.3387325311
 21
3.2513147516
  0
LINE
  5
23E
100
AcDbEntity
  8
0
100
AcDbLine
 62
7
  6
CONTINUOUS
 10
2.4637325311
 20
3.2513147516
 11
2.9637325311
 21
3.2513147516
  0
LINE
  5
23F
100
AcDbEntity
  8
0
100
AcDbLine
 62
7
  6
CONTINUOUS
 10
6.4637325311
 20
3.2513147516
 11
6.9637325311
 21
3.2513147516
  0
LINE
  5
240
100
AcDbEntity
  8
0
100
AcDbLine
 62
7
  6
CONTINUOUS
 10
7.8387325311
 20
3.4738147516
 11
7.3387325311
 21
3.4738147516
  0
LINE
  5
241
100
AcDbEntity
  8
0
100
AcDbLine
 62
7
  6
CONTINUOUS
 10
3.8387325311
 20
3.4738147516
 11
3.3387325311
 21
3.4738147516
  0
LINE
  5
242
100
AcDbEntity
  8
0
100
AcDbLine
 62
7
  6
CONTINUOUS
 10
2.4637325311
 20
3.4738147516
 11
2.9637325311
 21
3.4738147516
  0
LINE
  5
243
100
AcDbEntity
  8
0
100
AcDbLine
 62
7
  6
CONTINUOUS
 10
6.4637325311
 20
3.4738147516
 11
6.9637325311
 21
3.4738147516
  0
LINE
  5
244
100
AcDbEntity
  8
0
100
AcDbLine
 62
7
  6
CONTINUOUS
 10
2.9637325311
 20
3.5125647516
 11
3.3387325311
 21
3.5125647516
  0
LINE
  5
245
100
AcDbEntity
  8
0
100
AcDbLine
 62
7
  6
CONTINUOUS
 10
6.9637325311
 20
3.5125647516
 11
7.3387325311
 21
3.5125647516
  0
LWPOLYLINE
  5
246
100
AcDbEntity
  8
0
100
AcDbPolyline
 62
7
  6
CONTINUOUS
 90
3
 70
0
 10
6.9019761231
 20
1.9564462417
 10
6.9085197174
 20
1.9507271457
 10
6.9152979803
 20
1.9448013794
  0
LINE
  5
247
100
AcDbEntity
  8
0
100
AcDbLine
 62
7
  6
CONTINUOUS
 10
6.9223144423
 20
1.9386678978
 11
6.9295710768
 21
1.9323253286
  0
LINE
  5
248
100
AcDbEntity
  8
0
100
AcDbLine
 62
7
  6
CONTINUOUS
 10
6.7937325311
 20
2.0510647516
 11
7.1512325311
 21
1.7385647516
  0
LINE
  5
249
100
AcDbEntity
  8
0
100
AcDbLine
 62
7
  6
CONTINUOUS
 10
6.9960406616
 20
1.8742219749
 11
7.0053454937
 21
1.8660878747
  0
LWPOLYLINE
  5
24A
100
AcDbEntity
  8
0
100
AcDbPolyline
 62
7
  6
CONTINUOUS
 90
5
 70
0
 10
6.9370659103
 20
1.9257739187
 10
6.9447965535
 20
1.91901567
 10
6.9527654309
 20
1.9120502616
 10
6.960970118
 20
1.9048792573
 10
6.969400951
 20
1.897508405
  0
LINE
  5
24B
100
AcDbEntity
  8
0
100
AcDbLine
 62
7
  6
CONTINUOUS
 10
7.0245510732
 20
1.8493002895
 11
7.0344270138
 21
1.840666376
  0
LINE
  5
24C
100
AcDbEntity
  8
0
100
AcDbLine
 62
7
  6
CONTINUOUS
 10
6.7937325311
 20
2.0510647516
 11
6.7937882887
 21
2.0510154157
  0
LINE
  5
24D
100
AcDbEntity
  8
0
100
AcDbLine
 62
7
  6
CONTINUOUS
 10
6.8387325311
 20
2.1795647516
 11
6.8537325311
 21
2.1645647516
  0
LINE
  5
24E
100
AcDbEntity
  8
0
100
AcDbLine
 62
7
  6
CONTINUOUS
 10
4.9012325311
 20
2.0960647516
 11
4.9012325311
 21
2.2635647516
  0
LINE
  5
24F
100
AcDbEntity
  8
0
100
AcDbLine
 62
7
  6
CONTINUOUS
 10
4.9012325311
 20
2.2794647516
 11
4.9012325311
 21
7.7604647516
  0
LINE
  5
250
100
AcDbEntity
  8
0
100
AcDbLine
 62
7
  6
CONTINUOUS
 10
2.8537325311
 20
2.1645647516
 11
2.8387325313
 21
2.1495647518
  0
LWPOLYLINE
  5
251
100
AcDbEntity
  8
0
100
AcDbPolyline
 62
7
  6
CONTINUOUS
 90
3
 70
0
 10
6.8387325311
 20
2.0960647516
 10
6.8387818926
 20
2.0960090869
 10
6.8389308021
 20
2.0958372219
  0
LINE
  5
252
100
AcDbEntity
  8
0
100
AcDbLine
 62
7
  6
CONTINUOUS
 10
6.8387325311
 20
2.0960647516
 11
7.1512325311
 21
1.7385647516
  0
LINE
  5
253
100
AcDbEntity
  8
0
100
AcDbLine
 62
7
  6
CONTINUOUS
 10
5.4012325311
 20
2.0960647516
 11
5.4012325311
 21
2.2635647516
  0
LINE
  5
254
100
AcDbEntity
  8
0
100
AcDbLine
 62
7
  6
CONTINUOUS
 10
5.4012325311
 20
2.2794647516
 11
5.4012325311
 21
7.7604647516
  0
LWPOLYLINE
  5
255
100
AcDbEntity
  8
0
100
AcDbPolyline
 62
7
  6
CONTINUOUS
 90
4
 70
0
 10
3.3173354948
 20
1.9285852304
 10
3.3245008341
 20
1.9367834721
 10
3.3314615922
 20
1.9447470256
 10
3.3382162669
 20
1.9524735657
  0
LINE
  5
256
100
AcDbEntity
  8
0
100
AcDbLine
 62
7
  6
CONTINUOUS
 10
3.3447650593
 20
1.9599654176
 11
3.3511057079
 21
1.9672198438
  0
LINE
  5
257
100
AcDbEntity
  8
0
100
AcDbLine
 62
7
  6
CONTINUOUS
 10
3.1512325311
 20
1.7385647516
 11
3.4637325311
 21
2.0960647516
  0
LWPOLYLINE
  5
258
100
AcDbEntity
  8
0
100
AcDbPolyline
 62
7
  6
CONTINUOUS
 90
3
 70
0
 10
3.3572380087
 20
1.9742349127
 10
3.3631632486
 20
1.9810125559
 10
3.3688820602
 20
1.9875558311
  0
LWPOLYLINE
  5
259
100
AcDbEntity
  8
0
100
AcDbPolyline
 62
7
  6
CONTINUOUS
 90
3
 70
0
 10
3.2173280939
 20
1.8141744615
 10
3.2355161168
 20
1.8349851621
 10
3.2702857666
 20
1.87475888
  0
LINE
  5
25A
100
AcDbEntity
  8
0
100
AcDbLine
 62
7
  6
CONTINUOUS
 10
3.2702857666
 20
1.87475888
 11
3.3173354948
 21
1.9285852304
  0
LWPOLYLINE
  5
25B
100
AcDbEntity
  8
0
100
AcDbPolyline
 62
7
  6
CONTINUOUS
 90
3
 70
0
 10
3.1893261221
 20
1.7821401211
 10
3.2080791894
 20
1.8035973245
 10
3.2173280939
 20
1.8141744615
  0
LINE
  5
25C
100
AcDbEntity
  8
0
100
AcDbLine
 62
7
  6
CONTINUOUS
 10
3.3897250611
 20
2.0114011129
 11
3.403298023
 21
2.0269288284
  0
LINE
  5
25D
100
AcDbEntity
  8
0
100
AcDbLine
 62
7
  6
CONTINUOUS
 10
3.403298023
 20
2.0269288284
 11
3.4396179031
 21
2.068477649
  0
LINE
  5
25E
100
AcDbEntity
  8
0
100
AcDbLine
 62
7
  6
CONTINUOUS
 10
3.4396179031
 20
2.068477649
 11
3.4574329444
 21
2.0888586746
  0
LINE
  5
25F
100
AcDbEntity
  8
0
100
AcDbLine
 62
7
  6
CONTINUOUS
 10
3.1703481807
 20
1.7604463061
 11
3.1893261221
 21
1.7821401211
  0
LINE
  5
260
100
AcDbEntity
  8
0
100
AcDbLine
 62
7
  6
CONTINUOUS
 10
3.4574329444
 20
2.0888586746
 11
3.4636822655
 21
2.0960084901
  0
LINE
  5
261
100
AcDbEntity
  8
0
100
AcDbLine
 62
7
  6
CONTINUOUS
 10
3.4636822655
 20
2.0960084901
 11
3.4637325311
 21
2.0960647516
  0
LINE
  5
262
100
AcDbEntity
  8
0
100
AcDbLine
 62
7
  6
CONTINUOUS
 10
3.4637325311
 20
2.1795647516
 11
3.4487325311
 21
2.1645647516
  0
LINE
  5
263
100
AcDbEntity
  8
0
100
AcDbLine
 62
7
  6
CONTINUOUS
 10
7.4487325311
 20
2.1645647516
 11
7.4637325308
 21
2.1495647518
  0
LINE
  5
264
100
AcDbEntity
  8
0
100
AcDbLine
 62
7
  6
CONTINUOUS
 10
3.5086762204
 20
2.0510145196
 11
3.5087325311
 21
2.0510647516
  0
LINE
  5
265
100
AcDbEntity
  8
0
100
AcDbLine
 62
7
  6
CONTINUOUS
 10
3.1512325311
 20
1.7385647516
 11
3.5087325311
 21
2.0510647516
  0
LINE
  5
266
100
AcDbEntity
  8
0
100
AcDbLine
 62
7
  6
CONTINUOUS
 10
6.4637325311
 20
3.2513149799
 11
6.4637325311
 21
3.4738145232
  0
LINE
  5
267
100
AcDbEntity
  8
0
100
AcDbLine
 62
7
  6
CONTINUOUS
 10
6.6562325311
 20
0.6985647516
 11
6.6562325311
 21
0.5010647516
  0
LINE
  5
268
100
AcDbEntity
  8
0
100
AcDbLine
 62
7
  6
CONTINUOUS
 10
6.8387325311
 20
0.7135647516
 11
6.8387325311
 21
1.3810647516
  0
LINE
  5
269
100
AcDbEntity
  8
0
100
AcDbLine
 62
7
  6
CONTINUOUS
 10
6.8387325311
 20
2.0960647516
 11
6.8387325311
 21
2.1495647516
  0
LINE
  5
26A
100
AcDbEntity
  8
0
100
AcDbLine
 62
7
  6
CONTINUOUS
 10
6.8387325311
 20
2.1795647516
 11
6.8387325311
 21
2.9320647516
  0
LINE
  5
26B
100
AcDbEntity
  8
0
100
AcDbLine
 62
7
  6
CONTINUOUS
 10
6.9637325311
 20
3.5125647516
 11
6.9637325311
 21
3.4738147516
  0
LINE
  5
26C
100
AcDbEntity
  8
0
100
AcDbLine
 62
7
  6
CONTINUOUS
 10
6.9637325311
 20
3.2513147516
 11
6.9637325311
 21
3.2125647516
  0
LINE
  5
26D
100
AcDbEntity
  8
0
100
AcDbLine
 62
7
  6
CONTINUOUS
 10
7.0199825311
 20
3.2125647516
 11
7.0199825311
 21
2.9625647516
  0
LINE
  5
26E
100
AcDbEntity
  8
0
100
AcDbLine
 62
7
  6
CONTINUOUS
 10
5.4012325311
 20
6.1054647516
 11
4.9012325311
 21
6.1054647516
  0
LINE
  5
26F
100
AcDbEntity
  8
0
100
AcDbLine
 62
7
  6
CONTINUOUS
 10
7.2824825311
 20
3.2125647516
 11
7.2824825311
 21
2.9625647516
  0
LINE
  5
270
100
AcDbEntity
  8
0
100
AcDbLine
 62
7
  6
CONTINUOUS
 10
7.3387325311
 20
3.5125647516
 11
7.3387325311
 21
3.4738147516
  0
LINE
  5
271
100
AcDbEntity
  8
0
100
AcDbLine
 62
7
  6
CONTINUOUS
 10
7.3387325311
 20
3.2513147516
 11
7.3387325311
 21
3.2125647516
  0
LINE
  5
272
100
AcDbEntity
  8
0
100
AcDbLine
 62
7
  6
CONTINUOUS
 10
7.4637325311
 20
0.7135647516
 11
7.4637325311
 21
2.1495647516
  0
LINE
  5
273
100
AcDbEntity
  8
0
100
AcDbLine
 62
7
  6
CONTINUOUS
 10
7.4637325311
 20
2.1795647516
 11
7.4637325311
 21
2.9320647516
  0
LINE
  5
274
100
AcDbEntity
  8
0
100
AcDbLine
 62
7
  6
CONTINUOUS
 10
7.6462325311
 20
0.6985647516
 11
7.6462325311
 21
0.5010647516
  0
LINE
  5
275
100
AcDbEntity
  8
0
100
AcDbLine
 62
7
  6
CONTINUOUS
 10
7.8387325311
 20
3.2513149799
 11
7.8387325311
 21
3.4738145232
  0
LINE
  5
276
100
AcDbEntity
  8
0
100
AcDbLine
 62
7
  6
CONTINUOUS
 10
6.8537325311
 20
2.1645647516
 11
6.8387325313
 21
2.1495647518
  0
LINE
  5
277
100
AcDbEntity
  8
0
100
AcDbLine
 62
7
  6
CONTINUOUS
 10
4.9012325311
 20
6.8854647516
 11
5.4012325311
 21
6.8854647516
  0
LINE
  5
278
100
AcDbEntity
  8
0
100
AcDbLine
 62
7
  6
CONTINUOUS
 10
7.4637325311
 20
2.1795647516
 11
7.4487325311
 21
2.1645647516
  0
LINE
  5
279
100
AcDbEntity
  8
0
100
AcDbLine
 62
7
  6
CONTINUOUS
 10
7.1512325311
 20
1.7385647516
 11
6.8387325311
 21
1.3810647515
  0
LINE
  5
27A
100
AcDbEntity
  8
0
100
AcDbLine
 62
7
  6
CONTINUOUS
 10
6.9393652623
 20
1.4961894812
 11
6.9128026083
 21
1.4657999727
  0
LINE
  5
27B
100
AcDbEntity
  8
0
100
AcDbLine
 62
7
  6
CONTINUOUS
 10
6.9128026083
 20
1.4657999727
 11
6.868069763
 21
1.4146253239
  0
LINE
  5
27C
100
AcDbEntity
  8
0
100
AcDbLine
 62
7
  6
CONTINUOUS
 10
7.1321255318
 20
1.7166931082
 11
6.9851878916
 21
1.5486109033
  0
LINE
  5
27D
100
AcDbEntity
  8
0
100
AcDbLine
 62
7
  6
CONTINUOUS
 10
6.868069763
 20
1.4146253239
 11
6.8387833425
 21
1.3811213982
  0
LINE
  5
27E
100
AcDbEntity
  8
0
100
AcDbLine
 62
7
  6
CONTINUOUS
 10
6.8387833425
 20
1.3811213982
 11
6.8387325311
 21
1.3810647516
  0
LINE
  5
27F
100
AcDbEntity
  8
0
100
AcDbLine
 62
7
  6
CONTINUOUS
 10
6.7937891657
 20
1.4261155279
 11
6.7937325311
 21
1.4260647516
  0
LINE
  5
280
100
AcDbEntity
  8
0
100
AcDbLine
 62
7
  6
CONTINUOUS
 10
7.1512325311
 20
1.7385647516
 11
6.793732531
 21
1.4260647516
  0
ARC
  5
281
100
AcDbEntity
  8
0
100
AcDbCircle
 62
7
  6
CONTINUOUS
 10
5.1512325311
 20
7.7604647516
 40
0.25
100
AcDbArc
 50
0.0
 51
180.0
  0
CIRCLE
  5
282
100
AcDbEntity
  8
0
100
AcDbCircle
 62
7
  6
CONTINUOUS
 10
7.1512325311
 20
3.3625647516
 40
0.1175
  0
CIRCLE
  5
283
100
AcDbEntity
  8
0
100
AcDbCircle
 62
7
  6
CONTINUOUS
 10
3.1512325311
 20
3.3625647516
 40
0.1175
  0
CIRCLE
  5
284
100
AcDbEntity
  8
0
100
AcDbCircle
 62
7
  6
CONTINUOUS
 10
7.1512325311
 20
3.3625647516
 40
0.11125
  0
CIRCLE
  5
285
100
AcDbEntity
  8
0
100
AcDbCircle
 62
7
  6
CONTINUOUS
 10
3.1512325311
 20
3.3625647516
 40
0.11125
  0
ARC
  5
286
100
AcDbEntity
  8
0
100
AcDbCircle
 62
7
  6
CONTINUOUS
 10
4.8562325311
 20
2.0960647516
 40
0.045
100
AcDbArc
 50
269.9999999986
 51
360.0
  0
ARC
  5
287
100
AcDbEntity
  8
0
100
AcDbCircle
 62
7
  6
CONTINUOUS
 10
5.4462325311
 20
2.0960647516
 40
0.045
100
AcDbArc
 50
179.999999999
 51
270.0000000013
  0
ARC
  5
288
100
AcDbEntity
  8
0
100
AcDbCircle
 62
7
  6
CONTINUOUS
 10
3.5087325311
 20
2.0960647516
 40
0.045
100
AcDbArc
 50
179.9999999986
 51
270.0000000009
  0
ARC
  5
289
100
AcDbEntity
  8
0
100
AcDbCircle
 62
7
  6
CONTINUOUS
 10
3.5087325311
 20
1.3810647516
 40
0.045
100
AcDbArc
 50
89.999999999
 51
180.0000000018
  0
ARC
  5
28A
100
AcDbEntity
  8
0
100
AcDbCircle
 62
7
  6
CONTINUOUS
 10
6.7937325311
 20
2.0960647516
 40
0.045
100
AcDbArc
 50
269.9999999989
 51
360.0
  0
ARC
  5
28B
100
AcDbEntity
  8
0
100
AcDbCircle
 62
7
  6
CONTINUOUS
 10
6.7937325311
 20
1.3810647516
 40
0.045
100
AcDbArc
 50
0.0
 51
90.000000001
  0
ARC
  5
28C
100
AcDbEntity
  8
0
100
AcDbCircle
 62
7
  6
CONTINUOUS
 10
6.6712325311
 20
0.6985647516
 40
0.015
100
AcDbArc
 50
90.0
 51
180.0
  0
ARC
  5
28D
100
AcDbEntity
  8
0
100
AcDbCircle
 62
7
  6
CONTINUOUS
 10
7.6312325311
 20
0.6985647516
 40
0.015
100
AcDbArc
 50
0.0
 51
90.0
  0
ARC
  5
28E
100
AcDbEntity
  8
0
100
AcDbCircle
 62
7
  6
CONTINUOUS
 10
2.6712325311
 20
0.6985647516
 40
0.015
100
AcDbArc
 50
90.0
 51
180.0
  0
ARC
  5
28F
100
AcDbEntity
  8
0
100
AcDbCircle
 62
7
  6
CONTINUOUS
 10
3.6312325311
 20
0.6985647516
 40
0.015
100
AcDbArc
 50
0.0
 51
90.0
  0
ARC
  5
290
100
AcDbEntity
  8
0
100
AcDbCircle
 62
7
  6
CONTINUOUS
 10
7.4487325311
 20
2.9320647516
 40
0.015
100
AcDbArc
 50
0.0
 51
90.0
  0
ARC
  5
291
100
AcDbEntity
  8
0
100
AcDbCircle
 62
7
  6
CONTINUOUS
 10
6.8537325311
 20
2.9320647516
 40
0.015
100
AcDbArc
 50
90.0
 51
180.0
  0
ARC
  5
292
100
AcDbEntity
  8
0
100
AcDbCircle
 62
7
  6
CONTINUOUS
 10
3.4487325311
 20
2.9320647516
 40
0.015
100
AcDbArc
 50
0.0
 51
90.0
  0
ARC
  5
293
100
AcDbEntity
  8
0
100
AcDbCircle
 62
7
  6
CONTINUOUS
 10
2.8537325311
 20
2.9320647516
 40
0.015
100
AcDbArc
 50
90.0
 51
180.0
  0
SPLINE
  5
294
100
AcDbEntity
  8
0
100
AcDbSpline
 62
7
  6
CONTINUOUS
 70
0
 71
3
 72
126
 73
122
 74
0
 42
0.0000001
 43
0.0000001
 44
0.0000000001
 40
0.0
 40
0.0
 40
0.0
 40
0.0
 40
0.0000033366
 40
0.0000132028
 40
0.0000295919
 40
0.0000524971
 40
0.0000819115
 40
0.0001178284
 40
0.0002091425
 40
0.0003263851
 40
0.0004695021
 40
0.0006384391
 40
0.0008331419
 40
0.0010535566
 40
0.0012996263
 40
0.0018684374
 40
0.0025389595
 40
0.0033105707
 40
0.0041826494
 40
0.0051545539
 40
0.0062254925
 40
0.0073946043
 40
0.0100239013
 40
0.0130347409
 40
0.0164163282
 40
0.0201571416
 40
0.0242457476
 40
0.0286707862
 40
0.033420788
 40
0.0384838453
 40
0.0495009424
 40
0.061624349
 40
0.0747589643
 40
0.0888168039
 40
0.1037153574
 40
0.1193777029
 40
0.1357342419
 40
0.1527217457
 40
0.1702826747
 40
0.1883660961
 40
0.2069258104
 40
0.2259220524
 40
0.245318542
 40
0.2650827292
 40
0.2851860184
 40
0.2953573825
 40
0.3056048937
 40
0.3263156071
 40
0.3472987468
 40
0.3578871081
 40
0.3685372462
 40
0.3792464389
 40
0.3900120264
 40
0.4117005598
 40
0.4226198374
 40
0.4335833482
 40
0.4445870142
 40
0.4556254968
 40
0.4777783345
 40
0.4888841574
 40
0.4999981266
 40
0.51111207
 40
0.5222178921
 40
0.5333083703
 40
0.5443761087
 40
0.5554146434
 40
0.5664182966
 40
0.5773818219
 40
0.5883010358
 40
0.6099894682
 40
0.6314622972
 40
0.642112409
 40
0.6527008759
 40
0.6632260115
 40
0.673685073
 40
0.6943952041
 40
0.714813575
 40
0.7349178802
 40
0.7546818205
 40
0.7740774493
 40
0.7930740415
 40
0.8116345735
 40
0.829717892
 40
0.847278421
 40
0.8642657204
 40
0.8806222724
 40
0.8962846369
 40
0.9111833794
 40
0.9252417455
 40
0.9383768807
 40
0.9504994892
 40
0.9615162091
 40
0.9665797916
 40
0.9713303761
 40
0.975755745
 40
0.9798442669
 40
0.9835844436
 40
0.9869652116
 40
0.9899759095
 40
0.9926064022
 40
0.9937764125
 40
0.9948482504
 40
0.9958209069
 40
0.9966935045
 40
0.9974653719
 40
0.9981358551
 40
0.9987043002
 40
0.9989500544
 40
0.9991700712
 40
0.9993643178
 40
0.9995327646
 40
0.9996753822
 40
0.9997921411
 40
0.9998830118
 40
0.9999187298
 40
0.9999479648
 40
0.999970713
 40
0.9999869707
 40
0.9999926645
 40
0.9999967343
 40
1.0
 40
1.0
 40
1.0
 40
1.0
 10
5.4012325311
 20
2.0960647516
 30
0.0
 10
5.40123224
 20
2.0960641484
 30
0.0
 10
5.401229931
 20
2.0960625823
 30
0.0
 10
5.4012261249
 20
2.0960581115
 30
0.0
 10
5.4012188751
 20
2.0960513386
 30
0.0
 10
5.4012091665
 20
2.0960415762
 30
0.0
 10
5.4011965193
 20
2.0960291674
 30
0.0
 10
5.4011741463
 20
2.0960070855
 30
0.0
 10
5.4011391639
 20
2.0959726758
 30
0.0
 10
5.4010888283
 20
2.095923199
 30
0.0
 10
5.4010273302
 20
2.0958628518
 30
0.0
 10
5.4009546889
 20
2.0957916646
 30
0.0
 10
5.4008709095
 20
2.0957096776
 30
0.0
 10
5.4007760028
 20
2.0956169275
 30
0.0
 10
5.4006272968
 20
2.0954718006
 30
0.0
 10
5.4004137536
 20
2.0952637681
 30
0.0
 10
5.4001244256
 20
2.0949823715
 30
0.0
 10
5.3997912517
 20
2.094658757
 30
0.0
 10
5.3994144911
 20
2.0942932008
 30
0.0
 10
5.3989944236
 20
2.0938860071
 30
0.0
 10
5.3985314028
 20
2.0934374727
 30
0.0
 10
5.3978293119
 20
2.0927576441
 30
0.0
 10
5.3968473411
 20
2.0918071577
 30
0.0
 10
5.3955462507
 20
2.0905478946
 30
0.0
 10
5.3940837843
 20
2.0891345967
 30
0.0
 10
5.3924637988
 20
2.0875730237
 30
0.0
 10
5.3906906048
 20
2.085868634
 30
0.0
 10
5.3887687905
 20
2.0840265843
 30
0.0
 10
5.386702944
 20
2.082052171
 30
0.0
 10
5.3836762236
 20
2.0791682545
 30
0.0
 10
5.3795687557
 20
2.0752733253
 30
0.0
 10
5.3742659084
 20
2.0702847307
 30
0.0
 10
5.3684926432
 20
2.0649056335
 30
0.0
 10
5.3622819046
 20
2.0591791627
 30
0.0
 10
5.3556619478
 20
2.0531483124
 30
0.0
 10
5.3486578437
 20
2.046854365
 30
0.0
 10
5.3412914583
 20
2.0403367061
 30
0.0
 10
5.3335804978
 20
2.0336339855
 30
0.0
 10
5.3255393292
 20
2.0267835563
 30
0.0
 10
5.3171776189
 20
2.0198237979
 30
0.0
 10
5.3085021839
 20
2.0127919953
 30
0.0
 10
5.299516239
 20
2.0057265871
 30
0.0
 10
5.2902206344
 20
1.9986662458
 30
0.0
 10
5.2806073495
 20
1.9916603242
 30
0.0
 10
5.2723572673
 20
1.9859315279
 30
0.0
 10
5.2655868538
 20
1.9814249189
 30
0.0
 10
5.2586518055
 20
1.9769470856
 30
0.0
 10
5.2497639578
 20
1.9714952011
 30
0.0
 10
5.2406233989
 20
1.9663357566
 30
0.0
 10
5.2331151326
 20
1.9624057607
 30
0.0
 10
5.2273679355
 20
1.9595613235
 30
0.0
 10
5.2215200813
 20
1.9568440012
 30
0.0
 10
5.2135679807
 20
1.9534054473
 30
0.0
 10
5.2054281714
 20
1.950300145
 30
0.0
 10
5.1971094167
 20
1.9475987901
 30
0.0
 10
5.1907613838
 20
1.9457856129
 30
0.0
 10
5.1843259359
 20
1.944207458
 30
0.0
 10
5.1756320632
 20
1.9424397483
 30
0.0
 10
5.1668108427
 20
1.9412248981
 30
0.0
 10
5.1579233432
 20
1.9406180127
 30
0.0
 10
5.151232461
 20
1.9404669332
 30
0.0
 10
5.1445417395
 20
1.9406180946
 30
0.0
 10
5.1378694906
 20
1.9410741548
 30
0.0
 10
5.131234362
 20
1.9418335861
 30
0.0
 10
5.1246528228
 20
1.9428836582
 30
0.0
 10
5.118139196
 20
1.9442092333
 30
0.0
 10
5.1117040701
 20
1.9457880449
 30
0.0
 10
5.1053559954
 20
1.9476010866
 30
0.0
 10
5.0970368103
 20
1.9503011973
 30
0.0
 10
5.0868868424
 20
1.9541691292
 30
0.0
 10
5.0770317659
 20
1.9586001747
 30
0.0
 10
5.0693491288
 20
1.9624043554
 30
0.0
 10
5.0637014563
 20
1.9653627683
 30
0.0
 10
5.0581511581
 20
1.9684211485
 30
0.0
 10
5.0509008821
 20
1.9726004743
 30
0.0
 10
5.0420705286
 20
1.9780106478
 30
0.0
 10
5.031795163
 20
1.9847553695
 30
0.0
 10
5.0218597361
 20
1.9916632448
 30
0.0
 10
5.012245533
 20
1.9986678249
 30
0.0
 10
5.0029472721
 20
2.0057244361
 30
0.0
 10
4.9939622235
 20
2.0127911334
 30
0.0
 10
4.9852884769
 20
2.0198253396
 30
0.0
 10
4.9769263096
 20
2.0267846306
 30
0.0
 10
4.9688844148
 20
2.0336339931
 30
0.0
 10
4.9611734543
 20
2.0403365362
 30
0.0
 10
4.9538070781
 20
2.0468541529
 30
0.0
 10
4.9468029681
 20
2.0531481606
 30
0.0
 10
4.9401830171
 20
2.0591792365
 30
0.0
 10
4.9339724285
 20
2.0649062382
 30
0.0
 10
4.9281997563
 20
2.0702860424
 30
0.0
 10
4.9228962731
 20
2.0752737657
 30
0.0
 10
4.9187884576
 20
2.0791681416
 30
0.0
 10
4.9157621061
 20
2.082052658
 30
0.0
 10
4.9136964038
 20
2.0840276398
 30
0.0
 10
4.9117746387
 20
2.085869981
 30
0.0
 10
4.9100014673
 20
2.0875742811
 30
0.0
 10
4.9083813872
 20
2.0891353102
 30
0.0
 10
4.9069186841
 20
2.0905479015
 30
0.0
 10
4.9056173758
 20
2.0918070075
 30
0.0
 10
4.9046356107
 20
2.0927582697
 30
0.0
 10
4.9039336545
 20
2.0934391006
 30
0.0
 10
4.9034706784
 20
2.0938884162
 30
0.0
 10
4.9030506511
 20
2.0942962769
 30
0.0
 10
4.9026739091
 20
2.0946622922
 30
0.0
 10
4.9023407468
 20
2.0949861307
 30
0.0
 10
4.9020514251
 20
2.0952674909
 30
0.0
 10
4.9018378504
 20
2.0954752837
 30
0.0
 10
4.9016891
 20
2.0956200546
 30
0.0
 10
4.9015941793
 20
2.0957124541
 30
0.0
 10
4.9015103849
 20
2.0957940394
 30
0.0
 10
4.9014377276
 20
2.0958647953
 30
0.0
 10
4.9013762192
 20
2.0959247081
 30
0.0
 10
4.9013258671
 20
2.095973761
 30
0.0
 10
4.9012908921
 20
2.0960078501
 30
0.0
 10
4.9012684906
 20
2.0960296751
 30
0.0
 10
4.901255899
 20
2.0960419707
 30
0.0
 10
4.9012460612
 20
2.0960515099
 30
0.0
 10
4.9012397043
 20
2.0960578202
 30
0.0
 10
4.901235878
 20
2.096061405
 30
0.0
 10
4.9012341616
 20
2.0960633412
 30
0.0
 10
4.9012328084
 20
2.0960641577
 30
0.0
 10
4.9012325311
 20
2.0960647516
 30
0.0
  0
SPLINE
  5
295
100
AcDbEntity
  8
0
100
AcDbSpline
 62
7
  6
CONTINUOUS
 70
0
 71
3
 72
46
 73
42
 74
0
 42
0.0000001
 43
0.0000001
 44
0.0000000001
 40
0.0
 40
0.0
 40
0.0
 40
0.0
 40
0.0000216675
 40
0.000048747
 40
0.0000866524
 40
0.0001949263
 40
0.000346461
 40
0.0005412282
 40
0.0007791997
 40
0.0013846424
 40
0.0021625629
 40
0.0031127321
 40
0.0042347545
 40
0.0055279888
 40
0.0069917741
 40
0.0086254494
 40
0.0123998077
 40
0.0168446112
 40
0.0219516525
 40
0.0277125363
 40
0.0341177142
 40
0.0411564209
 40
0.0488177901
 40
0.0659605332
 40
0.0854454345
 40
0.1071659682
 40
0.1310124959
 40
0.1568739973
 40
0.1846405286
 40
0.2142042497
 40
0.2454609667
 40
0.2783106592
 40
0.3126579803
 40
0.3854866908
 40
0.4632798957
 40
0.5454290359
 40
0.631357096
 40
0.7204762718
 40
0.8121401516
 40
0.9056009386
 40
1.0
 40
1.0
 40
1.0
 40
1.0
 10
3.3387325311
 20
3.2513147516
 30
0.0
 10
3.3387331562
 20
3.2513141666
 30
0.0
 10
3.3387304971
 20
3.2513179069
 30
0.0
 10
3.3387296161
 20
3.2513197731
 30
0.0
 10
3.3387256273
 20
3.251326275
 30
0.0
 10
3.3387199911
 20
3.2513359341
 30
0.0
 10
3.3387106479
 20
3.251351602
 30
0.0
 10
3.3386989374
 20
3.2513713725
 30
0.0
 10
3.3386779779
 20
3.2514066967
 30
0.0
 10
3.3386453263
 20
3.2514617775
 30
0.0
 10
3.3385983067
 20
3.2515411124
 30
0.0
 10
3.3385409108
 20
3.2516380019
 30
0.0
 10
3.3384731585
 20
3.2517524314
 30
0.0
 10
3.3383951117
 20
3.2518843484
 30
0.0
 10
3.338306827
 20
3.2520337001
 30
0.0
 10
3.338168754
 20
3.2522675071
 30
0.0
 10
3.3379710191
 20
3.2526028792
 30
0.0
 10
3.3377040588
 20
3.2530567612
 30
0.0
 10
3.3373979888
 20
3.253578706
 30
0.0
 10
3.3370535854
 20
3.2541679693
 30
0.0
 10
3.3366717397
 20
3.2548237564
 30
0.0
 10
3.3362534529
 20
3.2555452217
 30
0.0
 10
3.3356245494
 20
3.2566350094
 30
0.0
 10
3.3347551015
 20
3.2581537922
 30
0.0
 10
3.3336201484
 20
3.2601606729
 30
0.0
 10
3.3323684278
 20
3.262405789
 30
0.0
 10
3.3310111105
 20
3.2648804416
 30
0.0
 10
3.3295599467
 20
3.2675760018
 30
0.0
 10
3.3280271563
 20
3.270484053
 30
0.0
 10
3.3264252333
 20
3.2735964815
 30
0.0
 10
3.3247670869
 20
3.2769056446
 30
0.0
 10
3.3230658753
 20
3.2804043751
 30
0.0
 10
3.3207117906
 20
3.2854117137
 30
0.0
 10
3.3177478532
 20
3.2920940209
 30
0.0
 10
3.3143081458
 20
3.3006265884
 30
0.0
 10
3.3110429259
 20
3.3097800687
 30
0.0
 10
3.3080851881
 20
3.3195076078
 30
0.0
 10
3.3055748563
 20
3.3297492207
 30
0.0
 10
3.3036512174
 20
3.3404215622
 30
0.0
 10
3.3024381945
 20
3.3514086916
 30
0.0
 10
3.3021619434
 20
3.3588346739
 30
0.0
 10
3.3021619434
 20
3.3625647516
 30
0.0
  0
SPLINE
  5
296
100
AcDbEntity
  8
0
100
AcDbSpline
 62
7
  6
CONTINUOUS
 70
0
 71
3
 72
46
 73
42
 74
0
 42
0.0000001
 43
0.0000001
 44
0.0000000001
 40
0.0
 40
0.0
 40
0.0
 40
0.0
 40
0.0000216675
 40
0.000048747
 40
0.0000866524
 40
0.0001949263
 40
0.000346461
 40
0.0005412282
 40
0.0007791997
 40
0.0013846424
 40
0.0021625629
 40
0.0031127321
 40
0.0042347545
 40
0.0055279888
 40
0.0069917741
 40
0.0086254494
 40
0.0123998077
 40
0.0168446112
 40
0.0219516525
 40
0.0277125363
 40
0.0341177142
 40
0.0411564209
 40
0.0488177901
 40
0.0659605332
 40
0.0854454345
 40
0.1071659682
 40
0.1310124959
 40
0.1568739973
 40
0.1846405286
 40
0.2142042497
 40
0.2454609667
 40
0.2783106592
 40
0.3126579803
 40
0.3854866908
 40
0.4632798957
 40
0.5454290359
 40
0.631357096
 40
0.7204762718
 40
0.8121401516
 40
0.9056009386
 40
1.0
 40
1.0
 40
1.0
 40
1.0
 10
7.3387325311
 20
3.2513147516
 30
0.0
 10
7.3387331562
 20
3.2513141666
 30
0.0
 10
7.3387304971
 20
3.2513179069
 30
0.0
 10
7.3387296161
 20
3.2513197731
 30
0.0
 10
7.3387256273
 20
3.251326275
 30
0.0
 10
7.3387199911
 20
3.2513359341
 30
0.0
 10
7.3387106479
 20
3.251351602
 30
0.0
 10
7.3386989374
 20
3.2513713725
 30
0.0
 10
7.3386779779
 20
3.2514066967
 30
0.0
 10
7.3386453263
 20
3.2514617775
 30
0.0
 10
7.3385983067
 20
3.2515411124
 30
0.0
 10
7.3385409108
 20
3.2516380019
 30
0.0
 10
7.3384731585
 20
3.2517524314
 30
0.0
 10
7.3383951117
 20
3.2518843484
 30
0.0
 10
7.338306827
 20
3.2520337001
 30
0.0
 10
7.338168754
 20
3.2522675071
 30
0.0
 10
7.3379710191
 20
3.2526028792
 30
0.0
 10
7.3377040588
 20
3.2530567612
 30
0.0
 10
7.3373979888
 20
3.253578706
 30
0.0
 10
7.3370535854
 20
3.2541679693
 30
0.0
 10
7.3366717397
 20
3.2548237564
 30
0.0
 10
7.3362534529
 20
3.2555452217
 30
0.0
 10
7.3356245494
 20
3.2566350094
 30
0.0
 10
7.3347551015
 20
3.2581537922
 30
0.0
 10
7.3336201484
 20
3.2601606729
 30
0.0
 10
7.3323684278
 20
3.262405789
 30
0.0
 10
7.3310111105
 20
3.2648804416
 30
0.0
 10
7.3295599467
 20
3.2675760018
 30
0.0
 10
7.3280271563
 20
3.270484053
 30
0.0
 10
7.3264252333
 20
3.2735964815
 30
0.0
 10
7.3247670869
 20
3.2769056446
 30
0.0
 10
7.3230658753
 20
3.2804043751
 30
0.0
 10
7.3207117906
 20
3.2854117137
 30
0.0
 10
7.3177478532
 20
3.2920940209
 30
0.0
 10
7.3143081458
 20
3.3006265884
 30
0.0
 10
7.3110429259
 20
3.3097800687
 30
0.0
 10
7.3080851881
 20
3.3195076078
 30
0.0
 10
7.3055748563
 20
3.3297492207
 30
0.0
 10
7.3036512174
 20
3.3404215622
 30
0.0
 10
7.3024381945
 20
3.3514086916
 30
0.0
 10
7.3021619434
 20
3.3588346739
 30
0.0
 10
7.3021619434
 20
3.3625647516
 30
0.0
  0
SPLINE
  5
297
100
AcDbEntity
  8
0
100
AcDbSpline
 62
7
  6
CONTINUOUS
 70
0
 71
3
 72
46
 73
42
 74
0
 42
0.0000001
 43
0.0000001
 44
0.0000000001
 40
0.0
 40
0.0
 40
0.0
 40
0.0
 40
0.0943990767
 40
0.1878598635
 40
0.2795237428
 40
0.3686429159
 40
0.454570973
 40
0.5367201117
 40
0.6145133148
 40
0.6873420231
 40
0.7216893436
 40
0.7545390356
 40
0.7857957519
 40
0.8153594725
 40
0.8431260036
 40
0.868987505
 40
0.8928340327
 40
0.9145545665
 40
0.9340394677
 40
0.9511822103
 40
0.9588435794
 40
0.9658822859
 40
0.9722874636
 40
0.9780483474
 40
0.9831553886
 40
0.987600192
 40
0.9913745505
 40
0.9930082258
 40
0.994472011
 40
0.9957652453
 40
0.9968872678
 40
0.9978374372
 40
0.9986153577
 40
0.9992208003
 40
0.9994587717
 40
0.9996535389
 40
0.9998050735
 40
0.9999133474
 40
0.9999512528
 40
0.9999783324
 40
1.0
 40
1.0
 40
1.0
 40
1.0
 10
7.3021619434
 20
3.3625647516
 30
0.0
 10
7.3021619434
 20
3.3662948299
 30
0.0
 10
7.3024381946
 20
3.3737208127
 30
0.0
 10
7.3036512177
 20
3.3847079426
 30
0.0
 10
7.3055748566
 20
3.395380284
 30
0.0
 10
7.3080851885
 20
3.4056218966
 30
0.0
 10
7.3110429263
 20
3.4153494355
 30
0.0
 10
7.3143081461
 20
3.4245029156
 30
0.0
 10
7.3177478535
 20
3.4330354828
 30
0.0
 10
7.3207117908
 20
3.4397177898
 30
0.0
 10
7.3230658754
 20
3.4447251283
 30
0.0
 10
7.324767087
 20
3.4482238587
 30
0.0
 10
7.3264252334
 20
3.4515330218
 30
0.0
 10
7.3280271564
 20
3.4546454502
 30
0.0
 10
7.3295599467
 20
3.4575535014
 30
0.0
 10
7.3310111105
 20
3.4602490616
 30
0.0
 10
7.3323684279
 20
3.4627237142
 30
0.0
 10
7.3336201484
 20
3.4649688303
 30
0.0
 10
7.3347551016
 20
3.466975711
 30
0.0
 10
7.3356245495
 20
3.4684944938
 30
0.0
 10
7.3362534529
 20
3.4695842814
 30
0.0
 10
7.3366717397
 20
3.4703057467
 30
0.0
 10
7.3370535853
 20
3.4709615338
 30
0.0
 10
7.3373979888
 20
3.4715507971
 30
0.0
 10
7.3377040587
 20
3.4720727419
 30
0.0
 10
7.3379710191
 20
3.4725266239
 30
0.0
 10
7.338168754
 20
3.472861996
 30
0.0
 10
7.338306827
 20
3.473095803
 30
0.0
 10
7.3383951116
 20
3.4732451547
 30
0.0
 10
7.3384731585
 20
3.4733770717
 30
0.0
 10
7.3385409108
 20
3.4734915012
 30
0.0
 10
7.3385983067
 20
3.4735883907
 30
0.0
 10
7.3386453263
 20
3.4736677256
 30
0.0
 10
7.3386779779
 20
3.4737228064
 30
0.0
 10
7.3386989374
 20
3.4737581305
 30
0.0
 10
7.3387106478
 20
3.4737779012
 30
0.0
 10
7.3387199913
 20
3.4737935687
 30
0.0
 10
7.3387256268
 20
3.4738032286
 30
0.0
 10
7.3387296166
 20
3.4738097294
 30
0.0
 10
7.3387304959
 20
3.4738115974
 30
0.0
 10
7.3387331583
 20
3.4738153343
 30
0.0
 10
7.3387325311
 20
3.4738147516
 30
0.0
  0
SPLINE
  5
298
100
AcDbEntity
  8
0
100
AcDbSpline
 62
7
  6
CONTINUOUS
 70
0
 71
3
 72
45
 73
41
 74
0
 42
0.0000001
 43
0.0000001
 44
0.0000000001
 40
0.0
 40
0.0
 40
0.0
 40
0.0
 40
0.0943991929
 40
0.1878601093
 40
0.2795241165
 40
0.3686434171
 40
0.4545715977
 40
0.5367208567
 40
0.6145141705
 40
0.6873429842
 40
0.7545386545
 40
0.7857954197
 40
0.8153591871
 40
0.8431257619
 40
0.8689873037
 40
0.8928338686
 40
0.9145544362
 40
0.9340393686
 40
0.9511821381
 40
0.9588435204
 40
0.9658822372
 40
0.9722874242
 40
0.978048318
 40
0.9831553651
 40
0.987600174
 40
0.9913745391
 40
0.9930082161
 40
0.9944720026
 40
0.9957652383
 40
0.9968872629
 40
0.997837435
 40
0.9986153567
 40
0.9992207993
 40
0.9994587706
 40
0.9996535376
 40
0.9998050722
 40
0.9999133463
 40
0.9999512518
 40
0.9999783316
 40
1.0
 40
1.0
 40
1.0
 40
1.0
 10
3.0003031187
 20
3.3625647516
 30
0.0
 10
3.0003031187
 20
3.3588346741
 30
0.0
 10
3.0000268676
 20
3.3514086923
 30
0.0
 10
2.9988138449
 20
3.3404215635
 30
0.0
 10
2.9968902062
 20
3.3297492224
 30
0.0
 10
2.9943798748
 20
3.3195076107
 30
0.0
 10
2.9914221364
 20
3.3097800691
 30
0.0
 10
2.9881569194
 20
3.3006265987
 30
0.0
 10
2.9847172031
 20
3.2920939981
 30
0.0
 10
2.981226938
 20
3.2842251084
 30
0.0
 10
2.9783059505
 20
3.278118997
 30
0.0
 10
2.9760398326
 20
3.2735964863
 30
0.0
 10
2.9744379061
 20
3.2704840542
 30
0.0
 10
2.9729051164
 20
3.2675760034
 30
0.0
 10
2.9714539522
 20
3.2648804427
 30
0.0
 10
2.9700966348
 20
3.2624057899
 30
0.0
 10
2.9688449141
 20
3.2601606735
 30
0.0
 10
2.9677099607
 20
3.2581537926
 30
0.0
 10
2.9668405128
 20
3.2566350094
 30
0.0
 10
2.9662116091
 20
3.2555452217
 30
0.0
 10
2.9657933224
 20
3.2548237563
 30
0.0
 10
2.9654114768
 20
3.2541679692
 30
0.0
 10
2.9650670732
 20
3.2535787059
 30
0.0
 10
2.9647610033
 20
3.2530567611
 30
0.0
 10
2.9644940431
 20
3.2526028791
 30
0.0
 10
2.9642963081
 20
3.2522675071
 30
0.0
 10
2.9641582351
 20
3.2520337
 30
0.0
 10
2.9640699506
 20
3.2518843486
 30
0.0
 10
2.9639919034
 20
3.2517524312
 30
0.0
 10
2.9639241524
 20
3.2516380029
 30
0.0
 10
2.9638667524
 20
3.2515411096
 30
0.0
 10
2.9638197438
 20
3.251461785
 30
0.0
 10
2.963787067
 20
3.2514066807
 30
0.0
 10
2.9637661461
 20
3.2513713925
 30
0.0
 10
2.9637543548
 20
3.2513515464
 30
0.0
 10
2.9637452203
 20
3.2513360738
 30
0.0
 10
2.9637391513
 20
3.2513260097
 30
0.0
 10
2.9637357443
 20
3.2513200523
 30
0.0
 10
2.963733843
 20
3.2513172314
 30
0.0
 10
2.9637331563
 20
3.2513153365
 30
0.0
 10
2.9637325311
 20
3.2513147516
 30
0.0
  0
SPLINE
  5
299
100
AcDbEntity
  8
0
100
AcDbSpline
 62
7
  6
CONTINUOUS
 70
0
 71
3
 72
45
 73
41
 74
0
 42
0.0000001
 43
0.0000001
 44
0.0000000001
 40
0.0
 40
0.0
 40
0.0
 40
0.0
 40
0.0000216683
 40
0.000048748
 40
0.0000866535
 40
0.0001949276
 40
0.0003464622
 40
0.0005412292
 40
0.0007792005
 40
0.0013846432
 40
0.0021625649
 40
0.0031127368
 40
0.0042347612
 40
0.0055279968
 40
0.0069917831
 40
0.0086254601
 40
0.0123998249
 40
0.0168446335
 40
0.0219516803
 40
0.0277125738
 40
0.0341177604
 40
0.0411564769
 40
0.0488178589
 40
0.0659606276
 40
0.0854455589
 40
0.1071661251
 40
0.1310126885
 40
0.1568742287
 40
0.1846408021
 40
0.2142045684
 40
0.2454613323
 40
0.3126570002
 40
0.3854858124
 40
0.4632791241
 40
0.5454283811
 40
0.6313565606
 40
0.7204758587
 40
0.8121398689
 40
0.9056007894
 40
1.0
 40
1.0
 40
1.0
 40
1.0
 10
2.9637325311
 20
3.4738147516
 30
0.0
 10
2.9637331583
 20
3.4738141688
 30
0.0
 10
2.9637338418
 20
3.4738122705
 30
0.0
 10
2.9637357448
 20
3.4738094514
 30
0.0
 10
2.9637391509
 20
3.4738034929
 30
0.0
 10
2.9637452206
 20
3.4737934296
 30
0.0
 10
2.9637543547
 20
3.4737779566
 30
0.0
 10
2.9637661461
 20
3.4737581106
 30
0.0
 10
2.963787067
 20
3.4737228224
 30
0.0
 10
2.9638197438
 20
3.4736677181
 30
0.0
 10
2.9638667524
 20
3.4735883935
 30
0.0
 10
2.9639241524
 20
3.4734915003
 30
0.0
 10
2.9639919033
 20
3.473377072
 30
0.0
 10
2.9640699506
 20
3.4732451546
 30
0.0
 10
2.964158235
 20
3.4730958032
 30
0.0
 10
2.964296308
 20
3.4728619961
 30
0.0
 10
2.964494043
 20
3.4725266242
 30
0.0
 10
2.9647610032
 20
3.4720727421
 30
0.0
 10
2.9650670731
 20
3.4715507974
 30
0.0
 10
2.9654114766
 20
3.4709615341
 30
0.0
 10
2.9657933222
 20
3.470305747
 30
0.0
 10
2.966211609
 20
3.4695842817
 30
0.0
 10
2.9668405126
 20
3.468494494
 30
0.0
 10
2.9677099604
 20
3.4669757109
 30
0.0
 10
2.9688449138
 20
3.4649688301
 30
0.0
 10
2.9700966344
 20
3.4627237139
 30
0.0
 10
2.9714539517
 20
3.4602490612
 30
0.0
 10
2.9729051159
 20
3.4575535007
 30
0.0
 10
2.9744379055
 20
3.4546454501
 30
0.0
 10
2.9760398319
 20
3.4515330181
 30
0.0
 10
2.9783059498
 20
3.4470105075
 30
0.0
 10
2.9812269372
 20
3.4409043963
 30
0.0
 10
2.9847172023
 20
3.4330355069
 30
0.0
 10
2.9881569186
 20
3.4245029065
 30
0.0
 10
2.9914221356
 20
3.4153494364
 30
0.0
 10
2.9943798741
 20
3.405621895
 30
0.0
 10
2.9968902057
 20
3.3953802834
 30
0.0
 10
2.9988138444
 20
3.3847079421
 30
0.0
 10
3.0000268675
 20
3.3737208124
 30
0.0
 10
3.0003031187
 20
3.3662948298
 30
0.0
 10
3.0003031187
 20
3.3625647516
 30
0.0
  0
SPLINE
  5
29A
100
AcDbEntity
  8
0
100
AcDbSpline
 62
7
  6
CONTINUOUS
 70
0
 71
3
 72
45
 73
41
 74
0
 42
0.0000001
 43
0.0000001
 44
0.0000000001
 40
0.0
 40
0.0
 40
0.0
 40
0.0
 40
0.0000216683
 40
0.000048748
 40
0.0000866535
 40
0.0001949276
 40
0.0003464622
 40
0.0005412292
 40
0.0007792005
 40
0.0013846432
 40
0.0021625649
 40
0.0031127368
 40
0.0042347612
 40
0.0055279968
 40
0.0069917831
 40
0.0086254601
 40
0.0123998249
 40
0.0168446335
 40
0.0219516803
 40
0.0277125738
 40
0.0341177604
 40
0.0411564769
 40
0.0488178589
 40
0.0659606276
 40
0.0854455589
 40
0.1071661251
 40
0.1310126885
 40
0.1568742287
 40
0.1846408021
 40
0.2142045684
 40
0.2454613323
 40
0.3126570002
 40
0.3854858124
 40
0.4632791241
 40
0.5454283811
 40
0.6313565606
 40
0.7204758587
 40
0.8121398689
 40
0.9056007894
 40
1.0
 40
1.0
 40
1.0
 40
1.0
 10
6.9637325311
 20
3.4738147516
 30
0.0
 10
6.9637331583
 20
3.4738141688
 30
0.0
 10
6.9637338418
 20
3.4738122705
 30
0.0
 10
6.9637357448
 20
3.4738094514
 30
0.0
 10
6.9637391509
 20
3.4738034929
 30
0.0
 10
6.9637452206
 20
3.4737934296
 30
0.0
 10
6.9637543547
 20
3.4737779566
 30
0.0
 10
6.9637661461
 20
3.4737581106
 30
0.0
 10
6.963787067
 20
3.4737228224
 30
0.0
 10
6.9638197438
 20
3.4736677181
 30
0.0
 10
6.9638667524
 20
3.4735883935
 30
0.0
 10
6.9639241524
 20
3.4734915003
 30
0.0
 10
6.9639919033
 20
3.473377072
 30
0.0
 10
6.9640699506
 20
3.4732451546
 30
0.0
 10
6.964158235
 20
3.4730958032
 30
0.0
 10
6.964296308
 20
3.4728619961
 30
0.0
 10
6.964494043
 20
3.4725266242
 30
0.0
 10
6.9647610032
 20
3.4720727421
 30
0.0
 10
6.9650670731
 20
3.4715507974
 30
0.0
 10
6.9654114766
 20
3.4709615341
 30
0.0
 10
6.9657933222
 20
3.470305747
 30
0.0
 10
6.966211609
 20
3.4695842817
 30
0.0
 10
6.9668405126
 20
3.468494494
 30
0.0
 10
6.9677099604
 20
3.4669757109
 30
0.0
 10
6.9688449138
 20
3.4649688301
 30
0.0
 10
6.9700966344
 20
3.4627237139
 30
0.0
 10
6.9714539517
 20
3.4602490612
 30
0.0
 10
6.9729051159
 20
3.4575535007
 30
0.0
 10
6.9744379055
 20
3.4546454501
 30
0.0
 10
6.9760398319
 20
3.4515330181
 30
0.0
 10
6.9783059498
 20
3.4470105075
 30
0.0
 10
6.9812269372
 20
3.4409043963
 30
0.0
 10
6.9847172023
 20
3.4330355069
 30
0.0
 10
6.9881569186
 20
3.4245029065
 30
0.0
 10
6.9914221356
 20
3.4153494364
 30
0.0
 10
6.9943798741
 20
3.405621895
 30
0.0
 10
6.9968902057
 20
3.3953802834
 30
0.0
 10
6.9988138444
 20
3.3847079421
 30
0.0
 10
7.0000268675
 20
3.3737208124
 30
0.0
 10
7.0003031187
 20
3.3662948298
 30
0.0
 10
7.0003031187
 20
3.3625647516
 30
0.0
  0
SPLINE
  5
29B
100
AcDbEntity
  8
0
100
AcDbSpline
 62
7
  6
CONTINUOUS
 70
0
 71
3
 72
122
 73
118
 74
0
 42
0.0000001
 43
0.0000001
 44
0.0000000001
 40
0.0
 40
0.0
 40
0.0
 40
0.0
 40
0.0000034537
 40
0.0000136383
 40
0.0000305458
 40
0.0000541683
 40
0.0000844978
 40
0.0001215265
 40
0.0002156494
 40
0.0003364734
 40
0.0004839351
 40
0.0006579711
 40
0.0008585179
 40
0.0013388781
 40
0.0019243992
 40
0.0026144162
 40
0.0034082639
 40
0.0043052741
 40
0.0053047028
 40
0.0064057218
 40
0.0076074989
 40
0.0103098621
 40
0.0134021766
 40
0.0168721822
 40
0.0207075137
 40
0.0248958023
 40
0.0294246647
 40
0.0342816299
 40
0.0394541891
 40
0.050693886
 40
0.0630378722
 40
0.0763851213
 40
0.0906432541
 40
0.1057277693
 40
0.121560094
 40
0.1380666266
 40
0.1551800578
 40
0.1728453896
 40
0.1910116127
 40
0.2096298172
 40
0.2286583465
 40
0.2480619183
 40
0.2678066797
 40
0.2878613871
 40
0.3081998602
 40
0.328798052
 40
0.3496313996
 40
0.3706765997
 40
0.3919118173
 40
0.4025941106
 40
0.4133150702
 40
0.4240706474
 40
0.4348572591
 40
0.4565058863
 40
0.4673623386
 40
0.4782329818
 40
0.489113505
 40
0.499999241
 40
0.5108849171
 40
0.5217653857
 40
0.5434900597
 40
0.5543270878
 40
0.5651405914
 40
0.5759271273
 40
0.5866827123
 40
0.5974039145
 40
0.6080868182
 40
0.6187280535
 40
0.6293243363
 40
0.6398719726
 40
0.6503689914
 40
0.6608134543
 40
0.6712026138
 40
0.6918019192
 40
0.712140499
 40
0.7321946001
 40
0.7519385486
 40
0.7713420999
 40
0.7903714163
 40
0.8271531366
 40
0.8448192339
 40
0.8619339975
 40
0.8784391915
 40
0.8942702747
 40
0.9093555654
 40
0.9236153796
 40
0.9369636516
 40
0.9493069023
 40
0.9605451829
 40
0.9657181505
 40
0.9705762297
 40
0.9751059774
 40
0.9792943066
 40
0.983128971
 40
0.9865979195
 40
0.9896896387
 40
0.9923929147
 40
0.9935957554
 40
0.9946979717
 40
0.9956985046
 40
0.996596313
 40
0.997390575
 40
0.9980806146
 40
0.9986657585
 40
0.998918784
 40
0.9991453349
 40
0.9993453567
 40
0.999518817
 40
0.9996656838
 40
0.9997859253
 40
0.9998795095
 40
0.9999162952
 40
0.9999464047
 40
0.9999698339
 40
0.9999865788
 40
0.9999966355
 40
1.0
 40
1.0
 40
1.0
 40
1.0
 10
5.4462325311
 20
2.0510647516
 30
0.0
 10
5.4462318463
 20
2.051064423
 30
0.0
 10
5.4462295496
 20
2.0510624312
 30
0.0
 10
5.4462239306
 20
2.0510587851
 30
0.0
 10
5.4462149257
 20
2.0510521778
 30
0.0
 10
5.4462021984
 20
2.0510431964
 30
0.0
 10
5.4461859214
 20
2.0510315557
 30
0.0
 10
5.4461570072
 20
2.0510109384
 30
0.0
 10
5.4461119202
 20
2.0509787194
 30
0.0
 10
5.4460470912
 20
2.0509323569
 30
0.0
 10
5.4459680014
 20
2.0508757223
 30
0.0
 10
5.4458746921
 20
2.050808831
 30
0.0
 10
5.4457219402
 20
2.0506992016
 30
0.0
 10
5.44549581
 20
2.0505366109
 30
0.0
 10
5.4451824256
 20
2.0503109785
 30
0.0
 10
5.4448131829
 20
2.0500449364
 30
0.0
 10
5.4443884116
 20
2.0497387784
 30
0.0
 10
5.4439084617
 20
2.0493928006
 30
0.0
 10
5.4433736683
 20
2.0490073804
 30
0.0
 10
5.4427843473
 20
2.0485829841
 30
0.0
 10
5.4418907943
 20
2.0479401788
 30
0.0
 10
5.4406407832
 20
2.0470429684
 30
0.0
 10
5.4389839748
 20
2.0458570449
 30
0.0
 10
5.4371233053
 20
2.044527847
 30
0.0
 10
5.4350652293
 20
2.0430603383
 30
0.0
 10
5.4328158284
 20
2.0414600541
 30
0.0
 10
5.4303812814
 20
2.0397324369
 30
0.0
 10
5.4277674833
 20
2.0378833868
 30
0.0
 10
5.4239441732
 20
2.0351885916
 30
0.0
 10
5.4187645448
 20
2.0315600673
 30
0.0
 10
5.4120937952
 20
2.0269268217
 30
0.0
 10
5.4048555117
 20
2.0219471667
 30
0.0
 10
5.3970928159
 20
2.0166666147
 30
0.0
 10
5.3888437382
 20
2.011129687
 30
0.0
 10
5.3801428272
 20
2.0053791041
 30
0.0
 10
5.3710230797
 20
1.9994535569
 30
0.0
 10
5.3615136949
 20
1.9933884622
 30
0.0
 10
5.3516336716
 20
1.9872266842
 30
0.0
 10
5.3414003275
 20
1.9810074707
 30
0.0
 10
5.330831562
 20
1.9747646362
 30
0.0
 10
5.3199377318
 20
1.9685393486
 30
0.0
 10
5.3087246484
 20
1.9623766019
 30
0.0
 10
5.2971978944
 20
1.9563204309
 30
0.0
 10
5.2853623835
 20
1.9504155332
 30
0.0
 10
5.2732159333
 20
1.9447214856
 30
0.0
 10
5.2607579634
 20
1.9392999526
 30
0.0
 10
5.247990492
 20
1.9342156027
 30
0.0
 10
5.2349170705
 20
1.929543235
 30
0.0
 10
5.2237953858
 20
1.926069016
 30
0.0
 10
5.2147528186
 20
1.9235836573
 30
0.0
 10
5.20788915
 20
1.9218750112
 30
0.0
 10
5.2009622206
 20
1.9203343045
 30
0.0
 10
5.1916388497
 20
1.9185142326
 30
0.0
 10
5.1822214793
 20
1.9170733839
 30
0.0
 10
5.1727360735
 20
1.9160503161
 30
0.0
 10
5.165584847
 20
1.9155003004
 30
0.0
 10
5.1584135354
 20
1.9151745442
 30
0.0
 10
5.1512324055
 20
1.9150671961
 30
0.0
 10
5.1440512041
 20
1.9151746574
 30
0.0
 10
5.1344953134
 20
1.9156093105
 30
0.0
 10
5.1249751017
 20
1.9164920781
 30
0.0
 10
5.1155245652
 20
1.917796268
 30
0.0
 10
5.1084876992
 20
1.9189732723
 30
0.0
 10
5.1015031698
 20
1.9203375001
 30
0.0
 10
5.094576162
 20
1.9218777097
 30
0.0
 10
5.0877119495
 20
1.923584897
 30
0.0
 10
5.0809151566
 20
1.9254502682
 30
0.0
 10
5.0741894946
 20
1.9274637328
 30
0.0
 10
5.0675377557
 20
1.9296143815
 30
0.0
 10
5.0609620385
 20
1.9318920044
 30
0.0
 10
5.0544628905
 20
1.934284518
 30
0.0
 10
5.0480399794
 20
1.9367799182
 30
0.0
 10
5.0396011657
 20
1.9402180693
 30
0.0
 10
5.0292474325
 20
1.9447190871
 30
0.0
 10
5.0171006628
 20
1.95041274
 30
0.0
 10
5.0052665213
 20
1.956319781
 30
0.0
 10
4.9937407523
 20
1.962377106
 30
0.0
 10
4.9825277356
 20
1.9685399684
 30
0.0
 10
4.9681643856
 20
1.9767453584
 30
0.0
 10
4.9543072684
 20
1.985062181
 30
0.0
 10
4.940952433
 20
1.9933894199
 30
0.0
 10
4.9314413943
 20
1.9994522966
 30
0.0
 10
4.9223229813
 20
2.0053793983
 30
0.0
 10
4.9136233731
 20
2.0111312232
 30
0.0
 10
4.905373424
 20
2.0166673238
 30
0.0
 10
4.8976092391
 20
2.0219470487
 30
0.0
 10
4.8903701125
 20
2.0269262447
 30
0.0
 10
4.8836998634
 20
2.0315597804
 30
0.0
 10
4.8785212822
 20
2.0351891292
 30
0.0
 10
4.8746977708
 20
2.0378836781
 30
0.0
 10
4.8720831062
 20
2.0397324198
 30
0.0
 10
4.8696478383
 20
2.0414597966
 30
0.0
 10
4.8673983942
 20
2.0430601187
 30
0.0
 10
4.8653408425
 20
2.0445277251
 30
0.0
 10
4.8634809367
 20
2.0458571144
 30
0.0
 10
4.8618245239
 20
2.0470433108
 30
0.0
 10
4.8605740699
 20
2.0479404243
 30
0.0
 10
4.8596795152
 20
2.0485830319
 30
0.0
 10
4.859089245
 20
2.0490073762
 30
0.0
 10
4.8585535677
 20
2.0493927353
 30
0.0
 10
4.8580729602
 20
2.0497386721
 30
0.0
 10
4.8576478434
 20
2.0500448151
 30
0.0
 10
4.8572785789
 20
2.0503108496
 30
0.0
 10
4.8570059214
 20
2.0505073486
 30
0.0
 10
4.8568159665
 20
2.0506442638
 30
0.0
 10
4.856694721
 20
2.0507316556
 30
0.0
 10
4.8565876698
 20
2.050808815
 30
0.0
 10
4.8564948338
 20
2.0508757257
 30
0.0
 10
4.8564162321
 20
2.0509323794
 30
0.0
 10
4.8563518764
 20
2.0509787529
 30
0.0
 10
4.8563071698
 20
2.0510109899
 30
0.0
 10
4.8562785262
 20
2.0510316029
 30
0.0
 10
4.8562624322
 20
2.0510432585
 30
0.0
 10
4.8562498341
 20
2.0510521837
 30
0.0
 10
4.8562410006
 20
2.0510588909
 30
0.0
 10
4.8562353894
 20
2.0510623286
 30
0.0
 10
4.8562332298
 20
2.0510645083
 30
0.0
 10
4.8562325311
 20
2.0510647516
 30
0.0
  0
SPLINE
  5
29C
100
AcDbEntity
  8
0
100
AcDbSpline
 62
7
  6
CONTINUOUS
 70
0
 71
3
 72
46
 73
42
 74
0
 42
0.0000001
 43
0.0000001
 44
0.0000000001
 40
0.0
 40
0.0
 40
0.0
 40
0.0
 40
0.0943990767
 40
0.1878598635
 40
0.2795237428
 40
0.3686429159
 40
0.454570973
 40
0.5367201117
 40
0.6145133148
 40
0.6873420231
 40
0.7216893436
 40
0.7545390356
 40
0.7857957519
 40
0.8153594725
 40
0.8431260036
 40
0.868987505
 40
0.8928340327
 40
0.9145545665
 40
0.9340394677
 40
0.9511822103
 40
0.9588435794
 40
0.9658822859
 40
0.9722874636
 40
0.9780483474
 40
0.9831553886
 40
0.987600192
 40
0.9913745505
 40
0.9930082258
 40
0.994472011
 40
0.9957652453
 40
0.9968872678
 40
0.9978374372
 40
0.9986153577
 40
0.9992208003
 40
0.9994587717
 40
0.9996535389
 40
0.9998050735
 40
0.9999133474
 40
0.9999512528
 40
0.9999783324
 40
1.0
 40
1.0
 40
1.0
 40
1.0
 10
3.3021619434
 20
3.3625647516
 30
0.0
 10
3.3021619434
 20
3.3662948299
 30
0.0
 10
3.3024381946
 20
3.3737208127
 30
0.0
 10
3.3036512177
 20
3.3847079426
 30
0.0
 10
3.3055748566
 20
3.395380284
 30
0.0
 10
3.3080851885
 20
3.4056218966
 30
0.0
 10
3.3110429263
 20
3.4153494355
 30
0.0
 10
3.3143081461
 20
3.4245029156
 30
0.0
 10
3.3177478535
 20
3.4330354828
 30
0.0
 10
3.3207117908
 20
3.4397177898
 30
0.0
 10
3.3230658754
 20
3.4447251283
 30
0.0
 10
3.324767087
 20
3.4482238587
 30
0.0
 10
3.3264252334
 20
3.4515330218
 30
0.0
 10
3.3280271564
 20
3.4546454502
 30
0.0
 10
3.3295599467
 20
3.4575535014
 30
0.0
 10
3.3310111105
 20
3.4602490616
 30
0.0
 10
3.3323684279
 20
3.4627237142
 30
0.0
 10
3.3336201484
 20
3.4649688303
 30
0.0
 10
3.3347551016
 20
3.466975711
 30
0.0
 10
3.3356245495
 20
3.4684944938
 30
0.0
 10
3.3362534529
 20
3.4695842814
 30
0.0
 10
3.3366717397
 20
3.4703057467
 30
0.0
 10
3.3370535853
 20
3.4709615338
 30
0.0
 10
3.3373979888
 20
3.4715507971
 30
0.0
 10
3.3377040587
 20
3.4720727419
 30
0.0
 10
3.3379710191
 20
3.4725266239
 30
0.0
 10
3.338168754
 20
3.472861996
 30
0.0
 10
3.338306827
 20
3.473095803
 30
0.0
 10
3.3383951116
 20
3.4732451547
 30
0.0
 10
3.3384731585
 20
3.4733770717
 30
0.0
 10
3.3385409108
 20
3.4734915012
 30
0.0
 10
3.3385983067
 20
3.4735883907
 30
0.0
 10
3.3386453263
 20
3.4736677256
 30
0.0
 10
3.3386779779
 20
3.4737228064
 30
0.0
 10
3.3386989374
 20
3.4737581305
 30
0.0
 10
3.3387106478
 20
3.4737779012
 30
0.0
 10
3.3387199913
 20
3.4737935687
 30
0.0
 10
3.3387256268
 20
3.4738032286
 30
0.0
 10
3.3387296166
 20
3.4738097294
 30
0.0
 10
3.3387304959
 20
3.4738115974
 30
0.0
 10
3.3387331583
 20
3.4738153343
 30
0.0
 10
3.3387325311
 20
3.4738147516
 30
0.0
  0
SPLINE
  5
29D
100
AcDbEntity
  8
0
100
AcDbSpline
 62
7
  6
CONTINUOUS
 70
0
 71
3
 72
45
 73
41
 74
0
 42
0.0000001
 43
0.0000001
 44
0.0000000001
 40
0.0
 40
0.0
 40
0.0
 40
0.0
 40
0.0943991929
 40
0.1878601093
 40
0.2795241165
 40
0.3686434171
 40
0.4545715977
 40
0.5367208567
 40
0.6145141705
 40
0.6873429842
 40
0.7545386545
 40
0.7857954197
 40
0.8153591871
 40
0.8431257619
 40
0.8689873037
 40
0.8928338686
 40
0.9145544362
 40
0.9340393686
 40
0.9511821381
 40
0.9588435204
 40
0.9658822372
 40
0.9722874242
 40
0.978048318
 40
0.9831553651
 40
0.987600174
 40
0.9913745391
 40
0.9930082161
 40
0.9944720026
 40
0.9957652383
 40
0.9968872629
 40
0.997837435
 40
0.9986153567
 40
0.9992207993
 40
0.9994587706
 40
0.9996535376
 40
0.9998050722
 40
0.9999133463
 40
0.9999512518
 40
0.9999783316
 40
1.0
 40
1.0
 40
1.0
 40
1.0
 10
7.0003031187
 20
3.3625647516
 30
0.0
 10
7.0003031187
 20
3.3588346741
 30
0.0
 10
7.0000268676
 20
3.3514086923
 30
0.0
 10
6.9988138449
 20
3.3404215635
 30
0.0
 10
6.9968902062
 20
3.3297492224
 30
0.0
 10
6.9943798748
 20
3.3195076107
 30
0.0
 10
6.9914221364
 20
3.3097800691
 30
0.0
 10
6.9881569194
 20
3.3006265987
 30
0.0
 10
6.9847172031
 20
3.2920939981
 30
0.0
 10
6.981226938
 20
3.2842251084
 30
0.0
 10
6.9783059505
 20
3.278118997
 30
0.0
 10
6.9760398326
 20
3.2735964863
 30
0.0
 10
6.9744379061
 20
3.2704840542
 30
0.0
 10
6.9729051164
 20
3.2675760034
 30
0.0
 10
6.9714539522
 20
3.2648804427
 30
0.0
 10
6.9700966348
 20
3.2624057899
 30
0.0
 10
6.9688449141
 20
3.2601606735
 30
0.0
 10
6.9677099607
 20
3.2581537926
 30
0.0
 10
6.9668405128
 20
3.2566350094
 30
0.0
 10
6.9662116091
 20
3.2555452217
 30
0.0
 10
6.9657933224
 20
3.2548237563
 30
0.0
 10
6.9654114768
 20
3.2541679692
 30
0.0
 10
6.9650670732
 20
3.2535787059
 30
0.0
 10
6.9647610033
 20
3.2530567611
 30
0.0
 10
6.9644940431
 20
3.2526028791
 30
0.0
 10
6.9642963081
 20
3.2522675071
 30
0.0
 10
6.9641582351
 20
3.2520337
 30
0.0
 10
6.9640699506
 20
3.2518843486
 30
0.0
 10
6.9639919034
 20
3.2517524312
 30
0.0
 10
6.9639241524
 20
3.2516380029
 30
0.0
 10
6.9638667524
 20
3.2515411096
 30
0.0
 10
6.9638197438
 20
3.251461785
 30
0.0
 10
6.963787067
 20
3.2514066807
 30
0.0
 10
6.9637661461
 20
3.2513713925
 30
0.0
 10
6.9637543548
 20
3.2513515464
 30
0.0
 10
6.9637452203
 20
3.2513360738
 30
0.0
 10
6.9637391513
 20
3.2513260097
 30
0.0
 10
6.9637357443
 20
3.2513200523
 30
0.0
 10
6.963733843
 20
3.2513172314
 30
0.0
 10
6.9637331563
 20
3.2513153365
 30
0.0
 10
6.9637325311
 20
3.2513147516
 30
0.0
  0
ENDSEC
  0
SECTION
  2
OBJECTS
  0
DICTIONARY
  5
C
100
AcDbDictionary
280
0
281
1
  3
ACAD_GROUP
350
D
  3
ACAD_MLINESTYLE
350
17
  3
ACAD_LAYOUT
350
1A
  3
ACAD_PLOTSETTINGS
350
19
  3
ACAD_PLOTSTYLENAME
350
E
  0
DICTIONARY
  5
D
102
{ACAD_REACTORS
330
C
102
}
100
AcDbDictionary
280
0
281
1
  0
ACDBDICTIONARYWDFLT
  5
E
102
{ACAD_REACTORS
330
C
102
}
100
AcDbDictionary
281
1
  3
Normal
350
F
100
AcDbDictionaryWithDefault
340
F
  0
DICTIONARY
  5
17
102
{ACAD_REACTORS
330
C
102
}
100
AcDbDictionary
280
0
281
1
  3
Standard
350
18
  0
DICTIONARY
  5
19
102
{ACAD_REACTORS
330
C
102
}
100
AcDbDictionary
281
1
  0
DICTIONARY
  5
1A
102
{ACAD_REACTORS
330
C
102
}
100
AcDbDictionary
281
1
  3
Model
350
29E
  3
Layout1
350
29F
  0
ACDBPLACEHOLDER
  5
F
102
{ACAD_REACTORS
330
E
102
}
  0
MLINESTYLE
  5
18
102
{ACAD_REACTORS
330
17
102
}
100
AcDbMlineStyle
  2
STANDARD
 70
0
  3

 62
256
 51
90.0
 52
90.0
 71
2
 49
0.5
 62
256
  6
BYLAYER
 49
-0.5
 62
256
  6
BYLAYER
  0
LAYOUT
  5
29E
102
{ACAD_REACTORS
330
1A
102
}
100
AcDbPlotSettings
  1

  2
none_device
  4
ANSI_A_(11.00_x_8.50_Inches)
  6

 40
0.0
 41
0.0
 42
0.0
 43
0.0
 44
279.4
 45
215.9
 46
0.0
 47
0.0
 48
0.0
 49
0.0
140
0.0
141
0.0
142
1.0
143
1.0
 70
1024
 72
0
 73
0
 74
0
  7

 75
0
147
1.0
148
0.0
149
0.0
100
AcDbLayout
  1
Model
 70
0
 71
0
 10
0.0
 20
0.0
 11
11.0
 21
8.5
 12
0.0
 22
0.0
 32
0.0
 14
0.0
 24
0.0
 34
0.0
 15
0.0
 25
0.0
 35
0.0
146
0.0
 13
0.0
 23
0.0
 33
0.0
 16
1.0
 26
0.0
 36
0.0
 17
0.0
 27
1.0
 37
0.0
 76
0
330
202
345
0
346
0
  0
LAYOUT
  5
29F
102
{ACAD_REACTORS
330
1A
102
}
100
AcDbPlotSettings
  1

  2
none_device
  4
ANSI_A_(11.00_x_8.50_Inches)
  6

 40
0.0
 41
0.0
 42
0.0
 43
0.0
 44
279.4
 45
215.9
 46
0.0
 47
0.0
 48
0.0
 49
0.0
140
0.0
141
0.0
142
1.0
143
1.0
 70
0
 72
0
 73
0
 74
0
  7

 75
0
147
1.0
148
0.0
149
0.0
100
AcDbLayout
  1
Layout1
 70
0
 71
1
 10
0.0
 20
0.0
 11
11.0
 21
8.5
 12
0.0
 22
0.0
 32
0.0
 14
0.0
 24
0.0
 34
0.0
 15
0.0
 25
0.0
 35
0.0
146
0.0
 13
0.0
 23
0.0
 33
0.0
 16
1.0
 26
0.0
 36
0.0
 17
0.0
 27
1.0
 37
0.0
 76
0
330
203
345
0
346
0
  0
ENDSEC
  0
EOF
