999
DXF file: 1400-5413_front.dxf
999
Pro/ENGINEER 2018400 by Parametric Technology Corporation
  0
SECTION
  2
HEADER
  9
$ACADVER
  1
AC1027
  9
$DWGCODEPAGE
  3
ANSI_1252
  9
$EXTMAX
 10
11.0
 20
8.5
 30
0.0
  9
$EXTMIN
 10
0.0
 20
0.0
 30
0.0
  9
$LIMMIN
 10
0.0
 20
0.0
  9
$LIMMAX
 10
11.0
 20
8.5
  9
$VIEWCTR
 10
5.5
 20
4.25
  9
$VIEWSIZE
 40
8.5
  9
$CLAYER
  8
0
  9
$LTSCALE
 40
0.605
  9
$CELTYPE
  6
BYLAYER
  9
$DIMSCALE
 40
1.0
  9
$DIMASZ
 40
0.1
  9
$DIMEXO
 40
0.0625
  9
$DIMDLI
 40
0.418
  9
$DIMEXE
 40
0.125
  9
$DIMCEN
 40
0.099
  9
$DIMLFAC
 40
1.0
  9
$DIMBLK
  1
_FILLED
  9
$DIMALT
 70
1
  9
$DIMALTD
 70
1
  9
$DIMALTTD
 70
2
  9
$DIMALTF
 40
25.4
  9
$DIMTXT
 40
0.08
  9
$DIMTOL
 70
1
  9
$DIMLIM
 70
0
  9
$DIMTFAC
 40
1.0
  9
$DIMTP
 40
0.01
  9
$DIMTM
 40
0.01
  9
$DIMGAP
 40
0.09
  9
$DIMDSEP
 70
46
  9
$AUNITS
 70
0
  9
$PDMODE
 70
3
  9
$PDSIZE
 40
0.3125
  9
$HANDSEED
  5
488
  9
$TILEMODE
 70
1
  9
$MEASUREMENT
 70
0
  9
$INSUNITS
 70
1
  0
ENDSEC
  0
SECTION
  2
CLASSES
  0
CLASS
  1
ACDBDICTIONARYWDFLT
  2
AcDbDictionaryWithDefault
  3
AutoCAD 2000
 90
0
 91
1
280
0
281
0
  0
CLASS
  1
ACDBPLACEHOLDER
  2
AcDbPlaceHolder
  3
AutoCAD 2000
 90
0
 91
1
280
0
281
0
  0
CLASS
  1
LAYOUT
  2
AcDbLayout
  3
AutoCAD 2000
 90
0
 91
0
280
0
281
0
  0
ENDSEC
  0
SECTION
  2
TABLES
  0
TABLE
  2
VPORT
  5
8
100
AcDbSymbolTable
 70
2
  0
VPORT
  5
1F4
100
AcDbSymbolTableRecord
100
AcDbViewportTableRecord
  2
*ACTIVE
 70
0
 10
0.0
 20
0.0
 11
1.0
 21
1.0
 12
5.5
 22
4.25
 13
0.0
 23
0.0
 14
1.0
 24
1.0
 15
0.0
 25
0.0
 16
0.0
 26
0.0
 36
1.0
 17
0.0
 27
0.0
 37
0.0
 40
8.5
 41
1.2941176471
 42
50.0
 43
0.0
 44
0.0
 50
0.0
 51
0.0
 71
0
 72
100
 73
1
 74
1
 75
0
 76
0
 77
0
 78
0
  0
ENDTAB
  0
TABLE
  2
LTYPE
  5
5
100
AcDbSymbolTable
 70
6
  0
LTYPE
  5
14
100
AcDbSymbolTableRecord
100
AcDbLinetypeTableRecord
  2
BYBLOCK
 70
0
  3

 72
65
 73
0
 40
0.0
  0
LTYPE
  5
15
100
AcDbSymbolTableRecord
100
AcDbLinetypeTableRecord
  2
BYLAYER
 70
0
  3

 72
65
 73
0
 40
0.0
  0
LTYPE
  5
16
100
AcDbSymbolTableRecord
100
AcDbLinetypeTableRecord
  2
CONTINUOUS
 70
64
  3
Solid line
 72
65
 73
0
 40
0.0
  0
LTYPE
  5
1F5
100
AcDbSymbolTableRecord
100
AcDbLinetypeTableRecord
  2
CENTER
 70
64
  3
____ _ ____ _ ____ _ ____ _ ____ _ ____ _ ____
 72
65
 73
4
 40
0.6
 49
0.375
 74
0
 49
-0.075
 74
0
 49
0.075
 74
0
 49
-0.075
 74
0
  0
LTYPE
  5
1F6
100
AcDbSymbolTableRecord
100
AcDbLinetypeTableRecord
  2
HIDDEN
 70
64
  3
- - - - - - - - - - - - - - - - - - - -
 72
65
 73
2
 40
0.2
 49
0.1
 74
0
 49
-0.1
 74
0
  0
LTYPE
  5
1F7
100
AcDbSymbolTableRecord
100
AcDbLinetypeTableRecord
  2
PHANTOM
 70
64
  3
_____ _ _ _____ _ _ _____ _ _ _____
 72
65
 73
6
 40
0.8
 49
0.45
 74
0
 49
-0.05
 74
0
 49
0.1
 74
0
 49
-0.05
 74
0
 49
0.1
 74
0
 49
-0.05
 74
0
  0
LTYPE
  5
1F8
100
AcDbSymbolTableRecord
100
AcDbLinetypeTableRecord
  2
DOT
 70
64
  3
. . . . . . . . . . . . . . . . . . . .
 72
65
 73
2
 40
0.2
 49
0.1
 74
0
 49
-0.1
 74
0
  0
LTYPE
  5
1F9
100
AcDbSymbolTableRecord
100
AcDbLinetypeTableRecord
  2
DASHED
 70
64
  3
- - - - - - - - - - - - - - - - - - - -
 72
65
 73
2
 40
0.2
 49
0.1
 74
0
 49
-0.1
 74
0
  0
ENDTAB
  0
TABLE
  2
LAYER
  5
2
100
AcDbSymbolTable
 70
36
  0
LAYER
  5
10
100
AcDbSymbolTableRecord
100
AcDbLayerTableRecord
  2
0
 70
0
 62
7
  6
CONTINUOUS
370
-3
390
F
  0
LAYER
  5
1FA
100
AcDbSymbolTableRecord
100
AcDbLayerTableRecord
  2
DEFAULT_1
 70
0
 62
7
  6
CENTER
370
-3
390
F
  0
LAYER
  5
1FB
100
AcDbSymbolTableRecord
100
AcDbLayerTableRecord
  2
DEFAULT_2
 70
0
 62
8
  6
HIDDEN
370
-3
390
F
  0
LAYER
  5
1FC
100
AcDbSymbolTableRecord
100
AcDbLayerTableRecord
  2
DEFAULT_3
 70
0
 62
7
  6
PHANTOM
370
-3
390
F
  0
LAYER
  5
1FD
100
AcDbSymbolTableRecord
100
AcDbLayerTableRecord
  2
DEFAULT_COORDINATE_SYSTEM
 70
0
 62
7
  6
CONTINUOUS
370
-3
390
F
  0
LAYER
  5
1FE
100
AcDbSymbolTableRecord
100
AcDbLayerTableRecord
  2
DEFAULT_DATUM_AXES
 70
0
 62
7
  6
CONTINUOUS
370
-3
390
F
  0
LAYER
  5
1FF
100
AcDbSymbolTableRecord
100
AcDbLayerTableRecord
  2
DEFAULT_DATUM_PLANES
 70
0
 62
7
  6
CONTINUOUS
370
-3
390
F
  0
ENDTAB
  0
TABLE
  2
STYLE
  5
3
100
AcDbSymbolTable
 70
1
  0
STYLE
  5
11
100
AcDbSymbolTableRecord
100
AcDbTextStyleTableRecord
  2
STANDARD
 70
0
 40
0.0
 41
0.8
 50
0.0
 71
0
 42
0.2
  3
txt
  4

  0
STYLE
  5
200
100
AcDbSymbolTableRecord
100
AcDbTextStyleTableRecord
  2
TEXTSTYLE_1
 70
0
 40
0.0
 41
0.8
 50
0.0
 71
0
 42
0.2
  3
gdt
  4

  0
ENDTAB
  0
TABLE
  2
VIEW
  5
6
100
AcDbSymbolTable
 70
0
  0
ENDTAB
  0
TABLE
  2
UCS
  5
7
100
AcDbSymbolTable
 70
0
  0
ENDTAB
  0
TABLE
  2
APPID
  5
9
100
AcDbSymbolTable
 70
1
  0
APPID
  5
201
100
AcDbSymbolTableRecord
100
AcDbRegAppTableRecord
  2
ACAD
 70
0
  0
ENDTAB
  0
TABLE
  2
BLOCK_RECORD
  5
1
100
AcDbSymbolTable
 70
0
  0
BLOCK_RECORD
  5
202
100
AcDbSymbolTableRecord
100
AcDbBlockTableRecord
  2
*Model_Space
  0
BLOCK_RECORD
  5
203
100
AcDbSymbolTableRecord
100
AcDbBlockTableRecord
  2
*Paper_Space
  0
BLOCK_RECORD
  5
204
100
AcDbSymbolTableRecord
100
AcDbBlockTableRecord
  2
_FILLED
  0
ENDTAB
  0
TABLE
  2
DIMSTYLE
  5
A
100
AcDbSymbolTable
 70
1
100
AcDbDimStyleTable
 71
0
  0
DIMSTYLE
105
205
100
AcDbSymbolTableRecord
100
AcDbDimStyleTableRecord
  2
STANDARD
 70
0
  3

  4

 40
1.0
 41
0.1
 42
0.0625
 43
0.38
 44
0.125
 45
0.0
 46
0.0
 47
0.01
 48
0.01
140
0.08
141
0.09
142
0.0
143
25.4
144
1.0
145
0.0
146
1.0
147
0.09
 71
1.0
 72
0.0
 73
1
 74
1
 75
0
 76
0
 77
0
 78
4
 79
1
170
1
171
1
172
0
173
0
174
0
175
0
176
0
177
0
178
0
270
2
179
2
271
2
272
2
273
2
274
2
275
0
280
0
281
0
282
0
283
1
284
4
285
0
286
0
287
3
288
0
340
11
278
46
341
204
342
204
343
204
344
204
  0
ENDTAB
  0
ENDSEC
  0
SECTION
  2
BLOCKS
  0
BLOCK
  5
20
100
AcDbEntity
  8
0
100
AcDbBlockBegin
  2
*Model_Space
 70
0
 10
0.0
 20
0.0
 30
0.0
  3
*Model_Space
  1

  0
ENDBLK
  5
21
100
AcDbEntity
  8
0
100
AcDbBlockEnd
  0
BLOCK
  5
1C
100
AcDbEntity
  8
0
100
AcDbBlockBegin
  2
*Paper_Space
 70
0
 10
0.0
 20
0.0
 30
0.0
  3
*Paper_Space
  1

  0
ENDBLK
  5
1D
100
AcDbEntity
  8
0
100
AcDbBlockEnd
  0
BLOCK
  5
206
100
AcDbEntity
  8
0
100
AcDbBlockBegin
  2
_FILLED
 70
64
 10
0.0
 20
0.0
  3
_FILLED
  1

  0
SOLID
  5
207
100
AcDbEntity
  8
0
  6
BYBLOCK
 62
0
100
AcDbTrace
 10
0.0
 20
0.0
 11
-1.0
 21
0.2
 12
-1.0
 22
-0.2
 13
-1.0
 23
-0.2
  0
ENDBLK
  5
208
100
AcDbEntity
  8
0
  6
BYBLOCK
 62
0
100
AcDbBlockEnd
  0
ENDSEC
  0
SECTION
  2
ENTITIES
  0
MTEXT
  5
209
100
AcDbEntity
  8
0
100
AcDbMText
 62
2
  6
CONTINUOUS
  7
STANDARD
 71
3
 72
1
 10
5.2232919255
 20
1.0219136646
 30
0.0
 11
1.0
 21
0.0
 31
0.0
 73
2
 44
0.9
  1
SCALE  .375
 40
0.08
 41
0.704
  0
LINE
  5
20A
100
AcDbEntity
  8
0
100
AcDbLine
 62
7
  6
CONTINUOUS
 10
0.0
 20
0.0
 11
0.0
 21
8.5
  0
LINE
  5
20B
100
AcDbEntity
  8
0
100
AcDbLine
 62
7
  6
CONTINUOUS
 10
0.0
 20
0.0
 11
11.0
 21
0.0
  0
LINE
  5
20C
100
AcDbEntity
  8
0
100
AcDbLine
 62
7
  6
CONTINUOUS
 10
0.0
 20
8.5
 11
11.0
 21
8.5
  0
LINE
  5
20D
100
AcDbEntity
  8
0
100
AcDbLine
 62
7
  6
CONTINUOUS
 10
11.0
 20
0.0
 11
11.0
 21
8.5
  0
LINE
  5
20E
100
AcDbEntity
  8
0
100
AcDbLine
 62
7
  6
CONTINUOUS
 10
1.8522998918
 20
3.2321010895
 11
1.8522998918
 21
3.4514762397
  0
LINE
  5
20F
100
AcDbEntity
  8
0
100
AcDbLine
 62
7
  6
CONTINUOUS
 10
1.8597998918
 20
3.2246011646
 11
1.8597998918
 21
3.4589761646
  0
LINE
  5
210
100
AcDbEntity
  8
0
100
AcDbLine
 62
7
  6
CONTINUOUS
 10
3.2412998918
 20
1.8106636646
 11
2.9731748918
 21
2.0450386646
  0
LINE
  5
211
100
AcDbEntity
  8
0
100
AcDbLine
 62
7
  6
CONTINUOUS
 10
3.2412998918
 20
1.8106636646
 11
3.2412541285
 21
1.8107042763
  0
LINE
  5
212
100
AcDbEntity
  8
0
100
AcDbLine
 62
7
  6
CONTINUOUS
 10
3.2075498918
 20
1.7769136646
 11
3.2075092576
 21
1.7769593495
  0
LINE
  5
213
100
AcDbEntity
  8
0
100
AcDbLine
 62
7
  6
CONTINUOUS
 10
3.2075498918
 20
1.7769136646
 11
2.9731748918
 21
2.0450386646
  0
LINE
  5
214
100
AcDbEntity
  8
0
100
AcDbLine
 62
7
  6
CONTINUOUS
 10
2.6019248918
 20
1.2650386646
 11
2.6019248918
 21
1.1169136646
  0
LINE
  5
215
100
AcDbEntity
  8
0
100
AcDbLine
 62
7
  6
CONTINUOUS
 10
2.6019248918
 20
1.1169136646
 11
3.3444248918
 21
1.1169136646
  0
LINE
  5
216
100
AcDbEntity
  8
0
100
AcDbLine
 62
7
  6
CONTINUOUS
 10
5.6019248918
 20
1.1169136646
 11
6.3444248918
 21
1.1169136646
  0
LINE
  5
217
100
AcDbEntity
  8
0
100
AcDbLine
 62
7
  6
CONTINUOUS
 10
7.8519249307
 20
1.1169136646
 11
8.5944248529
 21
1.1169136646
  0
LINE
  5
218
100
AcDbEntity
  8
0
100
AcDbLine
 62
7
  6
CONTINUOUS
 10
2.6019248918
 20
1.2650386646
 11
3.3444248918
 21
1.2650386646
  0
LINE
  5
219
100
AcDbEntity
  8
0
100
AcDbLine
 62
7
  6
CONTINUOUS
 10
5.6019248918
 20
1.2650386646
 11
6.3444248918
 21
1.2650386646
  0
LINE
  5
21A
100
AcDbEntity
  8
0
100
AcDbLine
 62
7
  6
CONTINUOUS
 10
7.8519248918
 20
1.2650386646
 11
8.5944248918
 21
1.2650386646
  0
LINE
  5
21B
100
AcDbEntity
  8
0
100
AcDbLine
 62
7
  6
CONTINUOUS
 10
8.5831748918
 20
1.2762886646
 11
7.8631748918
 21
1.2762886646
  0
LINE
  5
21C
100
AcDbEntity
  8
0
100
AcDbLine
 62
7
  6
CONTINUOUS
 10
6.3331748918
 20
1.2762886646
 11
5.6131748918
 21
1.2762886646
  0
LINE
  5
21D
100
AcDbEntity
  8
0
100
AcDbLine
 62
7
  6
CONTINUOUS
 10
3.3331748918
 20
1.2762886646
 11
2.6131748918
 21
1.2762886646
  0
LINE
  5
21E
100
AcDbEntity
  8
0
100
AcDbLine
 62
7
  6
CONTINUOUS
 10
1.8522998918
 20
3.2321011646
 11
1.8597998918
 21
3.2246011646
  0
LINE
  5
21F
100
AcDbEntity
  8
0
100
AcDbLine
 62
7
  6
CONTINUOUS
 10
2.7387998918
 20
2.3757886646
 11
2.7500498918
 21
2.3645386646
  0
LINE
  5
220
100
AcDbEntity
  8
0
100
AcDbLine
 62
7
  6
CONTINUOUS
 10
2.7387998918
 20
1.2762886646
 11
2.7387998918
 21
2.3532886646
  0
LINE
  5
221
100
AcDbEntity
  8
0
100
AcDbLine
 62
7
  6
CONTINUOUS
 10
2.7387998918
 20
2.3757886646
 11
2.7387998918
 21
2.9401636646
  0
LINE
  5
222
100
AcDbEntity
  8
0
100
AcDbLine
 62
7
  6
CONTINUOUS
 10
2.8559873918
 20
3.1908511646
 11
2.8559873918
 21
2.9630386646
  0
LINE
  5
223
100
AcDbEntity
  8
0
100
AcDbLine
 62
7
  6
CONTINUOUS
 10
7.9888000219
 20
1.5237886646
 11
8.4575497617
 21
1.5237886646
  0
LINE
  5
224
100
AcDbEntity
  8
0
100
AcDbLine
 62
7
  6
CONTINUOUS
 10
8.417118098
 20
1.5316636646
 11
8.0292316856
 21
1.5316636646
  0
LINE
  5
225
100
AcDbEntity
  8
0
100
AcDbLine
 62
7
  6
CONTINUOUS
 10
3.1962998918
 20
2.3645386646
 11
3.2075498916
 21
2.3532886648
  0
LINE
  5
226
100
AcDbEntity
  8
0
100
AcDbLine
 62
7
  6
CONTINUOUS
 10
3.0903623918
 20
3.1908511646
 11
3.0903623918
 21
2.9630386646
  0
LINE
  5
227
100
AcDbEntity
  8
0
100
AcDbLine
 62
7
  6
CONTINUOUS
 10
3.2075498918
 20
1.2762886646
 11
3.2075498918
 21
1.7769136646
  0
LINE
  5
228
100
AcDbEntity
  8
0
100
AcDbLine
 62
7
  6
CONTINUOUS
 10
3.2075498918
 20
2.3131636646
 11
3.2075498918
 21
2.3532886646
  0
LINE
  5
229
100
AcDbEntity
  8
0
100
AcDbLine
 62
7
  6
CONTINUOUS
 10
3.2075498918
 20
2.3757886646
 11
3.2075498918
 21
2.9401636646
  0
LINE
  5
22A
100
AcDbEntity
  8
0
100
AcDbLine
 62
7
  6
CONTINUOUS
 10
1.8522998918
 20
3.4514761646
 11
1.8597998918
 21
3.4589761646
  0
LINE
  5
22B
100
AcDbEntity
  8
0
100
AcDbLine
 62
7
  6
CONTINUOUS
 10
5.7050498918
 20
1.8106636646
 11
3.2412998918
 21
1.8106636646
  0
LINE
  5
22C
100
AcDbEntity
  8
0
100
AcDbLine
 62
7
  6
CONTINUOUS
 10
3.0903623918
 20
3.1908511646
 11
3.0903456601
 21
3.1908722537
  0
LINE
  5
22D
100
AcDbEntity
  8
0
100
AcDbLine
 62
7
  6
CONTINUOUS
 10
3.0317469265
 20
3.2663480576
 11
3.0257576666
 21
3.2740620656
  0
LINE
  5
22E
100
AcDbEntity
  8
0
100
AcDbLine
 62
7
  6
CONTINUOUS
 10
3.0500802919
 20
3.2427343418
 11
3.0452680629
 21
3.2489327128
  0
LINE
  5
22F
100
AcDbEntity
  8
0
100
AcDbLine
 62
7
  6
CONTINUOUS
 10
3.0903623918
 20
3.1908511646
 11
2.9731748918
 21
3.3417886646
  0
LINE
  5
230
100
AcDbEntity
  8
0
100
AcDbLine
 62
7
  6
CONTINUOUS
 10
3.0903456601
 20
3.1908722537
 11
3.0902103143
 21
3.1910482826
  0
LINE
  5
231
100
AcDbEntity
  8
0
100
AcDbLine
 62
7
  6
CONTINUOUS
 10
3.2979248918
 20
3.4589761646
 11
3.2979248918
 21
3.2246011646
  0
LINE
  5
232
100
AcDbEntity
  8
0
100
AcDbLine
 62
7
  6
CONTINUOUS
 10
3.3054248918
 20
3.4514762397
 11
3.3054248918
 21
3.2321010895
  0
LINE
  5
233
100
AcDbEntity
  8
0
100
AcDbLine
 62
7
  6
CONTINUOUS
 10
3.3444248918
 20
1.2650386646
 11
3.3444248918
 21
1.1169136646
  0
LINE
  5
234
100
AcDbEntity
  8
0
100
AcDbLine
 62
7
  6
CONTINUOUS
 10
8.0899155007
 20
2.6593476992
 11
8.096991339
 21
2.6611119039
  0
LINE
  5
235
100
AcDbEntity
  8
0
100
AcDbLine
 62
7
  6
CONTINUOUS
 10
8.4144459071
 20
2.7373312145
 11
8.4215612087
 21
2.7389739113
  0
LINE
  5
236
100
AcDbEntity
  8
0
100
AcDbLine
 62
7
  6
CONTINUOUS
 10
8.0809113443
 20
2.6665665474
 11
8.0880796407
 21
2.6679599231
  0
LINE
  5
237
100
AcDbEntity
  8
0
100
AcDbLine
 62
7
  6
CONTINUOUS
 10
8.409083248
 20
2.7274544251
 11
8.4162747704
 21
2.7287224845
  0
LINE
  5
238
100
AcDbEntity
  8
0
100
AcDbLine
 62
7
  6
CONTINUOUS
 10
3.1240912892
 20
3.2246178812
 11
3.1237619737
 21
3.2248721542
  0
LINE
  5
239
100
AcDbEntity
  8
0
100
AcDbLine
 62
7
  6
CONTINUOUS
 10
3.0486611526
 20
3.2831811576
 11
3.0409439999
 21
3.2891728755
  0
LINE
  5
23A
100
AcDbEntity
  8
0
100
AcDbLine
 62
7
  6
CONTINUOUS
 10
3.0807587874
 20
3.2582608519
 11
3.0752149803
 21
3.2625651331
  0
LINE
  5
23B
100
AcDbEntity
  8
0
100
AcDbLine
 62
7
  6
CONTINUOUS
 10
3.0559555192
 20
3.2775175487
 11
3.0523626386
 21
3.2803074659
  0
LINE
  5
23C
100
AcDbEntity
  8
0
100
AcDbLine
 62
7
  6
CONTINUOUS
 10
3.1241123918
 20
3.2246011646
 11
2.9731748918
 21
3.3417886646
  0
LINE
  5
23D
100
AcDbEntity
  8
0
100
AcDbLine
 62
7
  6
CONTINUOUS
 10
3.0833707623
 20
3.2562331215
 11
3.0807587874
 21
3.2582608519
  0
LINE
  5
23E
100
AcDbEntity
  8
0
100
AcDbLine
 62
7
  6
CONTINUOUS
 10
3.1241123918
 20
3.2246011646
 11
3.1240912892
 21
3.2246178812
  0
LINE
  5
23F
100
AcDbEntity
  8
0
100
AcDbLine
 62
7
  6
CONTINUOUS
 10
8.3564342829
 20
3.01022963
 11
8.3493584446
 21
3.0084654253
  0
LINE
  5
240
100
AcDbEntity
  8
0
100
AcDbLine
 62
7
  6
CONTINUOUS
 10
8.0319038765
 20
2.9322461146
 11
8.0247885749
 21
2.9306034178
  0
LINE
  5
241
100
AcDbEntity
  8
0
100
AcDbLine
 62
7
  6
CONTINUOUS
 10
8.3654384393
 20
3.0030107818
 11
8.3582701429
 21
3.0016174061
  0
LINE
  5
242
100
AcDbEntity
  8
0
100
AcDbLine
 62
7
  6
CONTINUOUS
 10
8.0372665356
 20
2.9421229041
 11
8.0300750132
 21
2.9408548447
  0
LINE
  5
243
100
AcDbEntity
  8
0
100
AcDbLine
 62
7
  6
CONTINUOUS
 10
8.0723022462
 20
2.6742425888
 11
8.0795336423
 21
2.6752588953
  0
LINE
  5
244
100
AcDbEntity
  8
0
100
AcDbLine
 62
7
  6
CONTINUOUS
 10
8.403211027
 20
2.7178718314
 11
8.4104590587
 21
2.7187617778
  0
LINE
  5
245
100
AcDbEntity
  8
0
100
AcDbLine
 62
7
  6
CONTINUOUS
 10
8.0641066795
 20
2.6823586758
 11
8.0713813546
 21
2.6829951274
  0
LINE
  5
246
100
AcDbEntity
  8
0
100
AcDbLine
 62
7
  6
CONTINUOUS
 10
8.3968516525
 20
2.7086051118
 11
8.4041263439
 21
2.7091138078
  0
LINE
  5
247
100
AcDbEntity
  8
0
100
AcDbLine
 62
7
  6
CONTINUOUS
 10
5.7050498918
 20
2.2794136646
 11
4.6944248918
 21
2.2794136646
  0
LINE
  5
248
100
AcDbEntity
  8
0
100
AcDbLine
 62
7
  6
CONTINUOUS
 10
4.2519248918
 20
2.2794136646
 11
3.2412998918
 21
2.2794136646
  0
LINE
  5
249
100
AcDbEntity
  8
0
100
AcDbLine
 62
7
  6
CONTINUOUS
 10
2.7387998918
 20
2.3532886646
 11
3.2075498918
 21
2.3532886646
  0
LINE
  5
24A
100
AcDbEntity
  8
0
100
AcDbLine
 62
7
  6
CONTINUOUS
 10
5.7387998918
 20
2.3532886646
 11
6.2075498918
 21
2.3532886646
  0
LINE
  5
24B
100
AcDbEntity
  8
0
100
AcDbLine
 62
7
  6
CONTINUOUS
 10
2.7500498918
 20
2.3645386646
 11
3.1962998918
 21
2.3645386646
  0
LINE
  5
24C
100
AcDbEntity
  8
0
100
AcDbLine
 62
7
  6
CONTINUOUS
 10
5.7500498918
 20
2.3645386646
 11
6.1962998918
 21
2.3645386646
  0
LINE
  5
24D
100
AcDbEntity
  8
0
100
AcDbLine
 62
7
  6
CONTINUOUS
 10
2.7387998918
 20
2.3757886646
 11
3.2075498918
 21
2.3757886646
  0
LINE
  5
24E
100
AcDbEntity
  8
0
100
AcDbLine
 62
7
  6
CONTINUOUS
 10
5.7387998918
 20
2.3757886646
 11
6.2075498918
 21
2.3757886646
  0
LINE
  5
24F
100
AcDbEntity
  8
0
100
AcDbLine
 62
7
  6
CONTINUOUS
 10
4.6606748918
 20
2.4387886646
 11
4.2856748918
 21
2.4387886646
  0
LINE
  5
250
100
AcDbEntity
  8
0
100
AcDbLine
 62
7
  6
CONTINUOUS
 10
4.6606751662
 20
2.4507136646
 11
4.2856746174
 21
2.4507136646
  0
LINE
  5
251
100
AcDbEntity
  8
0
100
AcDbLine
 62
7
  6
CONTINUOUS
 10
3.3054248918
 20
3.4514761646
 11
3.2979248918
 21
3.4589761646
  0
LINE
  5
252
100
AcDbEntity
  8
0
100
AcDbLine
 62
7
  6
CONTINUOUS
 10
2.9731748918
 20
3.3417886646
 11
2.8559873917
 21
3.1908511644
  0
LINE
  5
253
100
AcDbEntity
  8
0
100
AcDbLine
 62
7
  6
CONTINUOUS
 10
2.9036102028
 20
3.2521892979
 11
2.8986269374
 21
3.245771301
  0
LWPOLYLINE
  5
254
100
AcDbEntity
  8
0
100
AcDbPolyline
 62
7
  6
CONTINUOUS
 90
3
 70
0
 10
2.9117247308
 20
3.2626408731
 10
2.9089357185
 20
3.2590491621
 10
2.9036102028
 20
3.2521892979
  0
LINE
  5
255
100
AcDbEntity
  8
0
100
AcDbLine
 62
7
  6
CONTINUOUS
 10
2.8939852641
 20
3.2397921984
 11
2.8917914016
 21
3.2369671553
  0
LINE
  5
256
100
AcDbEntity
  8
0
100
AcDbLine
 62
7
  6
CONTINUOUS
 10
2.9619879287
 20
3.3273798798
 11
2.9175522258
 21
3.2701475754
  0
LINE
  5
257
100
AcDbEntity
  8
0
100
AcDbLine
 62
7
  6
CONTINUOUS
 10
2.8857071361
 20
3.22913085
 11
2.878707606
 21
3.2201143797
  0
LINE
  5
258
100
AcDbEntity
  8
0
100
AcDbLine
 62
7
  6
CONTINUOUS
 10
2.8771454404
 20
3.2181018765
 11
2.869209155
 21
3.207879667
  0
LINE
  5
259
100
AcDbEntity
  8
0
100
AcDbLine
 62
7
  6
CONTINUOUS
 10
2.869209155
 20
3.207879667
 11
2.8681091075
 21
3.206464125
  0
LINE
  5
25A
100
AcDbEntity
  8
0
100
AcDbLine
 62
7
  6
CONTINUOUS
 10
2.867067205
 20
3.2051219073
 11
2.8612725633
 21
3.1976578214
  0
LINE
  5
25B
100
AcDbEntity
  8
0
100
AcDbLine
 62
7
  6
CONTINUOUS
 10
2.8612725633
 20
3.1976578214
 11
2.8595042107
 21
3.1953809571
  0
LWPOLYLINE
  5
25C
100
AcDbEntity
  8
0
100
AcDbPolyline
 62
7
  6
CONTINUOUS
 90
3
 70
0
 10
2.8595042107
 20
3.1953809571
 10
2.8562589377
 20
3.1912023537
 10
2.8560041192
 20
3.1908722548
  0
LINE
  5
25D
100
AcDbEntity
  8
0
100
AcDbLine
 62
7
  6
CONTINUOUS
 10
2.8560041192
 20
3.1908722548
 11
2.8559873918
 21
3.1908511646
  0
LINE
  5
25E
100
AcDbEntity
  8
0
100
AcDbLine
 62
7
  6
CONTINUOUS
 10
8.3740475374
 20
2.9953347404
 11
8.3668161413
 21
2.9943184339
  0
LINE
  5
25F
100
AcDbEntity
  8
0
100
AcDbLine
 62
7
  6
CONTINUOUS
 10
8.0431387566
 20
2.9517054978
 11
8.0358907249
 21
2.9508155514
  0
LINE
  5
260
100
AcDbEntity
  8
0
100
AcDbLine
 62
7
  6
CONTINUOUS
 10
8.3822431041
 20
2.9872186534
 11
8.374968429
 21
2.9865822018
  0
LINE
  5
261
100
AcDbEntity
  8
0
100
AcDbLine
 62
7
  6
CONTINUOUS
 10
8.0494981311
 20
2.9609722174
 11
8.0422234397
 21
2.9604635214
  0
LINE
  5
262
100
AcDbEntity
  8
0
100
AcDbLine
 62
7
  6
CONTINUOUS
 10
8.0563471077
 20
2.6908925628
 11
8.0636451225
 21
2.6911474151
  0
LINE
  5
263
100
AcDbEntity
  8
0
100
AcDbLine
 62
7
  6
CONTINUOUS
 10
8.3900036333
 20
2.6996934135
 11
8.3973049843
 21
2.699820859
  0
LINE
  5
264
100
AcDbEntity
  8
0
100
AcDbLine
 62
7
  6
CONTINUOUS
 10
8.0490447993
 20
2.699820859
 11
8.0563461503
 21
2.6996934135
  0
LINE
  5
265
100
AcDbEntity
  8
0
100
AcDbLine
 62
7
  6
CONTINUOUS
 10
4.2856748918
 20
2.3131636646
 11
4.2856748918
 21
2.4387886646
  0
LINE
  5
266
100
AcDbEntity
  8
0
100
AcDbLine
 62
7
  6
CONTINUOUS
 10
4.2856748918
 20
2.4507136646
 11
4.2856748918
 21
6.5614636646
  0
LINE
  5
267
100
AcDbEntity
  8
0
100
AcDbLine
 62
7
  6
CONTINUOUS
 10
3.3054248918
 20
3.2321011646
 11
3.2979248918
 21
3.2246011646
  0
LINE
  5
268
100
AcDbEntity
  8
0
100
AcDbLine
 62
7
  6
CONTINUOUS
 10
2.8222584958
 20
3.2246178771
 11
2.8222373918
 21
3.2246011646
  0
LINE
  5
269
100
AcDbEntity
  8
0
100
AcDbLine
 62
7
  6
CONTINUOUS
 10
2.9731748918
 20
3.3417886646
 11
2.8222373917
 21
3.2246011646
  0
LWPOLYLINE
  5
26A
100
AcDbEntity
  8
0
100
AcDbPolyline
 62
7
  6
CONTINUOUS
 90
3
 70
0
 10
2.890387205
 20
3.2775120515
 10
2.8869013792
 20
3.2748058021
 10
2.8835255895
 20
3.2721851416
  0
LINE
  5
26B
100
AcDbEntity
  8
0
100
AcDbLine
 62
7
  6
CONTINUOUS
 10
2.8240468466
 20
3.2260060978
 11
2.823659425
 21
3.2257053252
  0
LINE
  5
26C
100
AcDbEntity
  8
0
100
AcDbLine
 62
7
  6
CONTINUOUS
 10
2.877106483
 20
3.2672009947
 11
2.8740614568
 21
3.2648372619
  0
LINE
  5
26D
100
AcDbEntity
  8
0
100
AcDbLine
 62
7
  6
CONTINUOUS
 10
2.9014895529
 20
3.2861316451
 11
2.8976812919
 21
3.2831754807
  0
LINE
  5
26E
100
AcDbEntity
  8
0
100
AcDbLine
 62
7
  6
CONTINUOUS
 10
2.8378113454
 20
3.2366923903
 11
2.8364707203
 21
3.2356517484
  0
LWPOLYLINE
  5
26F
100
AcDbEntity
  8
0
100
AcDbPolyline
 62
7
  6
CONTINUOUS
 90
3
 70
0
 10
2.8683017031
 20
3.2603650043
 10
2.8655829057
 20
3.2582546136
 10
2.862971083
 20
3.2562270079
  0
LINE
  5
270
100
AcDbEntity
  8
0
100
AcDbLine
 62
7
  6
CONTINUOUS
 10
2.8604655854
 20
3.2542809757
 11
2.8557586335
 21
3.2506273831
  0
LINE
  5
271
100
AcDbEntity
  8
0
100
AcDbLine
 62
7
  6
CONTINUOUS
 10
2.8514503803
 20
3.2472821661
 11
2.849438465
 21
3.2457205543
  0
LINE
  5
272
100
AcDbEntity
  8
0
100
AcDbLine
 62
7
  6
CONTINUOUS
 10
2.822434028
 20
3.2247529268
 11
2.8223240412
 21
3.2246683158
  0
LINE
  5
273
100
AcDbEntity
  8
0
100
AcDbLine
 62
7
  6
CONTINUOUS
 10
8.3900026759
 20
2.9786847664
 11
8.3827046611
 21
2.9784299141
  0
LINE
  5
274
100
AcDbEntity
  8
0
100
AcDbLine
 62
7
  6
CONTINUOUS
 10
8.0563461503
 20
2.9698839157
 11
8.0490447993
 21
2.9697564702
  0
LINE
  5
275
100
AcDbEntity
  8
0
100
AcDbLine
 62
7
  6
CONTINUOUS
 10
2.7387998918
 20
2.9401636646
 11
3.2075498918
 21
2.9401636646
  0
LINE
  5
276
100
AcDbEntity
  8
0
100
AcDbLine
 62
7
  6
CONTINUOUS
 10
5.7387998918
 20
2.9401636646
 11
6.2075498918
 21
2.9401636646
  0
LINE
  5
277
100
AcDbEntity
  8
0
100
AcDbLine
 62
7
  6
CONTINUOUS
 10
2.7500498918
 20
2.9514136646
 11
3.1962998918
 21
2.9514136646
  0
LINE
  5
278
100
AcDbEntity
  8
0
100
AcDbLine
 62
7
  6
CONTINUOUS
 10
5.7500498918
 20
2.9514136646
 11
6.1962998918
 21
2.9514136646
  0
LINE
  5
279
100
AcDbEntity
  8
0
100
AcDbLine
 62
7
  6
CONTINUOUS
 10
6.0903623918
 20
2.9630386646
 11
5.8559873918
 21
2.9630386646
  0
LINE
  5
27A
100
AcDbEntity
  8
0
100
AcDbLine
 62
7
  6
CONTINUOUS
 10
3.0903623918
 20
2.9630386646
 11
2.8559873918
 21
2.9630386646
  0
LINE
  5
27B
100
AcDbEntity
  8
0
100
AcDbLine
 62
7
  6
CONTINUOUS
 10
8.3973049843
 20
2.9697564702
 11
8.3900036333
 21
2.9698839157
  0
LINE
  5
27C
100
AcDbEntity
  8
0
100
AcDbLine
 62
7
  6
CONTINUOUS
 10
8.3827046611
 20
2.6911474151
 11
8.3900026759
 21
2.6908925628
  0
LINE
  5
27D
100
AcDbEntity
  8
0
100
AcDbLine
 62
7
  6
CONTINUOUS
 10
8.0636451225
 20
2.9784299141
 11
8.0563471077
 21
2.9786847664
  0
LINE
  5
27E
100
AcDbEntity
  8
0
100
AcDbLine
 62
7
  6
CONTINUOUS
 10
8.0422234397
 20
2.7091138078
 11
8.0494981311
 21
2.7086051118
  0
LINE
  5
27F
100
AcDbEntity
  8
0
100
AcDbLine
 62
7
  6
CONTINUOUS
 10
8.374968429
 20
2.6829951274
 11
8.3822431041
 21
2.6823586758
  0
LINE
  5
280
100
AcDbEntity
  8
0
100
AcDbLine
 62
7
  6
CONTINUOUS
 10
8.0358907249
 20
2.7187617778
 11
8.0431387566
 21
2.7178718314
  0
LINE
  5
281
100
AcDbEntity
  8
0
100
AcDbLine
 62
7
  6
CONTINUOUS
 10
5.7954863804
 20
2.2003606972
 11
5.8009784977
 21
2.1955605683
  0
LINE
  5
282
100
AcDbEntity
  8
0
100
AcDbLine
 62
7
  6
CONTINUOUS
 10
5.7050498918
 20
2.2794136646
 11
5.9731748918
 21
2.0450386646
  0
LWPOLYLINE
  5
283
100
AcDbEntity
  8
0
100
AcDbPolyline
 62
7
  6
CONTINUOUS
 90
3
 70
0
 10
5.806666023
 20
2.1905887754
 10
5.8125488577
 20
2.1854460025
 10
5.8249045562
 20
2.1746465685
  0
LINE
  5
284
100
AcDbEntity
  8
0
100
AcDbLine
 62
7
  6
CONTINUOUS
 10
5.873990484
 20
2.1317383287
 11
5.8816734047
 21
2.1250216694
  0
LINE
  5
285
100
AcDbEntity
  8
0
100
AcDbLine
 62
7
  6
CONTINUOUS
 10
5.8249045562
 20
2.1746465685
 11
5.831369119
 21
2.168994769
  0
LINE
  5
286
100
AcDbEntity
  8
0
100
AcDbLine
 62
7
  6
CONTINUOUS
 10
5.7850914998
 20
2.2094479396
 11
5.790191236
 21
2.2049893388
  0
LINE
  5
287
100
AcDbEntity
  8
0
100
AcDbLine
 62
7
  6
CONTINUOUS
 10
5.7050498918
 20
2.2794136646
 11
5.7050956559
 21
2.2793730546
  0
LINE
  5
288
100
AcDbEntity
  8
0
100
AcDbLine
 62
7
  6
CONTINUOUS
 10
4.6606748918
 20
2.3131636646
 11
4.6606748918
 21
2.4387886646
  0
LINE
  5
289
100
AcDbEntity
  8
0
100
AcDbLine
 62
7
  6
CONTINUOUS
 10
4.6606748918
 20
2.4507136646
 11
4.6606748918
 21
6.5614636646
  0
LINE
  5
28A
100
AcDbEntity
  8
0
100
AcDbLine
 62
7
  6
CONTINUOUS
 10
2.7500498918
 20
2.3645386646
 11
2.738799892
 21
2.3532886648
  0
LINE
  5
28B
100
AcDbEntity
  8
0
100
AcDbLine
 62
7
  6
CONTINUOUS
 10
7.0865498918
 20
3.2246011646
 11
6.1241123918
 21
3.2246011646
  0
LINE
  5
28C
100
AcDbEntity
  8
0
100
AcDbLine
 62
7
  6
CONTINUOUS
 10
5.8222373918
 20
3.2246011646
 11
5.6484248918
 21
3.2246011646
  0
LINE
  5
28D
100
AcDbEntity
  8
0
100
AcDbLine
 62
7
  6
CONTINUOUS
 10
1.8597998918
 20
3.2246011646
 11
2.8222373918
 21
3.2246011646
  0
LINE
  5
28E
100
AcDbEntity
  8
0
100
AcDbLine
 62
7
  6
CONTINUOUS
 10
3.1241123918
 20
3.2246011646
 11
3.2979248918
 21
3.2246011646
  0
LINE
  5
28F
100
AcDbEntity
  8
0
100
AcDbLine
 62
7
  6
CONTINUOUS
 10
8.4041263439
 20
2.9604635214
 11
8.3968516525
 21
2.9609722174
  0
LINE
  5
290
100
AcDbEntity
  8
0
100
AcDbLine
 62
7
  6
CONTINUOUS
 10
8.0713813546
 20
2.9865822018
 11
8.0641066795
 21
2.9872186534
  0
LINE
  5
291
100
AcDbEntity
  8
0
100
AcDbLine
 62
7
  6
CONTINUOUS
 10
8.4104590587
 20
2.9508155514
 11
8.403211027
 21
2.9517054978
  0
LINE
  5
292
100
AcDbEntity
  8
0
100
AcDbLine
 62
7
  6
CONTINUOUS
 10
8.3668161413
 20
2.6752588953
 11
8.3740475374
 21
2.6742425888
  0
LINE
  5
293
100
AcDbEntity
  8
0
100
AcDbLine
 62
7
  6
CONTINUOUS
 10
8.0300750132
 20
2.7287224845
 11
8.0372665356
 21
2.7274544251
  0
LINE
  5
294
100
AcDbEntity
  8
0
100
AcDbLine
 62
7
  6
CONTINUOUS
 10
8.3582701429
 20
2.6679599231
 11
8.3654384393
 21
2.6665665474
  0
LINE
  5
295
100
AcDbEntity
  8
0
100
AcDbLine
 62
7
  6
CONTINUOUS
 10
5.7387998918
 20
2.3757886646
 11
5.7500498918
 21
2.3645386646
  0
LINE
  5
296
100
AcDbEntity
  8
0
100
AcDbLine
 62
7
  6
CONTINUOUS
 10
5.7387998918
 20
2.3131636646
 11
5.7388405242
 21
2.3131179793
  0
LINE
  5
297
100
AcDbEntity
  8
0
100
AcDbLine
 62
7
  6
CONTINUOUS
 10
5.7387998918
 20
2.3131636646
 11
5.9731748918
 21
2.0450386646
  0
LINE
  5
298
100
AcDbEntity
  8
0
100
AcDbLine
 62
7
  6
CONTINUOUS
 10
3.1235243552
 20
2.2170378139
 11
3.1283235389
 21
2.2225288702
  0
LWPOLYLINE
  5
299
100
AcDbEntity
  8
0
100
AcDbPolyline
 62
7
  6
CONTINUOUS
 90
3
 70
0
 10
3.1026203132
 20
2.1931231208
 10
3.1134132067
 20
2.2054713595
 10
3.1185539139
 20
2.2113518174
  0
LINE
  5
29A
100
AcDbEntity
  8
0
100
AcDbLine
 62
7
  6
CONTINUOUS
 10
2.9731748918
 20
2.0450386646
 11
3.2075498918
 21
2.3131636646
  0
LWPOLYLINE
  5
29B
100
AcDbEntity
  8
0
100
AcDbPolyline
 62
7
  6
CONTINUOUS
 90
3
 70
0
 10
3.0250427702
 20
2.1043723963
 10
3.0392634721
 20
2.1206440009
 10
3.0462142925
 20
2.1285929402
  0
LINE
  5
29C
100
AcDbEntity
  8
0
100
AcDbLine
 62
7
  6
CONTINUOUS
 10
3.0663329566
 20
2.1516092095
 11
3.1026203132
 21
2.1931231208
  0
LWPOLYLINE
  5
29D
100
AcDbEntity
  8
0
100
AcDbPolyline
 62
7
  6
CONTINUOUS
 90
3
 70
0
 10
3.0030931741
 20
2.0792619681
 10
3.0177995035
 20
2.096089219
 10
3.0250427702
 20
2.1043723963
  0
LINE
  5
29E
100
AcDbEntity
  8
0
100
AcDbLine
 62
7
  6
CONTINUOUS
 10
3.0462142925
 20
2.1285929402
 11
3.0663329566
 21
2.1516092095
  0
LINE
  5
29F
100
AcDbEntity
  8
0
100
AcDbLine
 62
7
  6
CONTINUOUS
 10
3.1329516054
 20
2.22782338
 11
3.1572140852
 21
2.2555802565
  0
LINE
  5
2A0
100
AcDbEntity
  8
0
100
AcDbLine
 62
7
  6
CONTINUOUS
 10
3.1572140852
 20
2.2555802565
 11
3.1731059171
 21
2.2737597949
  0
LINE
  5
2A1
100
AcDbEntity
  8
0
100
AcDbLine
 62
7
  6
CONTINUOUS
 10
3.1731059171
 20
2.2737597949
 11
3.1809286854
 21
2.2827090058
  0
LINE
  5
2A2
100
AcDbEntity
  8
0
100
AcDbLine
 62
7
  6
CONTINUOUS
 10
3.1809286854
 20
2.2827090058
 11
3.1875792406
 21
2.2903172277
  0
LINE
  5
2A3
100
AcDbEntity
  8
0
100
AcDbLine
 62
7
  6
CONTINUOUS
 10
3.1875792406
 20
2.2903172277
 11
3.2048342325
 21
2.3100574585
  0
LINE
  5
2A4
100
AcDbEntity
  8
0
100
AcDbLine
 62
7
  6
CONTINUOUS
 10
2.9881933052
 20
2.0622311233
 11
3.0030931741
 21
2.0792619681
  0
LINE
  5
2A5
100
AcDbEntity
  8
0
100
AcDbLine
 62
7
  6
CONTINUOUS
 10
3.2048342325
 20
2.3100574585
 11
3.2075085143
 21
2.3131174769
  0
LINE
  5
2A6
100
AcDbEntity
  8
0
100
AcDbLine
 62
7
  6
CONTINUOUS
 10
3.2075085143
 20
2.3131174769
 11
3.2075498918
 21
2.3131636646
  0
LINE
  5
2A7
100
AcDbEntity
  8
0
100
AcDbLine
 62
7
  6
CONTINUOUS
 10
3.2075498918
 20
2.3757886646
 11
3.1962998918
 21
2.3645386646
  0
LINE
  5
2A8
100
AcDbEntity
  8
0
100
AcDbLine
 62
7
  6
CONTINUOUS
 10
7.0865498918
 20
3.4589761646
 11
5.6484248918
 21
3.4589761646
  0
LINE
  5
2A9
100
AcDbEntity
  8
0
100
AcDbLine
 62
7
  6
CONTINUOUS
 10
1.8597998918
 20
3.4589761646
 11
3.2979248918
 21
3.4589761646
  0
LINE
  5
2AA
100
AcDbEntity
  8
0
100
AcDbLine
 62
7
  6
CONTINUOUS
 10
8.0795336423
 20
2.9943184339
 11
8.0723022462
 21
2.9953347404
  0
LINE
  5
2AB
100
AcDbEntity
  8
0
100
AcDbLine
 62
7
  6
CONTINUOUS
 10
8.4162747704
 20
2.9408548447
 11
8.409083248
 21
2.9421229041
  0
LINE
  5
2AC
100
AcDbEntity
  8
0
100
AcDbLine
 62
7
  6
CONTINUOUS
 10
8.0880796407
 20
3.0016174061
 11
8.0809113443
 21
3.0030107818
  0
LINE
  5
2AD
100
AcDbEntity
  8
0
100
AcDbLine
 62
7
  6
CONTINUOUS
 10
8.0247885749
 20
2.7389739113
 11
8.0319038765
 21
2.7373312145
  0
LINE
  5
2AE
100
AcDbEntity
  8
0
100
AcDbLine
 62
7
  6
CONTINUOUS
 10
8.4215612087
 20
2.9306034178
 11
8.4144459071
 21
2.9322461146
  0
LINE
  5
2AF
100
AcDbEntity
  8
0
100
AcDbLine
 62
7
  6
CONTINUOUS
 10
8.3493584446
 20
2.6611119039
 11
8.3564342829
 21
2.6593476992
  0
LINE
  5
2B0
100
AcDbEntity
  8
0
100
AcDbLine
 62
7
  6
CONTINUOUS
 10
8.0200458998
 20
2.7494879597
 11
8.0270654779
 21
2.7474751281
  0
LINE
  5
2B1
100
AcDbEntity
  8
0
100
AcDbLine
 62
7
  6
CONTINUOUS
 10
8.340091725
 20
2.6547525294
 11
8.3470751053
 21
2.6526174958
  0
LINE
  5
2B2
100
AcDbEntity
  8
0
100
AcDbLine
 62
7
  6
CONTINUOUS
 10
6.1962998918
 20
2.3645386646
 11
6.2075498916
 21
2.3532886648
  0
LINE
  5
2B3
100
AcDbEntity
  8
0
100
AcDbLine
 62
7
  6
CONTINUOUS
 10
3.2412536633
 20
2.279372316
 11
3.2412998918
 21
2.2794136646
  0
LINE
  5
2B4
100
AcDbEntity
  8
0
100
AcDbLine
 62
7
  6
CONTINUOUS
 10
2.9731748918
 20
2.0450386646
 11
3.2412998918
 21
2.2794136646
  0
LINE
  5
2B5
100
AcDbEntity
  8
0
100
AcDbLine
 62
7
  6
CONTINUOUS
 10
8.096991339
 20
3.0084654253
 11
8.0899155007
 21
3.01022963
  0
LINE
  5
2B6
100
AcDbEntity
  8
0
100
AcDbLine
 62
7
  6
CONTINUOUS
 10
8.4263038838
 20
2.9200893695
 11
8.4192843057
 21
2.9221022011
  0
LINE
  5
2B7
100
AcDbEntity
  8
0
100
AcDbLine
 62
7
  6
CONTINUOUS
 10
8.1062580586
 20
3.0148247998
 11
8.0992746783
 21
3.0169598334
  0
LINE
  5
2B8
100
AcDbEntity
  8
0
100
AcDbLine
 62
7
  6
CONTINUOUS
 10
8.015859987
 20
2.7602358114
 11
8.0227646016
 21
2.757858362
  0
LINE
  5
2B9
100
AcDbEntity
  8
0
100
AcDbLine
 62
7
  6
CONTINUOUS
 10
8.3305091313
 20
2.6488803084
 11
8.3373712021
 21
2.6463827189
  0
LINE
  5
2BA
100
AcDbEntity
  8
0
100
AcDbLine
 62
7
  6
CONTINUOUS
 10
8.0122441676
 20
2.7711818469
 11
8.0190056146
 21
2.7684500451
  0
LINE
  5
2BB
100
AcDbEntity
  8
0
100
AcDbLine
 62
7
  6
CONTINUOUS
 10
8.3206323419
 20
2.6435176493
 11
8.3273542947
 21
2.6406643496
  0
LINE
  5
2BC
100
AcDbEntity
  8
0
100
AcDbLine
 62
7
  6
CONTINUOUS
 10
6.1240912896
 20
3.2246178822
 11
6.1237619582
 21
3.2248721709
  0
LINE
  5
2BD
100
AcDbEntity
  8
0
100
AcDbLine
 62
7
  6
CONTINUOUS
 10
6.1241123918
 20
3.2246011646
 11
5.9731748918
 21
3.3417886646
  0
LINE
  5
2BE
100
AcDbEntity
  8
0
100
AcDbLine
 62
7
  6
CONTINUOUS
 10
6.0559551025
 20
3.277517872
 11
6.052362252
 21
3.2803077657
  0
LINE
  5
2BF
100
AcDbEntity
  8
0
100
AcDbLine
 62
7
  6
CONTINUOUS
 10
6.0155199113
 20
3.3089120706
 11
6.011002767
 21
3.3124198082
  0
LINE
  5
2C0
100
AcDbEntity
  8
0
100
AcDbLine
 62
7
  6
CONTINUOUS
 10
6.0448521827
 20
3.2861378614
 11
6.0409436938
 21
3.2891731134
  0
LINE
  5
2C1
100
AcDbEntity
  8
0
100
AcDbLine
 62
7
  6
CONTINUOUS
 10
6.0780394031
 20
3.2603717331
 11
6.0752144161
 21
3.2625655715
  0
LINE
  5
2C2
100
AcDbEntity
  8
0
100
AcDbLine
 62
7
  6
CONTINUOUS
 10
6.1241123918
 20
3.2246011646
 11
6.1240912896
 21
3.2246178822
  0
LINE
  5
2C3
100
AcDbEntity
  8
0
100
AcDbLine
 62
7
  6
CONTINUOUS
 10
5.6409248918
 20
3.2321011646
 11
5.6484248918
 21
3.2246011646
  0
LINE
  5
2C4
100
AcDbEntity
  8
0
100
AcDbLine
 62
7
  6
CONTINUOUS
 10
8.4304897966
 20
2.9093415178
 11
8.423585182
 21
2.9117189672
  0
LINE
  5
2C5
100
AcDbEntity
  8
0
100
AcDbLine
 62
7
  6
CONTINUOUS
 10
8.1158406523
 20
3.0206970208
 11
8.1089785815
 21
3.0231946103
  0
LINE
  5
2C6
100
AcDbEntity
  8
0
100
AcDbLine
 62
7
  6
CONTINUOUS
 10
8.434105616
 20
2.8983954822
 11
8.427344169
 21
2.9011272841
  0
LINE
  5
2C7
100
AcDbEntity
  8
0
100
AcDbLine
 62
7
  6
CONTINUOUS
 10
8.1257174418
 20
3.0260596799
 11
8.1189954889
 21
3.0289129796
  0
LINE
  5
2C8
100
AcDbEntity
  8
0
100
AcDbLine
 62
7
  6
CONTINUOUS
 10
8.0092027846
 20
2.7823145282
 11
8.0158210639
 21
2.7792283739
  0
LINE
  5
2C9
100
AcDbEntity
  8
0
100
AcDbLine
 62
7
  6
CONTINUOUS
 10
8.3104884283
 20
2.6386792507
 11
8.3170518388
 21
2.6354780616
  0
LINE
  5
2CA
100
AcDbEntity
  8
0
100
AcDbLine
 62
7
  6
CONTINUOUS
 10
8.0067497418
 20
2.793584877
 11
8.0131974341
 21
2.7901565782
  0
LINE
  5
2CB
100
AcDbEntity
  8
0
100
AcDbLine
 62
7
  6
CONTINUOUS
 10
6.0903623918
 20
3.1908511646
 11
6.0903456591
 21
3.1908722532
  0
LINE
  5
2CC
100
AcDbEntity
  8
0
100
AcDbLine
 62
7
  6
CONTINUOUS
 10
6.0903623918
 20
3.1908511646
 11
5.9731748918
 21
3.3417886646
  0
LINE
  5
2CD
100
AcDbEntity
  8
0
100
AcDbLine
 62
7
  6
CONTINUOUS
 10
6.0427336514
 20
3.2521968472
 11
6.0401137549
 21
3.2555716812
  0
LINE
  5
2CE
100
AcDbEntity
  8
0
100
AcDbLine
 62
7
  6
CONTINUOUS
 10
6.0500799582
 20
3.2427347703
 11
6.0477166094
 21
3.2457792646
  0
LINE
  5
2CF
100
AcDbEntity
  8
0
100
AcDbLine
 62
7
  6
CONTINUOUS
 10
6.0317467299
 20
3.2663483117
 11
6.0287914618
 21
3.2701554445
  0
LINE
  5
2D0
100
AcDbEntity
  8
0
100
AcDbLine
 62
7
  6
CONTINUOUS
 10
6.0586902194
 20
3.2316446047
 11
6.0545519148
 21
3.2369755883
  0
LINE
  5
2D1
100
AcDbEntity
  8
0
100
AcDbLine
 62
7
  6
CONTINUOUS
 10
6.0792819704
 20
3.2051226835
 11
6.0782399565
 21
3.2064650669
  0
LINE
  5
2D2
100
AcDbEntity
  8
0
100
AcDbLine
 62
7
  6
CONTINUOUS
 10
6.0868449342
 20
3.1953817187
 11
6.0862990462
 21
3.1960849639
  0
LINE
  5
2D3
100
AcDbEntity
  8
0
100
AcDbLine
 62
7
  6
CONTINUOUS
 10
6.0820727925
 20
3.2015287041
 11
6.0811963167
 21
3.2026578563
  0
LINE
  5
2D4
100
AcDbEntity
  8
0
100
AcDbLine
 62
7
  6
CONTINUOUS
 10
6.0642915215
 20
3.2244298329
 11
6.0606366223
 21
3.2291385422
  0
LINE
  5
2D5
100
AcDbEntity
  8
0
100
AcDbLine
 62
7
  6
CONTINUOUS
 10
6.0892536434
 20
3.1922790979
 11
6.0889513144
 21
3.1926686029
  0
LINE
  5
2D6
100
AcDbEntity
  8
0
100
AcDbLine
 62
7
  6
CONTINUOUS
 10
6.0721137991
 20
3.2143554294
 11
6.0706921961
 21
3.2161869666
  0
LINE
  5
2D7
100
AcDbEntity
  8
0
100
AcDbLine
 62
7
  6
CONTINUOUS
 10
6.0692014421
 20
3.2181057528
 11
6.0660024372
 21
3.2222271859
  0
LINE
  5
2D8
100
AcDbEntity
  8
0
100
AcDbLine
 62
7
  6
CONTINUOUS
 10
6.0903456591
 20
3.1908722532
 11
6.0902103046
 21
3.1910482901
  0
LINE
  5
2D9
100
AcDbEntity
  8
0
100
AcDbLine
 62
7
  6
CONTINUOUS
 10
5.6019248918
 20
1.2650386646
 11
5.6019248918
 21
1.1169136646
  0
LINE
  5
2DA
100
AcDbEntity
  8
0
100
AcDbLine
 62
7
  6
CONTINUOUS
 10
5.6409248918
 20
3.2321011646
 11
5.6409248918
 21
3.4514761646
  0
LINE
  5
2DB
100
AcDbEntity
  8
0
100
AcDbLine
 62
7
  6
CONTINUOUS
 10
5.6484248918
 20
3.2246011646
 11
5.6484248918
 21
3.4589761646
  0
LINE
  5
2DC
100
AcDbEntity
  8
0
100
AcDbLine
 62
7
  6
CONTINUOUS
 10
5.7387998918
 20
1.2762886646
 11
5.7387998918
 21
1.7769136646
  0
LINE
  5
2DD
100
AcDbEntity
  8
0
100
AcDbLine
 62
7
  6
CONTINUOUS
 10
5.7387998918
 20
2.3131636646
 11
5.7387998918
 21
2.3532886646
  0
LINE
  5
2DE
100
AcDbEntity
  8
0
100
AcDbLine
 62
7
  6
CONTINUOUS
 10
5.7387998918
 20
2.3757886646
 11
5.7387998918
 21
2.9401636646
  0
LINE
  5
2DF
100
AcDbEntity
  8
0
100
AcDbLine
 62
7
  6
CONTINUOUS
 10
8.437146999
 20
2.887262801
 11
8.4305287197
 21
2.8903489553
  0
LINE
  5
2E0
100
AcDbEntity
  8
0
100
AcDbLine
 62
7
  6
CONTINUOUS
 10
8.1358613553
 20
3.0308980785
 11
8.1292979448
 21
3.0340992676
  0
LINE
  5
2E1
100
AcDbEntity
  8
0
100
AcDbLine
 62
7
  6
CONTINUOUS
 10
8.4396000418
 20
2.8759924522
 11
8.4331523495
 21
2.879420751
  0
LINE
  5
2E2
100
AcDbEntity
  8
0
100
AcDbLine
 62
7
  6
CONTINUOUS
 10
8.3001051944
 20
2.6343783744
 11
8.3064920727
 21
2.63083807
  0
LINE
  5
2E3
100
AcDbEntity
  8
0
100
AcDbLine
 62
7
  6
CONTINUOUS
 10
8.0048899053
 20
2.8049681625
 11
8.011149338
 21
2.8012071159
  0
LINE
  5
2E4
100
AcDbEntity
  8
0
100
AcDbLine
 62
7
  6
CONTINUOUS
 10
8.2895135113
 20
2.6306193874
 11
8.2956978643
 21
2.6267549747
  0
LINE
  5
2E5
100
AcDbEntity
  8
0
100
AcDbLine
 62
7
  6
CONTINUOUS
 10
5.8559873918
 20
3.1908511646
 11
5.8559873918
 21
2.9630386646
  0
LINE
  5
2E6
100
AcDbEntity
  8
0
100
AcDbLine
 62
7
  6
CONTINUOUS
 10
6.0903623918
 20
3.1908511646
 11
6.0903623918
 21
2.9630386646
  0
LINE
  5
2E7
100
AcDbEntity
  8
0
100
AcDbLine
 62
7
  6
CONTINUOUS
 10
5.6409248918
 20
3.4514761646
 11
5.6484248918
 21
3.4589761646
  0
LINE
  5
2E8
100
AcDbEntity
  8
0
100
AcDbLine
 62
7
  6
CONTINUOUS
 10
8.1462445892
 20
3.0351989548
 11
8.1398577109
 21
3.0387392592
  0
LINE
  5
2E9
100
AcDbEntity
  8
0
100
AcDbLine
 62
7
  6
CONTINUOUS
 10
8.4414598783
 20
2.8646091667
 11
8.4352004456
 21
2.8683702133
  0
LINE
  5
2EA
100
AcDbEntity
  8
0
100
AcDbLine
 62
7
  6
CONTINUOUS
 10
8.1568362723
 20
3.0389579418
 11
8.1506519193
 21
3.0428223545
  0
LINE
  5
2EB
100
AcDbEntity
  8
0
100
AcDbLine
 62
7
  6
CONTINUOUS
 10
8.0036283728
 20
2.816433184
 11
8.0096823892
 21
2.8123496984
  0
LINE
  5
2EC
100
AcDbEntity
  8
0
100
AcDbLine
 62
7
  6
CONTINUOUS
 10
8.4427214108
 20
2.8531441452
 11
8.4366673944
 21
2.8572276308
  0
LINE
  5
2ED
100
AcDbEntity
  8
0
100
AcDbLine
 62
7
  6
CONTINUOUS
 10
8.2787351825
 20
2.6274348367
 11
8.2847170102
 21
2.6232463158
  0
LINE
  5
2EE
100
AcDbEntity
  8
0
100
AcDbLine
 62
7
  6
CONTINUOUS
 10
8.0029686021
 20
2.8279485165
 11
8.0088006085
 21
2.8235537845
  0
LINE
  5
2EF
100
AcDbEntity
  8
0
100
AcDbLine
 62
7
  6
CONTINUOUS
 10
8.2678069782
 20
2.6248112069
 11
8.2735613978
 21
2.6203153617
  0
LINE
  5
2F0
100
AcDbEntity
  8
0
100
AcDbLine
 62
7
  6
CONTINUOUS
 10
6.2075498918
 20
1.2762886646
 11
6.2075498918
 21
2.3532886646
  0
LINE
  5
2F1
100
AcDbEntity
  8
0
100
AcDbLine
 62
7
  6
CONTINUOUS
 10
6.2075498918
 20
2.3757886646
 11
6.2075498918
 21
2.9401636646
  0
LINE
  5
2F2
100
AcDbEntity
  8
0
100
AcDbLine
 62
7
  6
CONTINUOUS
 10
6.3444248918
 20
1.2650386646
 11
6.3444248918
 21
1.1169136646
  0
LINE
  5
2F3
100
AcDbEntity
  8
0
100
AcDbLine
 62
7
  6
CONTINUOUS
 10
5.9731748918
 20
3.3417886646
 11
5.8559873917
 21
3.1908511644
  0
LINE
  5
2F4
100
AcDbEntity
  8
0
100
AcDbLine
 62
7
  6
CONTINUOUS
 10
5.9619879195
 20
3.3273798679
 11
5.920585902
 21
3.2740540319
  0
LWPOLYLINE
  5
2F5
100
AcDbEntity
  8
0
100
AcDbPolyline
 62
7
  6
CONTINUOUS
 90
3
 70
0
 10
5.8876534562
 20
3.2316366756
 10
5.8562589397
 20
3.1912023591
 10
5.8560041194
 20
3.1908722561
  0
LINE
  5
2F6
100
AcDbEntity
  8
0
100
AcDbLine
 62
7
  6
CONTINUOUS
 10
5.8560041194
 20
3.1908722561
 11
5.8559873918
 21
3.1908511646
  0
LINE
  5
2F7
100
AcDbEntity
  8
0
100
AcDbLine
 62
7
  6
CONTINUOUS
 10
5.8222584972
 20
3.2246178774
 11
5.8222373918
 21
3.2246011646
  0
LINE
  5
2F8
100
AcDbEntity
  8
0
100
AcDbLine
 62
7
  6
CONTINUOUS
 10
5.9731748918
 20
3.3417886646
 11
5.8222373917
 21
3.2246011646
  0
LINE
  5
2F9
100
AcDbEntity
  8
0
100
AcDbLine
 62
7
  6
CONTINUOUS
 10
5.8224340324
 20
3.2247529288
 11
5.822324044
 21
3.2246683168
  0
LINE
  5
2FA
100
AcDbEntity
  8
0
100
AcDbLine
 62
7
  6
CONTINUOUS
 10
8.1676146011
 20
3.0421424925
 11
8.1616327734
 21
3.0463310134
  0
LINE
  5
2FB
100
AcDbEntity
  8
0
100
AcDbLine
 62
7
  6
CONTINUOUS
 10
8.4433811815
 20
2.8416288127
 11
8.4375491751
 21
2.8460235447
  0
LINE
  5
2FC
100
AcDbEntity
  8
0
100
AcDbLine
 62
7
  6
CONTINUOUS
 10
8.1785428054
 20
3.0447661223
 11
8.1727883858
 21
3.0492619675
  0
LINE
  5
2FD
100
AcDbEntity
  8
0
100
AcDbLine
 62
7
  6
CONTINUOUS
 10
8.0029122645
 20
2.8394761646
 11
8.0084986094
 21
2.8347886646
  0
LINE
  5
2FE
100
AcDbEntity
  8
0
100
AcDbLine
 62
7
  6
CONTINUOUS
 10
8.2567564405
 20
2.6227631108
 11
8.2622676794
 21
2.6179722639
  0
LINE
  5
2FF
100
AcDbEntity
  8
0
100
AcDbLine
 62
7
  6
CONTINUOUS
 10
8.003459925
 20
2.8510038127
 11
8.0088006085
 21
2.8460235447
  0
LINE
  5
300
100
AcDbEntity
  8
0
100
AcDbLine
 62
7
  6
CONTINUOUS
 10
8.245613858
 20
2.621296162
 11
8.2508668105
 21
2.6162234448
  0
LINE
  5
301
100
AcDbEntity
  8
0
100
AcDbLine
 62
7
  6
CONTINUOUS
 10
7.0940498918
 20
3.4514761646
 11
7.0865498918
 21
3.4589761646
  0
LINE
  5
302
100
AcDbEntity
  8
0
100
AcDbLine
 62
7
  6
CONTINUOUS
 10
5.7500498918
 20
2.3645386646
 11
5.738799892
 21
2.3532886648
  0
LINE
  5
303
100
AcDbEntity
  8
0
100
AcDbLine
 62
7
  6
CONTINUOUS
 10
4.6606748918
 20
5.3202136646
 11
4.2856748918
 21
5.3202136646
  0
LINE
  5
304
100
AcDbEntity
  8
0
100
AcDbLine
 62
7
  6
CONTINUOUS
 10
8.4434375191
 20
2.8301011646
 11
8.4378511742
 21
2.8347886646
  0
LINE
  5
305
100
AcDbEntity
  8
0
100
AcDbLine
 62
7
  6
CONTINUOUS
 10
8.1895933431
 20
3.0468142184
 11
8.1840821042
 21
3.0516050653
  0
LINE
  5
306
100
AcDbEntity
  8
0
100
AcDbLine
 62
7
  6
CONTINUOUS
 10
8.4428898586
 20
2.8185735165
 11
8.4375491751
 21
2.8235537845
  0
LINE
  5
307
100
AcDbEntity
  8
0
100
AcDbLine
 62
7
  6
CONTINUOUS
 10
8.2007359256
 20
3.0482811672
 11
8.1954829732
 21
3.0533538844
  0
LINE
  5
308
100
AcDbEntity
  8
0
100
AcDbLine
 62
7
  6
CONTINUOUS
 10
8.004609672
 20
2.8624805832
 11
8.0096823892
 21
2.8572276308
  0
LINE
  5
309
100
AcDbEntity
  8
0
100
AcDbLine
 62
7
  6
CONTINUOUS
 10
8.099874825
 20
2.6525327935
 11
8.0995514342
 21
2.6528754104
  0
LINE
  5
30A
100
AcDbEntity
  8
0
100
AcDbLine
 62
7
  6
CONTINUOUS
 10
8.2344097719
 20
2.6204143813
 11
8.2393900399
 21
2.6150736978
  0
LINE
  5
30B
100
AcDbEntity
  8
0
100
AcDbLine
 62
7
  6
CONTINUOUS
 10
8.0998747801
 20
2.652532701
 11
8.0995554341
 21
2.652877515
  0
LINE
  5
30C
100
AcDbEntity
  8
0
100
AcDbLine
 62
7
  6
CONTINUOUS
 10
8.0063584911
 20
2.8738814522
 11
8.011149338
 21
2.8683702133
  0
LINE
  5
30D
100
AcDbEntity
  8
0
100
AcDbLine
 62
7
  6
CONTINUOUS
 10
8.2231748918
 20
2.6201123822
 11
8.2278623918
 21
2.6145260373
  0
LINE
  5
30E
100
AcDbEntity
  8
0
100
AcDbLine
 62
7
  6
CONTINUOUS
 10
8.0871676096
 20
2.6672516807
 11
8.0868073294
 21
2.667709905
  0
LINE
  5
30F
100
AcDbEntity
  8
0
100
AcDbLine
 62
7
  6
CONTINUOUS
 10
8.3470751053
 20
3.0169598334
 11
8.340091725
 21
3.0148247998
  0
LINE
  5
310
100
AcDbEntity
  8
0
100
AcDbLine
 62
7
  6
CONTINUOUS
 10
8.0270654779
 20
2.9221022011
 11
8.0200458998
 21
2.9200893695
  0
LINE
  5
311
100
AcDbEntity
  8
0
100
AcDbLine
 62
7
  6
CONTINUOUS
 10
8.4417401116
 20
2.8070967459
 11
8.4366673944
 21
2.8123496984
  0
LINE
  5
312
100
AcDbEntity
  8
0
100
AcDbLine
 62
7
  6
CONTINUOUS
 10
8.2119400117
 20
3.0491629479
 11
8.2069597437
 21
3.0545036314
  0
LINE
  5
313
100
AcDbEntity
  8
0
100
AcDbLine
 62
7
  6
CONTINUOUS
 10
8.4399912925
 20
2.795695877
 11
8.4352004456
 21
2.8012071159
  0
LINE
  5
314
100
AcDbEntity
  8
0
100
AcDbLine
 62
7
  6
CONTINUOUS
 10
8.2231748918
 20
3.049464947
 11
8.2184873918
 21
3.0550512919
  0
LINE
  5
315
100
AcDbEntity
  8
0
100
AcDbLine
 62
7
  6
CONTINUOUS
 10
8.0087015889
 20
2.8851751706
 11
8.0131974341
 21
2.879420751
  0
LINE
  5
316
100
AcDbEntity
  8
0
100
AcDbLine
 62
7
  6
CONTINUOUS
 10
8.2119400117
 20
2.6204143813
 11
8.2163347437
 21
2.6145823749
  0
LINE
  5
317
100
AcDbEntity
  8
0
100
AcDbLine
 62
7
  6
CONTINUOUS
 10
8.011632543
 20
2.896330783
 11
8.0158210639
 21
2.8903489553
  0
LINE
  5
318
100
AcDbEntity
  8
0
100
AcDbLine
 62
7
  6
CONTINUOUS
 10
8.2007359256
 20
2.621296162
 11
8.2048194112
 21
2.6152421456
  0
LINE
  5
319
100
AcDbEntity
  8
0
100
AcDbLine
 62
7
  6
CONTINUOUS
 10
7.0865498918
 20
3.4589761646
 11
7.0865498918
 21
3.2246011646
  0
LINE
  5
31A
100
AcDbEntity
  8
0
100
AcDbLine
 62
7
  6
CONTINUOUS
 10
7.0940498918
 20
3.4514761646
 11
7.0940498918
 21
3.2321011646
  0
LINE
  5
31B
100
AcDbEntity
  8
0
100
AcDbLine
 62
7
  6
CONTINUOUS
 10
5.8228726398
 20
1.8730934705
 11
5.8180736624
 21
1.867602712
  0
LINE
  5
31C
100
AcDbEntity
  8
0
100
AcDbLine
 62
7
  6
CONTINUOUS
 10
5.9731748918
 20
2.0450386646
 11
5.7387998918
 21
1.7769136646
  0
LINE
  5
31D
100
AcDbEntity
  8
0
100
AcDbLine
 62
7
  6
CONTINUOUS
 10
5.8329829337
 20
1.8846588605
 11
5.8278427378
 21
1.8787790242
  0
LWPOLYLINE
  5
31E
100
AcDbEntity
  8
0
100
AcDbPolyline
 62
7
  6
CONTINUOUS
 90
3
 70
0
 10
5.9213296753
 20
1.9857308592
 10
5.9071139741
 20
1.9694649842
 10
5.8437742594
 20
1.8970053061
  0
LINE
  5
31F
100
AcDbEntity
  8
0
100
AcDbLine
 62
7
  6
CONTINUOUS
 10
5.8134456361
 20
1.8623083492
 11
5.800573693
 21
1.8475824245
  0
LINE
  5
320
100
AcDbEntity
  8
0
100
AcDbLine
 62
7
  6
CONTINUOUS
 10
5.800573693
 20
1.8475824245
 11
5.7891822581
 21
1.8345501423
  0
LINE
  5
321
100
AcDbEntity
  8
0
100
AcDbLine
 62
7
  6
CONTINUOUS
 10
5.7891822581
 20
1.8345501423
 11
5.7792002755
 21
1.8231306939
  0
LINE
  5
322
100
AcDbEntity
  8
0
100
AcDbLine
 62
7
  6
CONTINUOUS
 10
5.7792002755
 20
1.8231306939
 11
5.7654614331
 21
1.8074144484
  0
LINE
  5
323
100
AcDbEntity
  8
0
100
AcDbLine
 62
7
  6
CONTINUOUS
 10
5.7654614331
 20
1.8074144484
 11
5.7532371075
 21
1.7934298732
  0
LINE
  5
324
100
AcDbEntity
  8
0
100
AcDbLine
 62
7
  6
CONTINUOUS
 10
5.9581633064
 20
2.0278540317
 11
5.9213296753
 21
1.9857308592
  0
LINE
  5
325
100
AcDbEntity
  8
0
100
AcDbLine
 62
7
  6
CONTINUOUS
 10
5.7532371075
 20
1.7934298732
 11
5.7388417181
 21
1.7769602129
  0
LINE
  5
326
100
AcDbEntity
  8
0
100
AcDbLine
 62
7
  6
CONTINUOUS
 10
5.7388417181
 20
1.7769602129
 11
5.7387998918
 21
1.7769136646
  0
LINE
  5
327
100
AcDbEntity
  8
0
100
AcDbLine
 62
7
  6
CONTINUOUS
 10
6.2075498918
 20
2.3757886646
 11
6.1962998918
 21
2.3645386646
  0
LINE
  5
328
100
AcDbEntity
  8
0
100
AcDbLine
 62
7
  6
CONTINUOUS
 10
7.0940498918
 20
3.2321011646
 11
7.0865498918
 21
3.2246011646
  0
LINE
  5
329
100
AcDbEntity
  8
0
100
AcDbLine
 62
7
  6
CONTINUOUS
 10
5.7050964272
 20
1.8107054612
 11
5.7050498918
 21
1.8106636646
  0
LINE
  5
32A
100
AcDbEntity
  8
0
100
AcDbLine
 62
7
  6
CONTINUOUS
 10
5.9731748918
 20
2.0450386646
 11
5.7050498918
 21
1.8106636646
  0
LINE
  5
32B
100
AcDbEntity
  8
0
100
AcDbLine
 62
7
  6
CONTINUOUS
 10
8.3273542947
 20
3.0289129796
 11
8.3206323419
 21
3.0260596799
  0
LINE
  5
32C
100
AcDbEntity
  8
0
100
AcDbLine
 62
7
  6
CONTINUOUS
 10
8.0190056146
 20
2.9011272841
 11
8.0122441676
 21
2.8983954822
  0
LINE
  5
32D
100
AcDbEntity
  8
0
100
AcDbLine
 62
7
  6
CONTINUOUS
 10
8.3373712021
 20
3.0231946103
 11
8.3305091313
 21
3.0206970208
  0
LINE
  5
32E
100
AcDbEntity
  8
0
100
AcDbLine
 62
7
  6
CONTINUOUS
 10
8.0227646016
 20
2.9117189672
 11
8.015859987
 21
2.9093415178
  0
LINE
  5
32F
100
AcDbEntity
  8
0
100
AcDbLine
 62
7
  6
CONTINUOUS
 10
8.0992746783
 20
2.6526174958
 11
8.1062580586
 21
2.6547525294
  0
LINE
  5
330
100
AcDbEntity
  8
0
100
AcDbLine
 62
7
  6
CONTINUOUS
 10
8.4192843057
 20
2.7474751281
 11
8.4263038838
 21
2.7494879597
  0
LINE
  5
331
100
AcDbEntity
  8
0
100
AcDbLine
 62
7
  6
CONTINUOUS
 10
4.2856748918
 20
5.9052136646
 11
4.6606748918
 21
5.9052136646
  0
LINE
  5
332
100
AcDbEntity
  8
0
100
AcDbLine
 62
7
  6
CONTINUOUS
 10
8.4376481947
 20
2.7844021586
 11
8.4331523495
 21
2.7901565782
  0
LINE
  5
333
100
AcDbEntity
  8
0
100
AcDbLine
 62
7
  6
CONTINUOUS
 10
8.2344097719
 20
3.0491629479
 11
8.2300150399
 21
3.0549949543
  0
LINE
  5
334
100
AcDbEntity
  8
0
100
AcDbLine
 62
7
  6
CONTINUOUS
 10
8.4347172406
 20
2.7732465462
 11
8.4305287197
 21
2.7792283739
  0
LINE
  5
335
100
AcDbEntity
  8
0
100
AcDbLine
 62
7
  6
CONTINUOUS
 10
8.245613858
 20
3.0482811672
 11
8.2415303724
 21
3.0543351836
  0
LINE
  5
336
100
AcDbEntity
  8
0
100
AcDbLine
 62
7
  6
CONTINUOUS
 10
8.0151412019
 20
2.9073116371
 11
8.0190056146
 21
2.9011272841
  0
LINE
  5
337
100
AcDbEntity
  8
0
100
AcDbLine
 62
7
  6
CONTINUOUS
 10
8.1895933431
 20
2.6227631108
 11
8.1933543897
 21
2.6165036781
  0
LINE
  5
338
100
AcDbEntity
  8
0
100
AcDbLine
 62
7
  6
CONTINUOUS
 10
8.0192242972
 20
2.9181058455
 11
8.0227646016
 21
2.9117189672
  0
LINE
  5
339
100
AcDbEntity
  8
0
100
AcDbLine
 62
7
  6
CONTINUOUS
 10
8.1785428054
 20
2.6248112069
 11
8.1819711042
 21
2.6183635146
  0
LINE
  5
33A
100
AcDbEntity
  8
0
100
AcDbLine
 62
7
  6
CONTINUOUS
 10
8.0238642888
 20
2.9286656116
 11
8.0270654779
 21
2.9221022011
  0
LINE
  5
33B
100
AcDbEntity
  8
0
100
AcDbLine
 62
7
  6
CONTINUOUS
 10
8.011149338
 20
2.8683702133
 11
8.0048899053
 21
2.8646091667
  0
LINE
  5
33C
100
AcDbEntity
  8
0
100
AcDbLine
 62
7
  6
CONTINUOUS
 10
8.3064920727
 20
3.0387392592
 11
8.3001051944
 21
3.0351989548
  0
LINE
  5
33D
100
AcDbEntity
  8
0
100
AcDbLine
 62
7
  6
CONTINUOUS
 10
8.0131974341
 20
2.879420751
 11
8.0067497418
 21
2.8759924522
  0
LINE
  5
33E
100
AcDbEntity
  8
0
100
AcDbLine
 62
7
  6
CONTINUOUS
 10
8.3170518388
 20
3.0340992676
 11
8.3104884283
 21
3.0308980785
  0
LINE
  5
33F
100
AcDbEntity
  8
0
100
AcDbLine
 62
7
  6
CONTINUOUS
 10
8.0158210639
 20
2.8903489553
 11
8.0092027846
 21
2.887262801
  0
LINE
  5
340
100
AcDbEntity
  8
0
100
AcDbLine
 62
7
  6
CONTINUOUS
 10
8.1189954889
 20
2.6406643496
 11
8.1257174418
 21
2.6435176493
  0
LINE
  5
341
100
AcDbEntity
  8
0
100
AcDbLine
 62
7
  6
CONTINUOUS
 10
8.427344169
 20
2.7684500451
 11
8.434105616
 21
2.7711818469
  0
LINE
  5
342
100
AcDbEntity
  8
0
100
AcDbLine
 62
7
  6
CONTINUOUS
 10
8.1089785815
 20
2.6463827189
 11
8.1158406523
 21
2.6488803084
  0
LINE
  5
343
100
AcDbEntity
  8
0
100
AcDbLine
 62
7
  6
CONTINUOUS
 10
8.423585182
 20
2.757858362
 11
8.4304897966
 21
2.7602358114
  0
LINE
  5
344
100
AcDbEntity
  8
0
100
AcDbLine
 62
7
  6
CONTINUOUS
 10
8.4312085817
 20
2.7622656921
 11
8.427344169
 21
2.7684500451
  0
LINE
  5
345
100
AcDbEntity
  8
0
100
AcDbLine
 62
7
  6
CONTINUOUS
 10
8.2567564405
 20
3.0468142184
 11
8.2529953939
 21
3.0530736511
  0
LINE
  5
346
100
AcDbEntity
  8
0
100
AcDbLine
 62
7
  6
CONTINUOUS
 10
8.4271254864
 20
2.7514714837
 11
8.423585182
 21
2.757858362
  0
LINE
  5
347
100
AcDbEntity
  8
0
100
AcDbLine
 62
7
  6
CONTINUOUS
 10
8.2678069782
 20
3.0447661223
 11
8.2643786794
 21
3.0512138146
  0
LINE
  5
348
100
AcDbEntity
  8
0
100
AcDbLine
 62
7
  6
CONTINUOUS
 10
8.4224854948
 20
2.7409117176
 11
8.4192843057
 21
2.7474751281
  0
LINE
  5
349
100
AcDbEntity
  8
0
100
AcDbLine
 62
7
  6
CONTINUOUS
 10
8.1676146011
 20
2.6274348367
 11
8.1707007554
 21
2.6208165574
  0
LINE
  5
34A
100
AcDbEntity
  8
0
100
AcDbLine
 62
7
  6
CONTINUOUS
 10
8.0290505768
 20
2.9389680675
 11
8.0319038765
 21
2.9322461146
  0
LINE
  5
34B
100
AcDbEntity
  8
0
100
AcDbLine
 62
7
  6
CONTINUOUS
 10
8.1568362723
 20
2.6306193874
 11
8.1595680742
 21
2.6238579404
  0
LINE
  5
34C
100
AcDbEntity
  8
0
100
AcDbLine
 62
7
  6
CONTINUOUS
 10
8.0347689461
 20
2.9489849749
 11
8.0372665356
 21
2.9421229041
  0
LINE
  5
34D
100
AcDbEntity
  8
0
100
AcDbLine
 62
7
  6
CONTINUOUS
 10
8.1462445892
 20
2.6343783744
 11
8.1486220386
 21
2.6274737598
  0
LINE
  5
34E
100
AcDbEntity
  8
0
100
AcDbLine
 62
7
  6
CONTINUOUS
 10
7.8519248918
 20
1.2650386646
 11
7.8519248918
 21
1.1169136646
  0
LINE
  5
34F
100
AcDbEntity
  8
0
100
AcDbLine
 62
7
  6
CONTINUOUS
 10
8.2622676794
 20
3.0516050653
 11
8.2567564405
 21
3.0468142184
  0
LINE
  5
350
100
AcDbEntity
  8
0
100
AcDbLine
 62
7
  6
CONTINUOUS
 10
8.0084986094
 20
2.8347886646
 11
8.0029122645
 21
2.8301011646
  0
LINE
  5
351
100
AcDbEntity
  8
0
100
AcDbLine
 62
7
  6
CONTINUOUS
 10
8.2735613978
 20
3.0492619675
 11
8.2678069782
 21
3.0447661223
  0
LINE
  5
352
100
AcDbEntity
  8
0
100
AcDbLine
 62
7
  6
CONTINUOUS
 10
8.0088006085
 20
2.8460235447
 11
8.0029686021
 21
2.8416288127
  0
LINE
  5
353
100
AcDbEntity
  8
0
100
AcDbLine
 62
7
  6
CONTINUOUS
 10
8.2847170102
 20
3.0463310134
 11
8.2787351825
 21
3.0421424925
  0
LINE
  5
354
100
AcDbEntity
  8
0
100
AcDbLine
 62
7
  6
CONTINUOUS
 10
8.0096823892
 20
2.8572276308
 11
8.0036283728
 21
2.8531441452
  0
LINE
  5
355
100
AcDbEntity
  8
0
100
AcDbLine
 62
7
  6
CONTINUOUS
 10
8.2956978643
 20
3.0428223545
 11
8.2895135113
 21
3.0389579418
  0
LINE
  5
356
100
AcDbEntity
  8
0
100
AcDbLine
 62
7
  6
CONTINUOUS
 10
8.1506519193
 20
2.6267549747
 11
8.1568362723
 21
2.6306193874
  0
LINE
  5
357
100
AcDbEntity
  8
0
100
AcDbLine
 62
7
  6
CONTINUOUS
 10
8.4352004456
 20
2.8012071159
 11
8.4414598783
 21
2.8049681625
  0
LINE
  5
358
100
AcDbEntity
  8
0
100
AcDbLine
 62
7
  6
CONTINUOUS
 10
8.1398577109
 20
2.63083807
 11
8.1462445892
 21
2.6343783744
  0
LINE
  5
359
100
AcDbEntity
  8
0
100
AcDbLine
 62
7
  6
CONTINUOUS
 10
8.4331523495
 20
2.7901565782
 11
8.4396000418
 21
2.793584877
  0
LINE
  5
35A
100
AcDbEntity
  8
0
100
AcDbLine
 62
7
  6
CONTINUOUS
 10
8.1292979448
 20
2.6354780616
 11
8.1358613553
 21
2.6386792507
  0
LINE
  5
35B
100
AcDbEntity
  8
0
100
AcDbLine
 62
7
  6
CONTINUOUS
 10
8.4305287197
 20
2.7792283739
 11
8.437146999
 21
2.7823145282
  0
LINE
  5
35C
100
AcDbEntity
  8
0
100
AcDbLine
 62
7
  6
CONTINUOUS
 10
8.2787351825
 20
3.0421424925
 11
8.2756490282
 21
3.0487607718
  0
LINE
  5
35D
100
AcDbEntity
  8
0
100
AcDbLine
 62
7
  6
CONTINUOUS
 10
8.4172992068
 20
2.7306092617
 11
8.4144459071
 21
2.7373312145
  0
LINE
  5
35E
100
AcDbEntity
  8
0
100
AcDbLine
 62
7
  6
CONTINUOUS
 10
8.2895135113
 20
3.0389579418
 11
8.2867817095
 21
3.0457193888
  0
LINE
  5
35F
100
AcDbEntity
  8
0
100
AcDbLine
 62
7
  6
CONTINUOUS
 10
8.4115808375
 20
2.7205923543
 11
8.409083248
 21
2.7274544251
  0
LINE
  5
360
100
AcDbEntity
  8
0
100
AcDbLine
 62
7
  6
CONTINUOUS
 10
8.3001051944
 20
3.0351989548
 11
8.297727745
 21
3.0421035694
  0
LINE
  5
361
100
AcDbEntity
  8
0
100
AcDbLine
 62
7
  6
CONTINUOUS
 10
8.041003723
 20
2.9586888781
 11
8.0431387566
 21
2.9517054978
  0
LINE
  5
362
100
AcDbEntity
  8
0
100
AcDbLine
 62
7
  6
CONTINUOUS
 10
8.1358613553
 20
2.6386792507
 11
8.1378741869
 21
2.6316596726
  0
LINE
  5
363
100
AcDbEntity
  8
0
100
AcDbLine
 62
7
  6
CONTINUOUS
 10
8.0477339264
 20
2.9680480557
 11
8.0494981311
 21
2.9609722174
  0
LINE
  5
364
100
AcDbEntity
  8
0
100
AcDbLine
 62
7
  6
CONTINUOUS
 10
8.1257174418
 20
2.6435176493
 11
8.1273601386
 21
2.6364023477
  0
LINE
  5
365
100
AcDbEntity
  8
0
100
AcDbLine
 62
7
  6
CONTINUOUS
 10
8.0549527746
 20
2.9770522121
 11
8.0563461503
 21
2.9698839157
  0
LINE
  5
366
100
AcDbEntity
  8
0
100
AcDbLine
 62
7
  6
CONTINUOUS
 10
8.1158406523
 20
2.6488803084
 11
8.1171087117
 21
2.641688786
  0
LINE
  5
367
100
AcDbEntity
  8
0
100
AcDbLine
 62
7
  6
CONTINUOUS
 10
8.070744903
 20
2.9938568769
 11
8.0713813546
 21
2.9865822018
  0
LINE
  5
368
100
AcDbEntity
  8
0
100
AcDbLine
 62
7
  6
CONTINUOUS
 10
8.096991339
 20
2.6611119039
 11
8.097500035
 21
2.6538372125
  0
LINE
  5
369
100
AcDbEntity
  8
0
100
AcDbLine
 62
7
  6
CONTINUOUS
 10
8.07927879
 20
3.0016164487
 11
8.0795336423
 21
2.9943184339
  0
LINE
  5
36A
100
AcDbEntity
  8
0
100
AcDbLine
 62
7
  6
CONTINUOUS
 10
8.0293691443
 20
1.5237886646
 11
8.0292316856
 21
1.5316636646
  0
LINE
  5
36B
100
AcDbEntity
  8
0
100
AcDbLine
 62
7
  6
CONTINUOUS
 10
8.0880796407
 20
2.6679599231
 11
8.0882070862
 21
2.6606585721
  0
LINE
  5
36C
100
AcDbEntity
  8
0
100
AcDbLine
 62
7
  6
CONTINUOUS
 10
7.9887998918
 20
1.5237886646
 11
7.9887998918
 21
1.2762886646
  0
LINE
  5
36D
100
AcDbEntity
  8
0
100
AcDbLine
 62
7
  6
CONTINUOUS
 10
8.0356748918
 20
2.7277350749
 11
8.0356748918
 21
2.7230814197
  0
LINE
  5
36E
100
AcDbEntity
  8
0
100
AcDbLine
 62
7
  6
CONTINUOUS
 10
8.0356748918
 20
2.719110939
 11
8.0356748918
 21
1.5316636646
  0
LINE
  5
36F
100
AcDbEntity
  8
0
100
AcDbLine
 62
7
  6
CONTINUOUS
 10
8.0882070862
 20
3.0089187571
 11
8.0880796407
 21
3.0016174061
  0
LINE
  5
370
100
AcDbEntity
  8
0
100
AcDbLine
 62
7
  6
CONTINUOUS
 10
8.0795336423
 20
2.6752588953
 11
8.07927879
 21
2.6679608805
  0
LINE
  5
371
100
AcDbEntity
  8
0
100
AcDbLine
 62
7
  6
CONTINUOUS
 10
8.097500035
 20
3.0157401167
 11
8.096991339
 21
3.0084654253
  0
LINE
  5
372
100
AcDbEntity
  8
0
100
AcDbLine
 62
7
  6
CONTINUOUS
 10
8.0713813546
 20
2.6829951274
 11
8.070744903
 21
2.6757204523
  0
LINE
  5
373
100
AcDbEntity
  8
0
100
AcDbLine
 62
7
  6
CONTINUOUS
 10
8.2048194112
 20
3.0543351836
 11
8.2007359256
 21
3.0482811672
  0
LINE
  5
374
100
AcDbEntity
  8
0
100
AcDbLine
 62
7
  6
CONTINUOUS
 10
8.0158210639
 20
2.7792283739
 11
8.011632543
 21
2.7732465462
  0
LINE
  5
375
100
AcDbEntity
  8
0
100
AcDbLine
 62
7
  6
CONTINUOUS
 10
8.2163347437
 20
3.0549949543
 11
8.2119400117
 21
3.0491629479
  0
LINE
  5
376
100
AcDbEntity
  8
0
100
AcDbLine
 62
7
  6
CONTINUOUS
 10
8.0131974341
 20
2.7901565782
 11
8.0087015889
 21
2.7844021586
  0
LINE
  5
377
100
AcDbEntity
  8
0
100
AcDbLine
 62
7
  6
CONTINUOUS
 10
8.2278623918
 20
3.0550512919
 11
8.2231748918
 21
3.049464947
  0
LINE
  5
378
100
AcDbEntity
  8
0
100
AcDbLine
 62
7
  6
CONTINUOUS
 10
8.011149338
 20
2.8012071159
 11
8.0063584911
 21
2.795695877
  0
LINE
  5
379
100
AcDbEntity
  8
0
100
AcDbLine
 62
7
  6
CONTINUOUS
 10
8.2393900399
 20
3.0545036314
 11
8.2344097719
 21
3.0491629479
  0
LINE
  5
37A
100
AcDbEntity
  8
0
100
AcDbLine
 62
7
  6
CONTINUOUS
 10
8.0096823892
 20
2.8123496984
 11
8.004609672
 21
2.8070967459
  0
LINE
  5
37B
100
AcDbEntity
  8
0
100
AcDbLine
 62
7
  6
CONTINUOUS
 10
8.2508668105
 20
3.0533538844
 11
8.245613858
 21
3.0482811672
  0
LINE
  5
37C
100
AcDbEntity
  8
0
100
AcDbLine
 62
7
  6
CONTINUOUS
 10
8.0088006085
 20
2.8235537845
 11
8.003459925
 21
2.8185735165
  0
LINE
  5
37D
100
AcDbEntity
  8
0
100
AcDbLine
 62
7
  6
CONTINUOUS
 10
8.1840821042
 20
2.6179722639
 11
8.1895933431
 21
2.6227631108
  0
LINE
  5
37E
100
AcDbEntity
  8
0
100
AcDbLine
 62
7
  6
CONTINUOUS
 10
8.4378511742
 20
2.8347886646
 11
8.4434375191
 21
2.8394761646
  0
LINE
  5
37F
100
AcDbEntity
  8
0
100
AcDbLine
 62
7
  6
CONTINUOUS
 10
8.1727883858
 20
2.6203153617
 11
8.1785428054
 21
2.6248112069
  0
LINE
  5
380
100
AcDbEntity
  8
0
100
AcDbLine
 62
7
  6
CONTINUOUS
 10
8.4375491751
 20
2.8235537845
 11
8.4433811815
 21
2.8279485165
  0
LINE
  5
381
100
AcDbEntity
  8
0
100
AcDbLine
 62
7
  6
CONTINUOUS
 10
8.1616327734
 20
2.6232463158
 11
8.1676146011
 21
2.6274348367
  0
LINE
  5
382
100
AcDbEntity
  8
0
100
AcDbLine
 62
7
  6
CONTINUOUS
 10
8.4366673944
 20
2.8123496984
 11
8.4427214108
 21
2.816433184
  0
LINE
  5
383
100
AcDbEntity
  8
0
100
AcDbLine
 62
7
  6
CONTINUOUS
 10
8.4053460606
 20
2.7108884511
 11
8.403211027
 21
2.7178718314
  0
LINE
  5
384
100
AcDbEntity
  8
0
100
AcDbLine
 62
7
  6
CONTINUOUS
 10
8.3104884283
 20
3.0308980785
 11
8.3084755967
 21
3.0379176566
  0
LINE
  5
385
100
AcDbEntity
  8
0
100
AcDbLine
 62
7
  6
CONTINUOUS
 10
8.3986158572
 20
2.7015292735
 11
8.3968516525
 21
2.7086051118
  0
LINE
  5
386
100
AcDbEntity
  8
0
100
AcDbLine
 62
7
  6
CONTINUOUS
 10
8.3206323419
 20
3.0260596799
 11
8.3189896451
 21
3.0331749815
  0
LINE
  5
387
100
AcDbEntity
  8
0
100
AcDbLine
 62
7
  6
CONTINUOUS
 10
8.391397009
 20
2.6925251171
 11
8.3900036333
 21
2.6996934135
  0
LINE
  5
388
100
AcDbEntity
  8
0
100
AcDbLine
 62
7
  6
CONTINUOUS
 10
8.3305091313
 20
3.0206970208
 11
8.3292410719
 21
3.0278885432
  0
LINE
  5
389
100
AcDbEntity
  8
0
100
AcDbLine
 62
7
  6
CONTINUOUS
 10
8.062628816
 20
2.9856613102
 11
8.0636451225
 21
2.9784299141
  0
LINE
  5
38A
100
AcDbEntity
  8
0
100
AcDbLine
 62
7
  6
CONTINUOUS
 10
8.3837209676
 20
2.683916019
 11
8.3827046611
 21
2.6911474151
  0
LINE
  5
38B
100
AcDbEntity
  8
0
100
AcDbLine
 62
7
  6
CONTINUOUS
 10
8.1062580586
 20
2.6547525294
 11
8.107148005
 21
2.6475044977
  0
LINE
  5
38C
100
AcDbEntity
  8
0
100
AcDbLine
 62
7
  6
CONTINUOUS
 10
8.3756048806
 20
2.6757204523
 11
8.374968429
 21
2.6829951274
  0
LINE
  5
38D
100
AcDbEntity
  8
0
100
AcDbLine
 62
7
  6
CONTINUOUS
 10
8.3493584446
 20
3.0084654253
 11
8.3488497486
 21
3.0157401167
  0
LINE
  5
38E
100
AcDbEntity
  8
0
100
AcDbLine
 62
7
  6
CONTINUOUS
 10
8.3670709936
 20
2.6679608805
 11
8.3668161413
 21
2.6752588953
  0
LINE
  5
38F
100
AcDbEntity
  8
0
100
AcDbLine
 62
7
  6
CONTINUOUS
 10
8.3582701429
 20
3.0016174061
 11
8.3581426974
 21
3.0089187571
  0
LINE
  5
390
100
AcDbEntity
  8
0
100
AcDbLine
 62
7
  6
CONTINUOUS
 10
8.4106748918
 20
2.7277350749
 11
8.4106748918
 21
2.7230814197
  0
LINE
  5
391
100
AcDbEntity
  8
0
100
AcDbLine
 62
7
  6
CONTINUOUS
 10
8.4106748918
 20
2.719110939
 11
8.4106748918
 21
1.5316636646
  0
LINE
  5
392
100
AcDbEntity
  8
0
100
AcDbLine
 62
7
  6
CONTINUOUS
 10
8.4575498918
 20
1.5237886646
 11
8.4575498918
 21
1.2762886646
  0
LINE
  5
393
100
AcDbEntity
  8
0
100
AcDbLine
 62
7
  6
CONTINUOUS
 10
8.3581426974
 20
2.6606585721
 11
8.3582701429
 21
2.6679599231
  0
LINE
  5
394
100
AcDbEntity
  8
0
100
AcDbLine
 62
7
  6
CONTINUOUS
 10
8.4169806393
 20
1.5237886646
 11
8.417118098
 21
1.5316636646
  0
LINE
  5
395
100
AcDbEntity
  8
0
100
AcDbLine
 62
7
  6
CONTINUOUS
 10
8.3668161413
 20
2.9943184339
 11
8.3670709936
 21
3.0016164487
  0
LINE
  5
396
100
AcDbEntity
  8
0
100
AcDbLine
 62
7
  6
CONTINUOUS
 10
8.3488497486
 20
2.6538372125
 11
8.3493584446
 21
2.6611119039
  0
LINE
  5
397
100
AcDbEntity
  8
0
100
AcDbLine
 62
7
  6
CONTINUOUS
 10
8.374968429
 20
2.9865822018
 11
8.3756048806
 21
2.9938568769
  0
LINE
  5
398
100
AcDbEntity
  8
0
100
AcDbLine
 62
7
  6
CONTINUOUS
 10
8.107148005
 20
3.0220728315
 11
8.1062580586
 21
3.0148247998
  0
LINE
  5
399
100
AcDbEntity
  8
0
100
AcDbLine
 62
7
  6
CONTINUOUS
 10
8.3392017786
 20
2.6475044977
 11
8.340091725
 21
2.6547525294
  0
LINE
  5
39A
100
AcDbEntity
  8
0
100
AcDbLine
 62
7
  6
CONTINUOUS
 10
8.0636451225
 20
2.6911474151
 11
8.062628816
 21
2.683916019
  0
LINE
  5
39B
100
AcDbEntity
  8
0
100
AcDbLine
 62
7
  6
CONTINUOUS
 10
8.1171087117
 20
3.0278885432
 11
8.1158406523
 21
3.0206970208
  0
LINE
  5
39C
100
AcDbEntity
  8
0
100
AcDbLine
 62
7
  6
CONTINUOUS
 10
8.0563461503
 20
2.6996934135
 11
8.0549527746
 21
2.6925251171
  0
LINE
  5
39D
100
AcDbEntity
  8
0
100
AcDbLine
 62
7
  6
CONTINUOUS
 10
8.1273601386
 20
3.0331749815
 11
8.1257174418
 21
3.0260596799
  0
LINE
  5
39E
100
AcDbEntity
  8
0
100
AcDbLine
 62
7
  6
CONTINUOUS
 10
8.0494981311
 20
2.7086051118
 11
8.0477339264
 21
2.7015292735
  0
LINE
  5
39F
100
AcDbEntity
  8
0
100
AcDbLine
 62
7
  6
CONTINUOUS
 10
8.1378741869
 20
3.0379176566
 11
8.1358613553
 21
3.0308980785
  0
LINE
  5
3A0
100
AcDbEntity
  8
0
100
AcDbLine
 62
7
  6
CONTINUOUS
 10
8.0431387566
 20
2.7178718314
 11
8.041003723
 21
2.7108884511
  0
LINE
  5
3A1
100
AcDbEntity
  8
0
100
AcDbLine
 62
7
  6
CONTINUOUS
 10
8.1486220386
 20
3.0421035694
 11
8.1462445892
 21
3.0351989548
  0
LINE
  5
3A2
100
AcDbEntity
  8
0
100
AcDbLine
 62
7
  6
CONTINUOUS
 10
8.0372665356
 20
2.7274544251
 11
8.0347689461
 21
2.7205923543
  0
LINE
  5
3A3
100
AcDbEntity
  8
0
100
AcDbLine
 62
7
  6
CONTINUOUS
 10
8.1595680742
 20
3.0457193888
 11
8.1568362723
 21
3.0389579418
  0
LINE
  5
3A4
100
AcDbEntity
  8
0
100
AcDbLine
 62
7
  6
CONTINUOUS
 10
8.0319038765
 20
2.7373312145
 11
8.0290505768
 21
2.7306092617
  0
LINE
  5
3A5
100
AcDbEntity
  8
0
100
AcDbLine
 62
7
  6
CONTINUOUS
 10
8.1707007554
 20
3.0487607718
 11
8.1676146011
 21
3.0421424925
  0
LINE
  5
3A6
100
AcDbEntity
  8
0
100
AcDbLine
 62
7
  6
CONTINUOUS
 10
8.0270654779
 20
2.7474751281
 11
8.0238642888
 21
2.7409117176
  0
LINE
  5
3A7
100
AcDbEntity
  8
0
100
AcDbLine
 62
7
  6
CONTINUOUS
 10
8.1819711042
 20
3.0512138146
 11
8.1785428054
 21
3.0447661223
  0
LINE
  5
3A8
100
AcDbEntity
  8
0
100
AcDbLine
 62
7
  6
CONTINUOUS
 10
8.0227646016
 20
2.757858362
 11
8.0192242972
 21
2.7514714837
  0
LINE
  5
3A9
100
AcDbEntity
  8
0
100
AcDbLine
 62
7
  6
CONTINUOUS
 10
8.1933543897
 20
3.0530736511
 11
8.1895933431
 21
3.0468142184
  0
LINE
  5
3AA
100
AcDbEntity
  8
0
100
AcDbLine
 62
7
  6
CONTINUOUS
 10
8.0190056146
 20
2.7684500451
 11
8.0151412019
 21
2.7622656921
  0
LINE
  5
3AB
100
AcDbEntity
  8
0
100
AcDbLine
 62
7
  6
CONTINUOUS
 10
8.2415303724
 20
2.6152421456
 11
8.245613858
 21
2.621296162
  0
LINE
  5
3AC
100
AcDbEntity
  8
0
100
AcDbLine
 62
7
  6
CONTINUOUS
 10
8.4305287197
 20
2.8903489553
 11
8.4347172406
 21
2.896330783
  0
LINE
  5
3AD
100
AcDbEntity
  8
0
100
AcDbLine
 62
7
  6
CONTINUOUS
 10
8.2300150399
 20
2.6145823749
 11
8.2344097719
 21
2.6204143813
  0
LINE
  5
3AE
100
AcDbEntity
  8
0
100
AcDbLine
 62
7
  6
CONTINUOUS
 10
8.4331523495
 20
2.879420751
 11
8.4376481947
 21
2.8851751706
  0
LINE
  5
3AF
100
AcDbEntity
  8
0
100
AcDbLine
 62
7
  6
CONTINUOUS
 10
8.3595304144
 20
2.6677149512
 11
8.3591707761
 21
2.6672552817
  0
LINE
  5
3B0
100
AcDbEntity
  8
0
100
AcDbLine
 62
7
  6
CONTINUOUS
 10
8.2184873918
 20
2.6145260373
 11
8.2231748918
 21
2.6201123822
  0
LINE
  5
3B1
100
AcDbEntity
  8
0
100
AcDbLine
 62
7
  6
CONTINUOUS
 10
8.4352004456
 20
2.8683702133
 11
8.4399912925
 21
2.8738814522
  0
LINE
  5
3B2
100
AcDbEntity
  8
0
100
AcDbLine
 62
7
  6
CONTINUOUS
 10
8.2069597437
 20
2.6150736978
 11
8.2119400117
 21
2.6204143813
  0
LINE
  5
3B3
100
AcDbEntity
  8
0
100
AcDbLine
 62
7
  6
CONTINUOUS
 10
8.4366673944
 20
2.8572276308
 11
8.4417401116
 21
2.8624805832
  0
LINE
  5
3B4
100
AcDbEntity
  8
0
100
AcDbLine
 62
7
  6
CONTINUOUS
 10
8.1954829732
 20
2.6162234448
 11
8.2007359256
 21
2.621296162
  0
LINE
  5
3B5
100
AcDbEntity
  8
0
100
AcDbLine
 62
7
  6
CONTINUOUS
 10
8.4375491751
 20
2.8460235447
 11
8.4428898586
 21
2.8510038127
  0
LINE
  5
3B6
100
AcDbEntity
  8
0
100
AcDbLine
 62
7
  6
CONTINUOUS
 10
8.340091725
 20
3.0148247998
 11
8.3392017786
 21
3.0220728315
  0
LINE
  5
3B7
100
AcDbEntity
  8
0
100
AcDbLine
 62
7
  6
CONTINUOUS
 10
8.5944248918
 20
1.2650386646
 11
8.5944248918
 21
1.1169136646
  0
LINE
  5
3B8
100
AcDbEntity
  8
0
100
AcDbLine
 62
7
  6
CONTINUOUS
 10
8.3827046611
 20
2.9784299141
 11
8.3837209676
 21
2.9856613102
  0
LINE
  5
3B9
100
AcDbEntity
  8
0
100
AcDbLine
 62
7
  6
CONTINUOUS
 10
8.3292410719
 20
2.641688786
 11
8.3305091313
 21
2.6488803084
  0
LINE
  5
3BA
100
AcDbEntity
  8
0
100
AcDbLine
 62
7
  6
CONTINUOUS
 10
8.3900036333
 20
2.9698839157
 11
8.391397009
 21
2.9770522121
  0
LINE
  5
3BB
100
AcDbEntity
  8
0
100
AcDbLine
 62
7
  6
CONTINUOUS
 10
8.3189896451
 20
2.6364023477
 11
8.3206323419
 21
2.6435176493
  0
LINE
  5
3BC
100
AcDbEntity
  8
0
100
AcDbLine
 62
7
  6
CONTINUOUS
 10
8.3968516525
 20
2.9609722174
 11
8.3986158572
 21
2.9680480557
  0
LINE
  5
3BD
100
AcDbEntity
  8
0
100
AcDbLine
 62
7
  6
CONTINUOUS
 10
8.3084755967
 20
2.6316596726
 11
8.3104884283
 21
2.6386792507
  0
LINE
  5
3BE
100
AcDbEntity
  8
0
100
AcDbLine
 62
7
  6
CONTINUOUS
 10
8.403211027
 20
2.9517054978
 11
8.4053460606
 21
2.9586888781
  0
LINE
  5
3BF
100
AcDbEntity
  8
0
100
AcDbLine
 62
7
  6
CONTINUOUS
 10
8.297727745
 20
2.6274737598
 11
8.3001051944
 21
2.6343783744
  0
LINE
  5
3C0
100
AcDbEntity
  8
0
100
AcDbLine
 62
7
  6
CONTINUOUS
 10
8.409083248
 20
2.9421229041
 11
8.4115808375
 21
2.9489849749
  0
LINE
  5
3C1
100
AcDbEntity
  8
0
100
AcDbLine
 62
7
  6
CONTINUOUS
 10
8.2867817095
 20
2.6238579404
 11
8.2895135113
 21
2.6306193874
  0
LINE
  5
3C2
100
AcDbEntity
  8
0
100
AcDbLine
 62
7
  6
CONTINUOUS
 10
8.4144459071
 20
2.9322461146
 11
8.4172992068
 21
2.9389680675
  0
LINE
  5
3C3
100
AcDbEntity
  8
0
100
AcDbLine
 62
7
  6
CONTINUOUS
 10
8.2756490282
 20
2.6208165574
 11
8.2787351825
 21
2.6274348367
  0
LINE
  5
3C4
100
AcDbEntity
  8
0
100
AcDbLine
 62
7
  6
CONTINUOUS
 10
8.4192843057
 20
2.9221022011
 11
8.4224854948
 21
2.9286656116
  0
LINE
  5
3C5
100
AcDbEntity
  8
0
100
AcDbLine
 62
7
  6
CONTINUOUS
 10
8.2643786794
 20
2.6183635146
 11
8.2678069782
 21
2.6248112069
  0
LINE
  5
3C6
100
AcDbEntity
  8
0
100
AcDbLine
 62
7
  6
CONTINUOUS
 10
8.423585182
 20
2.9117189672
 11
8.4271254864
 21
2.9181058455
  0
LINE
  5
3C7
100
AcDbEntity
  8
0
100
AcDbLine
 62
7
  6
CONTINUOUS
 10
8.2529953939
 20
2.6165036781
 11
8.2567564405
 21
2.6227631108
  0
LINE
  5
3C8
100
AcDbEntity
  8
0
100
AcDbLine
 62
7
  6
CONTINUOUS
 10
8.427344169
 20
2.9011272841
 11
8.4312085817
 21
2.9073116371
  0
ARC
  5
3C9
100
AcDbEntity
  8
0
100
AcDbCircle
 62
7
  6
CONTINUOUS
 10
4.2519248918
 20
2.3131636646
 40
0.03375
100
AcDbArc
 50
269.9999999986
 51
360.0
  0
ARC
  5
3CA
100
AcDbEntity
  8
0
100
AcDbCircle
 62
7
  6
CONTINUOUS
 10
4.6944248918
 20
2.3131636646
 40
0.03375
100
AcDbArc
 50
179.999999999
 51
270.0000000013
  0
ARC
  5
3CB
100
AcDbEntity
  8
0
100
AcDbCircle
 62
7
  6
CONTINUOUS
 10
3.2412998918
 20
2.3131636646
 40
0.03375
100
AcDbArc
 50
179.9999999986
 51
270.0000000009
  0
ARC
  5
3CC
100
AcDbEntity
  8
0
100
AcDbCircle
 62
7
  6
CONTINUOUS
 10
3.2412998918
 20
1.7769136646
 40
0.03375
100
AcDbArc
 50
89.999999999
 51
180.0000000018
  0
ARC
  5
3CD
100
AcDbEntity
  8
0
100
AcDbCircle
 62
7
  6
CONTINUOUS
 10
2.8222373918
 20
3.1908511646
 40
0.03375
100
AcDbArc
 50
0.0
 51
90.0000000006
  0
ARC
  5
3CE
100
AcDbEntity
  8
0
100
AcDbCircle
 62
7
  6
CONTINUOUS
 10
3.1241123918
 20
3.1908511646
 40
0.03375
100
AcDbArc
 50
89.9999999994
 51
180.0000000004
  0
ARC
  5
3CF
100
AcDbEntity
  8
0
100
AcDbCircle
 62
7
  6
CONTINUOUS
 10
2.7500498918
 20
2.9401636646
 40
0.01125
100
AcDbArc
 50
90.0
 51
180.0
  0
ARC
  5
3D0
100
AcDbEntity
  8
0
100
AcDbCircle
 62
7
  6
CONTINUOUS
 10
3.1962998918
 20
2.9401636646
 40
0.01125
100
AcDbArc
 50
0.0
 51
90.0
  0
ARC
  5
3D1
100
AcDbEntity
  8
0
100
AcDbCircle
 62
7
  6
CONTINUOUS
 10
2.6131748918
 20
1.2650386646
 40
0.01125
100
AcDbArc
 50
90.0
 51
180.0
  0
ARC
  5
3D2
100
AcDbEntity
  8
0
100
AcDbCircle
 62
7
  6
CONTINUOUS
 10
3.3331748918
 20
1.2650386646
 40
0.01125
100
AcDbArc
 50
0.0
 51
90.0
  0
ARC
  5
3D3
100
AcDbEntity
  8
0
100
AcDbCircle
 62
7
  6
CONTINUOUS
 10
4.4731748918
 20
6.5614636646
 40
0.1875
100
AcDbArc
 50
0.0
 51
180.0
  0
ARC
  5
3D4
100
AcDbEntity
  8
0
100
AcDbCircle
 62
7
  6
CONTINUOUS
 10
5.7050498918
 20
1.7769136646
 40
0.03375
100
AcDbArc
 50
0.0
 51
90.000000001
  0
ARC
  5
3D5
100
AcDbEntity
  8
0
100
AcDbCircle
 62
7
  6
CONTINUOUS
 10
5.6131748918
 20
1.2650386646
 40
0.01125
100
AcDbArc
 50
90.0
 51
180.0
  0
ARC
  5
3D6
100
AcDbEntity
  8
0
100
AcDbCircle
 62
7
  6
CONTINUOUS
 10
6.3331748918
 20
1.2650386646
 40
0.01125
100
AcDbArc
 50
0.0
 51
90.0
  0
ARC
  5
3D7
100
AcDbEntity
  8
0
100
AcDbCircle
 62
7
  6
CONTINUOUS
 10
5.7050498918
 20
2.3131636646
 40
0.03375
100
AcDbArc
 50
269.9999999989
 51
360.0
  0
ARC
  5
3D8
100
AcDbEntity
  8
0
100
AcDbCircle
 62
7
  6
CONTINUOUS
 10
6.1241123918
 20
3.1908511646
 40
0.03375
100
AcDbArc
 50
89.9999999994
 51
180.0000000004
  0
ARC
  5
3D9
100
AcDbEntity
  8
0
100
AcDbCircle
 62
7
  6
CONTINUOUS
 10
5.8222373918
 20
3.1908511646
 40
0.03375
100
AcDbArc
 50
0.0
 51
90.0000000006
  0
ARC
  5
3DA
100
AcDbEntity
  8
0
100
AcDbCircle
 62
7
  6
CONTINUOUS
 10
6.1962998918
 20
2.9401636646
 40
0.01125
100
AcDbArc
 50
0.0
 51
90.0
  0
ARC
  5
3DB
100
AcDbEntity
  8
0
100
AcDbCircle
 62
7
  6
CONTINUOUS
 10
5.7500498918
 20
2.9401636646
 40
0.01125
100
AcDbArc
 50
90.0
 51
180.0
  0
ARC
  5
3DC
100
AcDbEntity
  8
0
100
AcDbCircle
 62
7
  6
CONTINUOUS
 10
7.8631748918
 20
1.2650386646
 40
0.01125
100
AcDbArc
 50
90.0
 51
180.0
  0
ARC
  5
3DD
100
AcDbEntity
  8
0
100
AcDbCircle
 62
7
  6
CONTINUOUS
 10
8.5831748918
 20
1.2650386646
 40
0.01125
100
AcDbArc
 50
0.0
 51
90.0
  0
ARC
  5
3DE
100
AcDbEntity
  8
0
100
AcDbCircle
 62
7
  6
CONTINUOUS
 10
8.1845989785
 20
2.8048879917
 40
0.2223129088
100
AcDbArc
 50
321.3571654925
 51
321.7484266868
  0
ARC
  5
3DF
100
AcDbEntity
  8
0
100
AcDbCircle
 62
7
  6
CONTINUOUS
 10
8.1905797585
 20
2.7998999468
 40
0.2145243662
100
AcDbArc
 50
317.5812546072
 51
319.3400333464
  0
ARC
  5
3E0
100
AcDbEntity
  8
0
100
AcDbCircle
 62
7
  6
CONTINUOUS
 10
8.1942433728
 20
2.7965447986
 40
0.2095564465
100
AcDbArc
 50
316.5069525568
 51
316.7184483849
  0
CIRCLE
  5
3E1
100
AcDbEntity
  8
0
100
AcDbCircle
 62
7
  6
CONTINUOUS
 10
8.1777104269
 20
2.7250312822
 40
0.0077756723
  0
ARC
  5
3E2
100
AcDbEntity
  8
0
100
AcDbCircle
 62
7
  6
CONTINUOUS
 10
8.223173535
 20
2.7159875679
 40
0.0077756723
100
AcDbArc
 50
258.0800166971
 51
79.4379126258
  0
CIRCLE
  5
3E3
100
AcDbEntity
  8
0
100
AcDbCircle
 62
7
  6
CONTINUOUS
 10
8.1134164694
 20
2.7893267061
 40
0.0077756718
  0
CIRCLE
  5
3E4
100
AcDbEntity
  8
0
100
AcDbCircle
 62
7
  6
CONTINUOUS
 10
8.1391688701
 20
2.7507845618
 40
0.0077756718
  0
ARC
  5
3E5
100
AcDbEntity
  8
0
100
AcDbCircle
 62
7
  6
CONTINUOUS
 10
8.1043712127
 20
2.8347886381
 40
0.0077730033
100
AcDbArc
 50
0.011631352
 51
179.9998046455
  0
ARC
  5
3E6
100
AcDbEntity
  8
0
100
AcDbCircle
 62
7
  6
CONTINUOUS
 10
8.2231748728
 20
2.7615966945
 40
0.0073454938
100
AcDbArc
 50
210.6274768715
 51
31.7144704015
  0
CIRCLE
  5
3E7
100
AcDbEntity
  8
0
100
AcDbCircle
 62
7
  6
CONTINUOUS
 10
8.1714207115
 20
2.7830344555
 40
0.0073454913
  0
ARC
  5
3E8
100
AcDbEntity
  8
0
100
AcDbCircle
 62
7
  6
CONTINUOUS
 10
8.1499826585
 20
2.8347885785
 40
0.0073453322
100
AcDbArc
 50
0.0031039505
 51
179.9993283031
  0
ARC
  5
3E9
100
AcDbEntity
  8
0
100
AcDbCircle
 62
7
  6
CONTINUOUS
 10
8.2231735054
 20
2.953589885
 40
0.0077756938
100
AcDbArc
 50
259.4579513833
 51
78.0600511801
  0
CIRCLE
  5
3EA
100
AcDbEntity
  8
0
100
AcDbCircle
 62
7
  6
CONTINUOUS
 10
8.1391707903
 20
2.9187946853
 40
0.007775672
  0
CIRCLE
  5
3EB
100
AcDbEntity
  8
0
100
AcDbCircle
 62
7
  6
CONTINUOUS
 10
8.1777129341
 20
2.9445470857
 40
0.007775672
  0
CIRCLE
  5
3EC
100
AcDbEntity
  8
0
100
AcDbCircle
 62
7
  6
CONTINUOUS
 10
8.1134175079
 20
2.8802531303
 40
0.0077756718
  0
ARC
  5
3ED
100
AcDbEntity
  8
0
100
AcDbCircle
 62
7
  6
CONTINUOUS
 10
8.1043762896
 20
2.8347886829
 40
0.007772963
100
AcDbArc
 50
180.0115701319
 51
359.9998649528
  0
ARC
  5
3EE
100
AcDbEntity
  8
0
100
AcDbCircle
 62
7
  6
CONTINUOUS
 10
8.2231748712
 20
2.9079801487
 40
0.0073454914
100
AcDbArc
 50
211.7114072821
 51
30.6305821093
  0
CIRCLE
  5
3EF
100
AcDbEntity
  8
0
100
AcDbCircle
 62
7
  6
CONTINUOUS
 10
8.171420683
 20
2.8865428451
 40
0.0073454911
  0
ARC
  5
3F0
100
AcDbEntity
  8
0
100
AcDbCircle
 62
7
  6
CONTINUOUS
 10
8.1499836289
 20
2.8347887578
 40
0.0073453629
100
AcDbArc
 50
180.0031707126
 51
359.9992732641
  0
ARC
  5
3F1
100
AcDbEntity
  8
0
100
AcDbCircle
 62
7
  6
CONTINUOUS
 10
8.2616532038
 20
2.8048101571
 40
0.2221881117
100
AcDbArc
 50
218.251037902
 51
218.6417795806
  0
ARC
  5
3F2
100
AcDbEntity
  8
0
100
AcDbCircle
 62
7
  6
CONTINUOUS
 10
8.2552598999
 20
2.799448341
 40
0.2138431774
100
AcDbArc
 50
220.6571633177
 51
222.4206917218
  0
ARC
  5
3F3
100
AcDbEntity
  8
0
100
AcDbCircle
 62
7
  6
CONTINUOUS
 10
8.2231762781
 20
2.7159874438
 40
0.0077756935
100
AcDbArc
 50
79.4579516383
 51
258.0600508683
  0
CIRCLE
  5
3F4
100
AcDbEntity
  8
0
100
AcDbCircle
 62
7
  6
CONTINUOUS
 10
8.332932274
 20
2.7893241995
 40
0.0077756724
  0
CIRCLE
  5
3F5
100
AcDbEntity
  8
0
100
AcDbCircle
 62
7
  6
CONTINUOUS
 10
8.2686368498
 20
2.7250302437
 40
0.0077756723
  0
CIRCLE
  5
3F6
100
AcDbEntity
  8
0
100
AcDbCircle
 62
7
  6
CONTINUOUS
 10
8.3071789935
 20
2.7507826442
 40
0.0077756723
  0
ARC
  5
3F7
100
AcDbEntity
  8
0
100
AcDbCircle
 62
7
  6
CONTINUOUS
 10
8.341973494
 20
2.8347886463
 40
0.007772963
100
AcDbArc
 50
0.0115705429
 51
179.9998649525
  0
ARC
  5
3F8
100
AcDbEntity
  8
0
100
AcDbCircle
 62
7
  6
CONTINUOUS
 10
8.2231749122
 20
2.7615971805
 40
0.0073454913
100
AcDbArc
 50
31.7114066429
 51
210.6305827209
  0
CIRCLE
  5
3F9
100
AcDbEntity
  8
0
100
AcDbCircle
 62
7
  6
CONTINUOUS
 10
8.2749291009
 20
2.7830344842
 40
0.0073454913
  0
ARC
  5
3FA
100
AcDbEntity
  8
0
100
AcDbCircle
 62
7
  6
CONTINUOUS
 10
8.2963661548
 20
2.8347885714
 40
0.0073453629
100
AcDbArc
 50
0.00315198
 51
179.9992732058
  0
ARC
  5
3FB
100
AcDbEntity
  8
0
100
AcDbCircle
 62
7
  6
CONTINUOUS
 10
8.2231748918
 20
2.8347886646
 40
0.2203125
100
AcDbArc
 50
106.2208244843
 51
106.780848866
  0
ARC
  5
3FC
100
AcDbEntity
  8
0
100
AcDbCircle
 62
7
  6
CONTINUOUS
 10
8.2231748918
 20
2.8347886646
 40
0.2203125
100
AcDbArc
 50
109.219151134
 51
109.7791755157
  0
ARC
  5
3FD
100
AcDbEntity
  8
0
100
AcDbCircle
 62
7
  6
CONTINUOUS
 10
8.2231748918
 20
2.8347886646
 40
0.2203125
100
AcDbArc
 50
112.2208244843
 51
112.7791755157
  0
ARC
  5
3FE
100
AcDbEntity
  8
0
100
AcDbCircle
 62
7
  6
CONTINUOUS
 10
8.2231748918
 20
2.8347886646
 40
0.2203125
100
AcDbArc
 50
115.2208244843
 51
115.7791755157
  0
ARC
  5
3FF
100
AcDbEntity
  8
0
100
AcDbCircle
 62
7
  6
CONTINUOUS
 10
8.2231748918
 20
2.8347886646
 40
0.2203125
100
AcDbArc
 50
118.2208244843
 51
118.7791755157
  0
ARC
  5
400
100
AcDbEntity
  8
0
100
AcDbCircle
 62
7
  6
CONTINUOUS
 10
8.2231748918
 20
2.8347886646
 40
0.2203125
100
AcDbArc
 50
121.2208244843
 51
121.7791755157
  0
ARC
  5
401
100
AcDbEntity
  8
0
100
AcDbCircle
 62
7
  6
CONTINUOUS
 10
8.2231748918
 20
2.8347886646
 40
0.2203125
100
AcDbArc
 50
124.2208244843
 51
124.780848866
  0
ARC
  5
402
100
AcDbEntity
  8
0
100
AcDbCircle
 62
7
  6
CONTINUOUS
 10
8.2231748918
 20
2.8347886646
 40
0.2203125
100
AcDbArc
 50
127.219151134
 51
127.7791755157
  0
ARC
  5
403
100
AcDbEntity
  8
0
100
AcDbCircle
 62
7
  6
CONTINUOUS
 10
8.2231748918
 20
2.8347886646
 40
0.2203125
100
AcDbArc
 50
130.2208244843
 51
130.7791755157
  0
ARC
  5
404
100
AcDbEntity
  8
0
100
AcDbCircle
 62
7
  6
CONTINUOUS
 10
8.2231748918
 20
2.8347886646
 40
0.2203125
100
AcDbArc
 50
133.2208244843
 51
133.7791755157
  0
ARC
  5
405
100
AcDbEntity
  8
0
100
AcDbCircle
 62
7
  6
CONTINUOUS
 10
8.2231748918
 20
2.8347886646
 40
0.2203125
100
AcDbArc
 50
136.2208244843
 51
136.7791755157
  0
ARC
  5
406
100
AcDbEntity
  8
0
100
AcDbCircle
 62
7
  6
CONTINUOUS
 10
8.2231748918
 20
2.8347886646
 40
0.2203125
100
AcDbArc
 50
139.2208244843
 51
139.7791755157
  0
ARC
  5
407
100
AcDbEntity
  8
0
100
AcDbCircle
 62
7
  6
CONTINUOUS
 10
8.2231748918
 20
2.8347886646
 40
0.2203125
100
AcDbArc
 50
142.2208244843
 51
142.780848866
  0
ARC
  5
408
100
AcDbEntity
  8
0
100
AcDbCircle
 62
7
  6
CONTINUOUS
 10
8.2231748918
 20
2.8347886646
 40
0.2203125
100
AcDbArc
 50
145.219151134
 51
145.7791755157
  0
ARC
  5
409
100
AcDbEntity
  8
0
100
AcDbCircle
 62
7
  6
CONTINUOUS
 10
8.2231748918
 20
2.8347886646
 40
0.2203125
100
AcDbArc
 50
148.2208244843
 51
148.7791755157
  0
ARC
  5
40A
100
AcDbEntity
  8
0
100
AcDbCircle
 62
7
  6
CONTINUOUS
 10
8.2231748918
 20
2.8347886646
 40
0.2203125
100
AcDbArc
 50
151.2208244843
 51
151.7791755157
  0
ARC
  5
40B
100
AcDbEntity
  8
0
100
AcDbCircle
 62
7
  6
CONTINUOUS
 10
8.2231748918
 20
2.8347886646
 40
0.2203125
100
AcDbArc
 50
154.2208244843
 51
154.7791755157
  0
ARC
  5
40C
100
AcDbEntity
  8
0
100
AcDbCircle
 62
7
  6
CONTINUOUS
 10
8.2231748918
 20
2.8347886646
 40
0.2203125
100
AcDbArc
 50
157.2208244843
 51
157.7791755157
  0
ARC
  5
40D
100
AcDbEntity
  8
0
100
AcDbCircle
 62
7
  6
CONTINUOUS
 10
8.2231748918
 20
2.8347886646
 40
0.2203125
100
AcDbArc
 50
160.2208244843
 51
160.780848866
  0
ARC
  5
40E
100
AcDbEntity
  8
0
100
AcDbCircle
 62
7
  6
CONTINUOUS
 10
8.2231748918
 20
2.8347886646
 40
0.2203125
100
AcDbArc
 50
163.219151134
 51
163.7791755157
  0
ARC
  5
40F
100
AcDbEntity
  8
0
100
AcDbCircle
 62
7
  6
CONTINUOUS
 10
8.2231748918
 20
2.8347886646
 40
0.2203125
100
AcDbArc
 50
166.2208244843
 51
166.7791755157
  0
ARC
  5
410
100
AcDbEntity
  8
0
100
AcDbCircle
 62
7
  6
CONTINUOUS
 10
8.2231748918
 20
2.8347886646
 40
0.2203125
100
AcDbArc
 50
169.2208244843
 51
169.7791755157
  0
ARC
  5
411
100
AcDbEntity
  8
0
100
AcDbCircle
 62
7
  6
CONTINUOUS
 10
8.2231748918
 20
2.8347886646
 40
0.2203125
100
AcDbArc
 50
172.2208244843
 51
172.7791755157
  0
ARC
  5
412
100
AcDbEntity
  8
0
100
AcDbCircle
 62
7
  6
CONTINUOUS
 10
8.2231748918
 20
2.8347886646
 40
0.2203125
100
AcDbArc
 50
175.2208244843
 51
175.7791755157
  0
ARC
  5
413
100
AcDbEntity
  8
0
100
AcDbCircle
 62
7
  6
CONTINUOUS
 10
8.2231748918
 20
2.8347886646
 40
0.2203125
100
AcDbArc
 50
178.2208244843
 51
178.780848866
  0
ARC
  5
414
100
AcDbEntity
  8
0
100
AcDbCircle
 62
7
  6
CONTINUOUS
 10
8.2231748918
 20
2.8347886646
 40
0.2203125
100
AcDbArc
 50
181.219151134
 51
181.7791755157
  0
ARC
  5
415
100
AcDbEntity
  8
0
100
AcDbCircle
 62
7
  6
CONTINUOUS
 10
8.2231748918
 20
2.8347886646
 40
0.2203125
100
AcDbArc
 50
184.2208244843
 51
184.7791755157
  0
ARC
  5
416
100
AcDbEntity
  8
0
100
AcDbCircle
 62
7
  6
CONTINUOUS
 10
8.2231748918
 20
2.8347886646
 40
0.2203125
100
AcDbArc
 50
187.2208244843
 51
187.7791755157
  0
ARC
  5
417
100
AcDbEntity
  8
0
100
AcDbCircle
 62
7
  6
CONTINUOUS
 10
8.2231748918
 20
2.8347886646
 40
0.2203125
100
AcDbArc
 50
190.2208244843
 51
190.7791755157
  0
ARC
  5
418
100
AcDbEntity
  8
0
100
AcDbCircle
 62
7
  6
CONTINUOUS
 10
8.2231748918
 20
2.8347886646
 40
0.2203125
100
AcDbArc
 50
193.2208244843
 51
193.7791755157
  0
ARC
  5
419
100
AcDbEntity
  8
0
100
AcDbCircle
 62
7
  6
CONTINUOUS
 10
8.2231748918
 20
2.8347886646
 40
0.2203125
100
AcDbArc
 50
196.2208244843
 51
196.780848866
  0
ARC
  5
41A
100
AcDbEntity
  8
0
100
AcDbCircle
 62
7
  6
CONTINUOUS
 10
8.2231748918
 20
2.8347886646
 40
0.2203125
100
AcDbArc
 50
199.219151134
 51
199.7791755157
  0
ARC
  5
41B
100
AcDbEntity
  8
0
100
AcDbCircle
 62
7
  6
CONTINUOUS
 10
8.2231748918
 20
2.8347886646
 40
0.2203125
100
AcDbArc
 50
202.2208244843
 51
202.7791755157
  0
ARC
  5
41C
100
AcDbEntity
  8
0
100
AcDbCircle
 62
7
  6
CONTINUOUS
 10
8.2231748918
 20
2.8347886646
 40
0.2203125
100
AcDbArc
 50
205.2208244843
 51
205.7791755157
  0
ARC
  5
41D
100
AcDbEntity
  8
0
100
AcDbCircle
 62
7
  6
CONTINUOUS
 10
8.2231748918
 20
2.8347886646
 40
0.2203125
100
AcDbArc
 50
208.2208244843
 51
208.7791755157
  0
ARC
  5
41E
100
AcDbEntity
  8
0
100
AcDbCircle
 62
7
  6
CONTINUOUS
 10
8.2231748918
 20
2.8347886646
 40
0.2203125
100
AcDbArc
 50
211.2208244843
 51
211.7791755157
  0
ARC
  5
41F
100
AcDbEntity
  8
0
100
AcDbCircle
 62
7
  6
CONTINUOUS
 10
8.2231748918
 20
2.8347886646
 40
0.2203125
100
AcDbArc
 50
214.2208244843
 51
214.780848866
  0
ARC
  5
420
100
AcDbEntity
  8
0
100
AcDbCircle
 62
7
  6
CONTINUOUS
 10
8.2231748918
 20
2.8347886646
 40
0.2203125
100
AcDbArc
 50
217.219151134
 51
217.7791755157
  0
ARC
  5
421
100
AcDbEntity
  8
0
100
AcDbCircle
 62
7
  6
CONTINUOUS
 10
8.2231748918
 20
2.8347886646
 40
0.2203125
100
AcDbArc
 50
220.2208244843
 51
220.7791755157
  0
ARC
  5
422
100
AcDbEntity
  8
0
100
AcDbCircle
 62
7
  6
CONTINUOUS
 10
8.2231748918
 20
2.8347886646
 40
0.2203125
100
AcDbArc
 50
223.2208244843
 51
223.7791755157
  0
ARC
  5
423
100
AcDbEntity
  8
0
100
AcDbCircle
 62
7
  6
CONTINUOUS
 10
8.2231748918
 20
2.8347886646
 40
0.2203125
100
AcDbArc
 50
226.2208244843
 51
226.7791755157
  0
ARC
  5
424
100
AcDbEntity
  8
0
100
AcDbCircle
 62
7
  6
CONTINUOUS
 10
8.2231748918
 20
2.8347886646
 40
0.2203125
100
AcDbArc
 50
229.2208244843
 51
229.7791755157
  0
ARC
  5
425
100
AcDbEntity
  8
0
100
AcDbCircle
 62
7
  6
CONTINUOUS
 10
8.2231748918
 20
2.8347886646
 40
0.2203125
100
AcDbArc
 50
232.2208244843
 51
232.780848866
  0
ARC
  5
426
100
AcDbEntity
  8
0
100
AcDbCircle
 62
7
  6
CONTINUOUS
 10
8.2231748918
 20
2.8347886646
 40
0.2203125
100
AcDbArc
 50
235.219151134
 51
235.7791755157
  0
ARC
  5
427
100
AcDbEntity
  8
0
100
AcDbCircle
 62
7
  6
CONTINUOUS
 10
8.2231748918
 20
2.8347886646
 40
0.2203125
100
AcDbArc
 50
238.2208244843
 51
238.7791755157
  0
ARC
  5
428
100
AcDbEntity
  8
0
100
AcDbCircle
 62
7
  6
CONTINUOUS
 10
8.2231748918
 20
2.8347886646
 40
0.2203125
100
AcDbArc
 50
241.2208244843
 51
241.7791755157
  0
ARC
  5
429
100
AcDbEntity
  8
0
100
AcDbCircle
 62
7
  6
CONTINUOUS
 10
8.2231748918
 20
2.8347886646
 40
0.2203125
100
AcDbArc
 50
244.2208244843
 51
244.7791755157
  0
ARC
  5
42A
100
AcDbEntity
  8
0
100
AcDbCircle
 62
7
  6
CONTINUOUS
 10
8.2231748918
 20
2.8347886646
 40
0.2203125
100
AcDbArc
 50
247.2208244843
 51
247.7791755157
  0
ARC
  5
42B
100
AcDbEntity
  8
0
100
AcDbCircle
 62
7
  6
CONTINUOUS
 10
8.2231748918
 20
2.8347886646
 40
0.2203125
100
AcDbArc
 50
250.2208244843
 51
250.780848866
  0
ARC
  5
42C
100
AcDbEntity
  8
0
100
AcDbCircle
 62
7
  6
CONTINUOUS
 10
8.2231748918
 20
2.8347886646
 40
0.2203125
100
AcDbArc
 50
253.219151134
 51
253.7791755157
  0
ARC
  5
42D
100
AcDbEntity
  8
0
100
AcDbCircle
 62
7
  6
CONTINUOUS
 10
8.2231748918
 20
2.8347886646
 40
0.2203125
100
AcDbArc
 50
256.2208244843
 51
256.7791755157
  0
ARC
  5
42E
100
AcDbEntity
  8
0
100
AcDbCircle
 62
7
  6
CONTINUOUS
 10
8.2231748918
 20
2.8347886646
 40
0.2203125
100
AcDbArc
 50
259.2208244843
 51
259.7791755157
  0
ARC
  5
42F
100
AcDbEntity
  8
0
100
AcDbCircle
 62
7
  6
CONTINUOUS
 10
8.2231748918
 20
2.8347886646
 40
0.2203125
100
AcDbArc
 50
262.2208244843
 51
262.7791755157
  0
ARC
  5
430
100
AcDbEntity
  8
0
100
AcDbCircle
 62
7
  6
CONTINUOUS
 10
8.2231748918
 20
2.8347886646
 40
0.2203125
100
AcDbArc
 50
265.2208244843
 51
265.7791755157
  0
ARC
  5
431
100
AcDbEntity
  8
0
100
AcDbCircle
 62
7
  6
CONTINUOUS
 10
8.2231748918
 20
2.8347886646
 40
0.2203125
100
AcDbArc
 50
268.2208244843
 51
268.780848866
  0
ARC
  5
432
100
AcDbEntity
  8
0
100
AcDbCircle
 62
7
  6
CONTINUOUS
 10
8.2231748918
 20
2.8347886646
 40
0.2203125
100
AcDbArc
 50
271.219151134
 51
271.7791755157
  0
ARC
  5
433
100
AcDbEntity
  8
0
100
AcDbCircle
 62
7
  6
CONTINUOUS
 10
8.2231748918
 20
2.8347886646
 40
0.2203125
100
AcDbArc
 50
274.2208244843
 51
274.7791755157
  0
ARC
  5
434
100
AcDbEntity
  8
0
100
AcDbCircle
 62
7
  6
CONTINUOUS
 10
8.2231748918
 20
2.8347886646
 40
0.2203125
100
AcDbArc
 50
277.2208244843
 51
277.7791755157
  0
ARC
  5
435
100
AcDbEntity
  8
0
100
AcDbCircle
 62
7
  6
CONTINUOUS
 10
8.2231748918
 20
2.8347886646
 40
0.2203125
100
AcDbArc
 50
280.2208244843
 51
280.7791755157
  0
ARC
  5
436
100
AcDbEntity
  8
0
100
AcDbCircle
 62
7
  6
CONTINUOUS
 10
8.2231748918
 20
2.8347886646
 40
0.2203125
100
AcDbArc
 50
283.2208244843
 51
283.7791755157
  0
ARC
  5
437
100
AcDbEntity
  8
0
100
AcDbCircle
 62
7
  6
CONTINUOUS
 10
8.2231748918
 20
2.8347886646
 40
0.2203125
100
AcDbArc
 50
286.2208244843
 51
286.780848866
  0
ARC
  5
438
100
AcDbEntity
  8
0
100
AcDbCircle
 62
7
  6
CONTINUOUS
 10
8.2231748918
 20
2.8347886646
 40
0.2203125
100
AcDbArc
 50
289.219151134
 51
289.7791755157
  0
ARC
  5
439
100
AcDbEntity
  8
0
100
AcDbCircle
 62
7
  6
CONTINUOUS
 10
8.2231748918
 20
2.8347886646
 40
0.2203125
100
AcDbArc
 50
292.2208244843
 51
292.7791755157
  0
ARC
  5
43A
100
AcDbEntity
  8
0
100
AcDbCircle
 62
7
  6
CONTINUOUS
 10
8.2231748918
 20
2.8347886646
 40
0.2203125
100
AcDbArc
 50
295.2208244843
 51
295.7791755157
  0
ARC
  5
43B
100
AcDbEntity
  8
0
100
AcDbCircle
 62
7
  6
CONTINUOUS
 10
8.2231748918
 20
2.8347886646
 40
0.2203125
100
AcDbArc
 50
298.2208244843
 51
298.7791755157
  0
ARC
  5
43C
100
AcDbEntity
  8
0
100
AcDbCircle
 62
7
  6
CONTINUOUS
 10
8.2231748918
 20
2.8347886646
 40
0.2203125
100
AcDbArc
 50
301.2208244843
 51
301.7791755157
  0
ARC
  5
43D
100
AcDbEntity
  8
0
100
AcDbCircle
 62
7
  6
CONTINUOUS
 10
8.2231748918
 20
2.8347886646
 40
0.2203125
100
AcDbArc
 50
304.2208244843
 51
304.780848866
  0
ARC
  5
43E
100
AcDbEntity
  8
0
100
AcDbCircle
 62
7
  6
CONTINUOUS
 10
8.2231748918
 20
2.8347886646
 40
0.2203125
100
AcDbArc
 50
307.219151134
 51
307.7791755157
  0
ARC
  5
43F
100
AcDbEntity
  8
0
100
AcDbCircle
 62
7
  6
CONTINUOUS
 10
8.2231748918
 20
2.8347886646
 40
0.2203125
100
AcDbArc
 50
310.2208244843
 51
310.7791755157
  0
ARC
  5
440
100
AcDbEntity
  8
0
100
AcDbCircle
 62
7
  6
CONTINUOUS
 10
8.2231748918
 20
2.8347886646
 40
0.2203125
100
AcDbArc
 50
313.2208244843
 51
313.7791755157
  0
ARC
  5
441
100
AcDbEntity
  8
0
100
AcDbCircle
 62
7
  6
CONTINUOUS
 10
8.2231748918
 20
2.8347886646
 40
0.2203125
100
AcDbArc
 50
316.2208244843
 51
316.7791755157
  0
ARC
  5
442
100
AcDbEntity
  8
0
100
AcDbCircle
 62
7
  6
CONTINUOUS
 10
8.2231748918
 20
2.8347886646
 40
0.2203125
100
AcDbArc
 50
319.2208244843
 51
319.7791755157
  0
ARC
  5
443
100
AcDbEntity
  8
0
100
AcDbCircle
 62
7
  6
CONTINUOUS
 10
8.2231748918
 20
2.8347886646
 40
0.2203125
100
AcDbArc
 50
322.2208244843
 51
322.780848866
  0
ARC
  5
444
100
AcDbEntity
  8
0
100
AcDbCircle
 62
7
  6
CONTINUOUS
 10
8.2231748918
 20
2.8347886646
 40
0.2203125
100
AcDbArc
 50
325.219151134
 51
325.7791755157
  0
ARC
  5
445
100
AcDbEntity
  8
0
100
AcDbCircle
 62
7
  6
CONTINUOUS
 10
8.2231748918
 20
2.8347886646
 40
0.2203125
100
AcDbArc
 50
328.2208244843
 51
328.7791755157
  0
ARC
  5
446
100
AcDbEntity
  8
0
100
AcDbCircle
 62
7
  6
CONTINUOUS
 10
8.2231748918
 20
2.8347886646
 40
0.2203125
100
AcDbArc
 50
331.2208244843
 51
331.7791755157
  0
ARC
  5
447
100
AcDbEntity
  8
0
100
AcDbCircle
 62
7
  6
CONTINUOUS
 10
8.2231748918
 20
2.8347886646
 40
0.2203125
100
AcDbArc
 50
334.2208244843
 51
334.7791755157
  0
ARC
  5
448
100
AcDbEntity
  8
0
100
AcDbCircle
 62
7
  6
CONTINUOUS
 10
8.2231748918
 20
2.8347886646
 40
0.2203125
100
AcDbArc
 50
337.2208244843
 51
337.7791755157
  0
ARC
  5
449
100
AcDbEntity
  8
0
100
AcDbCircle
 62
7
  6
CONTINUOUS
 10
8.2231748918
 20
2.8347886646
 40
0.2203125
100
AcDbArc
 50
340.2208244843
 51
340.780848866
  0
ARC
  5
44A
100
AcDbEntity
  8
0
100
AcDbCircle
 62
7
  6
CONTINUOUS
 10
8.2231748918
 20
2.8347886646
 40
0.2203125
100
AcDbArc
 50
343.219151134
 51
343.7791755157
  0
ARC
  5
44B
100
AcDbEntity
  8
0
100
AcDbCircle
 62
7
  6
CONTINUOUS
 10
8.2231748918
 20
2.8347886646
 40
0.2203125
100
AcDbArc
 50
346.2208244843
 51
346.7791755157
  0
ARC
  5
44C
100
AcDbEntity
  8
0
100
AcDbCircle
 62
7
  6
CONTINUOUS
 10
8.2231748918
 20
2.8347886646
 40
0.2203125
100
AcDbArc
 50
349.2208244843
 51
349.7791755157
  0
ARC
  5
44D
100
AcDbEntity
  8
0
100
AcDbCircle
 62
7
  6
CONTINUOUS
 10
8.2231748918
 20
2.8347886646
 40
0.2203125
100
AcDbArc
 50
352.2208244843
 51
352.7791755157
  0
ARC
  5
44E
100
AcDbEntity
  8
0
100
AcDbCircle
 62
7
  6
CONTINUOUS
 10
8.2231748918
 20
2.8347886646
 40
0.2203125
100
AcDbArc
 50
355.2208244843
 51
355.7791755157
  0
ARC
  5
44F
100
AcDbEntity
  8
0
100
AcDbCircle
 62
7
  6
CONTINUOUS
 10
8.2231748918
 20
2.8347886646
 40
0.2203125
100
AcDbArc
 50
358.2208244843
 51
358.780848866
  0
ARC
  5
450
100
AcDbEntity
  8
0
100
AcDbCircle
 62
7
  6
CONTINUOUS
 10
8.2231748918
 20
2.8347886646
 40
0.2203125
100
AcDbArc
 50
1.219151134
 51
1.7791755157
  0
ARC
  5
451
100
AcDbEntity
  8
0
100
AcDbCircle
 62
7
  6
CONTINUOUS
 10
8.2231748918
 20
2.8347886646
 40
0.2203125
100
AcDbArc
 50
4.2208244843
 51
4.7791755157
  0
ARC
  5
452
100
AcDbEntity
  8
0
100
AcDbCircle
 62
7
  6
CONTINUOUS
 10
8.2231748918
 20
2.8347886646
 40
0.2203125
100
AcDbArc
 50
7.2208244843
 51
7.7791755157
  0
ARC
  5
453
100
AcDbEntity
  8
0
100
AcDbCircle
 62
7
  6
CONTINUOUS
 10
8.2231748918
 20
2.8347886646
 40
0.2203125
100
AcDbArc
 50
10.2208244843
 51
10.7791755157
  0
ARC
  5
454
100
AcDbEntity
  8
0
100
AcDbCircle
 62
7
  6
CONTINUOUS
 10
8.2231748918
 20
2.8347886646
 40
0.2203125
100
AcDbArc
 50
13.2208244843
 51
13.7791755157
  0
ARC
  5
455
100
AcDbEntity
  8
0
100
AcDbCircle
 62
7
  6
CONTINUOUS
 10
8.2231748918
 20
2.8347886646
 40
0.2203125
100
AcDbArc
 50
16.2208244843
 51
16.780848866
  0
ARC
  5
456
100
AcDbEntity
  8
0
100
AcDbCircle
 62
7
  6
CONTINUOUS
 10
8.2231748918
 20
2.8347886646
 40
0.2203125
100
AcDbArc
 50
19.219151134
 51
19.7791755157
  0
ARC
  5
457
100
AcDbEntity
  8
0
100
AcDbCircle
 62
7
  6
CONTINUOUS
 10
8.2231748918
 20
2.8347886646
 40
0.2203125
100
AcDbArc
 50
22.2208244843
 51
22.7791755157
  0
ARC
  5
458
100
AcDbEntity
  8
0
100
AcDbCircle
 62
7
  6
CONTINUOUS
 10
8.2231748918
 20
2.8347886646
 40
0.2203125
100
AcDbArc
 50
25.2208244843
 51
25.7791755157
  0
ARC
  5
459
100
AcDbEntity
  8
0
100
AcDbCircle
 62
7
  6
CONTINUOUS
 10
8.2231748918
 20
2.8347886646
 40
0.2203125
100
AcDbArc
 50
28.2208244843
 51
28.7791755157
  0
ARC
  5
45A
100
AcDbEntity
  8
0
100
AcDbCircle
 62
7
  6
CONTINUOUS
 10
8.2231748918
 20
2.8347886646
 40
0.2203125
100
AcDbArc
 50
31.2208244843
 51
31.7791755157
  0
ARC
  5
45B
100
AcDbEntity
  8
0
100
AcDbCircle
 62
7
  6
CONTINUOUS
 10
8.2231748918
 20
2.8347886646
 40
0.2203125
100
AcDbArc
 50
34.2208244843
 51
34.780848866
  0
ARC
  5
45C
100
AcDbEntity
  8
0
100
AcDbCircle
 62
7
  6
CONTINUOUS
 10
8.2231748918
 20
2.8347886646
 40
0.2203125
100
AcDbArc
 50
37.219151134
 51
37.7791755157
  0
ARC
  5
45D
100
AcDbEntity
  8
0
100
AcDbCircle
 62
7
  6
CONTINUOUS
 10
8.2231748918
 20
2.8347886646
 40
0.2203125
100
AcDbArc
 50
40.2208244843
 51
40.7791755157
  0
ARC
  5
45E
100
AcDbEntity
  8
0
100
AcDbCircle
 62
7
  6
CONTINUOUS
 10
8.2231748918
 20
2.8347886646
 40
0.2203125
100
AcDbArc
 50
43.2208244843
 51
43.7791755157
  0
ARC
  5
45F
100
AcDbEntity
  8
0
100
AcDbCircle
 62
7
  6
CONTINUOUS
 10
8.2231748918
 20
2.8347886646
 40
0.2203125
100
AcDbArc
 50
46.2208244843
 51
46.7791755157
  0
ARC
  5
460
100
AcDbEntity
  8
0
100
AcDbCircle
 62
7
  6
CONTINUOUS
 10
8.2231748918
 20
2.8347886646
 40
0.2203125
100
AcDbArc
 50
49.2208244843
 51
49.7791755157
  0
ARC
  5
461
100
AcDbEntity
  8
0
100
AcDbCircle
 62
7
  6
CONTINUOUS
 10
8.2231748918
 20
2.8347886646
 40
0.2203125
100
AcDbArc
 50
52.2208244843
 51
52.780848866
  0
ARC
  5
462
100
AcDbEntity
  8
0
100
AcDbCircle
 62
7
  6
CONTINUOUS
 10
8.2231748918
 20
2.8347886646
 40
0.2203125
100
AcDbArc
 50
55.219151134
 51
55.7791755157
  0
ARC
  5
463
100
AcDbEntity
  8
0
100
AcDbCircle
 62
7
  6
CONTINUOUS
 10
8.2231748918
 20
2.8347886646
 40
0.2203125
100
AcDbArc
 50
58.2208244843
 51
58.7791755157
  0
ARC
  5
464
100
AcDbEntity
  8
0
100
AcDbCircle
 62
7
  6
CONTINUOUS
 10
8.2231748918
 20
2.8347886646
 40
0.2203125
100
AcDbArc
 50
61.2208244843
 51
61.7791755157
  0
ARC
  5
465
100
AcDbEntity
  8
0
100
AcDbCircle
 62
7
  6
CONTINUOUS
 10
8.2231748918
 20
2.8347886646
 40
0.2203125
100
AcDbArc
 50
64.2208244843
 51
64.7791755157
  0
ARC
  5
466
100
AcDbEntity
  8
0
100
AcDbCircle
 62
7
  6
CONTINUOUS
 10
8.2231748918
 20
2.8347886646
 40
0.2203125
100
AcDbArc
 50
67.2208244843
 51
67.7791755157
  0
ARC
  5
467
100
AcDbEntity
  8
0
100
AcDbCircle
 62
7
  6
CONTINUOUS
 10
8.2231748918
 20
2.8347886646
 40
0.2203125
100
AcDbArc
 50
70.2208244843
 51
70.780848866
  0
ARC
  5
468
100
AcDbEntity
  8
0
100
AcDbCircle
 62
7
  6
CONTINUOUS
 10
8.2231748918
 20
2.8347886646
 40
0.2203125
100
AcDbArc
 50
73.219151134
 51
73.7791755157
  0
ARC
  5
469
100
AcDbEntity
  8
0
100
AcDbCircle
 62
7
  6
CONTINUOUS
 10
8.2231748918
 20
2.8347886646
 40
0.2203125
100
AcDbArc
 50
76.2208244843
 51
76.7791755157
  0
ARC
  5
46A
100
AcDbEntity
  8
0
100
AcDbCircle
 62
7
  6
CONTINUOUS
 10
8.2231748918
 20
2.8347886646
 40
0.2203125
100
AcDbArc
 50
79.2208244843
 51
79.7791755157
  0
ARC
  5
46B
100
AcDbEntity
  8
0
100
AcDbCircle
 62
7
  6
CONTINUOUS
 10
8.2231748918
 20
2.8347886646
 40
0.2203125
100
AcDbArc
 50
82.2208244843
 51
82.7791755157
  0
ARC
  5
46C
100
AcDbEntity
  8
0
100
AcDbCircle
 62
7
  6
CONTINUOUS
 10
8.2231748918
 20
2.8347886646
 40
0.2203125
100
AcDbArc
 50
85.2208244843
 51
85.7791755157
  0
ARC
  5
46D
100
AcDbEntity
  8
0
100
AcDbCircle
 62
7
  6
CONTINUOUS
 10
8.2231748918
 20
2.8347886646
 40
0.2203125
100
AcDbArc
 50
88.2208244843
 51
88.780848866
  0
ARC
  5
46E
100
AcDbEntity
  8
0
100
AcDbCircle
 62
7
  6
CONTINUOUS
 10
8.2231748918
 20
2.8347886646
 40
0.2203125
100
AcDbArc
 50
103.2208244843
 51
103.7791755157
  0
ARC
  5
46F
100
AcDbEntity
  8
0
100
AcDbCircle
 62
7
  6
CONTINUOUS
 10
8.2231748918
 20
2.8347886646
 40
0.2203125
100
AcDbArc
 50
100.2208244843
 51
100.7791755157
  0
ARC
  5
470
100
AcDbEntity
  8
0
100
AcDbCircle
 62
7
  6
CONTINUOUS
 10
8.2231748918
 20
2.8347886646
 40
0.2203125
100
AcDbArc
 50
97.2208244843
 51
97.7791755157
  0
ARC
  5
471
100
AcDbEntity
  8
0
100
AcDbCircle
 62
7
  6
CONTINUOUS
 10
8.2231748918
 20
2.8347886646
 40
0.2203125
100
AcDbArc
 50
94.2208244843
 51
94.7791755157
  0
ARC
  5
472
100
AcDbEntity
  8
0
100
AcDbCircle
 62
7
  6
CONTINUOUS
 10
8.2231748918
 20
2.8347886646
 40
0.2203125
100
AcDbArc
 50
91.219151134
 51
91.7791755157
  0
CIRCLE
  5
473
100
AcDbEntity
  8
0
100
AcDbCircle
 62
7
  6
CONTINUOUS
 10
8.2231748918
 20
2.8347886646
 40
0.20625
  0
CIRCLE
  5
474
100
AcDbEntity
  8
0
100
AcDbCircle
 62
7
  6
CONTINUOUS
 10
8.2231748918
 20
2.8347886646
 40
0.195
  0
CIRCLE
  5
475
100
AcDbEntity
  8
0
100
AcDbCircle
 62
7
  6
CONTINUOUS
 10
8.2231748918
 20
2.8347886646
 40
0.16875
  0
CIRCLE
  5
476
100
AcDbEntity
  8
0
100
AcDbCircle
 62
7
  6
CONTINUOUS
 10
8.2231748918
 20
2.8347886646
 40
0.1575
  0
CIRCLE
  5
477
100
AcDbEntity
  8
0
100
AcDbCircle
 62
7
  6
CONTINUOUS
 10
8.2231748918
 20
2.8347886646
 40
0.1565625
  0
CIRCLE
  5
478
100
AcDbEntity
  8
0
100
AcDbCircle
 62
7
  6
CONTINUOUS
 10
8.2231748918
 20
2.8347886646
 40
0.1553887795
  0
CIRCLE
  5
479
100
AcDbEntity
  8
0
100
AcDbCircle
 62
7
  6
CONTINUOUS
 10
8.2231748918
 20
2.8347886646
 40
0.152786636
  0
CIRCLE
  5
47A
100
AcDbEntity
  8
0
100
AcDbCircle
 62
7
  6
CONTINUOUS
 10
8.274929072
 20
2.8865428738
 40
0.0073454914
  0
ARC
  5
47B
100
AcDbEntity
  8
0
100
AcDbCircle
 62
7
  6
CONTINUOUS
 10
8.2231762489
 20
2.9535897614
 40
0.007775672
100
AcDbArc
 50
78.0800185682
 51
259.4379107268
  0
CIRCLE
  5
47C
100
AcDbEntity
  8
0
100
AcDbCircle
 62
7
  6
CONTINUOUS
 10
8.268639357
 20
2.944546047
 40
0.007775672
  0
ARC
  5
47D
100
AcDbEntity
  8
0
100
AcDbCircle
 62
7
  6
CONTINUOUS
 10
8.2231749107
 20
2.9079806347
 40
0.0073454938
100
AcDbArc
 50
30.6274768815
 51
211.7144704087
  0
CIRCLE
  5
47E
100
AcDbEntity
  8
0
100
AcDbCircle
 62
7
  6
CONTINUOUS
 10
8.3329333126
 20
2.8802506223
 40
0.0077756724
  0
ARC
  5
47F
100
AcDbEntity
  8
0
100
AcDbCircle
 62
7
  6
CONTINUOUS
 10
8.3419785709
 20
2.8347886911
 40
0.0077730033
100
AcDbArc
 50
180.0116312081
 51
359.9998046453
  0
ARC
  5
480
100
AcDbEntity
  8
0
100
AcDbCircle
 62
7
  6
CONTINUOUS
 10
8.2963671251
 20
2.8347887507
 40
0.0073453322
100
AcDbArc
 50
180.0031246525
 51
359.9993283187
  0
CIRCLE
  5
481
100
AcDbEntity
  8
0
100
AcDbCircle
 62
7
  6
CONTINUOUS
 10
8.3071809123
 20
2.9187927661
 40
0.0077756724
  0
SPLINE
  5
482
100
AcDbEntity
  8
0
100
AcDbSpline
 62
7
  6
CONTINUOUS
 70
0
 71
3
 72
114
 73
110
 74
0
 42
0.0000001
 43
0.0000001
 44
0.0000000001
 40
0.0
 40
0.0
 40
0.0
 40
0.0
 40
0.0000034543
 40
0.0000136407
 40
0.0000305509
 40
0.0000541769
 40
0.0001215434
 40
0.0002156752
 40
0.0003365071
 40
0.0004839739
 40
0.0006580108
 40
0.0008585525
 40
0.0013388862
 40
0.0019243812
 40
0.0026143857
 40
0.0034082463
 40
0.0043053093
 40
0.0053048676
 40
0.0076078993
 40
0.0103100129
 40
0.0134022729
 40
0.0168724197
 40
0.0207078149
 40
0.0248961153
 40
0.0294250979
 40
0.0394548938
 40
0.0506944856
 40
0.0630386193
 40
0.0763862991
 40
0.0906443127
 40
0.1057290298
 40
0.1215615236
 40
0.1380673563
 40
0.1551819486
 40
0.1728472608
 40
0.1910127538
 40
0.2096316809
 40
0.2286611064
 40
0.2480637398
 40
0.2678080958
 40
0.2878638537
 40
0.3082028079
 40
0.3288000221
 40
0.3496337636
 40
0.3601320318
 40
0.3706806586
 40
0.391915478
 40
0.4133175529
 40
0.4348580658
 40
0.4565070872
 40
0.4673635761
 40
0.4782342313
 40
0.4891148911
 40
0.5000008192
 40
0.5217647421
 40
0.5326354677
 40
0.543492026
 40
0.5651406929
 40
0.5759273242
 40
0.586683051
 40
0.6080858517
 40
0.6293220022
 40
0.6503664756
 40
0.671198775
 40
0.6917982162
 40
0.7121378789
 40
0.7321909604
 40
0.7421032319
 40
0.7519349623
 40
0.7713396938
 40
0.7903690886
 40
0.8089858646
 40
0.8271512677
 40
0.8448179398
 40
0.8619325276
 40
0.8784373682
 40
0.8942691932
 40
0.9093545141
 40
0.9236141628
 40
0.936962904
 40
0.9493060901
 40
0.9605446139
 40
0.9657177755
 40
0.9705758361
 40
0.9751054339
 40
0.9792938431
 40
0.983128679
 40
0.986597811
 40
0.9896895986
 40
0.992392755
 40
0.9935956004
 40
0.9946978326
 40
0.9956983582
 40
0.9965961586
 40
0.9973904685
 40
0.9980805761
 40
0.99866577
 40
0.9991453473
 40
0.9993453646
 40
0.9995188216
 40
0.9996656862
 40
0.9997859263
 40
0.9998795098
 40
0.9999162953
 40
0.9999464047
 40
0.9999698338
 40
0.9999865788
 40
0.9999966355
 40
1.0
 40
1.0
 40
1.0
 40
1.0
 10
4.6944248918
 20
2.2794136646
 30
0.0
 10
4.6944243781
 20
2.2794134181
 30
0.0
 10
4.6944226554
 20
2.2794119239
 30
0.0
 10
4.6944184406
 20
2.2794091888
 30
0.0
 10
4.6944116856
 20
2.2794042331
 30
0.0
 10
4.6943971547
 20
2.279393968
 30
0.0
 10
4.6943723257
 20
2.2793761867
 30
0.0
 10
4.6943344207
 20
2.27934914
 30
0.0
 10
4.6942858033
 20
2.2793143546
 30
0.0
 10
4.6942264824
 20
2.2792718815
 30
0.0
 10
4.6941565015
 20
2.2792217122
 30
0.0
 10
4.6940419413
 20
2.2791394958
 30
0.0
 10
4.6938723526
 20
2.2790175593
 30
0.0
 10
4.6936373366
 20
2.2788483267
 30
0.0
 10
4.6933604196
 20
2.2786487862
 30
0.0
 10
4.6930418376
 20
2.2784191631
 30
0.0
 10
4.6926818308
 20
2.2781596924
 30
0.0
 10
4.6921198349
 20
2.2777547471
 30
0.0
 10
4.6913159846
 20
2.2771761731
 30
0.0
 10
4.6902310378
 20
2.2763972764
 30
0.0
 10
4.6889884923
 20
2.2755078165
 30
0.0
 10
4.6875929378
 20
2.2745109729
 30
0.0
 10
4.6860493677
 20
2.273410325
 30
0.0
 10
4.6843623453
 20
2.2722100455
 30
0.0
 10
4.6818405534
 20
2.2704206569
 30
0.0
 10
4.6783646305
 20
2.2679661501
 30
0.0
 10
4.6738238194
 20
2.2647850376
 30
0.0
 10
4.6688207489
 20
2.2613100646
 30
0.0
 10
4.6633918693
 20
2.2575755288
 30
0.0
 10
4.6575700011
 20
2.253614841
 30
0.0
 10
4.651383038
 20
2.2494624089
 30
0.0
 10
4.6448575205
 20
2.2451494417
 30
0.0
 10
4.6380181856
 20
2.2407044742
 30
0.0
 10
4.6308853045
 20
2.2361569633
 30
0.0
 10
4.6234755114
 20
2.231535297
 30
0.0
 10
4.61580135
 20
2.22686963
 30
0.0
 10
4.6078737964
 20
2.2221890051
 30
0.0
 10
4.5997030117
 20
2.2175207188
 30
0.0
 10
4.5912943095
 20
2.2128969796
 30
0.0
 10
4.5826498283
 20
2.2083539473
 30
0.0
 10
4.5737715458
 20
2.2039283533
 30
0.0
 10
4.564662177
 20
2.1996568651
 30
0.0
 10
4.5553196755
 20
2.1955887872
 30
0.0
 10
4.5473600892
 20
2.1924204208
 30
0.0
 10
4.5408757686
 20
2.1900379554
 30
0.0
 10
4.5342852633
 20
2.1877563303
 30
0.0
 10
4.5259092545
 20
2.1851391564
 30
0.0
 10
4.5156661558
 20
2.1824526822
 30
0.0
 10
4.5052337966
 20
2.1802691051
 30
0.0
 10
4.4964167031
 20
2.1789204034
 30
0.0
 10
4.489302623
 20
2.1781525807
 30
0.0
 10
4.4839392223
 20
2.1777403069
 30
0.0
 10
4.4785606651
 20
2.1774960451
 30
0.0
 10
4.4713807771
 20
2.1773887085
 30
0.0
 10
4.4642003425
 20
2.1776029967
 30
0.0
 10
4.4570470816
 20
2.1781532526
 30
0.0
 10
4.4499329964
 20
2.1789207339
 30
0.0
 10
4.4428701595
 20
2.1800022353
 30
0.0
 10
4.4358777987
 20
2.1813681602
 30
0.0
 10
4.4289626375
 20
2.1829059314
 30
0.0
 10
4.4204395191
 20
2.1851384549
 30
0.0
 10
4.4104091783
 20
2.1882678789
 30
0.0
 10
4.4006050707
 20
2.1917747852
 30
0.0
 10
4.3910316048
 20
2.1955927119
 30
0.0
 10
4.381686629
 20
2.1996556626
 30
0.0
 10
4.3725753866
 20
2.2039233842
 30
0.0
 10
4.3651511365
 20
2.2076299758
 30
0.0
 10
4.3593257265
 20
2.2106554451
 30
0.0
 10
4.3536241437
 20
2.213686679
 30
0.0
 10
4.3466461351
 20
2.2175196283
 30
0.0
 10
4.3384748394
 20
2.2221870302
 30
0.0
 10
4.3305496003
 20
2.2268708494
 30
0.0
 10
4.3228757716
 20
2.231536744
 30
0.0
 10
4.3154645911
 20
2.2361565831
 30
0.0
 10
4.3083316839
 20
2.240704179
 30
0.0
 10
4.3014932108
 20
2.2451499678
 30
0.0
 10
4.2949680843
 20
2.2494632062
 30
0.0
 10
4.2887806744
 20
2.2536154335
 30
0.0
 10
4.2829576939
 20
2.2575754527
 30
0.0
 10
4.2775281632
 20
2.2613095543
 30
0.0
 10
4.2725255623
 20
2.2647849302
 30
0.0
 10
4.2686415717
 20
2.2675069022
 30
0.0
 10
4.265773842
 20
2.2695277476
 30
0.0
 10
4.2638128836
 20
2.2709143338
 30
0.0
 10
4.2619865103
 20
2.2722099188
 30
0.0
 10
4.2602994417
 20
2.2734101803
 30
0.0
 10
4.2587561898
 20
2.2745108583
 30
0.0
 10
4.257361176
 20
2.2755078782
 30
0.0
 10
4.2561188649
 20
2.2763975392
 30
0.0
 10
4.2551810599
 20
2.2770703945
 30
0.0
 10
4.2545101781
 20
2.2775523583
 30
0.0
 10
4.2540674853
 20
2.2778706263
 30
0.0
 10
4.2536657326
 20
2.2781596462
 30
0.0
 10
4.253305271
 20
2.2784190934
 30
0.0
 10
4.2529864158
 20
2.2786487012
 30
0.0
 10
4.2527094407
 20
2.278848232
 30
0.0
 10
4.2524746124
 20
2.2790174559
 30
0.0
 10
4.2523053745
 20
2.2791394329
 30
0.0
 10
4.2521912309
 20
2.2792217031
 30
0.0
 10
4.2521216065
 20
2.2792718857
 30
0.0
 10
4.252062658
 20
2.2793143768
 30
0.0
 10
4.2520143939
 20
2.2793491587
 30
0.0
 10
4.2519808663
 20
2.2793733383
 30
0.0
 10
4.2519593852
 20
2.2793887997
 30
0.0
 10
4.2519473157
 20
2.2793975425
 30
0.0
 10
4.2519378679
 20
2.2794042372
 30
0.0
 10
4.2519312434
 20
2.2794092684
 30
0.0
 10
4.2519270353
 20
2.279411847
 30
0.0
 10
4.2519254159
 20
2.2794134821
 30
0.0
 10
4.2519248918
 20
2.2794136646
 30
0.0
  0
SPLINE
  5
483
100
AcDbEntity
  8
0
100
AcDbSpline
 62
7
  6
CONTINUOUS
 70
0
 71
3
 72
19
 73
15
 74
0
 42
0.0000001
 43
0.0000001
 44
0.0000000001
 40
0.0
 40
0.0
 40
0.0
 40
0.0
 40
0.1155540982
 40
0.2336572947
 40
0.3545495731
 40
0.4784080709
 40
0.5414901986
 40
0.6053108612
 40
0.6698333801
 40
0.7349974784
 40
0.8007179844
 40
0.8668841316
 40
0.9333615114
 40
1.0
 40
1.0
 40
1.0
 40
1.0
 10
8.3462677511
 20
2.6523141061
 30
0.0
 10
8.3425793541
 20
2.6484264081
 30
0.0
 10
8.3348156147
 20
2.6408481682
 30
0.0
 10
8.3221355548
 20
2.6303502391
 30
0.0
 10
8.3082604161
 20
2.6207883645
 30
0.0
 10
8.2957661849
 20
2.6138290598
 30
0.0
 10
8.2852006156
 20
2.6089592992
 30
0.0
 10
8.2769482338
 20
2.6056746666
 30
0.0
 10
8.2684371698
 20
2.6028147525
 30
0.0
 10
8.2596928086
 20
2.60041678
 30
0.0
 10
8.2507499191
 20
2.5985112935
 30
0.0
 10
8.2416495075
 20
2.5971281388
 30
0.0
 10
8.2324403377
 20
2.5962898689
 30
0.0
 10
8.2262653326
 20
2.5961012373
 30
0.0
 10
8.2231748918
 20
2.5961011646
 30
0.0
  0
SPLINE
  5
484
100
AcDbEntity
  8
0
100
AcDbSpline
 62
7
  6
CONTINUOUS
 70
0
 71
3
 72
18
 73
14
 74
0
 42
0.0000001
 43
0.0000001
 44
0.0000000001
 40
0.0
 40
0.0
 40
0.0
 40
0.0
 40
0.0666548298
 40
0.1331477282
 40
0.1993279209
 40
0.2650603258
 40
0.3302341003
 40
0.3947635847
 40
0.5216285102
 40
0.6454852157
 40
0.7663694531
 40
0.8844606041
 40
1.0
 40
1.0
 40
1.0
 40
1.0
 10
8.2231748918
 20
2.5961011646
 30
0.0
 10
8.2200771413
 20
2.5961012086
 30
0.0
 10
8.2138875566
 20
2.5962906377
 30
0.0
 10
8.2046568908
 20
2.5971328318
 30
0.0
 10
8.1955357696
 20
2.5985225776
 30
0.0
 10
8.1865731552
 20
2.6004363748
 30
0.0
 10
8.1778104843
 20
2.6028460061
 30
0.0
 10
8.1665050644
 20
2.6066525864
 30
0.0
 10
8.1530208802
 20
2.6124599048
 30
0.0
 10
8.1379187353
 20
2.6208935684
 30
0.0
 10
8.1240254281
 20
2.6304919928
 30
0.0
 10
8.111333776
 20
2.6410277649
 30
0.0
 10
8.1035649749
 20
2.6486320509
 30
0.0
 10
8.099874825
 20
2.6525327935
 30
0.0
  0
SPLINE
  5
485
100
AcDbEntity
  8
0
100
AcDbSpline
 62
7
  6
CONTINUOUS
 70
0
 71
3
 72
120
 73
116
 74
0
 42
0.0000001
 43
0.0000001
 44
0.0000000001
 40
0.0
 40
0.0
 40
0.0
 40
0.0
 40
0.0000033369
 40
0.000013204
 40
0.0000295945
 40
0.0000525014
 40
0.0000819179
 40
0.0001178371
 40
0.000209156
 40
0.0003264031
 40
0.0004695235
 40
0.0006384622
 40
0.0008331644
 40
0.0012996382
 40
0.0018684388
 40
0.0025389557
 40
0.0033105694
 40
0.00418266
 40
0.0051545988
 40
0.006225609
 40
0.0073947941
 40
0.0100240885
 40
0.013034819
 40
0.0164164477
 40
0.0201573378
 40
0.0242459707
 40
0.0286710063
 40
0.0334210676
 40
0.0384842658
 40
0.0495013737
 40
0.0616249077
 40
0.0747595588
 40
0.0888174845
 40
0.1037162308
 40
0.1193785159
 40
0.1357352475
 40
0.1527227957
 40
0.1702839533
 40
0.1883670937
 40
0.2069272725
 40
0.2259236704
 40
0.2453200409
 40
0.2650840706
 40
0.2851879332
 40
0.3056061328
 40
0.3263171146
 40
0.3473001711
 40
0.368537411
 40
0.3792467306
 40
0.3900127222
 40
0.411701331
 40
0.4226204854
 40
0.4335842166
 40
0.4445878003
 40
0.4556267006
 40
0.4666944446
 40
0.4777849075
 40
0.4999992803
 40
0.5111132677
 40
0.5222194665
 40
0.5333098748
 40
0.5443776808
 40
0.5554165559
 40
0.5664201478
 40
0.5882995439
 40
0.6099880103
 40
0.6314612654
 40
0.6526987662
 40
0.6632238036
 40
0.6736826387
 40
0.6943930972
 40
0.7148115825
 40
0.7249048266
 40
0.7349161673
 40
0.7546800154
 40
0.7740762128
 40
0.793072692
 40
0.8116331864
 40
0.829716521
 40
0.847277521
 40
0.8642646282
 40
0.8806213273
 40
0.8962837891
 40
0.9111826591
 40
0.9252411721
 40
0.9383762549
 40
0.9504990322
 40
0.9615159184
 40
0.9665794846
 40
0.9713300109
 40
0.9757554266
 40
0.9798440562
 40
0.9835843138
 40
0.9869651557
 40
0.989975817
 40
0.9926062963
 40
0.9937763233
 40
0.9948481704
 40
0.9958208187
 40
0.9966934303
 40
0.997465329
 40
0.9981358442
 40
0.9987043053
 40
0.9991700708
 40
0.9993643155
 40
0.9995327615
 40
0.999675379
 40
0.9997921384
 40
0.9998830099
 40
0.9999187284
 40
0.9999479638
 40
0.9999707124
 40
0.9999869704
 40
0.9999967342
 40
1.0
 40
1.0
 40
1.0
 40
1.0
 10
4.6606748918
 20
2.3131636646
 30
0.0
 10
4.6606746735
 20
2.3131632122
 30
0.0
 10
4.6606729416
 20
2.3131620375
 30
0.0
 10
4.6606700868
 20
2.3131586842
 30
0.0
 10
4.6606646491
 20
2.3131536041
 30
0.0
 10
4.6606573671
 20
2.3131462818
 30
0.0
 10
4.660647881
 20
2.3131369746
 30
0.0
 10
4.6606311005
 20
2.3131204123
 30
0.0
 10
4.6606048626
 20
2.313094604
 30
0.0
 10
4.6605671098
 20
2.3130574952
 30
0.0
 10
4.6605209856
 20
2.3130122341
 30
0.0
 10
4.6604665044
 20
2.3129588436
 30
0.0
 10
4.6603771989
 20
2.3128714479
 30
0.0
 10
4.6602447319
 20
2.3127421009
 30
0.0
 10
4.660060806
 20
2.3125629359
 30
0.0
 10
4.6598438062
 20
2.3123518982
 30
0.0
 10
4.6595939223
 20
2.3121091922
 30
0.0
 10
4.6593113524
 20
2.3118350177
 30
0.0
 10
4.6589963077
 20
2.3115295951
 30
0.0
 10
4.6586490441
 20
2.3111931581
 30
0.0
 10
4.6581224869
 20
2.3106832515
 30
0.0
 10
4.6573860021
 20
2.3099704118
 30
0.0
 10
4.6564101433
 20
2.3090260351
 30
0.0
 10
4.6553133042
 20
2.3079660633
 30
0.0
 10
4.6540983438
 20
2.3067948386
 30
0.0
 10
4.6527684249
 20
2.3055165664
 30
0.0
 10
4.6513270376
 20
2.304135058
 30
0.0
 10
4.649777665
 20
2.302654213
 30
0.0
 10
4.6475076951
 20
2.3004911859
 30
0.0
 10
4.6444269805
 20
2.2975700888
 30
0.0
 10
4.6404498983
 20
2.2938286016
 30
0.0
 10
4.6361199513
 20
2.2897942792
 30
0.0
 10
4.6314618333
 20
2.2854994883
 30
0.0
 10
4.6264969721
 20
2.2809762516
 30
0.0
 10
4.6212438316
 20
2.2762558564
 30
0.0
 10
4.61571893
 20
2.2713677759
 30
0.0
 10
4.609936037
 20
2.2663403299
 30
0.0
 10
4.6039049914
 20
2.2612027855
 30
0.0
 10
4.5976334483
 20
2.2559832707
 30
0.0
 10
4.5911272346
 20
2.2507089891
 30
0.0
 10
4.5843883162
 20
2.2454092006
 30
0.0
 10
4.5774157767
 20
2.2401151701
 30
0.0
 10
4.5702054941
 20
2.2348611761
 30
0.0
 10
4.5627519683
 20
2.2296833251
 30
0.0
 10
4.5550448499
 20
2.2246257438
 30
0.0
 10
4.5470731426
 20
2.2197372071
 30
0.0
 10
4.5388220876
 20
2.2150791377
 30
0.0
 10
4.5317222076
 20
2.2114572403
 30
0.0
 10
4.5258906152
 20
2.2087483552
 30
0.0
 10
4.5199266054
 20
2.2061691131
 30
0.0
 10
4.5138215525
 20
2.2038406421
 30
0.0
 10
4.5075826743
 20
2.2018141547
 30
0.0
 10
4.5028216765
 20
2.200454158
 30
0.0
 10
4.4979950517
 20
2.1992709306
 30
0.0
 10
4.4931096809
 20
2.1982777242
 30
0.0
 10
4.4881735794
 20
2.1974889155
 30
0.0
 10
4.481535732
 20
2.1967313127
 30
0.0
 10
4.4748453998
 20
2.1964267349
 30
0.0
 10
4.4681568532
 20
2.1965791486
 30
0.0
 10
4.4631525576
 20
2.1969209213
 30
0.0
 10
4.4581760158
 20
2.1974890171
 30
0.0
 10
4.4532401203
 20
2.1982783611
 30
0.0
 10
4.4483547935
 20
2.1992721736
 30
0.0
 10
4.4419323513
 20
2.2008475076
 30
0.0
 10
4.4340701059
 20
2.2032535505
 30
0.0
 10
4.4249156335
 20
2.206741871
 30
0.0
 10
4.4160699602
 20
2.2107186067
 30
0.0
 10
4.4089309443
 20
2.21436486
 30
0.0
 10
4.4033639071
 20
2.2174313572
 30
0.0
 10
4.3979256045
 20
2.2205648026
 30
0.0
 10
4.3913031481
 20
2.2246228891
 30
0.0
 10
4.3848571409
 20
2.2288553844
 30
0.0
 10
4.3798258562
 20
2.2323042968
 30
0.0
 10
4.374916764
 20
2.2357564235
 30
0.0
 10
4.3689341318
 20
2.2401153665
 30
0.0
 10
4.3619611748
 20
2.2454087512
 30
0.0
 10
4.3552224857
 20
2.2507089007
 30
0.0
 10
4.3487164467
 20
2.2559835365
 30
0.0
 10
4.3424451913
 20
2.2612034783
 30
0.0
 10
4.3364139568
 20
2.2663407019
 30
0.0
 10
4.330630663
 20
2.2713675433
 30
0.0
 10
4.3251057493
 20
2.2762555457
 30
0.0
 10
4.3198527744
 20
2.2809761852
 30
0.0
 10
4.3148878279
 20
2.2854995265
 30
0.0
 10
4.3102298767
 20
2.289794754
 30
0.0
 10
4.3059003213
 20
2.2938295523
 30
0.0
 10
4.301922727
 20
2.2975703734
 30
0.0
 10
4.2988419044
 20
2.3004912248
 30
0.0
 10
4.2965721148
 20
2.3026545746
 30
0.0
 10
4.2950228069
 20
2.3041357516
 30
0.0
 10
4.2935814785
 20
2.3055175045
 30
0.0
 10
4.2922516117
 20
2.3067957751
 30
0.0
 10
4.2910365619
 20
2.3079665983
 30
0.0
 10
4.2899395369
 20
2.3090260552
 30
0.0
 10
4.28896354
 20
2.3099703606
 30
0.0
 10
4.2882272091
 20
2.310683783
 30
0.0
 10
4.2877007392
 20
2.311194399
 30
0.0
 10
4.2873535062
 20
2.311531384
 30
0.0
 10
4.2870384868
 20
2.3118372796
 30
0.0
 10
4.2867559317
 20
2.3121117968
 30
0.0
 10
4.2865060583
 20
2.3123546873
 30
0.0
 10
4.286289065
 20
2.3125657195
 30
0.0
 10
4.2861051471
 20
2.3127446662
 30
0.0
 10
4.2859726369
 20
2.3128736441
 30
0.0
 10
4.2858832869
 20
2.312960637
 30
0.0
 10
4.2858287946
 20
2.313013703
 30
0.0
 10
4.2857826606
 20
2.3130586348
 30
0.0
 10
4.2857449013
 20
2.3130954273
 30
0.0
 10
4.2857186561
 20
2.3131209839
 30
0.0
 10
4.2857018741
 20
2.3131373662
 30
0.0
 10
4.2856923881
 20
2.313146558
 30
0.0
 10
4.2856851172
 20
2.3131537884
 30
0.0
 10
4.2856796709
 20
2.313158779
 30
0.0
 10
4.28567685
 20
2.3131620944
 30
0.0
 10
4.2856750998
 20
2.3131632192
 30
0.0
 10
4.2856748918
 20
2.3131636646
 30
0.0
  0
ENDSEC
  0
SECTION
  2
OBJECTS
  0
DICTIONARY
  5
C
100
AcDbDictionary
280
0
281
1
  3
ACAD_GROUP
350
D
  3
ACAD_MLINESTYLE
350
17
  3
ACAD_LAYOUT
350
1A
  3
ACAD_PLOTSETTINGS
350
19
  3
ACAD_PLOTSTYLENAME
350
E
  0
DICTIONARY
  5
D
102
{ACAD_REACTORS
330
C
102
}
100
AcDbDictionary
280
0
281
1
  0
ACDBDICTIONARYWDFLT
  5
E
102
{ACAD_REACTORS
330
C
102
}
100
AcDbDictionary
281
1
  3
Normal
350
F
100
AcDbDictionaryWithDefault
340
F
  0
DICTIONARY
  5
17
102
{ACAD_REACTORS
330
C
102
}
100
AcDbDictionary
280
0
281
1
  3
Standard
350
18
  0
DICTIONARY
  5
19
102
{ACAD_REACTORS
330
C
102
}
100
AcDbDictionary
281
1
  0
DICTIONARY
  5
1A
102
{ACAD_REACTORS
330
C
102
}
100
AcDbDictionary
281
1
  3
Model
350
486
  3
Layout1
350
487
  0
ACDBPLACEHOLDER
  5
F
102
{ACAD_REACTORS
330
E
102
}
  0
MLINESTYLE
  5
18
102
{ACAD_REACTORS
330
17
102
}
100
AcDbMlineStyle
  2
STANDARD
 70
0
  3

 62
256
 51
90.0
 52
90.0
 71
2
 49
0.5
 62
256
  6
BYLAYER
 49
-0.5
 62
256
  6
BYLAYER
  0
LAYOUT
  5
486
102
{ACAD_REACTORS
330
1A
102
}
100
AcDbPlotSettings
  1

  2
none_device
  4
ANSI_A_(11.00_x_8.50_Inches)
  6

 40
0.0
 41
0.0
 42
0.0
 43
0.0
 44
279.4
 45
215.9
 46
0.0
 47
0.0
 48
0.0
 49
0.0
140
0.0
141
0.0
142
1.0
143
1.0
 70
1024
 72
0
 73
0
 74
0
  7

 75
0
147
1.0
148
0.0
149
0.0
100
AcDbLayout
  1
Model
 70
0
 71
0
 10
0.0
 20
0.0
 11
11.0
 21
8.5
 12
0.0
 22
0.0
 32
0.0
 14
0.0
 24
0.0
 34
0.0
 15
0.0
 25
0.0
 35
0.0
146
0.0
 13
0.0
 23
0.0
 33
0.0
 16
1.0
 26
0.0
 36
0.0
 17
0.0
 27
1.0
 37
0.0
 76
0
330
202
345
0
346
0
  0
LAYOUT
  5
487
102
{ACAD_REACTORS
330
1A
102
}
100
AcDbPlotSettings
  1

  2
none_device
  4
ANSI_A_(11.00_x_8.50_Inches)
  6

 40
0.0
 41
0.0
 42
0.0
 43
0.0
 44
279.4
 45
215.9
 46
0.0
 47
0.0
 48
0.0
 49
0.0
140
0.0
141
0.0
142
1.0
143
1.0
 70
0
 72
0
 73
0
 74
0
  7

 75
0
147
1.0
148
0.0
149
0.0
100
AcDbLayout
  1
Layout1
 70
0
 71
1
 10
0.0
 20
0.0
 11
11.0
 21
8.5
 12
0.0
 22
0.0
 32
0.0
 14
0.0
 24
0.0
 34
0.0
 15
0.0
 25
0.0
 35
0.0
146
0.0
 13
0.0
 23
0.0
 33
0.0
 16
1.0
 26
0.0
 36
0.0
 17
0.0
 27
1.0
 37
0.0
 76
0
330
203
345
0
346
0
  0
ENDSEC
  0
EOF
