999
DXF file: 1400-5413_top.dxf
999
Pro/ENGINEER 2018400 by Parametric Technology Corporation
  0
SECTION
  2
HEADER
  9
$ACADVER
  1
AC1027
  9
$DWGCODEPAGE
  3
ANSI_1252
  9
$EXTMAX
 10
11.0
 20
8.5
 30
0.0
  9
$EXTMIN
 10
0.0
 20
0.0
 30
0.0
  9
$LIMMIN
 10
0.0
 20
0.0
  9
$LIMMAX
 10
11.0
 20
8.5
  9
$VIEWCTR
 10
5.5
 20
4.25
  9
$VIEWSIZE
 40
8.5
  9
$CLAYER
  8
0
  9
$LTSCALE
 40
0.605
  9
$CELTYPE
  6
BYLAYER
  9
$DIMSCALE
 40
1.0
  9
$DIMASZ
 40
0.1
  9
$DIMEXO
 40
0.0625
  9
$DIMDLI
 40
0.418
  9
$DIMEXE
 40
0.125
  9
$DIMCEN
 40
0.099
  9
$DIMLFAC
 40
1.0
  9
$DIMBLK
  1
_FILLED
  9
$DIMALT
 70
1
  9
$DIMALTD
 70
1
  9
$DIMALTTD
 70
2
  9
$DIMALTF
 40
25.4
  9
$DIMTXT
 40
0.08
  9
$DIMTOL
 70
1
  9
$DIMLIM
 70
0
  9
$DIMTFAC
 40
1.0
  9
$DIMTP
 40
0.01
  9
$DIMTM
 40
0.01
  9
$DIMGAP
 40
0.09
  9
$DIMDSEP
 70
46
  9
$AUNITS
 70
0
  9
$PDMODE
 70
3
  9
$PDSIZE
 40
0.3125
  9
$HANDSEED
  5
44A
  9
$TILEMODE
 70
1
  9
$MEASUREMENT
 70
0
  9
$INSUNITS
 70
1
  0
ENDSEC
  0
SECTION
  2
CLASSES
  0
CLASS
  1
ACDBDICTIONARYWDFLT
  2
AcDbDictionaryWithDefault
  3
AutoCAD 2000
 90
0
 91
1
280
0
281
0
  0
CLASS
  1
ACDBPLACEHOLDER
  2
AcDbPlaceHolder
  3
AutoCAD 2000
 90
0
 91
1
280
0
281
0
  0
CLASS
  1
LAYOUT
  2
AcDbLayout
  3
AutoCAD 2000
 90
0
 91
0
280
0
281
0
  0
ENDSEC
  0
SECTION
  2
TABLES
  0
TABLE
  2
VPORT
  5
8
100
AcDbSymbolTable
 70
2
  0
VPORT
  5
1F4
100
AcDbSymbolTableRecord
100
AcDbViewportTableRecord
  2
*ACTIVE
 70
0
 10
0.0
 20
0.0
 11
1.0
 21
1.0
 12
5.5
 22
4.25
 13
0.0
 23
0.0
 14
1.0
 24
1.0
 15
0.0
 25
0.0
 16
0.0
 26
0.0
 36
1.0
 17
0.0
 27
0.0
 37
0.0
 40
8.5
 41
1.2941176471
 42
50.0
 43
0.0
 44
0.0
 50
0.0
 51
0.0
 71
0
 72
100
 73
1
 74
1
 75
0
 76
0
 77
0
 78
0
  0
ENDTAB
  0
TABLE
  2
LTYPE
  5
5
100
AcDbSymbolTable
 70
6
  0
LTYPE
  5
14
100
AcDbSymbolTableRecord
100
AcDbLinetypeTableRecord
  2
BYBLOCK
 70
0
  3

 72
65
 73
0
 40
0.0
  0
LTYPE
  5
15
100
AcDbSymbolTableRecord
100
AcDbLinetypeTableRecord
  2
BYLAYER
 70
0
  3

 72
65
 73
0
 40
0.0
  0
LTYPE
  5
16
100
AcDbSymbolTableRecord
100
AcDbLinetypeTableRecord
  2
CONTINUOUS
 70
64
  3
Solid line
 72
65
 73
0
 40
0.0
  0
LTYPE
  5
1F5
100
AcDbSymbolTableRecord
100
AcDbLinetypeTableRecord
  2
CENTER
 70
64
  3
____ _ ____ _ ____ _ ____ _ ____ _ ____ _ ____
 72
65
 73
4
 40
0.6
 49
0.375
 74
0
 49
-0.075
 74
0
 49
0.075
 74
0
 49
-0.075
 74
0
  0
LTYPE
  5
1F6
100
AcDbSymbolTableRecord
100
AcDbLinetypeTableRecord
  2
HIDDEN
 70
64
  3
- - - - - - - - - - - - - - - - - - - -
 72
65
 73
2
 40
0.2
 49
0.1
 74
0
 49
-0.1
 74
0
  0
LTYPE
  5
1F7
100
AcDbSymbolTableRecord
100
AcDbLinetypeTableRecord
  2
PHANTOM
 70
64
  3
_____ _ _ _____ _ _ _____ _ _ _____
 72
65
 73
6
 40
0.8
 49
0.45
 74
0
 49
-0.05
 74
0
 49
0.1
 74
0
 49
-0.05
 74
0
 49
0.1
 74
0
 49
-0.05
 74
0
  0
LTYPE
  5
1F8
100
AcDbSymbolTableRecord
100
AcDbLinetypeTableRecord
  2
DOT
 70
64
  3
. . . . . . . . . . . . . . . . . . . .
 72
65
 73
2
 40
0.2
 49
0.1
 74
0
 49
-0.1
 74
0
  0
LTYPE
  5
1F9
100
AcDbSymbolTableRecord
100
AcDbLinetypeTableRecord
  2
DASHED
 70
64
  3
- - - - - - - - - - - - - - - - - - - -
 72
65
 73
2
 40
0.2
 49
0.1
 74
0
 49
-0.1
 74
0
  0
ENDTAB
  0
TABLE
  2
LAYER
  5
2
100
AcDbSymbolTable
 70
36
  0
LAYER
  5
10
100
AcDbSymbolTableRecord
100
AcDbLayerTableRecord
  2
0
 70
0
 62
7
  6
CONTINUOUS
370
-3
390
F
  0
LAYER
  5
1FA
100
AcDbSymbolTableRecord
100
AcDbLayerTableRecord
  2
DEFAULT_1
 70
0
 62
7
  6
CENTER
370
-3
390
F
  0
LAYER
  5
1FB
100
AcDbSymbolTableRecord
100
AcDbLayerTableRecord
  2
DEFAULT_2
 70
0
 62
8
  6
HIDDEN
370
-3
390
F
  0
LAYER
  5
1FC
100
AcDbSymbolTableRecord
100
AcDbLayerTableRecord
  2
DEFAULT_3
 70
0
 62
7
  6
PHANTOM
370
-3
390
F
  0
LAYER
  5
1FD
100
AcDbSymbolTableRecord
100
AcDbLayerTableRecord
  2
DEFAULT_COORDINATE_SYSTEM
 70
0
 62
7
  6
CONTINUOUS
370
-3
390
F
  0
LAYER
  5
1FE
100
AcDbSymbolTableRecord
100
AcDbLayerTableRecord
  2
DEFAULT_DATUM_AXES
 70
0
 62
7
  6
CONTINUOUS
370
-3
390
F
  0
LAYER
  5
1FF
100
AcDbSymbolTableRecord
100
AcDbLayerTableRecord
  2
DEFAULT_DATUM_PLANES
 70
0
 62
7
  6
CONTINUOUS
370
-3
390
F
  0
ENDTAB
  0
TABLE
  2
STYLE
  5
3
100
AcDbSymbolTable
 70
1
  0
STYLE
  5
11
100
AcDbSymbolTableRecord
100
AcDbTextStyleTableRecord
  2
STANDARD
 70
0
 40
0.0
 41
0.8
 50
0.0
 71
0
 42
0.2
  3
txt
  4

  0
STYLE
  5
200
100
AcDbSymbolTableRecord
100
AcDbTextStyleTableRecord
  2
TEXTSTYLE_1
 70
0
 40
0.0
 41
0.8
 50
0.0
 71
0
 42
0.2
  3
gdt
  4

  0
ENDTAB
  0
TABLE
  2
VIEW
  5
6
100
AcDbSymbolTable
 70
0
  0
ENDTAB
  0
TABLE
  2
UCS
  5
7
100
AcDbSymbolTable
 70
0
  0
ENDTAB
  0
TABLE
  2
APPID
  5
9
100
AcDbSymbolTable
 70
1
  0
APPID
  5
201
100
AcDbSymbolTableRecord
100
AcDbRegAppTableRecord
  2
ACAD
 70
0
  0
ENDTAB
  0
TABLE
  2
BLOCK_RECORD
  5
1
100
AcDbSymbolTable
 70
0
  0
BLOCK_RECORD
  5
202
100
AcDbSymbolTableRecord
100
AcDbBlockTableRecord
  2
*Model_Space
  0
BLOCK_RECORD
  5
203
100
AcDbSymbolTableRecord
100
AcDbBlockTableRecord
  2
*Paper_Space
  0
BLOCK_RECORD
  5
204
100
AcDbSymbolTableRecord
100
AcDbBlockTableRecord
  2
_FILLED
  0
ENDTAB
  0
TABLE
  2
DIMSTYLE
  5
A
100
AcDbSymbolTable
 70
1
100
AcDbDimStyleTable
 71
0
  0
DIMSTYLE
105
205
100
AcDbSymbolTableRecord
100
AcDbDimStyleTableRecord
  2
STANDARD
 70
0
  3

  4

 40
1.0
 41
0.1
 42
0.0625
 43
0.38
 44
0.125
 45
0.0
 46
0.0
 47
0.01
 48
0.01
140
0.08
141
0.09
142
0.0
143
25.4
144
1.0
145
0.0
146
1.0
147
0.09
 71
1.0
 72
0.0
 73
1
 74
1
 75
0
 76
0
 77
0
 78
4
 79
1
170
1
171
1
172
0
173
0
174
0
175
0
176
0
177
0
178
0
270
2
179
2
271
2
272
2
273
2
274
2
275
0
280
0
281
0
282
0
283
1
284
4
285
0
286
0
287
3
288
0
340
11
278
46
341
204
342
204
343
204
344
204
  0
ENDTAB
  0
ENDSEC
  0
SECTION
  2
BLOCKS
  0
BLOCK
  5
20
100
AcDbEntity
  8
0
100
AcDbBlockBegin
  2
*Model_Space
 70
0
 10
0.0
 20
0.0
 30
0.0
  3
*Model_Space
  1

  0
ENDBLK
  5
21
100
AcDbEntity
  8
0
100
AcDbBlockEnd
  0
BLOCK
  5
1C
100
AcDbEntity
  8
0
100
AcDbBlockBegin
  2
*Paper_Space
 70
0
 10
0.0
 20
0.0
 30
0.0
  3
*Paper_Space
  1

  0
ENDBLK
  5
1D
100
AcDbEntity
  8
0
100
AcDbBlockEnd
  0
BLOCK
  5
206
100
AcDbEntity
  8
0
100
AcDbBlockBegin
  2
_FILLED
 70
64
 10
0.0
 20
0.0
  3
_FILLED
  1

  0
SOLID
  5
207
100
AcDbEntity
  8
0
  6
BYBLOCK
 62
0
100
AcDbTrace
 10
0.0
 20
0.0
 11
-1.0
 21
0.2
 12
-1.0
 22
-0.2
 13
-1.0
 23
-0.2
  0
ENDBLK
  5
208
100
AcDbEntity
  8
0
  6
BYBLOCK
 62
0
100
AcDbBlockEnd
  0
ENDSEC
  0
SECTION
  2
ENTITIES
  0
MTEXT
  5
209
100
AcDbEntity
  8
0
100
AcDbMText
 62
2
  6
CONTINUOUS
  7
STANDARD
 71
3
 72
1
 10
5.2232919255
 20
1.7960793807
 30
0.0
 11
1.0
 21
0.0
 31
0.0
 73
2
 44
0.9
  1
SCALE  .375
 40
0.08
 41
0.704
  0
LINE
  5
20A
100
AcDbEntity
  8
0
100
AcDbLine
 62
7
  6
CONTINUOUS
 10
0.0
 20
0.0
 11
0.0
 21
8.5
  0
LINE
  5
20B
100
AcDbEntity
  8
0
100
AcDbLine
 62
7
  6
CONTINUOUS
 10
0.0
 20
0.0
 11
11.0
 21
0.0
  0
LINE
  5
20C
100
AcDbEntity
  8
0
100
AcDbLine
 62
7
  6
CONTINUOUS
 10
0.0
 20
8.5
 11
11.0
 21
8.5
  0
LINE
  5
20D
100
AcDbEntity
  8
0
100
AcDbLine
 62
7
  6
CONTINUOUS
 10
11.0
 20
0.0
 11
11.0
 21
8.5
  0
LINE
  5
20E
100
AcDbEntity
  8
0
100
AcDbLine
 62
7
  6
CONTINUOUS
 10
1.8522998917
 20
5.5632668806
 11
1.8597998917
 21
5.5707668806
  0
LINE
  5
20F
100
AcDbEntity
  8
0
100
AcDbLine
 62
7
  6
CONTINUOUS
 10
1.8522998918
 20
5.3438918807
 11
1.8522998918
 21
5.5632668807
  0
LINE
  5
210
100
AcDbEntity
  8
0
100
AcDbLine
 62
7
  6
CONTINUOUS
 10
1.8597998918
 20
5.3363918807
 11
1.8597998918
 21
5.5707668807
  0
LINE
  5
211
100
AcDbEntity
  8
0
100
AcDbLine
 62
7
  6
CONTINUOUS
 10
3.3054248918
 20
5.3438918808
 11
3.2979248919
 21
5.3363918808
  0
LINE
  5
212
100
AcDbEntity
  8
0
100
AcDbLine
 62
7
  6
CONTINUOUS
 10
3.2979248918
 20
5.5707668807
 11
3.2979248918
 21
5.3363918807
  0
LINE
  5
213
100
AcDbEntity
  8
0
100
AcDbLine
 62
7
  6
CONTINUOUS
 10
3.3054248918
 20
5.5632668807
 11
3.3054248918
 21
5.3438918807
  0
LINE
  5
214
100
AcDbEntity
  8
0
100
AcDbLine
 62
7
  6
CONTINUOUS
 10
1.8522998917
 20
5.3438918808
 11
1.8597998917
 21
5.3363918808
  0
LINE
  5
215
100
AcDbEntity
  8
0
100
AcDbLine
 62
7
  6
CONTINUOUS
 10
4.2856748918
 20
2.7348293807
 11
4.6606748918
 21
2.7348293807
  0
LINE
  5
216
100
AcDbEntity
  8
0
100
AcDbLine
 62
7
  6
CONTINUOUS
 10
4.2856748918
 20
2.0785793807
 11
4.2856748918
 21
5.4535793807
  0
LINE
  5
217
100
AcDbEntity
  8
0
100
AcDbLine
 62
7
  6
CONTINUOUS
 10
5.6409248918
 20
5.5632668807
 11
5.6484248918
 21
5.5707668807
  0
LINE
  5
218
100
AcDbEntity
  8
0
100
AcDbLine
 62
7
  6
CONTINUOUS
 10
4.6606748918
 20
2.0785793807
 11
4.6606748918
 21
5.4535793807
  0
LINE
  5
219
100
AcDbEntity
  8
0
100
AcDbLine
 62
7
  6
CONTINUOUS
 10
3.3054248918
 20
5.5632668807
 11
3.2979248919
 21
5.5707668807
  0
LINE
  5
21A
100
AcDbEntity
  8
0
100
AcDbLine
 62
7
  6
CONTINUOUS
 10
8.3497432957
 20
4.9680130925
 11
8.3497515742
 21
4.9680151295
  0
LINE
  5
21B
100
AcDbEntity
  8
0
100
AcDbLine
 62
7
  6
CONTINUOUS
 10
8.349743324
 20
4.9680130997
 11
8.3497515742
 21
4.9680151295
  0
LWPOLYLINE
  5
21C
100
AcDbEntity
  8
0
100
AcDbPolyline
 62
7
  6
CONTINUOUS
 90
4
 70
0
 10
8.3417885243
 20
4.96605975
 10
8.3421596871
 20
4.9661507174
 10
8.3425295715
 20
4.9662413863
 10
8.3432649949
 20
4.9664217094
  0
LINE
  5
21D
100
AcDbEntity
  8
0
100
AcDbLine
 62
7
  6
CONTINUOUS
 10
8.334601344
 20
4.9643016823
 11
8.349743324
 21
4.9680130997
  0
LINE
  5
21E
100
AcDbEntity
  8
0
100
AcDbLine
 62
7
  6
CONTINUOUS
 10
8.3343320721
 20
4.9642359394
 11
8.334601344
 21
4.9643016823
  0
LINE
  5
21F
100
AcDbEntity
  8
0
100
AcDbLine
 62
7
  6
CONTINUOUS
 10
8.3342005311
 20
4.9642038267
 11
8.3343320721
 21
4.9642359394
  0
LINE
  5
220
100
AcDbEntity
  8
0
100
AcDbLine
 62
7
  6
CONTINUOUS
 10
5.6409248918
 20
5.3438918807
 11
5.6409248918
 21
5.5632668807
  0
LINE
  5
221
100
AcDbEntity
  8
0
100
AcDbLine
 62
7
  6
CONTINUOUS
 10
5.6484248918
 20
5.3363918807
 11
5.6484248918
 21
5.5707668807
  0
LINE
  5
222
100
AcDbEntity
  8
0
100
AcDbLine
 62
7
  6
CONTINUOUS
 10
7.0940498919
 20
5.3438918808
 11
7.0865498919
 21
5.3363918808
  0
LINE
  5
223
100
AcDbEntity
  8
0
100
AcDbLine
 62
7
  6
CONTINUOUS
 10
8.2890207924
 20
4.9560616063
 11
8.3037124515
 21
4.9582396812
  0
LINE
  5
224
100
AcDbEntity
  8
0
100
AcDbLine
 62
7
  6
CONTINUOUS
 10
4.2856748918
 20
4.7973293807
 11
4.6606748918
 21
4.7973293807
  0
LINE
  5
225
100
AcDbEntity
  8
0
100
AcDbLine
 62
7
  6
CONTINUOUS
 10
8.3759615278
 20
4.9756580716
 11
8.0703882558
 21
4.9756580716
  0
LINE
  5
226
100
AcDbEntity
  8
0
100
AcDbLine
 62
7
  6
CONTINUOUS
 10
8.3806748918
 20
4.9777722941
 11
8.0656748918
 21
4.9777722941
  0
LINE
  5
227
100
AcDbEntity
  8
0
100
AcDbLine
 62
7
  6
CONTINUOUS
 10
8.3919248918
 20
4.9890222941
 11
8.0544248918
 21
4.9890222941
  0
LINE
  5
228
100
AcDbEntity
  8
0
100
AcDbLine
 62
7
  6
CONTINUOUS
 10
8.0281749689
 20
5.0040222941
 11
8.4181748147
 21
5.0040222941
  0
LINE
  5
229
100
AcDbEntity
  8
0
100
AcDbLine
 62
7
  6
CONTINUOUS
 10
8.0169248918
 20
5.0152722941
 11
8.4294248918
 21
5.0152722941
  0
LWPOLYLINE
  5
22A
100
AcDbEntity
  8
0
100
AcDbPolyline
 62
7
  6
CONTINUOUS
 90
62
 70
0
 10
8.3438660973
 20
5.7050964219
 10
8.3444814661
 20
5.7051953851
 10
8.3450815575
 20
5.7052947476
 10
8.3456666884
 20
5.7053945352
 10
8.3462378489
 20
5.705494895
 10
8.3467952485
 20
5.7055958483
 10
8.3473392364
 20
5.7056974442
 10
8.3478709911
 20
5.705799899
 10
8.3483907043
 20
5.7059032557
 10
8.3488987031
 20
5.7060075879
 10
8.349396347
 20
5.7061131987
 10
8.3498840125
 20
5.7062202082
 10
8.3503617893
 20
5.7063286815
 10
8.3508306348
 20
5.7064388912
 10
8.3512907213
 20
5.7065509461
 10
8.3517424035
 20
5.7066650079
 10
8.3521869797
 20
5.7067815032
 10
8.3526245622
 20
5.7069005829
 10
8.3530555835
 20
5.7070224971
 10
8.3534818719
 20
5.7071479373
 10
8.3539035134
 20
5.7072771429
 10
8.3543209274
 20
5.7074104757
 10
8.3547364562
 20
5.7075489841
 10
8.3551501123
 20
5.7076930393
 10
8.3555622761
 20
5.707843171
 10
8.3559758091
 20
5.7080009251
 10
8.3563908905
 20
5.7081669926
 10
8.3568074863
 20
5.7083420355
 10
8.357228084
 20
5.7085279094
 10
8.3576532932
 20
5.7087258723
 10
8.3580822904
 20
5.7089366158
 10
8.3585154229
 20
5.7091614725
 10
8.3589530537
 20
5.7094019421
 10
8.3593942404
 20
5.70965893
 10
8.3598374358
 20
5.7099329868
 10
8.3602825051
 20
5.710225555
 10
8.3607284998
 20
5.7105376598
 10
8.3611727095
 20
5.7108690228
 10
8.3616146408
 20
5.7112208922
 10
8.362053132
 20
5.7115940799
 10
8.3624846029
 20
5.7119871519
 10
8.362908151
 20
5.7124007742
 10
8.3633227086
 20
5.7128354994
 10
8.3637247495
 20
5.7132890482
 10
8.3641129294
 20
5.7137610658
 10
8.3644866782
 20
5.7142521047
 10
8.3648439292
 20
5.7147606809
 10
8.3651835419
 20
5.7152862809
 10
8.3655047403
 20
5.7158289019
 10
8.3658061602
 20
5.7163874886
 10
8.3660866675
 20
5.7169611458
 10
8.3663455302
 20
5.7175496983
 10
8.3665819775
 20
5.7181529999
 10
8.3667948802
 20
5.7187699826
 10
8.3669833928
 20
5.7194002469
 10
8.367146913
 20
5.7200445934
 10
8.3672842581
 20
5.7207021002
 10
8.3673942862
 20
5.7213718479
 10
8.367476044
 20
5.7220545865
 10
8.367528225
 20
5.7227497886
 10
8.3675494366
 20
5.7234556138
 10
8.3675498904
 20
5.9442193023
  0
LINE
  5
22B
100
AcDbEntity
  8
0
100
AcDbLine
 62
7
  6
CONTINUOUS
 10
8.3425878601
 20
5.7048995424
 11
8.3438660973
 21
5.7050964219
  0
LINE
  5
22C
100
AcDbEntity
  8
0
100
AcDbLine
 62
7
  6
CONTINUOUS
 10
8.3412426237
 20
5.7047037257
 11
8.3425878601
 21
5.7048995424
  0
LWPOLYLINE
  5
22D
100
AcDbEntity
  8
0
100
AcDbPolyline
 62
7
  6
CONTINUOUS
 90
3
 70
0
 10
8.3390908849
 20
5.7044115047
 10
8.3398264945
 20
5.7045087241
 10
8.3412426237
 20
5.7047037257
  0
LINE
  5
22E
100
AcDbEntity
  8
0
100
AcDbLine
 62
7
  6
CONTINUOUS
 10
8.4433811815
 20
5.0546472941
 11
8.0029686021
 21
5.0546472941
  0
LINE
  5
22F
100
AcDbEntity
  8
0
100
AcDbLine
 62
7
  6
CONTINUOUS
 10
8.4428898586
 20
5.1652722941
 11
8.4427214108
 21
5.1652722941
  0
LINE
  5
230
100
AcDbEntity
  8
0
100
AcDbLine
 62
7
  6
CONTINUOUS
 10
8.4417401116
 20
5.1652722941
 11
8.4414598783
 21
5.1652722941
  0
LINE
  5
231
100
AcDbEntity
  8
0
100
AcDbLine
 62
7
  6
CONTINUOUS
 10
8.4399912925
 20
5.1652722941
 11
8.4396000418
 21
5.1652722941
  0
LINE
  5
232
100
AcDbEntity
  8
0
100
AcDbLine
 62
7
  6
CONTINUOUS
 10
8.4376481947
 20
5.1652722941
 11
8.437146999
 21
5.1652722941
  0
LINE
  5
233
100
AcDbEntity
  8
0
100
AcDbLine
 62
7
  6
CONTINUOUS
 10
8.4347172406
 20
5.1652722941
 11
8.434105616
 21
5.1652722941
  0
LINE
  5
234
100
AcDbEntity
  8
0
100
AcDbLine
 62
7
  6
CONTINUOUS
 10
8.4312085817
 20
5.1652722941
 11
8.4304897966
 21
5.1652722941
  0
LINE
  5
235
100
AcDbEntity
  8
0
100
AcDbLine
 62
7
  6
CONTINUOUS
 10
8.4271254864
 20
5.1652722941
 11
8.4263038838
 21
5.1652722941
  0
LINE
  5
236
100
AcDbEntity
  8
0
100
AcDbLine
 62
7
  6
CONTINUOUS
 10
8.4224854948
 20
5.1652722941
 11
8.4215612087
 21
5.1652722941
  0
LINE
  5
237
100
AcDbEntity
  8
0
100
AcDbLine
 62
7
  6
CONTINUOUS
 10
8.4172992068
 20
5.1652722941
 11
8.4162747704
 21
5.1652722941
  0
LINE
  5
238
100
AcDbEntity
  8
0
100
AcDbLine
 62
7
  6
CONTINUOUS
 10
8.4115808375
 20
5.1652722941
 11
8.4104590587
 21
5.1652722941
  0
LINE
  5
239
100
AcDbEntity
  8
0
100
AcDbLine
 62
7
  6
CONTINUOUS
 10
8.4053460606
 20
5.1652722941
 11
8.4041263439
 21
5.1652722941
  0
LINE
  5
23A
100
AcDbEntity
  8
0
100
AcDbLine
 62
7
  6
CONTINUOUS
 10
8.3986158572
 20
5.1652722941
 11
8.3973049843
 21
5.1652722941
  0
LINE
  5
23B
100
AcDbEntity
  8
0
100
AcDbLine
 62
7
  6
CONTINUOUS
 10
8.391397009
 20
5.1652722941
 11
8.3900026759
 21
5.1652722941
  0
LINE
  5
23C
100
AcDbEntity
  8
0
100
AcDbLine
 62
7
  6
CONTINUOUS
 10
8.3837209676
 20
5.1652722941
 11
8.3822431041
 21
5.1652722941
  0
LINE
  5
23D
100
AcDbEntity
  8
0
100
AcDbLine
 62
7
  6
CONTINUOUS
 10
8.3756048806
 20
5.1652722941
 11
8.3740475374
 21
5.1652722941
  0
LINE
  5
23E
100
AcDbEntity
  8
0
100
AcDbLine
 62
7
  6
CONTINUOUS
 10
8.3670709936
 20
5.1652722941
 11
8.3654384393
 21
5.1652722941
  0
LINE
  5
23F
100
AcDbEntity
  8
0
100
AcDbLine
 62
7
  6
CONTINUOUS
 10
8.3581426974
 20
5.1652722941
 11
8.3564342829
 21
5.1652722941
  0
LINE
  5
240
100
AcDbEntity
  8
0
100
AcDbLine
 62
7
  6
CONTINUOUS
 10
8.3488497486
 20
5.1652722941
 11
8.3470751053
 21
5.1652722941
  0
LINE
  5
241
100
AcDbEntity
  8
0
100
AcDbLine
 62
7
  6
CONTINUOUS
 10
8.3392017786
 20
5.1652722941
 11
8.3373712021
 21
5.1652722941
  0
LINE
  5
242
100
AcDbEntity
  8
0
100
AcDbLine
 62
7
  6
CONTINUOUS
 10
8.3292410719
 20
5.1652722941
 11
8.3273542947
 21
5.1652722941
  0
LINE
  5
243
100
AcDbEntity
  8
0
100
AcDbLine
 62
7
  6
CONTINUOUS
 10
8.3189896451
 20
5.1652722941
 11
8.3170518388
 21
5.1652722941
  0
LINE
  5
244
100
AcDbEntity
  8
0
100
AcDbLine
 62
7
  6
CONTINUOUS
 10
8.3084755967
 20
5.1652722941
 11
8.3064920727
 21
5.1652722941
  0
LINE
  5
245
100
AcDbEntity
  8
0
100
AcDbLine
 62
7
  6
CONTINUOUS
 10
8.297727745
 20
5.1652722941
 11
8.2956978643
 21
5.1652722941
  0
LINE
  5
246
100
AcDbEntity
  8
0
100
AcDbLine
 62
7
  6
CONTINUOUS
 10
8.2867817095
 20
5.1652722941
 11
8.2847170102
 21
5.1652722941
  0
LINE
  5
247
100
AcDbEntity
  8
0
100
AcDbLine
 62
7
  6
CONTINUOUS
 10
8.2756490282
 20
5.1652722941
 11
8.2735613978
 21
5.1652722941
  0
LINE
  5
248
100
AcDbEntity
  8
0
100
AcDbLine
 62
7
  6
CONTINUOUS
 10
8.2643786794
 20
5.1652722941
 11
8.2622676794
 21
5.1652722941
  0
LINE
  5
249
100
AcDbEntity
  8
0
100
AcDbLine
 62
7
  6
CONTINUOUS
 10
8.2529953939
 20
5.1652722941
 11
8.2508668105
 21
5.1652722941
  0
LINE
  5
24A
100
AcDbEntity
  8
0
100
AcDbLine
 62
7
  6
CONTINUOUS
 10
8.2415303724
 20
5.1652722941
 11
8.2393900399
 21
5.1652722941
  0
LINE
  5
24B
100
AcDbEntity
  8
0
100
AcDbLine
 62
7
  6
CONTINUOUS
 10
8.2300150399
 20
5.1652722941
 11
8.2278623918
 21
5.1652722941
  0
LINE
  5
24C
100
AcDbEntity
  8
0
100
AcDbLine
 62
7
  6
CONTINUOUS
 10
8.2184873918
 20
5.1652722941
 11
8.2163347437
 21
5.1652722941
  0
LINE
  5
24D
100
AcDbEntity
  8
0
100
AcDbLine
 62
7
  6
CONTINUOUS
 10
8.2069597437
 20
5.1652722941
 11
8.2048194112
 21
5.1652722941
  0
LINE
  5
24E
100
AcDbEntity
  8
0
100
AcDbLine
 62
7
  6
CONTINUOUS
 10
8.1954829732
 20
5.1652722941
 11
8.1933543897
 21
5.1652722941
  0
LINE
  5
24F
100
AcDbEntity
  8
0
100
AcDbLine
 62
7
  6
CONTINUOUS
 10
8.1840821042
 20
5.1652722941
 11
8.1819711042
 21
5.1652722941
  0
LINE
  5
250
100
AcDbEntity
  8
0
100
AcDbLine
 62
7
  6
CONTINUOUS
 10
8.1727883858
 20
5.1652722941
 11
8.1707007554
 21
5.1652722941
  0
LINE
  5
251
100
AcDbEntity
  8
0
100
AcDbLine
 62
7
  6
CONTINUOUS
 10
8.1616327734
 20
5.1652722941
 11
8.1595680742
 21
5.1652722941
  0
LINE
  5
252
100
AcDbEntity
  8
0
100
AcDbLine
 62
7
  6
CONTINUOUS
 10
8.1506519193
 20
5.1652722941
 11
8.1486220386
 21
5.1652722941
  0
LINE
  5
253
100
AcDbEntity
  8
0
100
AcDbLine
 62
7
  6
CONTINUOUS
 10
8.1398577109
 20
5.1652722941
 11
8.1378741869
 21
5.1652722941
  0
LINE
  5
254
100
AcDbEntity
  8
0
100
AcDbLine
 62
7
  6
CONTINUOUS
 10
8.1292979448
 20
5.1652722941
 11
8.1273601386
 21
5.1652722941
  0
LINE
  5
255
100
AcDbEntity
  8
0
100
AcDbLine
 62
7
  6
CONTINUOUS
 10
8.1189954889
 20
5.1652722941
 11
8.1171087117
 21
5.1652722941
  0
LINE
  5
256
100
AcDbEntity
  8
0
100
AcDbLine
 62
7
  6
CONTINUOUS
 10
8.1089785815
 20
5.1652722941
 11
8.107148005
 21
5.1652722941
  0
LINE
  5
257
100
AcDbEntity
  8
0
100
AcDbLine
 62
7
  6
CONTINUOUS
 10
8.0992746783
 20
5.1652722941
 11
8.097500035
 21
5.1652722941
  0
LINE
  5
258
100
AcDbEntity
  8
0
100
AcDbLine
 62
7
  6
CONTINUOUS
 10
8.0899155007
 20
5.1652722941
 11
8.0882070862
 21
5.1652722941
  0
LINE
  5
259
100
AcDbEntity
  8
0
100
AcDbLine
 62
7
  6
CONTINUOUS
 10
8.0809113443
 20
5.1652722941
 11
8.07927879
 21
5.1652722941
  0
LINE
  5
25A
100
AcDbEntity
  8
0
100
AcDbLine
 62
7
  6
CONTINUOUS
 10
8.0723022462
 20
5.1652722941
 11
8.070744903
 21
5.1652722941
  0
LINE
  5
25B
100
AcDbEntity
  8
0
100
AcDbLine
 62
7
  6
CONTINUOUS
 10
8.0641066795
 20
5.1652722941
 11
8.062628816
 21
5.1652722941
  0
LINE
  5
25C
100
AcDbEntity
  8
0
100
AcDbLine
 62
7
  6
CONTINUOUS
 10
8.0563471077
 20
5.1652722941
 11
8.0549527746
 21
5.1652722941
  0
LINE
  5
25D
100
AcDbEntity
  8
0
100
AcDbLine
 62
7
  6
CONTINUOUS
 10
8.0490447993
 20
5.1652722941
 11
8.0477339264
 21
5.1652722941
  0
LINE
  5
25E
100
AcDbEntity
  8
0
100
AcDbLine
 62
7
  6
CONTINUOUS
 10
8.0422234397
 20
5.1652722941
 11
8.041003723
 21
5.1652722941
  0
LINE
  5
25F
100
AcDbEntity
  8
0
100
AcDbLine
 62
7
  6
CONTINUOUS
 10
8.0358907249
 20
5.1652722941
 11
8.0347689461
 21
5.1652722941
  0
LINE
  5
260
100
AcDbEntity
  8
0
100
AcDbLine
 62
7
  6
CONTINUOUS
 10
8.0300750132
 20
5.1652722941
 11
8.0290505768
 21
5.1652722941
  0
LINE
  5
261
100
AcDbEntity
  8
0
100
AcDbLine
 62
7
  6
CONTINUOUS
 10
8.0247885749
 20
5.1652722941
 11
8.0238642888
 21
5.1652722941
  0
LINE
  5
262
100
AcDbEntity
  8
0
100
AcDbLine
 62
7
  6
CONTINUOUS
 10
8.0200458998
 20
5.1652722941
 11
8.0192242972
 21
5.1652722941
  0
LINE
  5
263
100
AcDbEntity
  8
0
100
AcDbLine
 62
7
  6
CONTINUOUS
 10
8.015859987
 20
5.1652722941
 11
8.0151412019
 21
5.1652722941
  0
LINE
  5
264
100
AcDbEntity
  8
0
100
AcDbLine
 62
7
  6
CONTINUOUS
 10
8.0122441676
 20
5.1652722941
 11
8.011632543
 21
5.1652722941
  0
LINE
  5
265
100
AcDbEntity
  8
0
100
AcDbLine
 62
7
  6
CONTINUOUS
 10
8.0092027846
 20
5.1652722941
 11
8.0087015889
 21
5.1652722941
  0
LINE
  5
266
100
AcDbEntity
  8
0
100
AcDbLine
 62
7
  6
CONTINUOUS
 10
8.0067497418
 20
5.1652722941
 11
8.0063584911
 21
5.1652722941
  0
LINE
  5
267
100
AcDbEntity
  8
0
100
AcDbLine
 62
7
  6
CONTINUOUS
 10
8.0048899053
 20
5.1652722941
 11
8.004609672
 21
5.1652722941
  0
LINE
  5
268
100
AcDbEntity
  8
0
100
AcDbLine
 62
7
  6
CONTINUOUS
 10
8.0036283728
 20
5.1652722941
 11
8.003459925
 21
5.1652722941
  0
LINE
  5
269
100
AcDbEntity
  8
0
100
AcDbLine
 62
7
  6
CONTINUOUS
 10
8.4359873918
 20
5.1727722941
 11
8.0103623918
 21
5.1727722941
  0
LINE
  5
26A
100
AcDbEntity
  8
0
100
AcDbLine
 62
7
  6
CONTINUOUS
 10
2.973177223
 20
5.2192043807
 11
4.2856748918
 21
5.2192043807
  0
LINE
  5
26B
100
AcDbEntity
  8
0
100
AcDbLine
 62
7
  6
CONTINUOUS
 10
4.6606748918
 20
5.2192043807
 11
5.9731725006
 21
5.2192043807
  0
LINE
  5
26C
100
AcDbEntity
  8
0
100
AcDbLine
 62
7
  6
CONTINUOUS
 10
5.6409248918
 20
5.3438918808
 11
5.6484248918
 21
5.3363918808
  0
LINE
  5
26D
100
AcDbEntity
  8
0
100
AcDbLine
 62
7
  6
CONTINUOUS
 10
8.3375606324
 20
5.7042173487
 11
8.3390908849
 21
5.7044115047
  0
LINE
  5
26E
100
AcDbEntity
  8
0
100
AcDbLine
 62
7
  6
CONTINUOUS
 10
8.3359480657
 20
5.7040234702
 11
8.3375606324
 21
5.7042173487
  0
LINE
  5
26F
100
AcDbEntity
  8
0
100
AcDbLine
 62
7
  6
CONTINUOUS
 10
8.3342459932
 20
5.7038294856
 11
8.3359480657
 21
5.7040234702
  0
LINE
  5
270
100
AcDbEntity
  8
0
100
AcDbLine
 62
7
  6
CONTINUOUS
 10
8.3324469245
 20
5.7036351034
 11
8.3342459932
 21
5.7038294856
  0
LINE
  5
271
100
AcDbEntity
  8
0
100
AcDbLine
 62
7
  6
CONTINUOUS
 10
8.3305444493
 20
5.7034402515
 11
8.3324469245
 21
5.7036351034
  0
LINE
  5
272
100
AcDbEntity
  8
0
100
AcDbLine
 62
7
  6
CONTINUOUS
 10
8.3285304529
 20
5.703244766
 11
8.3305444493
 21
5.7034402515
  0
LINE
  5
273
100
AcDbEntity
  8
0
100
AcDbLine
 62
7
  6
CONTINUOUS
 10
8.3263963286
 20
5.7030485485
 11
8.3285304529
 21
5.703244766
  0
LINE
  5
274
100
AcDbEntity
  8
0
100
AcDbLine
 62
7
  6
CONTINUOUS
 10
8.3241353957
 20
5.702851777
 11
8.3263963286
 21
5.7030485485
  0
LINE
  5
275
100
AcDbEntity
  8
0
100
AcDbLine
 62
7
  6
CONTINUOUS
 10
8.3217406026
 20
5.7026546575
 11
8.3241353957
 21
5.702851777
  0
LINE
  5
276
100
AcDbEntity
  8
0
100
AcDbLine
 62
7
  6
CONTINUOUS
 10
8.319206858
 20
5.7024576058
 11
8.3217406026
 21
5.7026546575
  0
LINE
  5
277
100
AcDbEntity
  8
0
100
AcDbLine
 62
7
  6
CONTINUOUS
 10
8.3151347474
 20
5.7021631711
 11
8.319206858
 21
5.7024576058
  0
LINE
  5
278
100
AcDbEntity
  8
0
100
AcDbLine
 62
7
  6
CONTINUOUS
 10
8.3107229718
 20
5.7018716787
 11
8.3151347474
 21
5.7021631711
  0
LINE
  5
279
100
AcDbEntity
  8
0
100
AcDbLine
 62
7
  6
CONTINUOUS
 10
8.3059591484
 20
5.701585203
 11
8.3107229718
 21
5.7018716787
  0
LWPOLYLINE
  5
27A
100
AcDbEntity
  8
0
100
AcDbPolyline
 62
7
  6
CONTINUOUS
 90
3
 70
0
 10
8.2990428358
 20
5.7012150145
 10
8.3008333052
 20
5.7013060313
 10
8.3059591484
 20
5.701585203
  0
LINE
  5
27B
100
AcDbEntity
  8
0
100
AcDbLine
 62
7
  6
CONTINUOUS
 10
7.0865498918
 20
5.3363918807
 11
5.6484248918
 21
5.3363918807
  0
LINE
  5
27C
100
AcDbEntity
  8
0
100
AcDbLine
 62
7
  6
CONTINUOUS
 10
1.8597998918
 20
5.3363918807
 11
3.2979248918
 21
5.3363918807
  0
LINE
  5
27D
100
AcDbEntity
  8
0
100
AcDbLine
 62
7
  6
CONTINUOUS
 10
8.1426373324
 20
4.9582396812
 11
8.1573289918
 21
4.9560616063
  0
LINE
  5
27E
100
AcDbEntity
  8
0
100
AcDbLine
 62
7
  6
CONTINUOUS
 10
7.0865498918
 20
5.5707668807
 11
7.0865498918
 21
5.3363918807
  0
LINE
  5
27F
100
AcDbEntity
  8
0
100
AcDbLine
 62
7
  6
CONTINUOUS
 10
7.0940498918
 20
5.5632668807
 11
7.0940498918
 21
5.3438918807
  0
LINE
  5
280
100
AcDbEntity
  8
0
100
AcDbLine
 62
7
  6
CONTINUOUS
 10
8.293424048
 20
5.7009494801
 11
8.2990428358
 21
5.7012150145
  0
LINE
  5
281
100
AcDbEntity
  8
0
100
AcDbLine
 62
7
  6
CONTINUOUS
 10
8.2874228247
 20
5.7006969379
 11
8.293424048
 21
5.7009494801
  0
LINE
  5
282
100
AcDbEntity
  8
0
100
AcDbLine
 62
7
  6
CONTINUOUS
 10
8.2809840702
 20
5.7004584319
 11
8.2874228247
 21
5.7006969379
  0
LINE
  5
283
100
AcDbEntity
  8
0
100
AcDbLine
 62
7
  6
CONTINUOUS
 10
8.2740239105
 20
5.7002352199
 11
8.2809840702
 21
5.7004584319
  0
LINE
  5
284
100
AcDbEntity
  8
0
100
AcDbLine
 62
7
  6
CONTINUOUS
 10
8.2664752537
 20
5.7000306724
 11
8.2740239105
 21
5.7002352199
  0
LINE
  5
285
100
AcDbEntity
  8
0
100
AcDbLine
 62
7
  6
CONTINUOUS
 10
8.2583371788
 20
5.6998509138
 11
8.2664752537
 21
5.7000306724
  0
LINE
  5
286
100
AcDbEntity
  8
0
100
AcDbLine
 62
7
  6
CONTINUOUS
 10
8.2496476676
 20
5.6997028981
 11
8.2583371788
 21
5.6998509138
  0
LINE
  5
287
100
AcDbEntity
  8
0
100
AcDbLine
 62
7
  6
CONTINUOUS
 10
8.2405004194
 20
5.699593744
 11
8.2496476676
 21
5.6997028981
  0
LINE
  5
288
100
AcDbEntity
  8
0
100
AcDbLine
 62
7
  6
CONTINUOUS
 10
8.2310438157
 20
5.6995294465
 11
8.2405004194
 21
5.699593744
  0
LINE
  5
289
100
AcDbEntity
  8
0
100
AcDbLine
 62
7
  6
CONTINUOUS
 10
7.0865498918
 20
5.5707668807
 11
5.6484248918
 21
5.5707668807
  0
LINE
  5
28A
100
AcDbEntity
  8
0
100
AcDbLine
 62
7
  6
CONTINUOUS
 10
1.8597998918
 20
5.5707668807
 11
3.2979248918
 21
5.5707668807
  0
LINE
  5
28B
100
AcDbEntity
  8
0
100
AcDbLine
 62
7
  6
CONTINUOUS
 10
8.4149873918
 20
5.6605793807
 11
8.0313623918
 21
5.6605793807
  0
LINE
  5
28C
100
AcDbEntity
  8
0
100
AcDbLine
 62
7
  6
CONTINUOUS
 10
8.0426124617
 20
5.6718293807
 11
8.403724472
 21
5.6718293807
  0
LINE
  5
28D
100
AcDbEntity
  8
0
100
AcDbLine
 62
7
  6
CONTINUOUS
 10
8.0501123918
 20
5.6868293807
 11
8.3962373918
 21
5.6868293807
  0
LINE
  5
28E
100
AcDbEntity
  8
0
100
AcDbLine
 62
7
  6
CONTINUOUS
 10
2.9731773017
 20
5.6879543807
 11
5.9731725264
 21
5.6879543807
  0
LINE
  5
28F
100
AcDbEntity
  8
0
100
AcDbLine
 62
7
  6
CONTINUOUS
 10
8.0613624674
 20
5.6980793807
 11
8.3849873163
 21
5.6980793807
  0
LINE
  5
290
100
AcDbEntity
  8
0
100
AcDbLine
 62
7
  6
CONTINUOUS
 10
8.0937998918
 20
5.7590273508
 11
8.3525498918
 21
5.7590273508
  0
LINE
  5
291
100
AcDbEntity
  8
0
100
AcDbLine
 62
7
  6
CONTINUOUS
 10
8.0937998918
 20
5.7980614568
 11
8.3525498918
 21
5.7980614568
  0
LINE
  5
292
100
AcDbEntity
  8
0
100
AcDbLine
 62
7
  6
CONTINUOUS
 10
8.2214456029
 20
5.6995136136
 11
8.2310438157
 21
5.6995294465
  0
LINE
  5
293
100
AcDbEntity
  8
0
100
AcDbLine
 62
7
  6
CONTINUOUS
 10
8.2118781747
 20
5.6995471323
 11
8.2214456029
 21
5.6995136136
  0
LINE
  5
294
100
AcDbEntity
  8
0
100
AcDbLine
 62
7
  6
CONTINUOUS
 10
8.2025129247
 20
5.699628134
 11
8.2118781747
 21
5.6995471323
  0
LINE
  5
295
100
AcDbEntity
  8
0
100
AcDbLine
 62
7
  6
CONTINUOUS
 10
8.1935154651
 20
5.6997520597
 11
8.2025129247
 21
5.699628134
  0
LINE
  5
296
100
AcDbEntity
  8
0
100
AcDbLine
 62
7
  6
CONTINUOUS
 10
8.1850183785
 20
5.6999123031
 11
8.1935154651
 21
5.6997520597
  0
LINE
  5
297
100
AcDbEntity
  8
0
100
AcDbLine
 62
7
  6
CONTINUOUS
 10
8.177088614
 20
5.7001017936
 11
8.1850183785
 21
5.6999123031
  0
LINE
  5
298
100
AcDbEntity
  8
0
100
AcDbLine
 62
7
  6
CONTINUOUS
 10
8.1697574822
 20
5.7003135815
 11
8.177088614
 21
5.7001017936
  0
LINE
  5
299
100
AcDbEntity
  8
0
100
AcDbLine
 62
7
  6
CONTINUOUS
 10
8.1629945632
 20
5.7005425438
 11
8.1697574822
 21
5.7003135815
  0
LINE
  5
29A
100
AcDbEntity
  8
0
100
AcDbLine
 62
7
  6
CONTINUOUS
 10
8.1121410897
 20
4.9642058194
 11
8.1121492526
 21
4.9642038267
  0
LWPOLYLINE
  5
29B
100
AcDbEntity
  8
0
100
AcDbPolyline
 62
7
  6
CONTINUOUS
 90
4
 70
0
 10
8.104289377
 20
4.9661263814
 10
8.1046576107
 20
4.9660361413
 10
8.1050241437
 20
4.9659463324
 10
8.1057517688
 20
4.9657680966
  0
LINE
  5
29C
100
AcDbEntity
  8
0
100
AcDbLine
 62
7
  6
CONTINUOUS
 10
8.0970583102
 20
4.9679019321
 11
8.1121411026
 21
4.9642058163
  0
LINE
  5
29D
100
AcDbEntity
  8
0
100
AcDbLine
 62
7
  6
CONTINUOUS
 10
8.0965982105
 20
4.9680151292
 11
8.0970583102
 21
4.9679019321
  0
LWPOLYLINE
  5
29E
100
AcDbEntity
  8
0
100
AcDbPolyline
 62
7
  6
CONTINUOUS
 90
62
 70
0
 10
8.1379398665
 20
5.9748013271
 10
8.136419703
 20
5.9747842389
 10
8.1349078365
 20
5.9747514216
 10
8.1334087067
 20
5.9747032354
 10
8.1319204404
 20
5.9746398558
 10
8.1304349478
 20
5.9745609512
 10
8.1289533578
 20
5.9744664292
 10
8.1274769406
 20
5.9743562917
 10
8.1259980319
 20
5.9742297704
 10
8.1245177041
 20
5.9740865875
 10
8.1230373552
 20
5.9739264775
 10
8.121550148
 20
5.973748123
 10
8.1200548738
 20
5.9735505591
 10
8.1185560807
 20
5.9733335548
 10
8.1170556197
 20
5.9730966421
 10
8.1155521174
 20
5.9728387679
 10
8.1140505034
 20
5.9725598801
 10
8.1125614993
 20
5.972261267
 10
8.1110863443
 20
5.971942604
 10
8.1096267078
 20
5.9716036416
 10
8.1081925193
 20
5.9712463562
 10
8.1067845069
 20
5.9708707988
 10
8.1054031531
 20
5.9704769082
 10
8.1040565862
 20
5.970066965
 10
8.102745476
 20
5.9696413183
 10
8.1014690856
 20
5.9691998235
 10
8.1002319951
 20
5.9687443283
 10
8.0990347032
 20
5.968275473
 10
8.0978751745
 20
5.9677928597
 10
8.0967533674
 20
5.9672967922
 10
8.09566841
 20
5.9667871693
 10
8.0946195564
 20
5.9662638593
 10
8.0936066124
 20
5.9657269622
 10
8.0926287179
 20
5.9651762548
 10
8.0916849429
 20
5.9646113983
 10
8.0907747449
 20
5.9640321918
 10
8.0898974815
 20
5.9634382969
 10
8.0890524334
 20
5.9628292216
 10
8.0882389972
 20
5.9622044364
 10
8.0874565011
 20
5.9615632218
 10
8.0867049927
 20
5.960905336
 10
8.0859850441
 20
5.9602310446
 10
8.085296417
 20
5.9595398814
 10
8.0846392748
 20
5.9588316892
 10
8.0840148426
 20
5.9581075365
 10
8.0834232736
 20
5.9573674235
 10
8.0828648015
 20
5.9566114069
 10
8.0823407249
 20
5.9558411196
 10
8.0818512857
 20
5.9550569271
 10
8.0813968193
 20
5.9542593511
 10
8.0809785748
 20
5.9534507986
 10
8.0805967605
 20
5.9526322157
 10
8.0802514675
 20
5.9518044142
 10
8.0799434204
 20
5.9509700756
 10
8.0796726146
 20
5.950130618
 10
8.0794388175
 20
5.9492869504
 10
8.0792420677
 20
5.948441276
 10
8.0790820368
 20
5.9475949505
 10
8.0789583022
 20
5.9467491519
 10
8.0788704719
 20
5.9459059306
 10
8.0788179435
 20
5.94506681
 10
8.0788000029
 20
5.9442194613
  0
LINE
  5
29F
100
AcDbEntity
  8
0
100
AcDbLine
 62
7
  6
CONTINUOUS
 10
8.1387998918
 20
5.9739867593
 11
8.3075498918
 21
5.9739867593
  0
LINE
  5
2A0
100
AcDbEntity
  8
0
100
AcDbLine
 62
7
  6
CONTINUOUS
 10
8.1379398665
 20
5.9748013271
 11
8.3075498909
 21
5.9748039806
  0
LINE
  5
2A1
100
AcDbEntity
  8
0
100
AcDbLine
 62
7
  6
CONTINUOUS
 10
8.1567215155
 20
5.7007862092
 11
8.1629945632
 21
5.7005425438
  0
LINE
  5
2A2
100
AcDbEntity
  8
0
100
AcDbLine
 62
7
  6
CONTINUOUS
 10
8.1508596024
 20
5.7010436979
 11
8.1567215155
 21
5.7007862092
  0
LINE
  5
2A3
100
AcDbEntity
  8
0
100
AcDbLine
 62
7
  6
CONTINUOUS
 10
8.1453744102
 20
5.7013133923
 11
8.1508596024
 21
5.7010436979
  0
LINE
  5
2A4
100
AcDbEntity
  8
0
100
AcDbLine
 62
7
  6
CONTINUOUS
 10
8.1402581431
 20
5.7015928039
 11
8.1453744102
 21
5.7013133923
  0
LINE
  5
2A5
100
AcDbEntity
  8
0
100
AcDbLine
 62
7
  6
CONTINUOUS
 10
8.1355036467
 20
5.7018794596
 11
8.1402581431
 21
5.7015928039
  0
LINE
  5
2A6
100
AcDbEntity
  8
0
100
AcDbLine
 62
7
  6
CONTINUOUS
 10
8.131100884
 20
5.7021710774
 11
8.1355036467
 21
5.7018794596
  0
LINE
  5
2A7
100
AcDbEntity
  8
0
100
AcDbLine
 62
7
  6
CONTINUOUS
 10
8.1270373974
 20
5.7024655905
 11
8.131100884
 21
5.7021710774
  0
LINE
  5
2A8
100
AcDbEntity
  8
0
100
AcDbLine
 62
7
  6
CONTINUOUS
 10
8.124509159
 20
5.702662672
 11
8.1270373974
 21
5.7024655905
  0
LINE
  5
2A9
100
AcDbEntity
  8
0
100
AcDbLine
 62
7
  6
CONTINUOUS
 10
8.1221196707
 20
5.7028598052
 11
8.124509159
 21
5.702662672
  0
LINE
  5
2AA
100
AcDbEntity
  8
0
100
AcDbLine
 62
7
  6
CONTINUOUS
 10
8.1198638488
 20
5.7030565752
 11
8.1221196707
 21
5.7028598052
  0
LINE
  5
2AB
100
AcDbEntity
  8
0
100
AcDbLine
 62
7
  6
CONTINUOUS
 10
8.1177345702
 20
5.7032527839
 11
8.1198638488
 21
5.7030565752
  0
LINE
  5
2AC
100
AcDbEntity
  8
0
100
AcDbLine
 62
7
  6
CONTINUOUS
 10
8.1157251394
 20
5.7034482578
 11
8.1177345702
 21
5.7032527839
  0
LINE
  5
2AD
100
AcDbEntity
  8
0
100
AcDbLine
 62
7
  6
CONTINUOUS
 10
8.113826949
 20
5.7036430988
 11
8.1157251394
 21
5.7034482578
  0
LINE
  5
2AE
100
AcDbEntity
  8
0
100
AcDbLine
 62
7
  6
CONTINUOUS
 10
8.1120318983
 20
5.7038374731
 11
8.113826949
 21
5.7036430988
  0
LINE
  5
2AF
100
AcDbEntity
  8
0
100
AcDbLine
 62
7
  6
CONTINUOUS
 10
8.1103335864
 20
5.704031455
 11
8.1120318983
 21
5.7038374731
  0
LINE
  5
2B0
100
AcDbEntity
  8
0
100
AcDbLine
 62
7
  6
CONTINUOUS
 10
8.1087245298
 20
5.7042253392
 11
8.1103335864
 21
5.704031455
  0
LWPOLYLINE
  5
2B1
100
AcDbEntity
  8
0
100
AcDbPolyline
 62
7
  6
CONTINUOUS
 90
3
 70
0
 10
8.1064635111
 20
5.7045167422
 10
8.1071975604
 20
5.7044195108
 10
8.1087245298
 20
5.7042253392
  0
LINE
  5
2B2
100
AcDbEntity
  8
0
100
AcDbLine
 62
7
  6
CONTINUOUS
 10
8.1050503942
 20
5.7047117713
 11
8.1064635111
 21
5.7045167422
  0
LINE
  5
2B3
100
AcDbEntity
  8
0
100
AcDbLine
 62
7
  6
CONTINUOUS
 10
8.1037080235
 20
5.7049076219
 11
8.1050503942
 21
5.7047117713
  0
LINE
  5
2B4
100
AcDbEntity
  8
0
100
AcDbLine
 62
7
  6
CONTINUOUS
 10
7.0940498919
 20
5.5632668806
 11
7.0865498919
 21
5.5707668806
  0
LWPOLYLINE
  5
2B5
100
AcDbEntity
  8
0
100
AcDbPolyline
 62
7
  6
CONTINUOUS
 90
62
 70
0
 10
8.0787999153
 20
5.7235725687
 10
8.0788188187
 20
5.7228036341
 10
8.078868619
 20
5.7221080852
 10
8.0789480642
 20
5.7214248341
 10
8.0790558563
 20
5.7207544239
 10
8.0791910409
 20
5.7200961377
 10
8.0793524814
 20
5.7194509051
 10
8.0795390019
 20
5.718819652
 10
8.0797499945
 20
5.7182015986
 10
8.0799846132
 20
5.7175971574
 10
8.0802417346
 20
5.7170073969
 10
8.0805205906
 20
5.7164324653
 10
8.0808204509
 20
5.7158725428
 10
8.0811401835
 20
5.7153285343
 10
8.0814784254
 20
5.7148015058
 10
8.0818343946
 20
5.7142914739
 10
8.0822069545
 20
5.7137989535
 10
8.0825940543
 20
5.7133254234
 10
8.0829951158
 20
5.712870345
 10
8.0834087982
 20
5.712434078
 10
8.0838316107
 20
5.7120188876
 10
8.0842624988
 20
5.7116242201
 10
8.0847005421
 20
5.7112494354
 10
8.0851421488
 20
5.7108959955
 10
8.085586148
 20
5.7105630991
 10
8.0860320411
 20
5.7102495029
 10
8.0864771087
 20
5.7099554989
 10
8.0869204074
 20
5.7096800591
 10
8.087361784
 20
5.7094217503
 10
8.087799648
 20
5.7091800466
 10
8.088233055
 20
5.7089540386
 10
8.0886623587
 20
5.708742224
 10
8.0890878509
 20
5.7085432886
 10
8.0895087004
 20
5.7083565365
 10
8.0899255161
 20
5.7081806998
 10
8.0903407383
 20
5.70801393
 10
8.0907543092
 20
5.7078555651
 10
8.0911664227
 20
5.7077048997
 10
8.0915799489
 20
5.7075603738
 10
8.0919952636
 20
5.7074214536
 10
8.092412379
 20
5.7072877623
 10
8.0928336533
 20
5.7071582398
 10
8.0932595062
 20
5.7070325206
 10
8.0936900216
 20
5.7069103625
 10
8.0941270417
 20
5.7067910661
 10
8.0945709999
 20
5.7066743787
 10
8.0950220074
 20
5.7065601478
 10
8.0954813747
 20
5.7064479412
 10
8.0959494617
 20
5.7063375945
 10
8.0964264369
 20
5.706228999
 10
8.0969132557
 20
5.7061218807
 10
8.0974100084
 20
5.7060161736
 10
8.0979170711
 20
5.7059117562
 10
8.0984357998
 20
5.7058083252
 10
8.0989665174
 20
5.7057058066
 10
8.0995094187
 20
5.705604156
 10
8.1000656885
 20
5.7055031548
 10
8.1006356769
 20
5.7054027532
 10
8.1012195923
 20
5.7053029297
 10
8.1018184275
 20
5.7052035358
 10
8.1024324996
 20
5.7051045454
 10
8.1037080235
 20
5.7049076219
  0
LINE
  5
2B6
100
AcDbEntity
  8
0
100
AcDbLine
 62
7
  6
CONTINUOUS
 10
8.0029122645
 20
5.0546472941
 11
8.0029122645
 21
5.1652722941
  0
LINE
  5
2B7
100
AcDbEntity
  8
0
100
AcDbLine
 62
7
  6
CONTINUOUS
 10
8.0029686021
 20
5.0546472941
 11
8.0029686021
 21
5.1652722941
  0
LINE
  5
2B8
100
AcDbEntity
  8
0
100
AcDbLine
 62
7
  6
CONTINUOUS
 10
8.003459925
 20
5.0546472941
 11
8.003459925
 21
5.1652722941
  0
LINE
  5
2B9
100
AcDbEntity
  8
0
100
AcDbLine
 62
7
  6
CONTINUOUS
 10
8.0036283728
 20
5.0546472941
 11
8.0036283728
 21
5.1652722941
  0
LINE
  5
2BA
100
AcDbEntity
  8
0
100
AcDbLine
 62
7
  6
CONTINUOUS
 10
8.004609672
 20
5.0546472941
 11
8.004609672
 21
5.1652722941
  0
LINE
  5
2BB
100
AcDbEntity
  8
0
100
AcDbLine
 62
7
  6
CONTINUOUS
 10
8.0048899053
 20
5.0546472941
 11
8.0048899053
 21
5.1652722941
  0
LINE
  5
2BC
100
AcDbEntity
  8
0
100
AcDbLine
 62
7
  6
CONTINUOUS
 10
8.0063584911
 20
5.0546472941
 11
8.0063584911
 21
5.1652722941
  0
LINE
  5
2BD
100
AcDbEntity
  8
0
100
AcDbLine
 62
7
  6
CONTINUOUS
 10
8.0067497418
 20
5.0546472941
 11
8.0067497418
 21
5.1652722941
  0
LINE
  5
2BE
100
AcDbEntity
  8
0
100
AcDbLine
 62
7
  6
CONTINUOUS
 10
8.0087015889
 20
5.0546472941
 11
8.0087015889
 21
5.1652722941
  0
LINE
  5
2BF
100
AcDbEntity
  8
0
100
AcDbLine
 62
7
  6
CONTINUOUS
 10
8.0092027846
 20
5.0546472941
 11
8.0092027846
 21
5.1652722941
  0
LINE
  5
2C0
100
AcDbEntity
  8
0
100
AcDbLine
 62
7
  6
CONTINUOUS
 10
8.011632543
 20
5.0546472941
 11
8.011632543
 21
5.1652722941
  0
LINE
  5
2C1
100
AcDbEntity
  8
0
100
AcDbLine
 62
7
  6
CONTINUOUS
 10
8.0122441676
 20
5.0546472941
 11
8.0122441676
 21
5.1652722941
  0
LINE
  5
2C2
100
AcDbEntity
  8
0
100
AcDbLine
 62
7
  6
CONTINUOUS
 10
8.0151412019
 20
5.0546472941
 11
8.0151412019
 21
5.1652722941
  0
LINE
  5
2C3
100
AcDbEntity
  8
0
100
AcDbLine
 62
7
  6
CONTINUOUS
 10
8.015859987
 20
5.0546472941
 11
8.015859987
 21
5.1652722941
  0
LINE
  5
2C4
100
AcDbEntity
  8
0
100
AcDbLine
 62
7
  6
CONTINUOUS
 10
8.0169248918
 20
5.0152722941
 11
8.0169248918
 21
5.0546472941
  0
LINE
  5
2C5
100
AcDbEntity
  8
0
100
AcDbLine
 62
7
  6
CONTINUOUS
 10
8.0192242972
 20
5.0546472941
 11
8.0192242972
 21
5.1652722941
  0
LINE
  5
2C6
100
AcDbEntity
  8
0
100
AcDbLine
 62
7
  6
CONTINUOUS
 10
8.0200458998
 20
5.0546472941
 11
8.0200458998
 21
5.1652722941
  0
LINE
  5
2C7
100
AcDbEntity
  8
0
100
AcDbLine
 62
7
  6
CONTINUOUS
 10
8.0238642888
 20
5.0546472941
 11
8.0238642888
 21
5.1652722941
  0
LINE
  5
2C8
100
AcDbEntity
  8
0
100
AcDbLine
 62
7
  6
CONTINUOUS
 10
8.0247885749
 20
5.0546472941
 11
8.0247885749
 21
5.1652722941
  0
LINE
  5
2C9
100
AcDbEntity
  8
0
100
AcDbLine
 62
7
  6
CONTINUOUS
 10
8.0290505768
 20
5.0546472941
 11
8.0290505768
 21
5.1652722941
  0
LINE
  5
2CA
100
AcDbEntity
  8
0
100
AcDbLine
 62
7
  6
CONTINUOUS
 10
8.0300750132
 20
5.0546472941
 11
8.0300750132
 21
5.1652722941
  0
LINE
  5
2CB
100
AcDbEntity
  8
0
100
AcDbLine
 62
7
  6
CONTINUOUS
 10
8.0313623918
 20
5.6605793807
 11
8.0313623918
 21
5.1727722941
  0
LINE
  5
2CC
100
AcDbEntity
  8
0
100
AcDbLine
 62
7
  6
CONTINUOUS
 10
8.0347689461
 20
5.0546472941
 11
8.0347689461
 21
5.1652722941
  0
LINE
  5
2CD
100
AcDbEntity
  8
0
100
AcDbLine
 62
7
  6
CONTINUOUS
 10
8.0358907249
 20
5.0546472941
 11
8.0358907249
 21
5.1652722941
  0
LINE
  5
2CE
100
AcDbEntity
  8
0
100
AcDbLine
 62
7
  6
CONTINUOUS
 10
8.041003723
 20
5.0546472941
 11
8.041003723
 21
5.1652722941
  0
LINE
  5
2CF
100
AcDbEntity
  8
0
100
AcDbLine
 62
7
  6
CONTINUOUS
 10
8.0422234397
 20
5.0546472941
 11
8.0422234397
 21
5.1652722941
  0
LINE
  5
2D0
100
AcDbEntity
  8
0
100
AcDbLine
 62
7
  6
CONTINUOUS
 10
8.0477339264
 20
5.0546472941
 11
8.0477339264
 21
5.1652722941
  0
LINE
  5
2D1
100
AcDbEntity
  8
0
100
AcDbLine
 62
7
  6
CONTINUOUS
 10
8.0490447993
 20
5.0546472941
 11
8.0490447993
 21
5.1652722941
  0
LINE
  5
2D2
100
AcDbEntity
  8
0
100
AcDbLine
 62
7
  6
CONTINUOUS
 10
8.0501123918
 20
5.6718293807
 11
8.0501123918
 21
5.6868293807
  0
LINE
  5
2D3
100
AcDbEntity
  8
0
100
AcDbLine
 62
7
  6
CONTINUOUS
 10
8.0544248918
 20
5.0040222941
 11
8.0544248918
 21
4.9890222941
  0
LINE
  5
2D4
100
AcDbEntity
  8
0
100
AcDbLine
 62
7
  6
CONTINUOUS
 10
8.0549527746
 20
5.0546472941
 11
8.0549527746
 21
5.1652722941
  0
LINE
  5
2D5
100
AcDbEntity
  8
0
100
AcDbLine
 62
7
  6
CONTINUOUS
 10
8.0563471077
 20
5.0546472941
 11
8.0563471077
 21
5.1652722941
  0
LINE
  5
2D6
100
AcDbEntity
  8
0
100
AcDbLine
 62
7
  6
CONTINUOUS
 10
8.062628816
 20
5.0546472941
 11
8.062628816
 21
5.1652722941
  0
LINE
  5
2D7
100
AcDbEntity
  8
0
100
AcDbLine
 62
7
  6
CONTINUOUS
 10
8.0641066795
 20
5.0546472941
 11
8.0641066795
 21
5.1652722941
  0
LINE
  5
2D8
100
AcDbEntity
  8
0
100
AcDbLine
 62
7
  6
CONTINUOUS
 10
8.070744903
 20
5.0546472941
 11
8.070744903
 21
5.1652722941
  0
LINE
  5
2D9
100
AcDbEntity
  8
0
100
AcDbLine
 62
7
  6
CONTINUOUS
 10
8.0723022462
 20
5.0546472941
 11
8.0723022462
 21
5.1652722941
  0
LINE
  5
2DA
100
AcDbEntity
  8
0
100
AcDbLine
 62
7
  6
CONTINUOUS
 10
8.0787998918
 20
5.7235721248
 11
8.0787998918
 21
5.944212281
  0
LINE
  5
2DB
100
AcDbEntity
  8
0
100
AcDbLine
 62
7
  6
CONTINUOUS
 10
8.07927879
 20
5.0546472941
 11
8.07927879
 21
5.1652722941
  0
LINE
  5
2DC
100
AcDbEntity
  8
0
100
AcDbLine
 62
7
  6
CONTINUOUS
 10
8.0809113443
 20
5.0546472941
 11
8.0809113443
 21
5.1652722941
  0
LINE
  5
2DD
100
AcDbEntity
  8
0
100
AcDbLine
 62
7
  6
CONTINUOUS
 10
8.0880796407
 20
5.1725390225
 11
8.0880796407
 21
5.0546472941
  0
LINE
  5
2DE
100
AcDbEntity
  8
0
100
AcDbLine
 62
7
  6
CONTINUOUS
 10
8.0882070862
 20
5.0546472941
 11
8.0882070862
 21
5.1652722941
  0
LINE
  5
2DF
100
AcDbEntity
  8
0
100
AcDbLine
 62
7
  6
CONTINUOUS
 10
8.0899155007
 20
5.0546472941
 11
8.0899155007
 21
5.1652722941
  0
LINE
  5
2E0
100
AcDbEntity
  8
0
100
AcDbLine
 62
7
  6
CONTINUOUS
 10
8.0937998918
 20
5.7571680534
 11
8.0937998918
 21
5.9583959516
  0
LINE
  5
2E1
100
AcDbEntity
  8
0
100
AcDbLine
 62
7
  6
CONTINUOUS
 10
8.096991339
 20
5.172537025
 11
8.096991339
 21
5.0546472941
  0
LINE
  5
2E2
100
AcDbEntity
  8
0
100
AcDbLine
 62
7
  6
CONTINUOUS
 10
8.097500035
 20
5.0546472941
 11
8.097500035
 21
5.1652722941
  0
LINE
  5
2E3
100
AcDbEntity
  8
0
100
AcDbLine
 62
7
  6
CONTINUOUS
 10
8.0984873918
 20
5.6980793807
 11
8.0984873918
 21
5.7057983592
  0
LINE
  5
2E4
100
AcDbEntity
  8
0
100
AcDbLine
 62
7
  6
CONTINUOUS
 10
8.0992746783
 20
5.0546472941
 11
8.0992746783
 21
5.1652722941
  0
LINE
  5
2E5
100
AcDbEntity
  8
0
100
AcDbLine
 62
7
  6
CONTINUOUS
 10
8.1062580586
 20
5.1725390225
 11
8.1062580586
 21
5.0546472941
  0
LINE
  5
2E6
100
AcDbEntity
  8
0
100
AcDbLine
 62
7
  6
CONTINUOUS
 10
8.107148005
 20
5.0546472941
 11
8.107148005
 21
5.1652722941
  0
LINE
  5
2E7
100
AcDbEntity
  8
0
100
AcDbLine
 62
7
  6
CONTINUOUS
 10
8.1089785815
 20
5.0546472941
 11
8.1089785815
 21
5.1652722941
  0
LINE
  5
2E8
100
AcDbEntity
  8
0
100
AcDbLine
 62
7
  6
CONTINUOUS
 10
8.1158406523
 20
5.1725390225
 11
8.1158406523
 21
5.0546472941
  0
LINE
  5
2E9
100
AcDbEntity
  8
0
100
AcDbLine
 62
7
  6
CONTINUOUS
 10
8.1171087117
 20
5.0546472941
 11
8.1171087117
 21
5.1652722941
  0
LINE
  5
2EA
100
AcDbEntity
  8
0
100
AcDbLine
 62
7
  6
CONTINUOUS
 10
8.1189954889
 20
5.0546472941
 11
8.1189954889
 21
5.1652722941
  0
LINE
  5
2EB
100
AcDbEntity
  8
0
100
AcDbLine
 62
7
  6
CONTINUOUS
 10
8.1257174418
 20
5.1725390225
 11
8.1257174418
 21
5.0546472941
  0
LINE
  5
2EC
100
AcDbEntity
  8
0
100
AcDbLine
 62
7
  6
CONTINUOUS
 10
8.1273601386
 20
5.0546472941
 11
8.1273601386
 21
5.1652722941
  0
LINE
  5
2ED
100
AcDbEntity
  8
0
100
AcDbLine
 62
7
  6
CONTINUOUS
 10
8.1292979448
 20
5.0546472941
 11
8.1292979448
 21
5.1652722941
  0
LINE
  5
2EE
100
AcDbEntity
  8
0
100
AcDbLine
 62
7
  6
CONTINUOUS
 10
8.1358613553
 20
5.1725390225
 11
8.1358613553
 21
5.0546472941
  0
LINE
  5
2EF
100
AcDbEntity
  8
0
100
AcDbLine
 62
7
  6
CONTINUOUS
 10
8.1378741869
 20
5.0546472941
 11
8.1378741869
 21
5.1652722941
  0
LINE
  5
2F0
100
AcDbEntity
  8
0
100
AcDbLine
 62
7
  6
CONTINUOUS
 10
8.1387998918
 20
5.9748039806
 11
8.1387998918
 21
5.9739867593
  0
LINE
  5
2F1
100
AcDbEntity
  8
0
100
AcDbLine
 62
7
  6
CONTINUOUS
 10
8.1398577109
 20
5.0546472941
 11
8.1398577109
 21
5.1652722941
  0
LINE
  5
2F2
100
AcDbEntity
  8
0
100
AcDbLine
 62
7
  6
CONTINUOUS
 10
8.1462445892
 20
5.1725390225
 11
8.1462445892
 21
5.0546472941
  0
LINE
  5
2F3
100
AcDbEntity
  8
0
100
AcDbLine
 62
7
  6
CONTINUOUS
 10
8.1486220386
 20
5.0546472941
 11
8.1486220386
 21
5.1652722941
  0
LINE
  5
2F4
100
AcDbEntity
  8
0
100
AcDbLine
 62
7
  6
CONTINUOUS
 10
8.1506519193
 20
5.0546472941
 11
8.1506519193
 21
5.1652722941
  0
LINE
  5
2F5
100
AcDbEntity
  8
0
100
AcDbLine
 62
7
  6
CONTINUOUS
 10
8.1568362723
 20
5.172537025
 11
8.1568362723
 21
5.0546472941
  0
LINE
  5
2F6
100
AcDbEntity
  8
0
100
AcDbLine
 62
7
  6
CONTINUOUS
 10
8.1595680742
 20
5.0546472941
 11
8.1595680742
 21
5.1652722941
  0
LINE
  5
2F7
100
AcDbEntity
  8
0
100
AcDbLine
 62
7
  6
CONTINUOUS
 10
8.1616327734
 20
5.0546472941
 11
8.1616327734
 21
5.1652724251
  0
LINE
  5
2F8
100
AcDbEntity
  8
0
100
AcDbLine
 62
7
  6
CONTINUOUS
 10
8.1676146011
 20
5.1725390225
 11
8.1676146011
 21
5.0546472941
  0
LINE
  5
2F9
100
AcDbEntity
  8
0
100
AcDbLine
 62
7
  6
CONTINUOUS
 10
8.1707007554
 20
5.0546472941
 11
8.1707007554
 21
5.1652726279
  0
LINE
  5
2FA
100
AcDbEntity
  8
0
100
AcDbLine
 62
7
  6
CONTINUOUS
 10
8.1727883858
 20
5.0546472941
 11
8.1727883858
 21
5.1652725049
  0
LINE
  5
2FB
100
AcDbEntity
  8
0
100
AcDbLine
 62
7
  6
CONTINUOUS
 10
8.1785428054
 20
5.1725390225
 11
8.1785428054
 21
5.0546472941
  0
LINE
  5
2FC
100
AcDbEntity
  8
0
100
AcDbLine
 62
7
  6
CONTINUOUS
 10
8.1819711042
 20
5.0546472941
 11
8.1819711042
 21
5.165272309
  0
LINE
  5
2FD
100
AcDbEntity
  8
0
100
AcDbLine
 62
7
  6
CONTINUOUS
 10
8.1840821042
 20
5.0546472941
 11
8.1840821042
 21
5.1652724189
  0
LINE
  5
2FE
100
AcDbEntity
  8
0
100
AcDbLine
 62
7
  6
CONTINUOUS
 10
8.1895933431
 20
5.1725390225
 11
8.1895933431
 21
5.0546472941
  0
LINE
  5
2FF
100
AcDbEntity
  8
0
100
AcDbLine
 62
7
  6
CONTINUOUS
 10
8.1933543897
 20
5.0546472941
 11
8.1933543897
 21
5.165272532
  0
LINE
  5
300
100
AcDbEntity
  8
0
100
AcDbLine
 62
7
  6
CONTINUOUS
 10
8.1954829732
 20
5.0546472941
 11
8.1954829732
 21
5.1652724723
  0
LINE
  5
301
100
AcDbEntity
  8
0
100
AcDbLine
 62
7
  6
CONTINUOUS
 10
8.2007359256
 20
5.1725390225
 11
8.2007359256
 21
5.0546472941
  0
LINE
  5
302
100
AcDbEntity
  8
0
100
AcDbLine
 62
7
  6
CONTINUOUS
 10
8.2048194112
 20
5.0546472941
 11
8.2048194112
 21
5.1652722987
  0
LINE
  5
303
100
AcDbEntity
  8
0
100
AcDbLine
 62
7
  6
CONTINUOUS
 10
8.2069597437
 20
5.0546472941
 11
8.2069597437
 21
5.1652726085
  0
LINE
  5
304
100
AcDbEntity
  8
0
100
AcDbLine
 62
7
  6
CONTINUOUS
 10
8.2119400117
 20
5.1725390225
 11
8.2119400117
 21
5.0546472941
  0
LINE
  5
305
100
AcDbEntity
  8
0
100
AcDbLine
 62
7
  6
CONTINUOUS
 10
8.2163347437
 20
5.0546472941
 11
8.2163347437
 21
5.1652722991
  0
LINE
  5
306
100
AcDbEntity
  8
0
100
AcDbLine
 62
7
  6
CONTINUOUS
 10
8.2184873918
 20
5.0546472941
 11
8.2184873918
 21
5.1652723041
  0
LINE
  5
307
100
AcDbEntity
  8
0
100
AcDbLine
 62
7
  6
CONTINUOUS
 10
8.2231748918
 20
5.172537025
 11
8.2231748918
 21
5.0546472941
  0
LINE
  5
308
100
AcDbEntity
  8
0
100
AcDbLine
 62
7
  6
CONTINUOUS
 10
8.2278623918
 20
5.0546472941
 11
8.2278623918
 21
5.1652723091
  0
LINE
  5
309
100
AcDbEntity
  8
0
100
AcDbLine
 62
7
  6
CONTINUOUS
 10
8.2300150399
 20
5.0546472941
 11
8.2300150399
 21
5.1652722941
  0
LINE
  5
30A
100
AcDbEntity
  8
0
100
AcDbLine
 62
7
  6
CONTINUOUS
 10
8.2344097719
 20
5.1725390225
 11
8.2344097719
 21
5.0546472941
  0
LINE
  5
30B
100
AcDbEntity
  8
0
100
AcDbLine
 62
7
  6
CONTINUOUS
 10
8.2393900399
 20
5.0546472941
 11
8.2393900399
 21
5.1652722941
  0
LINE
  5
30C
100
AcDbEntity
  8
0
100
AcDbLine
 62
7
  6
CONTINUOUS
 10
8.2415303724
 20
5.0546472941
 11
8.2415303724
 21
5.1652722941
  0
LINE
  5
30D
100
AcDbEntity
  8
0
100
AcDbLine
 62
7
  6
CONTINUOUS
 10
8.245613858
 20
5.1725390225
 11
8.245613858
 21
5.0546472941
  0
LINE
  5
30E
100
AcDbEntity
  8
0
100
AcDbLine
 62
7
  6
CONTINUOUS
 10
8.2508668105
 20
5.0546472941
 11
8.2508668105
 21
5.1652722941
  0
LINE
  5
30F
100
AcDbEntity
  8
0
100
AcDbLine
 62
7
  6
CONTINUOUS
 10
8.2529953939
 20
5.0546472941
 11
8.2529953939
 21
5.1652722941
  0
LINE
  5
310
100
AcDbEntity
  8
0
100
AcDbLine
 62
7
  6
CONTINUOUS
 10
8.2567564405
 20
5.1725390225
 11
8.2567564405
 21
5.0546472941
  0
LINE
  5
311
100
AcDbEntity
  8
0
100
AcDbLine
 62
7
  6
CONTINUOUS
 10
8.2622676794
 20
5.0546472941
 11
8.2622676794
 21
5.1652722941
  0
LINE
  5
312
100
AcDbEntity
  8
0
100
AcDbLine
 62
7
  6
CONTINUOUS
 10
8.2643786794
 20
5.0546472941
 11
8.2643786794
 21
5.1652722941
  0
LINE
  5
313
100
AcDbEntity
  8
0
100
AcDbLine
 62
7
  6
CONTINUOUS
 10
8.2678069782
 20
5.1725390225
 11
8.2678069782
 21
5.0546472941
  0
LINE
  5
314
100
AcDbEntity
  8
0
100
AcDbLine
 62
7
  6
CONTINUOUS
 10
8.2735613978
 20
5.0546472941
 11
8.2735613978
 21
5.1652722941
  0
LINE
  5
315
100
AcDbEntity
  8
0
100
AcDbLine
 62
7
  6
CONTINUOUS
 10
8.2756490282
 20
5.0546472941
 11
8.2756490282
 21
5.1652722941
  0
LINE
  5
316
100
AcDbEntity
  8
0
100
AcDbLine
 62
7
  6
CONTINUOUS
 10
8.2787351825
 20
5.1725390225
 11
8.2787351825
 21
5.0546472941
  0
LINE
  5
317
100
AcDbEntity
  8
0
100
AcDbLine
 62
7
  6
CONTINUOUS
 10
8.2847170102
 20
5.0546472941
 11
8.2847170102
 21
5.1652722941
  0
LINE
  5
318
100
AcDbEntity
  8
0
100
AcDbLine
 62
7
  6
CONTINUOUS
 10
8.2867817095
 20
5.0546472941
 11
8.2867817095
 21
5.1652722941
  0
LINE
  5
319
100
AcDbEntity
  8
0
100
AcDbLine
 62
7
  6
CONTINUOUS
 10
8.2895135113
 20
5.172537025
 11
8.2895135113
 21
5.0546472941
  0
LINE
  5
31A
100
AcDbEntity
  8
0
100
AcDbLine
 62
7
  6
CONTINUOUS
 10
8.2956978643
 20
5.0546472941
 11
8.2956978643
 21
5.1652722941
  0
LINE
  5
31B
100
AcDbEntity
  8
0
100
AcDbLine
 62
7
  6
CONTINUOUS
 10
8.297727745
 20
5.0546472941
 11
8.297727745
 21
5.1652722941
  0
LINE
  5
31C
100
AcDbEntity
  8
0
100
AcDbLine
 62
7
  6
CONTINUOUS
 10
8.3001051944
 20
5.1725390225
 11
8.3001051944
 21
5.0546472941
  0
LINE
  5
31D
100
AcDbEntity
  8
0
100
AcDbLine
 62
7
  6
CONTINUOUS
 10
8.3064920727
 20
5.0546472941
 11
8.3064920727
 21
5.1652722941
  0
LINE
  5
31E
100
AcDbEntity
  8
0
100
AcDbLine
 62
7
  6
CONTINUOUS
 10
8.3075498909
 20
5.9748039806
 11
8.3075498918
 21
5.9739867593
  0
LINE
  5
31F
100
AcDbEntity
  8
0
100
AcDbLine
 62
7
  6
CONTINUOUS
 10
8.3084755967
 20
5.0546472941
 11
8.3084755967
 21
5.1652722941
  0
LINE
  5
320
100
AcDbEntity
  8
0
100
AcDbLine
 62
7
  6
CONTINUOUS
 10
8.3104884283
 20
5.1725390225
 11
8.3104884283
 21
5.0546472941
  0
LINE
  5
321
100
AcDbEntity
  8
0
100
AcDbLine
 62
7
  6
CONTINUOUS
 10
8.3170518388
 20
5.0546472941
 11
8.3170518388
 21
5.1652722941
  0
LINE
  5
322
100
AcDbEntity
  8
0
100
AcDbLine
 62
7
  6
CONTINUOUS
 10
8.3189896451
 20
5.0546472941
 11
8.3189896451
 21
5.1652722941
  0
LINE
  5
323
100
AcDbEntity
  8
0
100
AcDbLine
 62
7
  6
CONTINUOUS
 10
8.3206323419
 20
5.1725390225
 11
8.3206323419
 21
5.0546472941
  0
LINE
  5
324
100
AcDbEntity
  8
0
100
AcDbLine
 62
7
  6
CONTINUOUS
 10
8.3273542947
 20
5.0546472941
 11
8.3273542947
 21
5.1652722941
  0
LINE
  5
325
100
AcDbEntity
  8
0
100
AcDbLine
 62
7
  6
CONTINUOUS
 10
8.3292410719
 20
5.0546472941
 11
8.3292410719
 21
5.1652722941
  0
LINE
  5
326
100
AcDbEntity
  8
0
100
AcDbLine
 62
7
  6
CONTINUOUS
 10
8.3305091313
 20
5.1725390225
 11
8.3305091313
 21
5.0546472941
  0
LINE
  5
327
100
AcDbEntity
  8
0
100
AcDbLine
 62
7
  6
CONTINUOUS
 10
8.3373712021
 20
5.0546472941
 11
8.3373712021
 21
5.1652722941
  0
LINE
  5
328
100
AcDbEntity
  8
0
100
AcDbLine
 62
7
  6
CONTINUOUS
 10
8.3392017786
 20
5.0546472941
 11
8.3392017786
 21
5.1652722941
  0
LINE
  5
329
100
AcDbEntity
  8
0
100
AcDbLine
 62
7
  6
CONTINUOUS
 10
8.340091725
 20
5.1725390225
 11
8.340091725
 21
5.0546472941
  0
LINE
  5
32A
100
AcDbEntity
  8
0
100
AcDbLine
 62
7
  6
CONTINUOUS
 10
8.3470751053
 20
5.0546472941
 11
8.3470751053
 21
5.1652722941
  0
LINE
  5
32B
100
AcDbEntity
  8
0
100
AcDbLine
 62
7
  6
CONTINUOUS
 10
8.3478623918
 20
5.6980793807
 11
8.3478623918
 21
5.7095434542
  0
LINE
  5
32C
100
AcDbEntity
  8
0
100
AcDbLine
 62
7
  6
CONTINUOUS
 10
8.3488497486
 20
5.0546472941
 11
8.3488497486
 21
5.1652722941
  0
LINE
  5
32D
100
AcDbEntity
  8
0
100
AcDbLine
 62
7
  6
CONTINUOUS
 10
8.3493584446
 20
5.172537025
 11
8.3493584446
 21
5.0546472941
  0
LINE
  5
32E
100
AcDbEntity
  8
0
100
AcDbLine
 62
7
  6
CONTINUOUS
 10
8.3525498918
 20
5.9583959516
 11
8.3525498918
 21
5.7571680534
  0
LINE
  5
32F
100
AcDbEntity
  8
0
100
AcDbLine
 62
7
  6
CONTINUOUS
 10
8.3564342829
 20
5.0546472941
 11
8.3564342829
 21
5.1652722941
  0
LINE
  5
330
100
AcDbEntity
  8
0
100
AcDbLine
 62
7
  6
CONTINUOUS
 10
8.3581426974
 20
5.0546472941
 11
8.3581426974
 21
5.1652722941
  0
LINE
  5
331
100
AcDbEntity
  8
0
100
AcDbLine
 62
7
  6
CONTINUOUS
 10
8.3582701429
 20
5.1725390225
 11
8.3582701429
 21
5.0546472941
  0
LINE
  5
332
100
AcDbEntity
  8
0
100
AcDbLine
 62
7
  6
CONTINUOUS
 10
8.3654384393
 20
5.0546472941
 11
8.3654384393
 21
5.1652722941
  0
LINE
  5
333
100
AcDbEntity
  8
0
100
AcDbLine
 62
7
  6
CONTINUOUS
 10
8.3670709936
 20
5.0546472941
 11
8.3670709936
 21
5.1652722941
  0
LINE
  5
334
100
AcDbEntity
  8
0
100
AcDbLine
 62
7
  6
CONTINUOUS
 10
8.3740475374
 20
5.0546472941
 11
8.3740475374
 21
5.1652722941
  0
LINE
  5
335
100
AcDbEntity
  8
0
100
AcDbLine
 62
7
  6
CONTINUOUS
 10
8.3756048806
 20
5.0546472941
 11
8.3756048806
 21
5.1652722941
  0
LINE
  5
336
100
AcDbEntity
  8
0
100
AcDbLine
 62
7
  6
CONTINUOUS
 10
8.3822431041
 20
5.0546472941
 11
8.3822431041
 21
5.1652722941
  0
LINE
  5
337
100
AcDbEntity
  8
0
100
AcDbLine
 62
7
  6
CONTINUOUS
 10
8.3837209676
 20
5.0546472941
 11
8.3837209676
 21
5.1652722941
  0
LINE
  5
338
100
AcDbEntity
  8
0
100
AcDbLine
 62
7
  6
CONTINUOUS
 10
8.3900026759
 20
5.0546472941
 11
8.3900026759
 21
5.1652722941
  0
LINE
  5
339
100
AcDbEntity
  8
0
100
AcDbLine
 62
7
  6
CONTINUOUS
 10
8.391397009
 20
5.0546472941
 11
8.391397009
 21
5.1652722941
  0
LINE
  5
33A
100
AcDbEntity
  8
0
100
AcDbLine
 62
7
  6
CONTINUOUS
 10
8.3919248918
 20
5.0040222941
 11
8.3919248918
 21
4.9890222941
  0
LINE
  5
33B
100
AcDbEntity
  8
0
100
AcDbLine
 62
7
  6
CONTINUOUS
 10
8.3962373918
 20
5.6718293807
 11
8.3962373918
 21
5.6868293807
  0
LINE
  5
33C
100
AcDbEntity
  8
0
100
AcDbLine
 62
7
  6
CONTINUOUS
 10
8.3973049843
 20
5.0546472941
 11
8.3973049843
 21
5.1652722941
  0
LINE
  5
33D
100
AcDbEntity
  8
0
100
AcDbLine
 62
7
  6
CONTINUOUS
 10
8.3986158572
 20
5.0546472941
 11
8.3986158572
 21
5.1652722941
  0
LINE
  5
33E
100
AcDbEntity
  8
0
100
AcDbLine
 62
7
  6
CONTINUOUS
 10
8.4041263439
 20
5.0546472941
 11
8.4041263439
 21
5.1652722941
  0
LINE
  5
33F
100
AcDbEntity
  8
0
100
AcDbLine
 62
7
  6
CONTINUOUS
 10
8.4053460606
 20
5.0546472941
 11
8.4053460606
 21
5.1652722941
  0
LINE
  5
340
100
AcDbEntity
  8
0
100
AcDbLine
 62
7
  6
CONTINUOUS
 10
8.4104590587
 20
5.0546472941
 11
8.4104590587
 21
5.1652722941
  0
LWPOLYLINE
  5
341
100
AcDbEntity
  8
0
100
AcDbPolyline
 62
7
  6
CONTINUOUS
 90
63
 70
0
 10
8.3675497925
 20
5.9442193022
 10
8.3675289894
 20
5.9451325102
 10
8.3674738042
 20
5.9459709466
 10
8.3673833419
 20
5.9468134558
 10
8.3672569996
 20
5.9476585081
 10
8.367094391
 20
5.9485040327
 10
8.3668950931
 20
5.9493488557
 10
8.3666587784
 20
5.9501916235
 10
8.3663854962
 20
5.9510301132
 10
8.3660750171
 20
5.9518634164
 10
8.365727337
 20
5.9526901264
 10
8.3653431899
 20
5.9535075612
 10
8.3649226655
 20
5.9543149184
 10
8.3644659714
 20
5.9551112572
 10
8.3639743685
 20
5.9558941672
 10
8.3634481894
 20
5.9566631376
 10
8.362887674
 20
5.9574178106
 10
8.3622941354
 20
5.9581565471
 10
8.3616678142
 20
5.9588792893
 10
8.3610088514
 20
5.9595860574
 10
8.3603184564
 20
5.9602758073
 10
8.3595967866
 20
5.9609487017
 10
8.3588435974
 20
5.9616052114
 10
8.3580594395
 20
5.9622450874
 10
8.357244348
 20
5.9628685772
 10
8.3563976494
 20
5.9634763956
 10
8.3555187377
 20
5.9640690691
 10
8.3546068835
 20
5.9646470917
 10
8.3536614474
 20
5.9652107957
 10
8.3526819096
 20
5.965760366
 10
8.3516673383
 20
5.966296141
 10
8.3506168781
 20
5.9668183387
 10
8.3495303809
 20
5.9673268376
 10
8.3484071094
 20
5.9678217686
 10
8.3472462024
 20
5.9683032314
 10
8.3460476788
 20
5.9687709035
 10
8.3448095338
 20
5.9692251772
 10
8.3435322683
 20
5.9696654207
 10
8.3422204814
 20
5.970089792
 10
8.3408734735
 20
5.9704984306
 10
8.3394919093
 20
5.9708909986
 10
8.3380838665
 20
5.9712652434
 10
8.3366498389
 20
5.9716212273
 10
8.3351905623
 20
5.9719589016
 10
8.3337158917
 20
5.9722763149
 10
8.3322274936
 20
5.9725737159
 10
8.330726608
 20
5.9728514293
 10
8.3292238692
 20
5.9731081874
 10
8.3277241894
 20
5.9733440438
 10
8.3262262018
 20
5.9735600447
 10
8.3247316942
 20
5.9737566625
 10
8.3232451703
 20
5.9739341269
 10
8.3217654473
 20
5.9740933933
 10
8.3202857237
 20
5.9742357671
 10
8.3188073903
 20
5.9743615122
 10
8.3173315198
 20
5.9744709037
 10
8.315850498
 20
5.9745647007
 10
8.3143655858
 20
5.974642898
 10
8.3128779067
 20
5.9747055865
 10
8.3113794238
 20
5.9747530922
 10
8.3098682818
 20
5.9747852398
 10
8.3083489018
 20
5.9748016732
 10
8.3075498909
 20
5.9748039241
  0
LINE
  5
342
100
AcDbEntity
  8
0
100
AcDbLine
 62
7
  6
CONTINUOUS
 10
8.4115808375
 20
5.0546472941
 11
8.4115808375
 21
5.1652722941
  0
LINE
  5
343
100
AcDbEntity
  8
0
100
AcDbLine
 62
7
  6
CONTINUOUS
 10
8.4149873918
 20
5.6605793807
 11
8.4149873918
 21
5.1727722941
  0
LINE
  5
344
100
AcDbEntity
  8
0
100
AcDbLine
 62
7
  6
CONTINUOUS
 10
8.4162747704
 20
5.0546472941
 11
8.4162747704
 21
5.1652722941
  0
LINE
  5
345
100
AcDbEntity
  8
0
100
AcDbLine
 62
7
  6
CONTINUOUS
 10
8.4172992068
 20
5.0546472941
 11
8.4172992068
 21
5.1652722941
  0
LINE
  5
346
100
AcDbEntity
  8
0
100
AcDbLine
 62
7
  6
CONTINUOUS
 10
8.4215612087
 20
5.0546472941
 11
8.4215612087
 21
5.1652722941
  0
LINE
  5
347
100
AcDbEntity
  8
0
100
AcDbLine
 62
7
  6
CONTINUOUS
 10
8.4224854948
 20
5.0546472941
 11
8.4224854948
 21
5.1652722941
  0
LINE
  5
348
100
AcDbEntity
  8
0
100
AcDbLine
 62
7
  6
CONTINUOUS
 10
8.4263038838
 20
5.0546472941
 11
8.4263038838
 21
5.1652722941
  0
LINE
  5
349
100
AcDbEntity
  8
0
100
AcDbLine
 62
7
  6
CONTINUOUS
 10
8.4271254864
 20
5.0546472941
 11
8.4271254864
 21
5.1652722941
  0
LINE
  5
34A
100
AcDbEntity
  8
0
100
AcDbLine
 62
7
  6
CONTINUOUS
 10
8.4294248918
 20
5.0152722941
 11
8.4294248918
 21
5.0546472941
  0
LINE
  5
34B
100
AcDbEntity
  8
0
100
AcDbLine
 62
7
  6
CONTINUOUS
 10
8.4304897966
 20
5.0546472941
 11
8.4304897966
 21
5.1652722941
  0
LINE
  5
34C
100
AcDbEntity
  8
0
100
AcDbLine
 62
7
  6
CONTINUOUS
 10
8.4312085817
 20
5.0546472941
 11
8.4312085817
 21
5.1652722941
  0
LINE
  5
34D
100
AcDbEntity
  8
0
100
AcDbLine
 62
7
  6
CONTINUOUS
 10
8.434105616
 20
5.0546472941
 11
8.434105616
 21
5.1652722941
  0
LINE
  5
34E
100
AcDbEntity
  8
0
100
AcDbLine
 62
7
  6
CONTINUOUS
 10
8.4347172406
 20
5.0546472941
 11
8.4347172406
 21
5.1652722941
  0
LINE
  5
34F
100
AcDbEntity
  8
0
100
AcDbLine
 62
7
  6
CONTINUOUS
 10
8.437146999
 20
5.0546472941
 11
8.437146999
 21
5.1652722941
  0
LINE
  5
350
100
AcDbEntity
  8
0
100
AcDbLine
 62
7
  6
CONTINUOUS
 10
8.4376481947
 20
5.0546472941
 11
8.4376481947
 21
5.1652722941
  0
LINE
  5
351
100
AcDbEntity
  8
0
100
AcDbLine
 62
7
  6
CONTINUOUS
 10
8.4396000418
 20
5.0546472941
 11
8.4396000418
 21
5.1652722941
  0
LINE
  5
352
100
AcDbEntity
  8
0
100
AcDbLine
 62
7
  6
CONTINUOUS
 10
8.4399912925
 20
5.0546472941
 11
8.4399912925
 21
5.1652722941
  0
LINE
  5
353
100
AcDbEntity
  8
0
100
AcDbLine
 62
7
  6
CONTINUOUS
 10
8.4414598783
 20
5.0546472941
 11
8.4414598783
 21
5.1652722941
  0
LINE
  5
354
100
AcDbEntity
  8
0
100
AcDbLine
 62
7
  6
CONTINUOUS
 10
8.4417401116
 20
5.0546472941
 11
8.4417401116
 21
5.1652722941
  0
LINE
  5
355
100
AcDbEntity
  8
0
100
AcDbLine
 62
7
  6
CONTINUOUS
 10
8.4427214108
 20
5.0546472941
 11
8.4427214108
 21
5.1652722941
  0
LINE
  5
356
100
AcDbEntity
  8
0
100
AcDbLine
 62
7
  6
CONTINUOUS
 10
8.4428898586
 20
5.0546472941
 11
8.4428898586
 21
5.1652722941
  0
LINE
  5
357
100
AcDbEntity
  8
0
100
AcDbLine
 62
7
  6
CONTINUOUS
 10
8.4433811815
 20
5.0546472941
 11
8.4433811815
 21
5.1652722941
  0
LINE
  5
358
100
AcDbEntity
  8
0
100
AcDbLine
 62
7
  6
CONTINUOUS
 10
8.4434375191
 20
5.0546472941
 11
8.4434375191
 21
5.1652722941
  0
ARC
  5
359
100
AcDbEntity
  8
0
100
AcDbCircle
 62
7
  6
CONTINUOUS
 10
4.4731748918
 20
2.0785793807
 40
0.1875
100
AcDbArc
 50
180.0
 51
360.0
  0
ARC
  5
35A
100
AcDbEntity
  8
0
100
AcDbCircle
 62
7
  6
CONTINUOUS
 10
2.9731748918
 20
5.4535793807
 40
0.37125
100
AcDbArc
 50
39.1490946858
 51
161.5990601079
  0
ARC
  5
35B
100
AcDbEntity
  8
0
100
AcDbCircle
 62
7
  6
CONTINUOUS
 10
2.9731748918
 20
5.4535793807
 40
0.37125
100
AcDbArc
 50
198.4009398921
 51
320.8509053142
  0
ARC
  5
35C
100
AcDbEntity
  8
0
100
AcDbCircle
 62
7
  6
CONTINUOUS
 10
2.9731748918
 20
5.4535793807
 40
0.36
100
AcDbArc
 50
198.9973992989
 51
319.3779576067
  0
ARC
  5
35D
100
AcDbEntity
  8
0
100
AcDbCircle
 62
7
  6
CONTINUOUS
 10
2.9731748918
 20
5.4535793807
 40
0.36
100
AcDbArc
 50
40.6220423944
 51
161.0026007018
  0
ARC
  5
35E
100
AcDbEntity
  8
0
100
AcDbCircle
 62
7
  6
CONTINUOUS
 10
2.9731748918
 20
5.4535793807
 40
0.234375
100
AcDbArc
 50
30.0000000006
 51
150.0
  0
ARC
  5
35F
100
AcDbEntity
  8
0
100
AcDbCircle
 62
7
  6
CONTINUOUS
 10
2.9731748918
 20
5.4535793807
 40
0.234375
100
AcDbArc
 50
210.0
 51
329.9999999994
  0
ARC
  5
360
100
AcDbEntity
  8
0
100
AcDbCircle
 62
7
  6
CONTINUOUS
 10
2.9731748918
 20
5.4535793807
 40
0.223125
100
AcDbArc
 50
31.683166236
 51
148.3168337623
  0
ARC
  5
361
100
AcDbEntity
  8
0
100
AcDbCircle
 62
7
  6
CONTINUOUS
 10
2.9731748918
 20
5.4535793807
 40
0.223125
100
AcDbArc
 50
211.683166236
 51
328.3168337623
  0
ARC
  5
362
100
AcDbEntity
  8
0
100
AcDbCircle
 62
7
  6
CONTINUOUS
 10
4.4731748918
 20
5.4535793807
 40
0.1875
100
AcDbArc
 50
0.0
 51
180.0
  0
ARC
  5
363
100
AcDbEntity
  8
0
100
AcDbCircle
 62
7
  6
CONTINUOUS
 10
5.9731748918
 20
5.4535793807
 40
0.37125
100
AcDbArc
 50
18.4009398921
 51
140.8509053142
  0
ARC
  5
364
100
AcDbEntity
  8
0
100
AcDbCircle
 62
7
  6
CONTINUOUS
 10
5.9731748918
 20
5.4535793807
 40
0.37125
100
AcDbArc
 50
219.1490946858
 51
341.5990601079
  0
ARC
  5
365
100
AcDbEntity
  8
0
100
AcDbCircle
 62
7
  6
CONTINUOUS
 10
5.9731748918
 20
5.4535793807
 40
0.36
100
AcDbArc
 50
220.6220423944
 51
341.0026007018
  0
ARC
  5
366
100
AcDbEntity
  8
0
100
AcDbCircle
 62
7
  6
CONTINUOUS
 10
5.9731748918
 20
5.4535793807
 40
0.36
100
AcDbArc
 50
18.9973992989
 51
139.3779576067
  0
ARC
  5
367
100
AcDbEntity
  8
0
100
AcDbCircle
 62
7
  6
CONTINUOUS
 10
5.9731748918
 20
5.4535793807
 40
0.234375
100
AcDbArc
 50
210.0018886054
 51
329.9981113946
  0
ARC
  5
368
100
AcDbEntity
  8
0
100
AcDbCircle
 62
7
  6
CONTINUOUS
 10
5.9731748918
 20
5.4535793807
 40
0.234375
100
AcDbArc
 50
30.0018886054
 51
149.9981113946
  0
ARC
  5
369
100
AcDbEntity
  8
0
100
AcDbCircle
 62
7
  6
CONTINUOUS
 10
5.9731748918
 20
5.4535793807
 40
0.223125
100
AcDbArc
 50
211.6843593935
 51
328.3156406071
  0
ARC
  5
36A
100
AcDbEntity
  8
0
100
AcDbCircle
 62
7
  6
CONTINUOUS
 10
5.9731748918
 20
5.4535793807
 40
0.223125
100
AcDbArc
 50
31.6843593935
 51
148.3156406071
  0
ARC
  5
36B
100
AcDbEntity
  8
0
100
AcDbCircle
 62
7
  6
CONTINUOUS
 10
8.0656748918
 20
4.9890222941
 40
0.01125
100
AcDbArc
 50
180.0
 51
270.0
  0
ARC
  5
36C
100
AcDbEntity
  8
0
100
AcDbCircle
 62
7
  6
CONTINUOUS
 10
8.3806748918
 20
4.9890222941
 40
0.01125
100
AcDbArc
 50
270.0
 51
360.0
  0
ARC
  5
36D
100
AcDbEntity
  8
0
100
AcDbCircle
 62
7
  6
CONTINUOUS
 10
8.4181748918
 20
5.0152722941
 40
0.01125
100
AcDbArc
 50
270.0
 51
360.0
  0
ARC
  5
36E
100
AcDbEntity
  8
0
100
AcDbCircle
 62
7
  6
CONTINUOUS
 10
8.0281748918
 20
5.0152722941
 40
0.01125
100
AcDbArc
 50
180.0
 51
270.0
  0
ARC
  5
36F
100
AcDbEntity
  8
0
100
AcDbCircle
 62
7
  6
CONTINUOUS
 10
8.0131747724
 20
5.163662742
 40
0.0091044352
100
AcDbArc
 50
102.8539604204
 51
105.5776218134
  0
ARC
  5
370
100
AcDbEntity
  8
0
100
AcDbCircle
 62
7
  6
CONTINUOUS
 10
8.4331810527
 20
5.163688318
 40
0.0090781561
100
AcDbArc
 50
71.7400524342
 51
77.1473038546
  0
ARC
  5
371
100
AcDbEntity
  8
0
100
AcDbCircle
 62
7
  6
CONTINUOUS
 10
8.0105519984
 20
5.1652717766
 40
0.007639734
100
AcDbArc
 50
173.4195201424
 51
179.9961187419
  0
ARC
  5
372
100
AcDbEntity
  8
0
100
AcDbCircle
 62
7
  6
CONTINUOUS
 10
8.4357985205
 20
5.1652718203
 40
0.0076389986
100
AcDbArc
 50
0.0035534804
 51
6.5659455729
  0
ARC
  5
373
100
AcDbEntity
  8
0
100
AcDbCircle
 62
7
  6
CONTINUOUS
 10
8.0103623918
 20
5.1652722941
 40
0.0075
100
AcDbArc
 50
90.0
 51
104.3890229413
  0
ARC
  5
374
100
AcDbEntity
  8
0
100
AcDbCircle
 62
7
  6
CONTINUOUS
 10
8.4359873918
 20
5.1652722941
 40
0.0075
100
AcDbArc
 50
75.6109770587
 51
90.0
  0
ARC
  5
375
100
AcDbEntity
  8
0
100
AcDbCircle
 62
7
  6
CONTINUOUS
 10
8.4360016017
 20
5.1653270819
 40
0.0074433996
100
AcDbArc
 50
72.6146171547
 51
75.6121247976
  0
ARC
  5
376
100
AcDbEntity
  8
0
100
AcDbCircle
 62
7
  6
CONTINUOUS
 10
8.0103481819
 20
5.1653270819
 40
0.0074433996
100
AcDbArc
 50
104.3878752021
 51
107.3853828455
  0
ARC
  5
377
100
AcDbEntity
  8
0
100
AcDbCircle
 62
7
  6
CONTINUOUS
 10
8.4360080378
 20
5.1653474641
 40
0.0074220255
100
AcDbArc
 50
67.7740901443
 51
72.6161932387
  0
ARC
  5
378
100
AcDbEntity
  8
0
100
AcDbCircle
 62
7
  6
CONTINUOUS
 10
8.0103403088
 20
5.1653514553
 40
0.0074177872
100
AcDbArc
 50
107.3836000682
 51
112.2272956217
  0
ARC
  5
379
100
AcDbEntity
  8
0
100
AcDbCircle
 62
7
  6
CONTINUOUS
 10
8.0102796032
 20
5.165272092
 40
0.0073110011
100
AcDbArc
 50
177.7118373831
 51
179.9984159776
  0
ARC
  5
37A
100
AcDbEntity
  8
0
100
AcDbCircle
 62
7
  6
CONTINUOUS
 10
8.0127810745
 20
5.1670698392
 40
0.0057074101
100
AcDbArc
 50
106.6125272894
 51
113.3620559606
  0
ARC
  5
37B
100
AcDbEntity
  8
0
100
AcDbCircle
 62
7
  6
CONTINUOUS
 10
8.4335739657
 20
5.1670868484
 40
0.0056896081
100
AcDbArc
 50
69.9828623251
 51
73.3892283072
  0
ARC
  5
37C
100
AcDbEntity
  8
0
100
AcDbCircle
 62
7
  6
CONTINUOUS
 10
8.3748136713
 20
4.9792280752
 40
0.00375
100
AcDbArc
 50
287.8240571943
 51
337.1490133855
  0
ARC
  5
37D
100
AcDbEntity
  8
0
100
AcDbCircle
 62
7
  6
CONTINUOUS
 10
8.0715361123
 20
4.9792280752
 40
0.00375
100
AcDbArc
 50
202.8509866145
 51
252.1759428057
  0
ARC
  5
37E
100
AcDbEntity
  8
0
100
AcDbCircle
 62
7
  6
CONTINUOUS
 10
8.2231748918
 20
5.4508471368
 40
0.4991476773
100
AcDbArc
 50
279.2852732631
 51
282.8518248541
  0
ARC
  5
37F
100
AcDbEntity
  8
0
100
AcDbCircle
 62
7
  6
CONTINUOUS
 10
8.2231748918
 20
5.4508471368
 40
0.4991476773
100
AcDbArc
 50
284.6897937343
 51
287.8240571942
  0
ARC
  5
380
100
AcDbEntity
  8
0
100
AcDbCircle
 62
7
  6
CONTINUOUS
 10
8.2231748918
 20
5.4508471368
 40
0.4991476773
100
AcDbArc
 50
262.4196365177
 51
277.5803634823
  0
ARC
  5
381
100
AcDbEntity
  8
0
100
AcDbCircle
 62
7
  6
CONTINUOUS
 10
8.2231748918
 20
5.4508471368
 40
0.4991476773
100
AcDbArc
 50
257.1481751459
 51
260.7147267369
  0
ARC
  5
382
100
AcDbEntity
  8
0
100
AcDbCircle
 62
7
  6
CONTINUOUS
 10
8.2231748918
 20
5.4508471368
 40
0.4991476773
100
AcDbArc
 50
252.1759428058
 51
255.3102062657
  0
ARC
  5
383
100
AcDbEntity
  8
0
100
AcDbCircle
 62
7
  6
CONTINUOUS
 10
8.2231748918
 20
5.4535793807
 40
0.37125
100
AcDbArc
 50
306.3932790526
 51
67.1138433248
  0
ARC
  5
384
100
AcDbEntity
  8
0
100
AcDbCircle
 62
7
  6
CONTINUOUS
 10
8.2231748918
 20
5.4535793807
 40
0.37125
100
AcDbArc
 50
112.8861566752
 51
233.6067209474
  0
ARC
  5
385
100
AcDbEntity
  8
0
100
AcDbCircle
 62
7
  6
CONTINUOUS
 10
8.2231748918
 20
5.4535793807
 40
0.36
100
AcDbArc
 50
113.6443657851
 51
232.405941269
  0
ARC
  5
386
100
AcDbEntity
  8
0
100
AcDbCircle
 62
7
  6
CONTINUOUS
 10
8.2231748918
 20
5.4535793807
 40
0.36
100
AcDbArc
 50
307.5940587313
 51
66.3556342149
  0
ARC
  5
387
100
AcDbEntity
  8
0
100
AcDbCircle
 62
7
  6
CONTINUOUS
 10
8.2231748918
 20
5.4535793807
 40
0.234375
100
AcDbArc
 50
144.9286432584
 51
215.0713567416
  0
ARC
  5
388
100
AcDbEntity
  8
0
100
AcDbCircle
 62
7
  6
CONTINUOUS
 10
8.2231748918
 20
5.4535793807
 40
0.234375
100
AcDbArc
 50
324.9286432585
 51
35.0713567416
  0
ARC
  5
389
100
AcDbEntity
  8
0
100
AcDbCircle
 62
7
  6
CONTINUOUS
 10
8.2231748918
 20
5.4535793807
 40
0.1939432062
100
AcDbArc
 50
351.5043290067
 51
8.4956709933
  0
ARC
  5
38A
100
AcDbEntity
  8
0
100
AcDbCircle
 62
7
  6
CONTINUOUS
 10
8.2231748918
 20
5.4535793807
 40
0.1939432062
100
AcDbArc
 50
171.5043290067
 51
188.4956709933
  0
ARC
  5
38B
100
AcDbEntity
  8
0
100
AcDbCircle
 62
7
  6
CONTINUOUS
 10
8.0937795665
 20
5.7440434851
 40
0.0149817842
100
AcDbArc
 50
89.9222795022
 51
179.9219531763
  0
ARC
  5
38C
100
AcDbEntity
  8
0
100
AcDbCircle
 62
7
  6
CONTINUOUS
 10
8.0937795665
 20
5.7421841877
 40
0.0149817842
100
AcDbArc
 50
89.9222795022
 51
179.9219531763
  0
ARC
  5
38D
100
AcDbEntity
  8
0
100
AcDbCircle
 62
7
  6
CONTINUOUS
 10
8.3525702171
 20
5.7421841877
 40
0.0149817842
100
AcDbArc
 50
0.0780468297
 51
90.0777204928
  0
ARC
  5
38E
100
AcDbEntity
  8
0
100
AcDbCircle
 62
7
  6
CONTINUOUS
 10
8.3525702171
 20
5.7440434851
 40
0.0149817842
100
AcDbArc
 50
0.0780468237
 51
90.0777204978
  0
ARC
  5
38F
100
AcDbEntity
  8
0
100
AcDbCircle
 62
7
  6
CONTINUOUS
 10
8.0613623918
 20
5.6868293807
 40
0.01125
100
AcDbArc
 50
90.0
 51
180.0
  0
ARC
  5
390
100
AcDbEntity
  8
0
100
AcDbCircle
 62
7
  6
CONTINUOUS
 10
8.3849873918
 20
5.6868293807
 40
0.01125
100
AcDbArc
 50
0.0
 51
90.0
  0
ARC
  5
391
100
AcDbEntity
  8
0
100
AcDbCircle
 62
7
  6
CONTINUOUS
 10
8.4037373918
 20
5.6605793807
 40
0.01125
100
AcDbArc
 50
0.0
 51
90.0
  0
ARC
  5
392
100
AcDbEntity
  8
0
100
AcDbCircle
 62
7
  6
CONTINUOUS
 10
8.0426123918
 20
5.6605793807
 40
0.01125
100
AcDbArc
 50
90.0
 51
180.0
  0
LINE
  5
393
100
AcDbEntity
  8
0
100
AcDbLine
 62
7
  6
CONTINUOUS
 10
8.2675837809
 20
4.9563751736
 11
8.2677803647
 21
4.9565773267
  0
SPLINE
  5
394
100
AcDbEntity
  8
0
100
AcDbSpline
 62
7
  6
CONTINUOUS
 70
0
 71
3
 72
20
 73
16
 74
0
 42
0.0000001
 43
0.0000001
 44
0.0000000001
 40
0.0
 40
0.0
 40
0.0
 40
0.0
 40
0.0224278202
 40
0.0466715427
 40
0.0751811378
 40
0.1094549692
 40
0.1502643382
 40
0.197945614
 40
0.2525609907
 40
0.3139871057
 40
0.3819695804
 40
0.4561347895
 40
0.6210703146
 40
0.8041983001
 40
1.0
 40
1.0
 40
1.0
 40
1.0
 10
8.1699380246
 20
4.966812006
 30
0.0
 10
8.1699350805
 20
4.9668623263
 30
0.0
 10
8.1699496162
 20
4.9669693693
 30
0.0
 10
8.1700348127
 20
4.9671188354
 30
0.0
 10
8.1701765315
 20
4.9672561803
 30
0.0
 10
8.1703727033
 20
4.9673833776
 30
0.0
 10
8.1706229549
 20
4.9675009883
 30
0.0
 10
8.1709264893
 20
4.9676085071
 30
0.0
 10
8.171281812
 20
4.9677051471
 30
0.0
 10
8.1716867858
 20
4.9677900732
 30
0.0
 10
8.1721386987
 20
4.9678624807
 30
0.0
 10
8.1728241491
 20
4.9679442863
 30
0.0
 10
8.1737716915
 20
4.9680070841
 30
0.0
 10
8.1749943266
 20
4.9680235258
 30
0.0
 10
8.1758458578
 20
4.9679965386
 30
0.0
 10
8.1762853328
 20
4.967973794
 30
0.0
  0
SPLINE
  5
395
100
AcDbEntity
  8
0
100
AcDbSpline
 62
7
  6
CONTINUOUS
 70
0
 71
3
 72
30
 73
26
 74
0
 42
0.0000001
 43
0.0000001
 44
0.0000000001
 40
0.0
 40
0.0
 40
0.0
 40
0.0
 40
0.0031828167
 40
0.0065423367
 40
0.0102722053
 40
0.0145137454
 40
0.0248634262
 40
0.0380216099
 40
0.0541334376
 40
0.073218789
 40
0.0952331616
 40
0.1200850004
 40
0.147650505
 40
0.1777782757
 40
0.2449925188
 40
0.3200857042
 40
0.4011362312
 40
0.4860138871
 40
0.5724514652
 40
0.6581234171
 40
0.7407331146
 40
0.8180938125
 40
0.8882051478
 40
0.9493161154
 40
1.0
 40
1.0
 40
1.0
 40
1.0
 10
8.215829774
 20
4.9571397125
 30
0.0
 10
8.2158288832
 20
4.9571544715
 30
0.0
 10
8.215831328
 20
4.9571852232
 30
0.0
 10
8.2158477964
 20
4.9572305062
 30
0.0
 10
8.2158764569
 20
4.9572750686
 30
0.0
 10
8.2159344304
 20
4.9573378176
 30
0.0
 10
8.2160402503
 20
4.9574133146
 30
0.0
 10
8.2162045794
 20
4.9574968171
 30
0.0
 10
8.2164141955
 20
4.9575784103
 30
0.0
 10
8.2166680547
 20
4.9576575527
 30
0.0
 10
8.2169649432
 20
4.9577336612
 30
0.0
 10
8.2173031008
 20
4.9578061742
 30
0.0
 10
8.2176804757
 20
4.9578745623
 30
0.0
 10
8.2182540459
 20
4.9579627959
 30
0.0
 10
8.2190497766
 20
4.9580570658
 30
0.0
 10
8.22008393
 20
4.9581436401
 30
0.0
 10
8.2212020891
 20
4.9582045786
 30
0.0
 10
8.2223741076
 20
4.9582380354
 30
0.0
 10
8.223568059
 20
4.958242955
 30
0.0
 10
8.2247512471
 20
4.9582191882
 30
0.0
 10
8.2258913506
 20
4.958167475
 30
0.0
 10
8.2269574986
 20
4.9580894155
 30
0.0
 10
8.2279213353
 20
4.9579874747
 30
0.0
 10
8.2287576476
 20
4.957864788
 30
0.0
 10
8.2292672103
 20
4.9577618223
 30
0.0
 10
8.2294955965
 20
4.9577045653
 30
0.0
  0
SPLINE
  5
396
100
AcDbEntity
  8
0
100
AcDbSpline
 62
7
  6
CONTINUOUS
 70
0
 71
3
 72
25
 73
21
 74
0
 42
0.0000001
 43
0.0000001
 44
0.0000000001
 40
0.0
 40
0.0
 40
0.0
 40
0.0
 40
0.0047361079
 40
0.0103629454
 40
0.0177154697
 40
0.0271681066
 40
0.038881373
 40
0.0529172603
 40
0.0692875253
 40
0.0879789154
 40
0.1321575748
 40
0.1850076752
 40
0.2459016127
 40
0.3140699495
 40
0.388627213
 40
0.4685931587
 40
0.5529118438
 40
0.6404716399
 40
0.8206989191
 40
1.0
 40
1.0
 40
1.0
 40
1.0
 10
8.1640750488
 20
4.9579152956
 30
0.0
 10
8.1640741878
 20
4.9579299187
 30
0.0
 10
8.164082041
 20
4.957962908
 30
0.0
 10
8.1641199617
 20
4.958004334
 30
0.0
 10
8.1641792388
 20
4.9580411061
 30
0.0
 10
8.1642609937
 20
4.9580749261
 30
0.0
 10
8.1643654911
 20
4.9581058987
 30
0.0
 10
8.1644927898
 20
4.9581339543
 30
0.0
 10
8.1646426212
 20
4.9581589617
 30
0.0
 10
8.1648858113
 20
4.9581897646
 30
0.0
 10
8.1652428003
 20
4.9582178365
 30
0.0
 10
8.1657309506
 20
4.9582367819
 30
0.0
 10
8.1662936398
 20
4.9582419023
 30
0.0
 10
8.1669234027
 20
4.9582330549
 30
0.0
 10
8.1676118316
 20
4.9582102593
 30
0.0
 10
8.1683496816
 20
4.9581737926
 30
0.0
 10
8.1691270609
 20
4.9581241392
 30
0.0
 10
8.170212904
 20
4.9580404139
 30
0.0
 10
8.1715895557
 20
4.957908583
 30
0.0
 10
8.1726938686
 20
4.9577770541
 30
0.0
 10
8.1732436771
 20
4.9577045653
 30
0.0
  0
SPLINE
  5
397
100
AcDbEntity
  8
0
100
AcDbSpline
 62
7
  6
CONTINUOUS
 70
0
 71
3
 72
26
 73
22
 74
0
 42
0.0000001
 43
0.0000001
 44
0.0000000001
 40
0.0
 40
0.0
 40
0.0
 40
0.0
 40
0.0093723817
 40
0.0195800639
 40
0.0311868507
 40
0.0445574494
 40
0.0599042801
 40
0.0773405694
 40
0.096912344
 40
0.1186245967
 40
0.1683241345
 40
0.2259826573
 40
0.2908709009
 40
0.3620597182
 40
0.4384455187
 40
0.5187688925
 40
0.601634873
 40
0.6855394024
 40
0.8501155378
 40
0.9276451421
 40
1.0
 40
1.0
 40
1.0
 40
1.0
 10
8.2608644605
 20
4.9653540107
 30
0.0
 10
8.2608621319
 20
4.9653940624
 30
0.0
 10
8.2608705398
 20
4.9654788988
 30
0.0
 10
8.2609200376
 20
4.965604246
 30
0.0
 10
8.2610044545
 20
4.965730033
 30
0.0
 10
8.2611227755
 20
4.9658564535
 30
0.0
 10
8.2612744579
 20
4.9659836055
 30
0.0
 10
8.2614590032
 20
4.9661111932
 30
0.0
 10
8.2616757444
 20
4.9662388376
 30
0.0
 10
8.262022544
 20
4.9664164587
 30
0.0
 10
8.2625323274
 20
4.9666313184
 30
0.0
 10
8.2632299861
 20
4.9668710176
 30
0.0
 10
8.2640278674
 20
4.96709837
 30
0.0
 10
8.2649128379
 20
4.967309076
 30
0.0
 10
8.2658699331
 20
4.9674989622
 30
0.0
 10
8.2668822479
 20
4.9676641456
 30
0.0
 10
8.2679312368
 20
4.967801165
 30
0.0
 10
8.269342807
 20
4.9679411867
 30
0.0
 10
8.2707375414
 20
4.9680157219
 30
0.0
 10
8.2720838432
 20
4.9680171586
 30
0.0
 10
8.2727252161
 20
4.967992863
 30
0.0
 10
8.2730343504
 20
4.967973794
 30
0.0
  0
SPLINE
  5
398
100
AcDbEntity
  8
0
100
AcDbSpline
 62
7
  6
CONTINUOUS
 70
0
 71
3
 72
34
 73
30
 74
0
 42
0.0000001
 43
0.0000001
 44
0.0000000001
 40
0.0
 40
0.0
 40
0.0
 40
0.0
 40
0.0050368606
 40
0.0087211742
 40
0.0133235239
 40
0.0188844562
 40
0.0254188006
 40
0.0329253823
 40
0.0413960326
 40
0.061169503
 40
0.0845831209
 40
0.1114369307
 40
0.1415006329
 40
0.2102157257
 40
0.2884793389
 40
0.3738135541
 40
0.4635655032
 40
0.5549364692
 40
0.6450129464
 40
0.7308103249
 40
0.8093526545
 40
0.877795269
 40
0.9074172427
 40
0.933594495
 40
0.9560906164
 40
0.9747170883
 40
0.9893571602
 40
0.9951732937
 40
1.0
 40
1.0
 40
1.0
 40
1.0
 10
8.3251576487
 20
4.9643443907
 30
0.0
 10
8.3251560822
 20
4.9643711725
 30
0.0
 10
8.3251815247
 20
4.9644162437
 30
0.0
 10
8.3252306645
 20
4.9644659262
 30
0.0
 10
8.3252887254
 20
4.9645122572
 30
0.0
 10
8.3253626922
 20
4.9645615142
 30
0.0
 10
8.3254528872
 20
4.9646142763
 30
0.0
 10
8.3255589684
 20
4.9646701945
 30
0.0
 10
8.3257303718
 20
4.9647532161
 30
0.0
 10
8.3259828936
 20
4.9648627283
 30
0.0
 10
8.3263302624
 20
4.9649988919
 30
0.0
 10
8.3267326775
 20
4.9651443761
 30
0.0
 10
8.327366596
 20
4.9653587536
 30
0.0
 10
8.3282675269
 20
4.9656376819
 30
0.0
 10
8.3294579458
 20
4.9659755446
 30
0.0
 10
8.3307630673
 20
4.966318706
 30
0.0
 10
8.332141637
 20
4.9666561999
 30
0.0
 10
8.3335500802
 20
4.9669771064
 30
0.0
 10
8.334942932
 20
4.9672707951
 30
0.0
 10
8.3362736236
 20
4.9675271955
 30
0.0
 10
8.3374956826
 20
4.9677370367
 30
0.0
 10
8.3384266515
 20
4.9678728569
 30
0.0
 10
8.3390839535
 20
4.9679498083
 30
0.0
 10
8.3394991981
 20
4.9679886847
 30
0.0
 10
8.3398570284
 20
4.9680113822
 30
0.0
 10
8.3401540311
 20
4.9680176819
 30
0.0
 10
8.3403623519
 20
4.9680093727
 30
0.0
 10
8.3404959997
 20
4.967992278
 30
0.0
 10
8.3405516009
 20
4.9679806673
 30
0.0
 10
8.3405763733
 20
4.967973794
 30
0.0
  0
SPLINE
  5
399
100
AcDbEntity
  8
0
100
AcDbSpline
 62
7
  6
CONTINUOUS
 70
0
 71
3
 72
19
 73
15
 74
0
 42
0.0000001
 43
0.0000001
 44
0.0000000001
 40
0.0
 40
0.0
 40
0.0
 40
0.0
 40
0.0221632322
 40
0.0453757564
 40
0.072147215
 40
0.1041488088
 40
0.1423315641
 40
0.1872030263
 40
0.238990897
 40
0.2977726165
 40
0.4360139064
 40
0.6006891704
 40
0.789644194
 40
1.0
 40
1.0
 40
1.0
 40
1.0
 10
8.1313953599
 20
4.9674415063
 30
0.0
 10
8.1313937747
 20
4.9674690477
 30
0.0
 10
8.1314007132
 20
4.9675266773
 30
0.0
 10
8.1314446517
 20
4.9676069798
 30
0.0
 10
8.1315187069
 20
4.9676787439
 30
0.0
 10
8.1316213845
 20
4.9677432486
 30
0.0
 10
8.1317527349
 20
4.9678011981
 30
0.0
 10
8.1319127321
 20
4.9678526232
 30
0.0
 10
8.132101105
 20
4.9678974256
 30
0.0
 10
8.1324063052
 20
4.9679508508
 30
0.0
 10
8.1328548045
 20
4.9679958142
 30
0.0
 10
8.1334668418
 20
4.9680189146
 30
0.0
 10
8.1341690272
 20
4.9680125073
 30
0.0
 10
8.1346656336
 20
4.9679896604
 30
0.0
 10
8.1349269861
 20
4.967973794
 30
0.0
  0
SPLINE
  5
39A
100
AcDbEntity
  8
0
100
AcDbSpline
 62
7
  6
CONTINUOUS
 70
0
 71
3
 72
22
 73
18
 74
0
 42
0.0000001
 43
0.0000001
 44
0.0000000001
 40
0.0
 40
0.0
 40
0.0
 40
0.0
 40
0.0105740239
 40
0.0215162589
 40
0.0332726779
 40
0.0461981524
 40
0.0764680636
 40
0.1136041028
 40
0.1580452314
 40
0.2098079077
 40
0.2686426129
 40
0.3341045482
 40
0.4055912282
 40
0.4823651837
 40
0.6482234767
 40
0.8237315199
 40
1.0
 40
1.0
 40
1.0
 40
1.0
 10
8.2154015697
 20
4.9660784311
 30
0.0
 10
8.2153995242
 20
4.9661134499
 30
0.0
 10
8.2154034995
 20
4.96618544
 30
0.0
 10
8.2154340865
 20
4.966292317
 30
0.0
 10
8.2154886101
 20
4.9663979144
 30
0.0
 10
8.2155983242
 20
4.9665443396
 30
0.0
 10
8.2158007914
 20
4.9667214467
 30
0.0
 10
8.216118378
 20
4.9669151043
 30
0.0
 10
8.21652124
 20
4.9670997288
 30
0.0
 10
8.2170059261
 20
4.9672731383
 30
0.0
 10
8.2175679823
 20
4.9674332169
 30
0.0
 10
8.2182014492
 20
4.9675777379
 30
0.0
 10
8.2188992103
 20
4.9677046686
 30
0.0
 10
8.2199310618
 20
4.9678516652
 30
0.0
 10
8.2213136799
 20
4.9679758276
 30
0.0
 10
8.2230307942
 20
4.9680308008
 30
0.0
 10
8.2241982215
 20
4.9680041606
 30
0.0
 10
8.2247821899
 20
4.967973794
 30
0.0
  0
SPLINE
  5
39B
100
AcDbEntity
  8
0
100
AcDbSpline
 62
7
  6
CONTINUOUS
 70
0
 71
3
 72
28
 73
24
 74
0
 42
0.0000001
 43
0.0000001
 44
0.0000000001
 40
0.0
 40
0.0
 40
0.0
 40
0.0
 40
0.0075566777
 40
0.0119125051
 40
0.0167909703
 40
0.028357525
 40
0.0425814194
 40
0.0595635953
 40
0.0793049266
 40
0.1017461931
 40
0.1267937451
 40
0.184193669
 40
0.2503186699
 40
0.3237333728
 40
0.402803623
 40
0.4857189046
 40
0.5705100487
 40
0.6550786929
 40
0.7372454057
 40
0.8148187247
 40
0.8856906855
 40
0.9479462505
 40
1.0
 40
1.0
 40
1.0
 40
1.0
 10
8.2994055635
 20
4.9647466124
 30
0.0
 10
8.2994033707
 20
4.9647842137
 30
0.0
 10
8.2994155206
 20
4.9648446618
 30
0.0
 10
8.2994526823
 20
4.9649197236
 30
0.0
 10
8.299511365
 20
4.9650056218
 30
0.0
 10
8.2996187471
 20
4.9651157031
 30
0.0
 10
8.2997872905
 20
4.9652468149
 30
0.0
 10
8.300001783
 20
4.9653833015
 30
0.0
 10
8.3002609323
 20
4.9655243639
 30
0.0
 10
8.3005632515
 20
4.9656691906
 30
0.0
 10
8.3010437296
 20
4.9658755388
 30
0.0
 10
8.3017387078
 20
4.9661325918
 30
0.0
 10
8.3026745135
 20
4.9664297514
 30
0.0
 10
8.3037248803
 20
4.9667204545
 30
0.0
 10
8.3048652018
 20
4.9669974691
 30
0.0
 10
8.3060684055
 20
4.9672536692
 30
0.0
 10
8.3073050289
 20
4.9674822785
 30
0.0
 10
8.308543668
 20
4.9676769961
 30
0.0
 10
8.3097516287
 20
4.967832248
 30
0.0
 10
8.310895886
 20
4.9679434583
 30
0.0
 10
8.3119444511
 20
4.9680074186
 30
0.0
 10
8.3128676272
 20
4.9680224087
 30
0.0
 10
8.313437527
 20
4.9679978831
 30
0.0
 10
8.3136958603
 20
4.967973794
 30
0.0
  0
SPLINE
  5
39C
100
AcDbEntity
  8
0
100
AcDbSpline
 62
7
  6
CONTINUOUS
 70
0
 71
3
 72
17
 73
13
 74
0
 42
0.0000001
 43
0.0000001
 44
0.0000000001
 40
0.0
 40
0.0
 40
0.0
 40
0.0
 40
0.0190663604
 40
0.0391873139
 40
0.0631532285
 40
0.0926750031
 40
0.1286723853
 40
0.1716311591
 40
0.2792288008
 40
0.4162790108
 40
0.5826131818
 40
1.0
 40
1.0
 40
1.0
 40
1.0
 10
8.1056417288
 20
4.9678656864
 30
0.0
 10
8.1056412299
 20
4.9678746816
 30
0.0
 10
8.1056439622
 20
4.9678936809
 30
0.0
 10
8.105660852
 20
4.967919174
 30
0.0
 10
8.1056885987
 20
4.9679407732
 30
0.0
 10
8.1057267701
 20
4.9679593888
 30
0.0
 10
8.1057756011
 20
4.9679753308
 30
0.0
 10
8.1058617304
 20
4.967994519
 30
0.0
 10
8.1059970791
 20
4.9680097366
 30
0.0
 10
8.1061912154
 20
4.9680167975
 30
0.0
 10
8.1065318644
 20
4.9680114934
 30
0.0
 10
8.1068071575
 20
4.9679914672
 30
0.0
 10
8.107003583
 20
4.967973794
 30
0.0
  0
SPLINE
  5
39D
100
AcDbEntity
  8
0
100
AcDbSpline
 62
7
  6
CONTINUOUS
 70
0
 71
3
 72
22
 73
18
 74
0
 42
0.0000001
 43
0.0000001
 44
0.0000000001
 40
0.0
 40
0.0
 40
0.0
 40
0.0
 40
0.2018964403
 40
0.3898164755
 40
0.5588614016
 40
0.6349118874
 40
0.7046475963
 40
0.7676280605
 40
0.8234607077
 40
0.8718148715
 40
0.9124394393
 40
0.9451867804
 40
0.97010725
 40
0.9797697869
 40
0.9877410493
 40
0.9943098847
 40
1.0
 40
1.0
 40
1.0
 40
1.0
 10
8.1732436771
 20
4.9577045653
 30
0.0
 10
8.173627503
 20
4.9576539602
 30
0.0
 10
8.1743677513
 20
4.9575497417
 30
0.0
 10
8.1754258073
 20
4.9573791617
 30
0.0
 10
8.1762423449
 20
4.9572278088
 30
0.0
 10
8.1768332171
 20
4.9571038658
 30
0.0
 10
8.1772234943
 20
4.9570146345
 30
0.0
 10
8.1775741626
 20
4.9569264563
 30
0.0
 10
8.177882881
 20
4.9568399595
 30
0.0
 10
8.1781475546
 20
4.9567557759
 30
0.0
 10
8.1783665851
 20
4.9566746162
 30
0.0
 10
8.1785384608
 20
4.956597043
 30
0.0
 10
8.1786504717
 20
4.9565315576
 30
0.0
 10
8.1787133978
 20
4.9564792743
 30
0.0
 10
8.1787442889
 20
4.9564442959
 30
0.0
 10
8.1787630145
 20
4.9564097733
 30
0.0
 10
8.1787666674
 20
4.9563858645
 30
0.0
 10
8.1787659848
 20
4.9563749747
 30
0.0
  0
SPLINE
  5
39E
100
AcDbEntity
  8
0
100
AcDbSpline
 62
7
  6
CONTINUOUS
 70
0
 71
3
 72
15
 73
11
 74
0
 42
0.0000001
 43
0.0000001
 44
0.0000000001
 40
0.0
 40
0.0
 40
0.0
 40
0.0
 40
0.2027623576
 40
0.3822905487
 40
0.5381285005
 40
0.670378583
 40
0.7797377616
 40
0.8679628357
 40
0.9388567816
 40
1.0
 40
1.0
 40
1.0
 40
1.0
 10
8.2294955965
 20
4.9577045653
 30
0.0
 10
8.2295759571
 20
4.9576844186
 30
0.0
 10
8.2297268453
 20
4.9576438366
 30
0.0
 10
8.2299364825
 20
4.957577221
 30
0.0
 10
8.230115033
 20
4.9575088102
 30
0.0
 10
8.230261878
 20
4.9574389571
 30
0.0
 10
8.2303768127
 20
4.9573678256
 30
0.0
 10
8.2304599253
 20
4.9572951799
 30
0.0
 10
8.2305113595
 20
4.9572194022
 30
0.0
 10
8.2305215467
 20
4.9571642437
 30
0.0
 10
8.2305199858
 20
4.9571393097
 30
0.0
  0
SPLINE
  5
39F
100
AcDbEntity
  8
0
100
AcDbSpline
 62
7
  6
CONTINUOUS
 70
0
 71
3
 72
36
 73
32
 74
0
 42
0.0000001
 43
0.0000001
 44
0.0000000001
 40
0.0
 40
0.0
 40
0.0
 40
0.0
 40
0.0137105334
 40
0.0311107298
 40
0.0521193321
 40
0.0766058621
 40
0.1043935674
 40
0.135274253
 40
0.2053422831
 40
0.2846449119
 40
0.3706974878
 40
0.4607686443
 40
0.5519520729
 40
0.6412546001
 40
0.7256977863
 40
0.7652006537
 40
0.8024403176
 40
0.8371025633
 40
0.868899826
 40
0.897571736
 40
0.9228917954
 40
0.9446739451
 40
0.9627768087
 40
0.9704237082
 40
0.9771292627
 40
0.9829026547
 40
0.9877654213
 40
0.9917630106
 40
0.9949891316
 40
0.9976260312
 40
1.0
 40
1.0
 40
1.0
 40
1.0
 10
8.2677803647
 20
4.9565773267
 30
0.0
 10
8.2678394334
 20
4.9566096964
 30
0.0
 10
8.2679788117
 20
4.9566732448
 30
0.0
 10
8.2682190932
 20
4.9567619488
 30
0.0
 10
8.2685141088
 20
4.9568542069
 30
0.0
 10
8.2688614283
 20
4.9569491791
 30
0.0
 10
8.2692583504
 20
4.9570460157
 30
0.0
 10
8.2698759863
 20
4.9571822847
 30
0.0
 10
8.2707458894
 20
4.9573488101
 30
0.0
 10
8.2718872951
 20
4.9575361242
 30
0.0
 10
8.2731298556
 20
4.9577119698
 30
0.0
 10
8.2744335497
 20
4.957870462
 30
0.0
 10
8.2757558614
 20
4.958006207
 30
0.0
 10
8.2770529552
 20
4.9581145519
 30
0.0
 10
8.278098621
 20
4.9581803843
 30
0.0
 10
8.2788897237
 20
4.9582155942
 30
0.0
 10
8.2794367849
 20
4.9582325514
 30
0.0
 10
8.2799461942
 20
4.9582405262
 30
0.0
 10
8.280413581
 20
4.9582394777
 30
0.0
 10
8.280834961
 20
4.9582294473
 30
0.0
 10
8.281206807
 20
4.9582106036
 30
0.0
 10
8.2815260351
 20
4.9581831784
 30
0.0
 10
8.2817576413
 20
4.958152111
 30
0.0
 10
8.2819142354
 20
4.9581218544
 30
0.0
 10
8.2820103555
 20
4.958098481
 30
0.0
 10
8.2820917973
 20
4.9580732255
 30
0.0
 10
8.2821585181
 20
4.9580461371
 30
0.0
 10
8.2822105924
 20
4.9580171699
 30
0.0
 10
8.2822482444
 20
4.957986074
 30
0.0
 10
8.2822713607
 20
4.9579518156
 30
0.0
 10
8.2822754565
 20
4.9579265686
 30
0.0
 10
8.2822747164
 20
4.9579149294
 30
0.0
  0
SPLINE
  5
3A0
100
AcDbEntity
  8
0
100
AcDbSpline
 62
7
  6
CONTINUOUS
 70
0
 71
3
 72
27
 73
23
 74
0
 42
0.0000001
 43
0.0000001
 44
0.0000000001
 40
0.0
 40
0.0
 40
0.0
 40
0.0
 40
0.0539802145
 40
0.117993734
 40
0.1902732644
 40
0.2688600055
 40
0.436724654
 40
0.5218778033
 40
0.6051612406
 40
0.6846512176
 40
0.7585128966
 40
0.825014578
 40
0.8825519107
 40
0.9075035829
 40
0.9296916365
 40
0.9489761262
 40
0.9652380415
 40
0.978395707
 40
0.9884245686
 40
0.9922965762
 40
0.9954528557
 40
1.0
 40
1.0
 40
1.0
 40
1.0
 10
8.107003583
 20
4.967973794
 30
0.0
 10
8.1072678257
 20
4.967950019
 30
0.0
 10
8.1078441241
 20
4.9678836812
 30
0.0
 10
8.1087696642
 20
4.9677492082
 30
0.0
 10
8.1098112109
 20
4.9675738526
 30
0.0
 10
8.1113510578
 20
4.96728554
 30
0.0
 10
8.1129457591
 20
4.9669476555
 30
0.0
 10
8.1145555331
 20
4.9665723897
 30
0.0
 10
8.1157382956
 20
4.9662790579
 30
0.0
 10
8.1168628995
 20
4.9659823156
 30
0.0
 10
8.1179030197
 20
4.965689203
 30
0.0
 10
8.1188338424
 20
4.9654067335
 30
0.0
 10
8.1195291219
 20
4.9651764707
 30
0.0
 10
8.120012772
 20
4.9650009435
 30
0.0
 10
8.1203170528
 20
4.9648825305
 30
0.0
 10
8.1205783776
 20
4.9647718124
 30
0.0
 10
8.1207949828
 20
4.9646696805
 30
0.0
 10
8.120965287
 20
4.9645767114
 30
0.0
 10
8.1210762332
 20
4.9645028483
 30
0.0
 10
8.1211390679
 20
4.9644466682
 30
0.0
 10
8.1211760029
 20
4.9644041175
 30
0.0
 10
8.1211934727
 20
4.9643665698
 30
0.0
 10
8.1211921264
 20
4.9643442614
 30
0.0
  0
SPLINE
  5
3A1
100
AcDbEntity
  8
0
100
AcDbSpline
 62
7
  6
CONTINUOUS
 70
0
 71
3
 72
26
 73
22
 74
0
 42
0.0000001
 43
0.0000001
 44
0.0000000001
 40
0.0
 40
0.0
 40
0.0
 40
0.0
 40
0.0736721325
 40
0.1522692696
 40
0.3181583569
 40
0.4023898432
 40
0.4854801897
 40
0.5660149339
 40
0.6426677818
 40
0.7142107015
 40
0.7795231723
 40
0.8376031254
 40
0.8875867145
 40
0.9093245314
 40
0.928801507
 40
0.9459786697
 40
0.9608486554
 40
0.9734570372
 40
0.9839387146
 40
0.9925917798
 40
1.0
 40
1.0
 40
1.0
 40
1.0
 10
8.1349269861
 20
4.967973794
 30
0.0
 10
8.1352377724
 20
4.9679549265
 30
0.0
 10
8.135879473
 20
4.9679047386
 30
0.0
 10
8.1372165824
 20
4.9677616523
 30
0.0
 10
8.1385919148
 20
4.9675609859
 30
0.0
 10
8.1399779162
 20
4.967311293
 30
0.0
 10
8.1410044441
 20
4.9671021789
 30
0.0
 10
8.1419945741
 20
4.9668762689
 30
0.0
 10
8.1429314611
 20
4.9666376763
 30
0.0
 10
8.1437994715
 20
4.9663906621
 30
0.0
 10
8.1445843247
 20
4.9661395887
 30
0.0
 10
8.1452730214
 20
4.9658888081
 30
0.0
 10
8.1457786763
 20
4.965675048
 30
0.0
 10
8.1461247111
 20
4.9655050649
 30
0.0
 10
8.1463411356
 20
4.9653862682
 30
0.0
 10
8.1465258657
 20
4.965270693
 30
0.0
 10
8.1466781173
 20
4.9651587817
 30
0.0
 10
8.1467973676
 20
4.9650509047
 30
0.0
 10
8.1468832455
 20
4.9649469735
 30
0.0
 10
8.1469354181
 20
4.9648463309
 30
0.0
 10
8.1469460848
 20
4.9647774365
 30
0.0
 10
8.1469441948
 20
4.9647461845
 30
0.0
  0
SPLINE
  5
3A2
100
AcDbEntity
  8
0
100
AcDbSpline
 62
7
  6
CONTINUOUS
 70
0
 71
3
 72
22
 73
18
 74
0
 42
0.0000001
 43
0.0000001
 44
0.0000000001
 40
0.0
 40
0.0
 40
0.0
 40
0.0
 40
0.1767292878
 40
0.3519034903
 40
0.5171445266
 40
0.5937006611
 40
0.6651198334
 40
0.7307024294
 40
0.7898529467
 40
0.8420964039
 40
0.8871072185
 40
0.9247684313
 40
0.955306304
 40
0.9681695252
 40
0.9796750718
 40
0.990140247
 40
1.0
 40
1.0
 40
1.0
 40
1.0
 10
8.1762853328
 20
4.967973794
 30
0.0
 10
8.1768660676
 20
4.9679437386
 30
0.0
 10
8.1780210448
 20
4.9678533481
 30
0.0
 10
8.1797094501
 20
4.9676367282
 30
0.0
 10
8.1810602712
 20
4.9673919282
 30
0.0
 10
8.1820649244
 20
4.9671613683
 30
0.0
 10
8.1827442021
 20
4.9669808599
 30
0.0
 10
8.1833611673
 20
4.9667906754
 30
0.0
 10
8.1839092492
 20
4.9665931359
 30
0.0
 10
8.1843827443
 20
4.9663906492
 30
0.0
 10
8.1847771459
 20
4.9661855013
 30
0.0
 10
8.1850886518
 20
4.9659799901
 30
0.0
 10
8.1852882909
 20
4.9658000659
 30
0.0
 10
8.1853975561
 20
4.9656554816
 30
0.0
 10
8.1854518755
 20
4.9655538869
 30
0.0
 10
8.1854827973
 20
4.9654530352
 30
0.0
 10
8.1854872203
 20
4.9653855309
 30
0.0
 10
8.1854852678
 20
4.9653531471
 30
0.0
  0
SPLINE
  5
3A3
100
AcDbEntity
  8
0
100
AcDbSpline
 62
7
  6
CONTINUOUS
 70
0
 71
3
 72
19
 73
15
 74
0
 42
0.0000001
 43
0.0000001
 44
0.0000000001
 40
0.0
 40
0.0
 40
0.0
 40
0.0
 40
0.1931591232
 40
0.3734117783
 40
0.5358486582
 40
0.6764884877
 40
0.737733975
 40
0.7926086199
 40
0.8410184669
 40
0.8830337776
 40
0.9189587543
 40
0.9494639881
 40
0.9758038416
 40
1.0
 40
1.0
 40
1.0
 40
1.0
 10
8.2247821899
 20
4.967973794
 30
0.0
 10
8.2252153883
 20
4.9679512675
 30
0.0
 10
8.2260520387
 20
4.9678895311
 30
0.0
 10
8.2272469882
 20
4.9677427888
 30
0.0
 10
8.2283156986
 20
4.9675495763
 30
0.0
 10
8.2291097154
 20
4.967347668
 30
0.0
 10
8.2296563537
 20
4.9671633198
 30
0.0
 10
8.229998968
 20
4.9670242432
 30
0.0
 10
8.230291578
 20
4.96687896
 30
0.0
 10
8.2305327454
 20
4.9667283519
 30
0.0
 10
8.230721525
 20
4.9665730457
 30
0.0
 10
8.2308571206
 20
4.9664128383
 30
0.0
 10
8.2309376847
 20
4.9662468792
 30
0.0
 10
8.2309514461
 20
4.9661315091
 30
0.0
 10
8.2309481471
 20
4.9660772712
 30
0.0
  0
SPLINE
  5
3A4
100
AcDbEntity
  8
0
100
AcDbSpline
 62
7
  6
CONTINUOUS
 70
0
 71
3
 72
19
 73
15
 74
0
 42
0.0000001
 43
0.0000001
 44
0.0000000001
 40
0.0
 40
0.0
 40
0.0
 40
0.0
 40
0.2023631406
 40
0.3841749959
 40
0.5432329589
 40
0.6781231365
 40
0.7363400027
 40
0.788447356
 40
0.8346412643
 40
0.8752776963
 40
0.9109646597
 40
0.9426558252
 40
0.9717375443
 40
1.0
 40
1.0
 40
1.0
 40
1.0
 10
8.2730343504
 20
4.967973794
 30
0.0
 10
8.2732884344
 20
4.9679581208
 30
0.0
 10
8.2737703028
 20
4.9679189323
 30
0.0
 10
8.2744482549
 20
4.9678302943
 30
0.0
 10
8.2750362154
 20
4.9677163872
 30
0.0
 10
8.2754637806
 20
4.9675972737
 30
0.0
 10
8.2757523889
 20
4.9674877709
 30
0.0
 10
8.2759311181
 20
4.967404661
 30
0.0
 10
8.2760825692
 20
4.9673168297
 30
0.0
 10
8.2762064479
 20
4.9672244022
 30
0.0
 10
8.276302505
 20
4.9671273956
 30
0.0
 10
8.2763702909
 20
4.9670255895
 30
0.0
 10
8.2764086841
 20
4.966919073
 30
0.0
 10
8.2764138789
 20
4.9668460589
 30
0.0
 10
8.2764116757
 20
4.9668105739
 30
0.0
  0
SPLINE
  5
3A5
100
AcDbEntity
  8
0
100
AcDbSpline
 62
7
  6
CONTINUOUS
 70
0
 71
3
 72
15
 73
11
 74
0
 42
0.0000001
 43
0.0000001
 44
0.0000000001
 40
0.0
 40
0.0
 40
0.0
 40
0.0
 40
0.2036825342
 40
0.3830348683
 40
0.5376454508
 40
0.6678814147
 40
0.7749582281
 40
0.8616290094
 40
0.933446848
 40
1.0
 40
1.0
 40
1.0
 40
1.0
 10
8.3136958603
 20
4.967973794
 30
0.0
 10
8.3137945491
 20
4.9679645914
 30
0.0
 10
8.3139798349
 20
4.9679435797
 30
0.0
 10
8.314238027
 20
4.9679003617
 30
0.0
 10
8.3144579301
 20
4.9678476791
 30
0.0
 10
8.3146387847
 20
4.9677859239
 30
0.0
 10
8.3147804069
 20
4.967715162
 30
0.0
 10
8.3148832412
 20
4.9676347733
 30
0.0
 10
8.3149459698
 20
4.9675418143
 30
0.0
 10
8.3149563693
 20
4.9674726607
 30
0.0
 10
8.314954351
 20
4.9674403372
 30
0.0
  0
LINE
  5
3A6
100
AcDbEntity
  8
0
100
AcDbLine
 62
7
  6
CONTINUOUS
 10
8.3405763733
 20
4.967973794
 11
8.3407080301
 21
4.9678651502
  0
SPLINE
  5
3A7
100
AcDbEntity
  8
0
100
AcDbSpline
 62
7
  6
CONTINUOUS
 70
0
 71
3
 72
15
 73
11
 74
0
 42
0.0000001
 43
0.0000001
 44
0.0000000001
 40
0.0
 40
0.0
 40
0.0
 40
0.0
 40
0.140045992
 40
0.2763912877
 40
0.4079374046
 40
0.5344256207
 40
0.6561780763
 40
0.7738358169
 40
0.8881679994
 40
1.0
 40
1.0
 40
1.0
 40
1.0
 10
8.4433874142
 20
5.1661453147
 30
0.0
 10
8.4433415109
 20
5.1665439428
 30
0.0
 10
8.4431883321
 20
5.16732492
 30
0.0
 10
8.4427855198
 20
5.168426903
 30
0.0
 10
8.442238238
 20
5.1694204907
 30
0.0
 10
8.4415754613
 20
5.1702884195
 30
0.0
 10
8.4408236814
 20
5.1710241428
 30
0.0
 10
8.4400051404
 20
5.1716273109
 30
0.0
 10
8.4391380592
 20
5.1721007521
 30
0.0
 10
8.4385314541
 20
5.1723346981
 30
0.0
 10
8.4382256697
 20
5.1724304417
 30
0.0
  0
SPLINE
  5
3A8
100
AcDbEntity
  8
0
100
AcDbSpline
 62
7
  6
CONTINUOUS
 70
0
 71
3
 72
16
 73
12
 74
0
 42
0.0000001
 43
0.0000001
 44
0.0000000001
 40
0.0
 40
0.0
 40
0.0
 40
0.0
 40
0.1432147749
 40
0.213766031
 40
0.2830965215
 40
0.4170648095
 40
0.5443935679
 40
0.6653483449
 40
0.7808229153
 40
0.8919711984
 40
1.0
 40
1.0
 40
1.0
 40
1.0
 10
8.4428898586
 20
5.1652722941
 30
0.0
 10
8.4428898586
 20
5.1657346768
 30
0.0
 10
8.4428296548
 20
5.1664268299
 30
0.0
 10
8.4426324101
 20
5.1673201342
 30
0.0
 10
8.4423681463
 20
5.1681648817
 30
0.0
 10
8.4419210254
 20
5.1691402688
 30
0.0
 10
8.4412239419
 20
5.1701653802
 30
0.0
 10
8.4404104199
 20
5.17101956
 30
0.0
 10
8.4395127574
 20
5.1717008987
 30
0.0
 10
8.4385568128
 20
5.1722133201
 30
0.0
 10
8.4378861079
 20
5.1724488854
 30
0.0
 10
8.4375491751
 20
5.1725390225
 30
0.0
  0
SPLINE
  5
3A9
100
AcDbEntity
  8
0
100
AcDbSpline
 62
7
  6
CONTINUOUS
 70
0
 71
3
 72
16
 73
12
 74
0
 42
0.0000001
 43
0.0000001
 44
0.0000000001
 40
0.0
 40
0.0
 40
0.0
 40
0.0
 40
0.1459748911
 40
0.2177486121
 40
0.2881319636
 40
0.4235631268
 40
0.5513650511
 40
0.671788117
 40
0.7858156595
 40
0.8947545415
 40
1.0
 40
1.0
 40
1.0
 40
1.0
 10
8.4417401116
 20
5.1652722941
 30
0.0
 10
8.4417401116
 20
5.1657345061
 30
0.0
 10
8.4416830912
 20
5.1664257893
 30
0.0
 10
8.4414957539
 20
5.1673194477
 30
0.0
 10
8.4412452286
 20
5.1681628475
 30
0.0
 10
8.4408219972
 20
5.1691362624
 30
0.0
 10
8.4401607165
 20
5.1701615388
 30
0.0
 10
8.4393884504
 20
5.1710163976
 30
0.0
 10
8.4385357787
 20
5.1716986784
 30
0.0
 10
8.4376273153
 20
5.1722120419
 30
0.0
 10
8.4369881612
 20
5.1724486771
 30
0.0
 10
8.4366673944
 20
5.1725390225
 30
0.0
  0
SPLINE
  5
3AA
100
AcDbEntity
  8
0
100
AcDbSpline
 62
7
  6
CONTINUOUS
 70
0
 71
3
 72
15
 73
11
 74
0
 42
0.0000001
 43
0.0000001
 44
0.0000000001
 40
0.0
 40
0.0
 40
0.0
 40
0.0
 40
0.1476906962
 40
0.2913385404
 40
0.4280882552
 40
0.5566689747
 40
0.6771184272
 40
0.7902878734
 40
0.8974325104
 40
1.0
 40
1.0
 40
1.0
 40
1.0
 10
8.4399912925
 20
5.1652722941
 30
0.0
 10
8.4399912925
 20
5.1657138305
 30
0.0
 10
8.4399264742
 20
5.1665862419
 30
0.0
 10
8.4396427179
 20
5.1678388393
 30
0.0
 10
8.4391968769
 20
5.1689823061
 30
0.0
 10
8.4386197693
 20
5.1699859073
 30
0.0
 10
8.4379417447
 20
5.1708355656
 30
0.0
 10
8.4371888092
 20
5.1715279132
 30
0.0
 10
8.4363823628
 20
5.1720652274
 30
0.0
 10
8.4358096407
 20
5.1723277955
 30
0.0
 10
8.4355215254
 20
5.1724327488
 30
0.0
  0
SPLINE
  5
3AB
100
AcDbEntity
  8
0
100
AcDbSpline
 62
7
  6
CONTINUOUS
 70
0
 71
3
 72
14
 73
10
 74
0
 42
0.0000001
 43
0.0000001
 44
0.0000000001
 40
0.0
 40
0.0
 40
0.0
 40
0.0
 40
0.2986938362
 40
0.4375851242
 40
0.5666699947
 40
0.6861135989
 40
0.7970438522
 40
0.901070269
 40
1.0
 40
1.0
 40
1.0
 40
1.0
 10
8.4376481947
 20
5.1652722941
 30
0.0
 10
8.4376481947
 20
5.1661785518
 30
0.0
 10
8.4374571541
 20
5.1675183454
 30
0.0
 10
8.436838502
 20
5.1691274196
 30
0.0
 10
8.4362541748
 20
5.1701530226
 30
0.0
 10
8.4355710038
 20
5.1710088891
 30
0.0
 10
8.4348155949
 20
5.1716931161
 30
0.0
 10
8.4340097075
 20
5.1722086691
 30
0.0
 10
8.4334384113
 20
5.1724481137
 30
0.0
 10
8.4331523495
 20
5.1725390225
 30
0.0
  0
SPLINE
  5
3AC
100
AcDbEntity
  8
0
100
AcDbSpline
 62
7
  6
CONTINUOUS
 70
0
 71
3
 72
14
 73
10
 74
0
 42
0.0000001
 43
0.0000001
 44
0.0000000001
 40
0.0
 40
0.0
 40
0.0
 40
0.0
 40
0.304904736
 40
0.4456566558
 40
0.5754354535
 40
0.6943304715
 40
0.8035131309
 40
0.9047292633
 40
1.0
 40
1.0
 40
1.0
 40
1.0
 10
8.4347172406
 20
5.1652722941
 30
0.0
 10
8.4347172406
 20
5.1661772919
 30
0.0
 10
8.4345412207
 20
5.1675109001
 30
0.0
 10
8.4339648011
 20
5.1691230516
 30
0.0
 10
8.4334214423
 20
5.1701482976
 30
0.0
 10
8.4327858358
 20
5.1710045251
 30
0.0
 10
8.4320824886
 20
5.1716896514
 30
0.0
 10
8.4313315039
 20
5.172206441
 30
0.0
 10
8.4307963537
 20
5.1724477294
 30
0.0
 10
8.4305287197
 20
5.1725390225
 30
0.0
  0
SPLINE
  5
3AD
100
AcDbEntity
  8
0
100
AcDbSpline
 62
7
  6
CONTINUOUS
 70
0
 71
3
 72
15
 73
11
 74
0
 42
0.0000001
 43
0.0000001
 44
0.0000000001
 40
0.0
 40
0.0
 40
0.0
 40
0.0
 40
0.1589075172
 40
0.3118036961
 40
0.4544467054
 40
0.5849309267
 40
0.7032405384
 40
0.8105573838
 40
0.9087358824
 40
1.0
 40
1.0
 40
1.0
 40
1.0
 10
8.4312085817
 20
5.1652722941
 30
0.0
 10
8.4312085817
 20
5.1657334297
 30
0.0
 10
8.4311519699
 20
5.1666393288
 30
0.0
 10
8.4309042079
 20
5.1679381023
 30
0.0
 10
8.4305162807
 20
5.1691158129
 30
0.0
 10
8.4300161644
 20
5.1701398602
 30
0.0
 10
8.4294307597
 20
5.1709961954
 30
0.0
 10
8.4287824657
 20
5.1716822969
 30
0.0
 10
8.4280895408
 20
5.1722008725
 30
0.0
 10
8.4275924825
 20
5.1724449334
 30
0.0
 10
8.427344169
 20
5.172537025
 30
0.0
  0
SPLINE
  5
3AE
100
AcDbEntity
  8
0
100
AcDbSpline
 62
7
  6
CONTINUOUS
 70
0
 71
3
 72
15
 73
11
 74
0
 42
0.0000001
 43
0.0000001
 44
0.0000000001
 40
0.0
 40
0.0
 40
0.0
 40
0.0
 40
0.1625928783
 40
0.3186179256
 40
0.4633996691
 40
0.594765701
 40
0.712578425
 40
0.8180108031
 40
0.9130091838
 40
1.0
 40
1.0
 40
1.0
 40
1.0
 10
8.4271254864
 20
5.1652722941
 30
0.0
 10
8.4271254864
 20
5.1657336978
 30
0.0
 10
8.4270737583
 20
5.1666387692
 30
0.0
 10
8.42684727
 20
5.167937086
 30
0.0
 10
8.4264926545
 20
5.1691143982
 30
0.0
 10
8.4260354734
 20
5.170138205
 30
0.0
 10
8.4255002568
 20
5.1709945494
 30
0.0
 10
8.4249072505
 20
5.1716810465
 30
0.0
 10
8.4242728446
 20
5.1722004161
 30
0.0
 10
8.4238141042
 20
5.1724466368
 30
0.0
 10
8.423585182
 20
5.1725390225
 30
0.0
  0
SPLINE
  5
3AF
100
AcDbEntity
  8
0
100
AcDbSpline
 62
7
  6
CONTINUOUS
 70
0
 71
3
 72
15
 73
11
 74
0
 42
0.0000001
 43
0.0000001
 44
0.0000000001
 40
0.0
 40
0.0
 40
0.0
 40
0.0
 40
0.1663427071
 40
0.3255747933
 40
0.4725893014
 40
0.6049329874
 40
0.7223168302
 40
0.8258623473
 40
0.9175594262
 40
1.0
 40
1.0
 40
1.0
 40
1.0
 10
8.4224854948
 20
5.1652722941
 30
0.0
 10
8.4224854948
 20
5.1657335577
 30
0.0
 10
8.422438853
 20
5.1666371062
 30
0.0
 10
8.4222345518
 20
5.1679339684
 30
0.0
 10
8.4219146836
 20
5.1691100649
 30
0.0
 10
8.4215023167
 20
5.1701330207
 30
0.0
 10
8.4210195678
 20
5.1709889912
 30
0.0
 10
8.4204845057
 20
5.1716758036
 30
0.0
 10
8.4199115868
 20
5.1721963522
 30
0.0
 10
8.4194930623
 20
5.1724458503
 30
0.0
 10
8.4192843057
 20
5.1725390225
 30
0.0
  0
SPLINE
  5
3B0
100
AcDbEntity
  8
0
100
AcDbSpline
 62
7
  6
CONTINUOUS
 70
0
 71
3
 72
15
 73
11
 74
0
 42
0.0000001
 43
0.0000001
 44
0.0000000001
 40
0.0
 40
0.0
 40
0.0
 40
0.0
 40
0.1701476849
 40
0.332652013
 40
0.4819779837
 40
0.6153835922
 40
0.732405851
 40
0.8340754403
 40
0.9223717421
 40
1.0
 40
1.0
 40
1.0
 40
1.0
 10
8.4172992068
 20
5.1652722941
 30
0.0
 10
8.4172992068
 20
5.1657334285
 30
0.0
 10
8.4172577415
 20
5.1666355704
 30
0.0
 10
8.4170760537
 20
5.167931048
 30
0.0
 10
8.4167916247
 20
5.1691059044
 30
0.0
 10
8.4164250177
 20
5.1701278553
 30
0.0
 10
8.415995961
 20
5.1709831571
 30
0.0
 10
8.415520406
 20
5.1716699081
 30
0.0
 10
8.4150109437
 20
5.1721913712
 30
0.0
 10
8.4146340285
 20
5.1724448231
 30
0.0
 10
8.4144459071
 20
5.1725390225
 30
0.0
  0
SPLINE
  5
3B1
100
AcDbEntity
  8
0
100
AcDbSpline
 62
7
  6
CONTINUOUS
 70
0
 71
3
 72
15
 73
11
 74
0
 42
0.0000001
 43
0.0000001
 44
0.0000000001
 40
0.0
 40
0.0
 40
0.0
 40
0.0
 40
0.1739411748
 40
0.3397255757
 40
0.491401928
 40
0.6259384748
 40
0.7426806958
 40
0.8425294919
 40
0.9273894921
 40
1.0
 40
1.0
 40
1.0
 40
1.0
 10
8.4115808375
 20
5.1652722941
 30
0.0
 10
8.4115808375
 20
5.1657333118
 30
0.0
 10
8.4115446267
 20
5.1666341795
 30
0.0
 10
8.411385919
 20
5.1679283687
 30
0.0
 10
8.4111375131
 20
5.1691019987
 30
0.0
 10
8.4108174435
 20
5.1701228314
 30
0.0
 10
8.4104430682
 20
5.170977179
 30
0.0
 10
8.4100283033
 20
5.1716634133
 30
0.0
 10
8.4095840691
 20
5.1721853043
 30
0.0
 10
8.4092502952
 20
5.1724434627
 30
0.0
 10
8.409083248
 20
5.1725390225
 30
0.0
  0
SPLINE
  5
3B2
100
AcDbEntity
  8
0
100
AcDbSpline
 62
7
  6
CONTINUOUS
 70
0
 71
3
 72
16
 73
12
 74
0
 42
0.0000001
 43
0.0000001
 44
0.0000000001
 40
0.0
 40
0.0
 40
0.0
 40
0.0
 40
0.1776214578
 40
0.3466035995
 40
0.5006008446
 40
0.6362995662
 40
0.7528439096
 40
0.8509709659
 40
0.893679129
 40
0.932522896
 40
1.0
 40
1.0
 40
1.0
 40
1.0
 10
8.4053460606
 20
5.1652722941
 30
0.0
 10
8.4053460606
 20
5.1657332087
 30
0.0
 10
8.40531517
 20
5.1666329487
 30
0.0
 10
8.4051797541
 20
5.1679259754
 30
0.0
 10
8.4049678486
 20
5.1690984216
 30
0.0
 10
8.4046949488
 20
5.1701181194
 30
0.0
 10
8.4043759554
 20
5.1709711525
 30
0.0
 10
8.4040692573
 20
5.1715669899
 30
0.0
 10
8.4038075162
 20
5.1719536449
 30
0.0
 10
8.4035629858
 20
5.1722533669
 30
0.0
 10
8.4033565474
 20
5.172441641
 30
0.0
 10
8.403211027
 20
5.1725390225
 30
0.0
  0
SPLINE
  5
3B3
100
AcDbEntity
  8
0
100
AcDbSpline
 62
7
  6
CONTINUOUS
 70
0
 71
3
 72
16
 73
12
 74
0
 42
0.0000001
 43
0.0000001
 44
0.0000000001
 40
0.0
 40
0.0
 40
0.0
 40
0.0
 40
0.1810197292
 40
0.3529790549
 40
0.5091814858
 40
0.6460509036
 40
0.7625269441
 40
0.8591536844
 40
0.9005013472
 40
0.9375426047
 40
1.0
 40
1.0
 40
1.0
 40
1.0
 10
8.3986158572
 20
5.1652722941
 30
0.0
 10
8.3986158572
 20
5.1657327047
 30
0.0
 10
8.3985903858
 20
5.1666307062
 30
0.0
 10
8.3984787074
 20
5.1679216889
 30
0.0
 10
8.3983039695
 20
5.1690923228
 30
0.0
 10
8.398079048
 20
5.1701104314
 30
0.0
 10
8.3978163063
 20
5.1709620417
 30
0.0
 10
8.3975630684
 20
5.1715594545
 30
0.0
 10
8.3973458259
 20
5.1719486475
 30
0.0
 10
8.3971458925
 20
5.1722458492
 30
0.0
 10
8.3969749506
 20
5.1724368612
 30
0.0
 10
8.3968516525
 20
5.172537025
 30
0.0
  0
SPLINE
  5
3B4
100
AcDbEntity
  8
0
100
AcDbSpline
 62
7
  6
CONTINUOUS
 70
0
 71
3
 72
18
 73
14
 74
0
 42
0.0000001
 43
0.0000001
 44
0.0000000001
 40
0.0
 40
0.0
 40
0.0
 40
0.0
 40
0.1842289148
 40
0.3589944643
 40
0.517272493
 40
0.5889339124
 40
0.6552661822
 40
0.7716983802
 40
0.8669413207
 40
0.9070129175
 40
0.9423414655
 40
0.973217264
 40
1.0
 40
1.0
 40
1.0
 40
1.0
 10
8.391397009
 20
5.1652722941
 30
0.0
 10
8.391397009
 20
5.1657330481
 30
0.0
 10
8.3913769181
 20
5.1666310358
 30
0.0
 10
8.3912887861
 20
5.167922156
 30
0.0
 10
8.3911704183
 20
5.1689278991
 30
0.0
 10
8.3910521369
 20
5.1696594744
 30
0.0
 10
8.3909313416
 20
5.1702843046
 30
0.0
 10
8.3907667935
 20
5.1709604137
 30
0.0
 10
8.3905670371
 20
5.1715588067
 30
0.0
 10
8.3903948508
 20
5.1719496243
 30
0.0
 10
8.3902701018
 20
5.1721846679
 30
0.0
 10
8.3901428539
 20
5.1723797354
 30
0.0
 10
8.3900504002
 20
5.1724910682
 30
0.0
 10
8.3900036333
 20
5.1725390225
 30
0.0
  0
SPLINE
  5
3B5
100
AcDbEntity
  8
0
100
AcDbSpline
 62
7
  6
CONTINUOUS
 70
0
 71
3
 72
17
 73
13
 74
0
 42
0.0000001
 43
0.0000001
 44
0.0000000001
 40
0.0
 40
0.0
 40
0.0
 40
0.0
 40
0.1868717382
 40
0.3639668082
 40
0.5240018214
 40
0.6629690738
 40
0.7794627453
 40
0.873659276
 40
0.9127061805
 40
0.9466185813
 40
0.9756233316
 40
1.0
 40
1.0
 40
1.0
 40
1.0
 10
8.3837209676
 20
5.1652722941
 30
0.0
 10
8.3837209676
 20
5.1657329924
 30
0.0
 10
8.3837063264
 20
5.1666303605
 30
0.0
 10
8.3836421267
 20
5.1679208435
 30
0.0
 10
8.383541721
 20
5.1690905478
 30
0.0
 10
8.383412654
 20
5.1701070779
 30
0.0
 10
8.3832621197
 20
5.1709562036
 30
0.0
 10
8.3831166572
 20
5.1715551984
 30
0.0
 10
8.3829906638
 20
5.1719477378
 30
0.0
 10
8.3828999764
 20
5.1721823895
 30
0.0
 10
8.3828076234
 20
5.1723770051
 30
0.0
 10
8.3827394953
 20
5.1724900517
 30
0.0
 10
8.3827046611
 20
5.1725390225
 30
0.0
  0
SPLINE
  5
3B6
100
AcDbEntity
  8
0
100
AcDbSpline
 62
7
  6
CONTINUOUS
 70
0
 71
3
 72
17
 73
13
 74
0
 42
0.0000001
 43
0.0000001
 44
0.0000000001
 40
0.0
 40
0.0
 40
0.0
 40
0.0
 40
0.1888324977
 40
0.3676616252
 40
0.5290161191
 40
0.668746144
 40
0.7853251687
 40
0.8787876593
 40
0.9170871657
 40
0.9499451457
 40
0.9775223123
 40
1.0
 40
1.0
 40
1.0
 40
1.0
 10
8.3756048806
 20
5.1652722941
 30
0.0
 10
8.3756048806
 20
5.1657329538
 30
0.0
 10
8.3755957186
 20
5.1666298989
 30
0.0
 10
8.3755555443
 20
5.1679199139
 30
0.0
 10
8.375492719
 20
5.1690890911
 30
0.0
 10
8.3754120018
 20
5.1701049313
 30
0.0
 10
8.3753178993
 20
5.1709531354
 30
0.0
 10
8.3752269494
 20
5.1715524073
 30
0.0
 10
8.3751478653
 20
5.1719462093
 30
0.0
 10
8.3750912612
 20
5.1721804192
 30
0.0
 10
8.3750337332
 20
5.1723744229
 30
0.0
 10
8.3749907419
 20
5.1724889329
 30
0.0
 10
8.374968429
 20
5.1725390225
 30
0.0
  0
LINE
  5
3B7
100
AcDbEntity
  8
0
100
AcDbLine
 62
7
  6
CONTINUOUS
 10
8.3670709936
 20
5.1652722941
 11
8.3668161413
 21
5.1725390225
  0
LINE
  5
3B8
100
AcDbEntity
  8
0
100
AcDbLine
 62
7
  6
CONTINUOUS
 10
8.0795336423
 20
5.1725390225
 11
8.07927879
 21
5.1652722941
  0
SPLINE
  5
3B9
100
AcDbEntity
  8
0
100
AcDbSpline
 62
7
  6
CONTINUOUS
 70
0
 71
3
 72
17
 73
13
 74
0
 42
0.0000001
 43
0.0000001
 44
0.0000000001
 40
0.0
 40
0.0
 40
0.0
 40
0.0
 40
0.022477689
 40
0.0500548021
 40
0.0829126308
 40
0.1212119496
 40
0.2146739991
 40
0.33125276
 40
0.4709823412
 40
0.6323370499
 40
0.8111664252
 40
1.0
 40
1.0
 40
1.0
 40
1.0
 10
8.0713813546
 20
5.1725390225
 30
0.0
 10
8.0713590417
 20
5.1724889329
 30
0.0
 10
8.0713160505
 20
5.172374423
 30
0.0
 10
8.0712585225
 20
5.1721804198
 30
0.0
 10
8.0712019187
 20
5.1719462108
 30
0.0
 10
8.0711228349
 20
5.1715524107
 30
0.0
 10
8.071031885
 20
5.170953141
 30
0.0
 10
8.0709377827
 20
5.1701049397
 30
0.0
 10
8.0708570652
 20
5.1690891007
 30
0.0
 10
8.0707942398
 20
5.1679199235
 30
0.0
 10
8.0707540652
 20
5.1666299048
 30
0.0
 10
8.070744903
 20
5.1657329565
 30
0.0
 10
8.070744903
 20
5.1652722941
 30
0.0
  0
SPLINE
  5
3BA
100
AcDbEntity
  8
0
100
AcDbSpline
 62
7
  6
CONTINUOUS
 70
0
 71
3
 72
17
 73
13
 74
0
 42
0.0000001
 43
0.0000001
 44
0.0000000001
 40
0.0
 40
0.0
 40
0.0
 40
0.0
 40
0.0243766692
 40
0.0533813646
 40
0.0872936102
 40
0.1263403262
 40
0.22053642
 40
0.3370298335
 40
0.4759966507
 40
0.6360318793
 40
0.8131271959
 40
1.0
 40
1.0
 40
1.0
 40
1.0
 10
8.0636451225
 20
5.1725390225
 30
0.0
 10
8.0636102883
 20
5.1724900517
 30
0.0
 10
8.0635421603
 20
5.1723770052
 30
0.0
 10
8.0634498075
 20
5.1721823901
 30
0.0
 10
8.0633591204
 20
5.1719477393
 30
0.0
 10
8.0632331275
 20
5.1715552018
 30
0.0
 10
8.063087665
 20
5.1709562092
 30
0.0
 10
8.062937131
 20
5.1701070864
 30
0.0
 10
8.0628080634
 20
5.1690905574
 30
0.0
 10
8.0627076575
 20
5.1679208531
 30
0.0
 10
8.0626434575
 20
5.1666303664
 30
0.0
 10
8.062628816
 20
5.165732995
 30
0.0
 10
8.062628816
 20
5.1652722941
 30
0.0
  0
SPLINE
  5
3BB
100
AcDbEntity
  8
0
100
AcDbSpline
 62
7
  6
CONTINUOUS
 70
0
 71
3
 72
18
 73
14
 74
0
 42
0.0000001
 43
0.0000001
 44
0.0000000001
 40
0.0
 40
0.0
 40
0.0
 40
0.0
 40
0.0267827365
 40
0.0576584778
 40
0.0929868654
 40
0.1330582722
 40
0.2283007813
 40
0.344732729
 40
0.4110649406
 40
0.482725994
 40
0.6410042391
 40
0.8157700335
 40
1.0
 40
1.0
 40
1.0
 40
1.0
 10
8.0563461503
 20
5.1725390225
 30
0.0
 10
8.0562993834
 20
5.1724910682
 30
0.0
 10
8.0562069299
 20
5.1723797355
 30
0.0
 10
8.0560796821
 20
5.1721846685
 30
0.0
 10
8.0559549336
 20
5.1719496258
 30
0.0
 10
8.0557827479
 20
5.1715588101
 30
0.0
 10
8.0555829917
 20
5.1709604194
 30
0.0
 10
8.0554184437
 20
5.1702843121
 30
0.0
 10
8.0552976484
 20
5.1696594836
 30
0.0
 10
8.0551793664
 20
5.168927909
 30
0.0
 10
8.0550609984
 20
5.1679221656
 30
0.0
 10
8.0549728658
 20
5.1666310417
 30
0.0
 10
8.0549527746
 20
5.1657330508
 30
0.0
 10
8.0549527746
 20
5.1652722941
 30
0.0
  0
SPLINE
  5
3BC
100
AcDbEntity
  8
0
100
AcDbSpline
 62
7
  6
CONTINUOUS
 70
0
 71
3
 72
16
 73
12
 74
0
 42
0.0000001
 43
0.0000001
 44
0.0000000001
 40
0.0
 40
0.0
 40
0.0
 40
0.0
 40
0.0624573361
 40
0.099498427
 40
0.1408458981
 40
0.2374722145
 40
0.3539480146
 40
0.4908170233
 40
0.6470196725
 40
0.8189792404
 40
1.0
 40
1.0
 40
1.0
 40
1.0
 10
8.0494981311
 20
5.172537025
 30
0.0
 10
8.0493748331
 20
5.1724368613
 30
0.0
 10
8.0492038915
 20
5.1722458498
 30
0.0
 10
8.0490039588
 20
5.171948649
 30
0.0
 10
8.0487867169
 20
5.1715594579
 30
0.0
 10
8.0485334793
 20
5.1709620473
 30
0.0
 10
8.048270738
 20
5.1701104397
 30
0.0
 10
8.0480458156
 20
5.1690923325
 30
0.0
 10
8.0478710773
 20
5.1679216985
 30
0.0
 10
8.0477593982
 20
5.1666307121
 30
0.0
 10
8.0477339264
 20
5.1657327074
 30
0.0
 10
8.0477339264
 20
5.1652722941
 30
0.0
  0
SPLINE
  5
3BD
100
AcDbEntity
  8
0
100
AcDbSpline
 62
7
  6
CONTINUOUS
 70
0
 71
3
 72
16
 73
12
 74
0
 42
0.0000001
 43
0.0000001
 44
0.0000000001
 40
0.0
 40
0.0
 40
0.0
 40
0.0
 40
0.0674770418
 40
0.106320635
 40
0.1490286035
 40
0.2471552407
 40
0.3636993533
 40
0.49939768
 40
0.6533951447
 40
0.8223775275
 40
1.0
 40
1.0
 40
1.0
 40
1.0
 10
8.0431387566
 20
5.1725390225
 30
0.0
 10
8.0429932363
 20
5.1724416411
 30
0.0
 10
8.0427867983
 20
5.1722533674
 30
0.0
 10
8.0425422686
 20
5.1719536464
 30
0.0
 10
8.0422805285
 20
5.1715669932
 30
0.0
 10
8.0419738306
 20
5.1709711582
 30
0.0
 10
8.0416548377
 20
5.1701181278
 30
0.0
 10
8.0413819368
 20
5.1690984314
 30
0.0
 10
8.0411700309
 20
5.167925985
 30
0.0
 10
8.0410346141
 20
5.1666329546
 30
0.0
 10
8.041003723
 20
5.1657332114
 30
0.0
 10
8.041003723
 20
5.1652722941
 30
0.0
  0
SPLINE
  5
3BE
100
AcDbEntity
  8
0
100
AcDbSpline
 62
7
  6
CONTINUOUS
 70
0
 71
3
 72
15
 73
11
 74
0
 42
0.0000001
 43
0.0000001
 44
0.0000000001
 40
0.0
 40
0.0
 40
0.0
 40
0.0
 40
0.0726104419
 40
0.1574700646
 40
0.2573184434
 40
0.3740604485
 40
0.5085966206
 40
0.6602731846
 40
0.8260578276
 40
1.0
 40
1.0
 40
1.0
 40
1.0
 10
8.0372665356
 20
5.1725390225
 30
0.0
 10
8.0370994886
 20
5.1724434628
 30
0.0
 10
8.0367657156
 20
5.1721853052
 30
0.0
 10
8.0363214826
 20
5.1716634161
 30
0.0
 10
8.0359067183
 20
5.1709771846
 30
0.0
 10
8.0355323435
 20
5.1701228397
 30
0.0
 10
8.0352122727
 20
5.1691020085
 30
0.0
 10
8.0349638663
 20
5.1679283783
 30
0.0
 10
8.0348051575
 20
5.1666341854
 30
0.0
 10
8.0347689461
 20
5.1657333144
 30
0.0
 10
8.0347689461
 20
5.1652722941
 30
0.0
  0
SPLINE
  5
3BF
100
AcDbEntity
  8
0
100
AcDbSpline
 62
7
  6
CONTINUOUS
 70
0
 71
3
 72
15
 73
11
 74
0
 42
0.0000001
 43
0.0000001
 44
0.0000000001
 40
0.0
 40
0.0
 40
0.0
 40
0.0
 40
0.0776281888
 40
0.1659241027
 40
0.2675932846
 40
0.3846153343
 40
0.5180205813
 40
0.6673467762
 40
0.8298513414
 40
1.0
 40
1.0
 40
1.0
 40
1.0
 10
8.0319038765
 20
5.1725390225
 30
0.0
 10
8.0317157553
 20
5.1724448232
 30
0.0
 10
8.0313388411
 20
5.1721913721
 30
0.0
 10
8.0308293802
 20
5.1716699108
 30
0.0
 10
8.0303538259
 20
5.1709831628
 30
0.0
 10
8.0299247697
 20
5.1701278636
 30
0.0
 10
8.0295581614
 20
5.1691059143
 30
0.0
 10
8.0292737318
 20
5.1679310576
 30
0.0
 10
8.0290920427
 20
5.1666355763
 30
0.0
 10
8.0290505768
 20
5.1657334312
 30
0.0
 10
8.0290505768
 20
5.1652722941
 30
0.0
  0
SPLINE
  5
3C0
100
AcDbEntity
  8
0
100
AcDbSpline
 62
7
  6
CONTINUOUS
 70
0
 71
3
 72
15
 73
11
 74
0
 42
0.0000001
 43
0.0000001
 44
0.0000000001
 40
0.0
 40
0.0
 40
0.0
 40
0.0
 40
0.0824405015
 40
0.1741371818
 40
0.2776822967
 40
0.3950659414
 40
0.5274092834
 40
0.6744240188
 40
0.8336563405
 40
1.0
 40
1.0
 40
1.0
 40
1.0
 10
8.0270654779
 20
5.1725390225
 30
0.0
 10
8.0268567215
 20
5.1724458504
 30
0.0
 10
8.026438198
 20
5.172196353
 30
0.0
 10
8.0258652809
 20
5.1716758063
 30
0.0
 10
8.0253302195
 20
5.1709889968
 30
0.0
 10
8.0248474712
 20
5.170133029
 30
0.0
 10
8.0244351028
 20
5.1691100747
 30
0.0
 10
8.0241152339
 20
5.167933978
 30
0.0
 10
8.0239109313
 20
5.1666371122
 30
0.0
 10
8.0238642888
 20
5.1657335603
 30
0.0
 10
8.0238642888
 20
5.1652722941
 30
0.0
  0
SPLINE
  5
3C1
100
AcDbEntity
  8
0
100
AcDbSpline
 62
7
  6
CONTINUOUS
 70
0
 71
3
 72
15
 73
11
 74
0
 42
0.0000001
 43
0.0000001
 44
0.0000000001
 40
0.0
 40
0.0
 40
0.0
 40
0.0
 40
0.0869907407
 40
0.1819887123
 40
0.2874206927
 40
0.4052332293
 40
0.5365989343
 40
0.6813809082
 40
0.8374061895
 40
1.0
 40
1.0
 40
1.0
 40
1.0
 10
8.0227646016
 20
5.1725390225
 30
0.0
 10
8.0225356796
 20
5.1724466369
 30
0.0
 10
8.0220769404
 20
5.1722004169
 30
0.0
 10
8.0214425363
 20
5.1716810491
 30
0.0
 10
8.0208495309
 20
5.170994555
 30
0.0
 10
8.020314315
 20
5.1701382133
 30
0.0
 10
8.0198571322
 20
5.1691144081
 30
0.0
 10
8.0195025158
 20
5.1679370957
 30
0.0
 10
8.0192760261
 20
5.1666387751
 30
0.0
 10
8.0192242972
 20
5.1657337005
 30
0.0
 10
8.0192242972
 20
5.1652722941
 30
0.0
  0
SPLINE
  5
3C2
100
AcDbEntity
  8
0
100
AcDbSpline
 62
7
  6
CONTINUOUS
 70
0
 71
3
 72
15
 73
11
 74
0
 42
0.0000001
 43
0.0000001
 44
0.0000000001
 40
0.0
 40
0.0
 40
0.0
 40
0.0
 40
0.0912640391
 40
0.1894421192
 40
0.2967585723
 40
0.4150680073
 40
0.5455519194
 40
0.6881951629
 40
0.8410915738
 40
1.0
 40
1.0
 40
1.0
 40
1.0
 10
8.0190056146
 20
5.172537025
 30
0.0
 10
8.0187573013
 20
5.1724449335
 30
0.0
 10
8.0182602443
 20
5.1722008734
 30
0.0
 10
8.0175673213
 20
5.1716822995
 30
0.0
 10
8.0169190284
 20
5.170996201
 30
0.0
 10
8.0163336244
 20
5.1701398684
 30
0.0
 10
8.0158335063
 20
5.1691158228
 30
0.0
 10
8.0154455782
 20
5.167938112
 30
0.0
 10
8.0151978146
 20
5.1666393348
 30
0.0
 10
8.0151412019
 20
5.1657334323
 30
0.0
 10
8.0151412019
 20
5.1652722941
 30
0.0
  0
SPLINE
  5
3C3
100
AcDbEntity
  8
0
100
AcDbSpline
 62
7
  6
CONTINUOUS
 70
0
 71
3
 72
14
 73
10
 74
0
 42
0.0000001
 43
0.0000001
 44
0.0000000001
 40
0.0
 40
0.0
 40
0.0
 40
0.0
 40
0.0952706558
 40
0.1964863592
 40
0.3056686286
 40
0.4245634795
 40
0.5543419838
 40
0.6950941418
 40
1.0
 40
1.0
 40
1.0
 40
1.0
 10
8.0158210639
 20
5.1725390225
 30
0.0
 10
8.0155534301
 20
5.1724477295
 30
0.0
 10
8.0150182813
 20
5.1722064418
 30
0.0
 10
8.0142672988
 20
5.171689654
 30
0.0
 10
8.0135639527
 20
5.1710045307
 30
0.0
 10
8.012928347
 20
5.1701483058
 30
0.0
 10
8.0123849862
 20
5.1691230616
 30
0.0
 10
8.0118085645
 20
5.1675109074
 30
0.0
 10
8.011632543
 20
5.1661772953
 30
0.0
 10
8.011632543
 20
5.1652722941
 30
0.0
  0
SPLINE
  5
3C4
100
AcDbEntity
  8
0
100
AcDbSpline
 62
7
  6
CONTINUOUS
 70
0
 71
3
 72
14
 73
10
 74
0
 42
0.0000001
 43
0.0000001
 44
0.0000000001
 40
0.0
 40
0.0
 40
0.0
 40
0.0
 40
0.0989296475
 40
0.2029556261
 40
0.3138854923
 40
0.4333289384
 40
0.5624135311
 40
0.7013050611
 40
1.0
 40
1.0
 40
1.0
 40
1.0
 10
8.0131974341
 20
5.1725390225
 30
0.0
 10
8.0129113725
 20
5.1724481138
 30
0.0
 10
8.0123400777
 20
5.1722086699
 30
0.0
 10
8.0115341926
 20
5.1716931186
 30
0.0
 10
8.010778785
 20
5.1710088946
 30
0.0
 10
8.0100956149
 20
5.1701530307
 30
0.0
 10
8.0095112857
 20
5.1691274296
 30
0.0
 10
8.0088926313
 20
5.1675183528
 30
0.0
 10
8.0087015889
 20
5.1661785552
 30
0.0
 10
8.0087015889
 20
5.1652722941
 30
0.0
  0
SPLINE
  5
3C5
100
AcDbEntity
  8
0
100
AcDbSpline
 62
7
  6
CONTINUOUS
 70
0
 71
3
 72
15
 73
11
 74
0
 42
0.0000001
 43
0.0000001
 44
0.0000000001
 40
0.0
 40
0.0
 40
0.0
 40
0.0
 40
0.1030379904
 40
0.2108481799
 40
0.3247067742
 40
0.4456817105
 40
0.5744283007
 40
0.7108298016
 40
0.8535767708
 40
1.0
 40
1.0
 40
1.0
 40
1.0
 10
8.010517858
 20
5.1723093412
 30
0.0
 10
8.010245523
 20
5.1721918306
 30
0.0
 10
8.0097059313
 20
5.1719080713
 30
0.0
 10
8.0089503487
 20
5.1713522557
 30
0.0
 10
8.008248169
 20
5.1706544528
 30
0.0
 10
8.0076190238
 20
5.1698134647
 30
0.0
 10
8.0070863634
 20
5.1688335602
 30
0.0
 10
8.0066770278
 20
5.1677287397
 30
0.0
 10
8.006417618
 20
5.1665274353
 30
0.0
 10
8.0063584911
 20
5.1656937891
 30
0.0
 10
8.0063584911
 20
5.1652722941
 30
0.0
  0
SPLINE
  5
3C6
100
AcDbEntity
  8
0
100
AcDbSpline
 62
7
  6
CONTINUOUS
 70
0
 71
3
 72
16
 73
12
 74
0
 42
0.0000001
 43
0.0000001
 44
0.0000000001
 40
0.0
 40
0.0
 40
0.0
 40
0.0
 40
0.1052453695
 40
0.2141837957
 40
0.3282109546
 40
0.4486338774
 40
0.5764355511
 40
0.7118669617
 40
0.7822502872
 40
0.8540242684
 40
1.0
 40
1.0
 40
1.0
 40
1.0
 10
8.0096823892
 20
5.1725390225
 30
0.0
 10
8.0093616227
 20
5.1724486772
 30
0.0
 10
8.0087224701
 20
5.1722120427
 30
0.0
 10
8.0078140093
 20
5.1716986808
 30
0.0
 10
8.006961339
 20
5.1710164031
 30
0.0
 10
8.006189074
 20
5.1701615469
 30
0.0
 10
8.0055277908
 20
5.1691362726
 30
0.0
 10
8.0051045593
 20
5.1681628578
 30
0.0
 10
8.0048540313
 20
5.1673194573
 30
0.0
 10
8.004666694
 20
5.1664257953
 30
0.0
 10
8.004609672
 20
5.1657345088
 30
0.0
 10
8.004609672
 20
5.1652722941
 30
0.0
  0
SPLINE
  5
3C7
100
AcDbEntity
  8
0
100
AcDbSpline
 62
7
  6
CONTINUOUS
 70
0
 71
3
 72
16
 73
12
 74
0
 42
0.0000001
 43
0.0000001
 44
0.0000000001
 40
0.0
 40
0.0
 40
0.0
 40
0.0
 40
0.1080287106
 40
0.2191765302
 40
0.3346507186
 40
0.4556053595
 40
0.5829338798
 40
0.7169024186
 40
0.786232887
 40
0.8567843992
 40
1.0
 40
1.0
 40
1.0
 40
1.0
 10
8.0088006085
 20
5.1725390225
 30
0.0
 10
8.008463676
 20
5.1724488854
 30
0.0
 10
8.0077929727
 20
5.1722133209
 30
0.0
 10
8.0068370308
 20
5.1717009011
 30
0.0
 10
8.0059393699
 20
5.1710195656
 30
0.0
 10
8.0051258489
 20
5.1701653882
 30
0.0
 10
8.0044287629
 20
5.1691402789
 30
0.0
 10
8.0039816419
 20
5.168164892
 30
0.0
 10
8.0037173752
 20
5.1673201437
 30
0.0
 10
8.0035201305
 20
5.1664268359
 30
0.0
 10
8.003459925
 20
5.1657346795
 30
0.0
 10
8.003459925
 20
5.1652722941
 30
0.0
  0
SPLINE
  5
3C8
100
AcDbEntity
  8
0
100
AcDbSpline
 62
7
  6
CONTINUOUS
 70
0
 71
3
 72
15
 73
11
 74
0
 42
0.0000001
 43
0.0000001
 44
0.0000000001
 40
0.0
 40
0.0
 40
0.0
 40
0.0
 40
0.1118344866
 40
0.2261682649
 40
0.343826727
 40
0.4655789605
 40
0.5920660067
 40
0.72360991
 40
0.8599534697
 40
1.0
 40
1.0
 40
1.0
 40
1.0
 10
8.0081242592
 20
5.1724304871
 30
0.0
 10
8.0078185308
 20
5.172334768
 30
0.0
 10
8.0072120364
 20
5.1721008876
 30
0.0
 10
8.0063451002
 20
5.1716275914
 30
0.0
 10
8.0055266769
 20
5.1710246188
 30
0.0
 10
8.0047749743
 20
5.1702891402
 30
0.0
 10
8.0041122185
 20
5.1694215017
 30
0.0
 10
8.0035648849
 20
5.168428236
 30
0.0
 10
8.0031619279
 20
5.1673265832
 30
0.0
 10
8.0030085934
 20
5.1665458135
 30
0.0
 10
8.002962596
 20
5.1661472802
 30
0.0
  0
LINE
  5
3C9
100
AcDbEntity
  8
0
100
AcDbLine
 62
7
  6
CONTINUOUS
 10
8.3407080301
 20
4.9678651502
 11
8.339682872
 21
4.9672736891
  0
SPLINE
  5
3CA
100
AcDbEntity
  8
0
100
AcDbSpline
 62
7
  6
CONTINUOUS
 70
0
 71
3
 72
19
 73
15
 74
0
 42
0.0000001
 43
0.0000001
 44
0.0000000001
 40
0.0
 40
0.0
 40
0.0
 40
0.0
 40
0.0436031134
 40
0.0948077356
 40
0.1527152952
 40
0.2163390513
 40
0.3564481383
 40
0.506034579
 40
0.6552806422
 40
0.7939330906
 40
0.8560921144
 40
0.9118567483
 40
0.9601376484
 40
1.0
 40
1.0
 40
1.0
 40
1.0
 10
8.339682872
 20
4.9672736891
 30
0.0
 10
8.3394935002
 20
4.9671995665
 30
0.0
 10
8.3390779868
 20
4.9670480002
 30
0.0
 10
8.338402003
 20
4.9668234346
 30
0.0
 10
8.3376319636
 20
4.9665864404
 30
0.0
 10
8.3364593858
 20
4.9662484518
 30
0.0
 10
8.3348656416
 20
4.9658287506
 30
0.0
 10
8.3328737331
 20
4.9653554618
 30
0.0
 10
8.3308779987
 20
4.9649300552
 30
0.0
 10
8.3292729766
 20
4.9646296283
 30
0.0
 10
8.3280915515
 20
4.9644389988
 30
0.0
 10
8.3273239011
 20
4.9643307973
 30
0.0
 10
8.3266570539
 20
4.9642541204
 30
0.0
 10
8.3262470901
 20
4.9642213941
 30
0.0
 10
8.3260613996
 20
4.9642122673
 30
0.0
  0
LINE
  5
3CB
100
AcDbEntity
  8
0
100
AcDbLine
 62
7
  6
CONTINUOUS
 10
8.3260613996
 20
4.9642122673
 11
8.3253258216
 21
4.9642359394
  0
SPLINE
  5
3CC
100
AcDbEntity
  8
0
100
AcDbSpline
 62
7
  6
CONTINUOUS
 70
0
 71
3
 72
25
 73
21
 74
0
 42
0.0000001
 43
0.0000001
 44
0.0000000001
 40
0.0
 40
0.0
 40
0.0
 40
0.0
 40
0.0095676077
 40
0.0201697337
 40
0.0322683233
 40
0.04615293
 40
0.0619913646
 40
0.0798695623
 40
0.1218226022
 40
0.1719113476
 40
0.2296627317
 40
0.2943735505
 40
0.3651566119
 40
0.440963232
 40
0.5206003767
 40
0.6027492524
 40
0.6859892647
 40
0.8497427687
 40
0.9272760479
 40
1.0
 40
1.0
 40
1.0
 40
1.0
 10
8.2764116757
 20
4.9668105739
 30
0.0
 10
8.276409178
 20
4.9667703472
 30
0.0
 10
8.2763910257
 20
4.9666860733
 30
0.0
 10
8.2763301684
 20
4.9665634139
 30
0.0
 10
8.2762364187
 20
4.9664402011
 30
0.0
 10
8.2761105017
 20
4.9663163531
 30
0.0
 10
8.2759528793
 20
4.9661919058
 30
0.0
 10
8.2756865913
 20
4.9660161609
 30
0.0
 10
8.2752747617
 20
4.9658020826
 30
0.0
 10
8.2746910735
 20
4.9655610925
 30
0.0
 10
8.2740020398
 20
4.9653282278
 30
0.0
 10
8.2732181772
 20
4.9651075394
 30
0.0
 10
8.2723516288
 20
4.9649030437
 30
0.0
 10
8.271416469
 20
4.9647185378
 30
0.0
 10
8.2704284536
 20
4.9645575761
 30
0.0
 10
8.2694048575
 20
4.9644233219
 30
0.0
 10
8.2680251572
 20
4.9642845453
 30
0.0
 10
8.2666591218
 20
4.9642078684
 30
0.0
 10
8.2653361563
 20
4.9641999669
 30
0.0
 10
8.2647032833
 20
4.9642196152
 30
0.0
 10
8.2643973644
 20
4.9642359394
 30
0.0
  0
SPLINE
  5
3CD
100
AcDbEntity
  8
0
100
AcDbSpline
 62
7
  6
CONTINUOUS
 70
0
 71
3
 72
25
 73
21
 74
0
 42
0.0000001
 43
0.0000001
 44
0.0000000001
 40
0.0
 40
0.0
 40
0.0
 40
0.0
 40
0.0048053098
 40
0.0107052753
 40
0.0183976413
 40
0.0281897473
 40
0.0402156656
 40
0.0545246493
 40
0.0711242016
 40
0.0899984224
 40
0.1344035941
 40
0.1873025243
 40
0.2480868404
 40
0.3160149764
 40
0.3902353603
 40
0.4698063544
 40
0.5537135493
 40
0.6408882301
 40
0.8205994634
 40
1.0
 40
1.0
 40
1.0
 40
1.0
 10
8.1787659848
 20
4.9563749747
 30
0.0
 10
8.1787650698
 20
4.9563603753
 30
0.0
 10
8.1787529772
 20
4.956328307
 30
0.0
 10
8.178711635
 20
4.9562890508
 30
0.0
 10
8.1786495604
 20
4.9562535371
 30
0.0
 10
8.1785656335
 20
4.9562208747
 30
0.0
 10
8.1784597057
 20
4.9561909355
 30
0.0
 10
8.1783317736
 20
4.9561638348
 30
0.0
 10
8.1781821187
 20
4.9561396872
 30
0.0
 10
8.1779407302
 20
4.9561099955
 30
0.0
 10
8.1775879441
 20
4.9560828705
 30
0.0
 10
8.1771069789
 20
4.9560645104
 30
0.0
 10
8.1765540832
 20
4.9560594533
 30
0.0
 10
8.1759363394
 20
4.9560678332
 30
0.0
 10
8.1752617083
 20
4.9560896334
 30
0.0
 10
8.1745389348
 20
4.9561246024
 30
0.0
 10
8.173777376
 20
4.9561722973
 30
0.0
 10
8.1727125263
 20
4.9562528816
 30
0.0
 10
8.1713598036
 20
4.9563801407
 30
0.0
 10
8.1702739077
 20
4.9565072209
 30
0.0
 10
8.1697323025
 20
4.9565773267
 30
0.0
  0
SPLINE
  5
3CE
100
AcDbEntity
  8
0
100
AcDbSpline
 62
7
  6
CONTINUOUS
 70
0
 71
3
 72
22
 73
18
 74
0
 42
0.0000001
 43
0.0000001
 44
0.0000000001
 40
0.0
 40
0.0
 40
0.0
 40
0.0
 40
0.0106380664
 40
0.0218525969
 40
0.0340226005
 40
0.0474402325
 40
0.0787476581
 40
0.1167960297
 40
0.1619181803
 40
0.2140909504
 40
0.273060012
 40
0.338397983
 40
0.4095340775
 40
0.4857751966
 40
0.6502541144
 40
0.8244263299
 40
1.0
 40
1.0
 40
1.0
 40
1.0
 10
8.2309481471
 20
4.9660772712
 30
0.0
 10
8.2309460565
 20
4.9660428988
 30
0.0
 10
8.2309338383
 20
4.9659725719
 30
0.0
 10
8.230892887
 20
4.9658696439
 30
0.0
 10
8.23082971
 20
4.9657680175
 30
0.0
 10
8.2307101074
 20
4.9656272655
 30
0.0
 10
8.230500273
 20
4.9654574119
 30
0.0
 10
8.2301789447
 20
4.9652712256
 30
0.0
 10
8.2297775541
 20
4.965093927
 30
0.0
 10
8.2292994649
 20
4.9649274975
 30
0.0
 10
8.2287489172
 20
4.9647738704
 30
0.0
 10
8.2281314511
 20
4.9646350336
 30
0.0
 10
8.2274536305
 20
4.9645127976
 30
0.0
 10
8.2264540076
 20
4.9643706501
 30
0.0
 10
8.2251155948
 20
4.9642486019
 30
0.0
 10
8.2234513442
 20
4.9641900588
 30
0.0
 10
8.2223187166
 20
4.9642101101
 30
0.0
 10
8.221750963
 20
4.9642359394
 30
0.0
  0
SPLINE
  5
3CF
100
AcDbEntity
  8
0
100
AcDbSpline
 62
7
  6
CONTINUOUS
 70
0
 71
3
 72
63
 73
59
 74
0
 42
0.0000001
 43
0.0000001
 44
0.0000000001
 40
0.0
 40
0.0
 40
0.0
 40
0.0
 40
0.0003725952
 40
0.0007597977
 40
0.0016253192
 40
0.0026755033
 40
0.0039532659
 40
0.0054819885
 40
0.0072748572
 40
0.0093395215
 40
0.0116803508
 40
0.0142998946
 40
0.0171993818
 40
0.0238383481
 40
0.031593279
 40
0.0404528156
 40
0.0504006134
 40
0.0614164532
 40
0.0734767455
 40
0.0865547261
 40
0.1006208209
 40
0.1156428479
 40
0.1484129651
 40
0.1845589589
 40
0.223739559
 40
0.265582327
 40
0.3096872349
 40
0.3556309066
 40
0.4029707643
 40
0.5000000584
 40
0.5970293509
 40
0.6443692062
 40
0.6903128742
 40
0.7344177774
 40
0.7762605394
 40
0.8154411325
 40
0.8515871182
 40
0.8843572265
 40
0.8993792487
 40
0.9134453385
 40
0.9265233139
 40
0.938583601
 40
0.9495994352
 40
0.9595472273
 40
0.9684067582
 40
0.9761616833
 40
0.9828006437
 40
0.985700128
 40
0.9883196687
 40
0.9906604949
 40
0.9927251564
 40
0.9945180226
 40
0.9960467426
 40
0.9973245022
 40
0.9983746829
 40
0.9992402022
 40
0.9996274046
 40
1.0
 40
1.0
 40
1.0
 40
1.0
 10
8.3675498918
 20
5.7422046755
 30
0.0
 10
8.367549889
 20
5.7421685685
 30
0.0
 10
8.3675423158
 20
5.7420947427
 30
0.0
 10
8.3674957651
 20
5.7419433684
 30
0.0
 10
8.3673735879
 20
5.7417521599
 30
0.0
 10
8.3671484298
 20
5.7415374912
 30
0.0
 10
8.3668399914
 20
5.741324511
 30
0.0
 10
8.3664473135
 20
5.7411124173
 30
0.0
 10
8.3659697866
 20
5.7409007072
 30
0.0
 10
8.3654072099
 20
5.7406895009
 30
0.0
 10
8.3647596391
 20
5.7404789149
 30
0.0
 10
8.3640272942
 20
5.7402691186
 30
0.0
 10
8.3628856622
 20
5.739977366
 30
0.0
 10
8.3612474101
 20
5.7396219262
 30
0.0
 10
8.3590304138
 20
5.7392169793
 30
0.0
 10
8.3564871968
 20
5.7388182103
 30
0.0
 10
8.3536236177
 20
5.7384267294
 30
0.0
 10
8.3504462595
 20
5.7380437223
 30
0.0
 10
8.3469625551
 20
5.7376702349
 30
0.0
 10
8.343180692
 20
5.737307266
 30
0.0
 10
8.3391095989
 20
5.7369557355
 30
0.0
 10
8.3331331762
 20
5.736489916
 30
0.0
 10
8.3250167095
 20
5.7359492412
 30
0.0
 10
8.3145569236
 20
5.735375602
 30
0.0
 10
8.3032136797
 20
5.7348659762
 30
0.0
 10
8.2910957532
 20
5.7344255746
 30
0.0
 10
8.2783197145
 20
5.7340589672
 30
0.0
 10
8.2650088596
 20
5.7337698478
 30
0.0
 10
8.2465682519
 20
5.7334894994
 30
0.0
 10
8.223174874
 20
5.7333518248
 30
0.0
 10
8.1997814963
 20
5.7334894995
 30
0.0
 10
8.1813408894
 20
5.7337698486
 30
0.0
 10
8.1680300355
 20
5.7340589681
 30
0.0
 10
8.1552539982
 20
5.7344255754
 30
0.0
 10
8.1431360734
 20
5.7348659777
 30
0.0
 10
8.1317928316
 20
5.7353756032
 30
0.0
 10
8.121333048
 20
5.7359492428
 30
0.0
 10
8.1132165834
 20
5.7364899178
 30
0.0
 10
8.1072401626
 20
5.7369557372
 30
0.0
 10
8.1031690708
 20
5.7373072677
 30
0.0
 10
8.0993872093
 20
5.7376702368
 30
0.0
 10
8.0959035064
 20
5.7380437244
 30
0.0
 10
8.0927261499
 20
5.7384267315
 30
0.0
 10
8.0898625725
 20
5.7388182124
 30
0.0
 10
8.0873193572
 20
5.7392169814
 30
0.0
 10
8.0851023625
 20
5.7396219283
 30
0.0
 10
8.0834641119
 20
5.7399773682
 30
0.0
 10
8.0823224811
 20
5.7402691209
 30
0.0
 10
8.0815901371
 20
5.7404789172
 30
0.0
 10
8.0809425673
 20
5.7406895032
 30
0.0
 10
8.0803799915
 20
5.7409007095
 30
0.0
 10
8.0799024654
 20
5.7411124196
 30
0.0
 10
8.0795097883
 20
5.7413245132
 30
0.0
 10
8.0792013509
 20
5.7415374933
 30
0.0
 10
8.078976194
 20
5.7417521622
 30
0.0
 10
8.078854018
 20
5.7419433708
 30
0.0
 10
8.0788074679
 20
5.742094745
 30
0.0
 10
8.0787998947
 20
5.7421685708
 30
0.0
 10
8.0787998918
 20
5.7422046778
 30
0.0
  0
SPLINE
  5
3D0
100
AcDbEntity
  8
0
100
AcDbSpline
 62
7
  6
CONTINUOUS
 70
0
 71
3
 72
20
 73
16
 74
0
 42
0.0000001
 43
0.0000001
 44
0.0000000001
 40
0.0
 40
0.0
 40
0.0
 40
0.0
 40
0.0696730918
 40
0.1378192538
 40
0.204567678
 40
0.2700569769
 40
0.3344253322
 40
0.3978045534
 40
0.4603176102
 40
0.5220782047
 40
0.6437054409
 40
0.7634801322
 40
0.8228954607
 40
0.8820797435
 40
1.0
 40
1.0
 40
1.0
 40
1.0
 10
5.7409731495
 20
5.3363895463
 30
0.0
 10
5.7443566351
 20
5.331267206
 30
0.0
 10
5.7514599967
 20
5.3213995437
 30
0.0
 10
5.7630990775
 20
5.3076156637
 30
0.0
 10
5.7754599135
 20
5.2949870206
 30
0.0
 10
5.7884231613
 20
5.2834758733
 30
0.0
 10
5.8018907619
 20
5.2730389742
 30
0.0
 10
5.8157805814
 20
5.2636332433
 30
0.0
 10
5.8300247655
 20
5.2552173609
 30
0.0
 10
5.8493093391
 20
5.2453182017
 30
0.0
 10
5.8740875612
 20
5.2351803914
 30
0.0
 10
5.8996174787
 20
5.2278628232
 30
0.0
 10
5.9202098611
 20
5.2236853862
 30
0.0
 10
5.9408272668
 20
5.2206033221
 30
0.0
 10
5.9564276356
 20
5.2194858796
 30
0.0
 10
5.9668153963
 20
5.2192704126
 30
0.0
  0
LINE
  5
3D1
100
AcDbEntity
  8
0
100
AcDbLine
 62
7
  6
CONTINUOUS
 10
8.2822747164
 20
4.9579149294
 11
8.2820449328
 21
4.9577045653
  0
SPLINE
  5
3D2
100
AcDbEntity
  8
0
100
AcDbSpline
 62
7
  6
CONTINUOUS
 70
0
 71
3
 72
20
 73
16
 74
0
 42
0.0000001
 43
0.0000001
 44
0.0000000001
 40
0.0
 40
0.0
 40
0.0
 40
0.0
 40
0.1179205331
 40
0.1771049065
 40
0.2365203149
 40
0.3562951449
 40
0.4779223971
 40
0.5396829495
 40
0.6021959483
 40
0.6655751043
 40
0.7299434692
 40
0.7954327452
 40
0.8621810494
 40
0.9303271225
 40
1.0
 40
1.0
 40
1.0
 40
1.0
 10
5.9668199122
 20
5.6878884606
 30
0.0
 10
5.9564320592
 20
5.6876731577
 30
0.0
 10
5.9408315478
 20
5.6865558803
 30
0.0
 10
5.9202139301
 20
5.6834740994
 30
0.0
 10
5.8996213375
 20
5.6792969024
 30
0.0
 10
5.8740911423
 20
5.6719796321
 30
0.0
 10
5.849312624
 20
5.6618420762
 30
0.0
 10
5.830027821
 20
5.6519430858
 30
0.0
 10
5.8157834599
 20
5.6435273289
 30
0.0
 10
5.8018934644
 20
5.634121691
 30
0.0
 10
5.7884256268
 20
5.6236849397
 30
0.0
 10
5.7754621247
 20
5.6121739302
 30
0.0
 10
5.7631011244
 20
5.5995453238
 30
0.0
 10
5.7514617814
 20
5.5857615693
 30
0.0
 10
5.7443583451
 20
5.5758938909
 30
0.0
 10
5.7409748911
 20
5.5707715068
 30
0.0
  0
SPLINE
  5
3D3
100
AcDbEntity
  8
0
100
AcDbSpline
 62
7
  6
CONTINUOUS
 70
0
 71
3
 72
26
 73
22
 74
0
 42
0.0000001
 43
0.0000001
 44
0.0000000001
 40
0.0
 40
0.0
 40
0.0
 40
0.0
 40
0.0172963735
 40
0.0293423754
 40
0.0440038873
 40
0.0613536504
 40
0.0813812939
 40
0.1040240005
 40
0.1291886502
 40
0.1865842151
 40
0.2524230581
 40
0.325326973
 40
0.4037296249
 40
0.4858975649
 40
0.5699467782
 40
0.6538703465
 40
0.7355828647
 40
0.8129835115
 40
0.8840431129
 40
0.9469031057
 40
1.0
 40
1.0
 40
1.0
 40
1.0
 10
8.314954351
 20
4.9674403372
 30
0.0
 10
8.3149490267
 20
4.9673550675
 30
0.0
 10
8.3148662213
 20
4.967220764
 30
0.0
 10
8.3147108657
 20
4.9670719335
 30
0.0
 10
8.3145356964
 20
4.9669407184
 30
0.0
 10
8.3143171432
 20
4.9668055213
 30
0.0
 10
8.3140554023
 20
4.9666657657
 30
0.0
 10
8.3137523195
 20
4.9665227047
 30
0.0
 10
8.3132739025
 20
4.9663195398
 30
0.0
 10
8.3125853889
 20
4.9660667863
 30
0.0
 10
8.3116613236
 20
4.965774924
 30
0.0
 10
8.3106270908
 20
4.965489827
 30
0.0
 10
8.3095060883
 20
4.9652183092
 30
0.0
 10
8.3083240398
 20
4.9649670621
 30
0.0
 10
8.3071089095
 20
4.9647424322
 30
0.0
 10
8.3058904907
 20
4.9645503132
 30
0.0
 10
8.3046998079
 20
4.964395927
 30
0.0
 10
8.3035682431
 20
4.9642835876
 30
0.0
 10
8.3025263117
 20
4.9642163865
 30
0.0
 10
8.3016024958
 20
4.9641960672
 30
0.0
 10
8.3010294752
 20
4.9642152651
 30
0.0
 10
8.3007680181
 20
4.9642359394
 30
0.0
  0
SPLINE
  5
3D4
100
AcDbEntity
  8
0
100
AcDbSpline
 62
7
  6
CONTINUOUS
 70
0
 71
3
 72
17
 73
13
 74
0
 42
0.0000001
 43
0.0000001
 44
0.0000000001
 40
0.0
 40
0.0
 40
0.0
 40
0.0
 40
0.0193430077
 40
0.0404358905
 40
0.0656306877
 40
0.096347314
 40
0.1770281451
 40
0.2854211741
 40
0.4222355314
 40
0.5873705123
 40
0.7803116917
 40
1.0
 40
1.0
 40
1.0
 40
1.0
 10
8.1211921264
 20
4.9643442614
 30
0.0
 10
8.1211916195
 20
4.9643358633
 30
0.0
 10
8.1211868889
 20
4.964318327
 30
0.0
 10
8.1211689912
 20
4.964295395
 30
0.0
 10
8.1211416141
 20
4.9642756081
 30
0.0
 10
8.1210875838
 20
4.9642503646
 30
0.0
 10
8.1209940641
 20
4.9642275416
 30
0.0
 10
8.1208532814
 20
4.9642105556
 30
0.0
 10
8.1206748053
 20
4.9642027937
 30
0.0
 10
8.1204595127
 20
4.9642043134
 30
0.0
 10
8.1202084047
 20
4.9642153173
 30
0.0
 10
8.1200293689
 20
4.9642281307
 30
0.0
 10
8.119934134
 20
4.9642359394
 30
0.0
  0
SPLINE
  5
3D5
100
AcDbEntity
  8
0
100
AcDbSpline
 62
7
  6
CONTINUOUS
 70
0
 71
3
 72
19
 73
15
 74
0
 42
0.0000001
 43
0.0000001
 44
0.0000000001
 40
0.0
 40
0.0
 40
0.0
 40
0.0
 40
0.1285703037
 40
0.2566843512
 40
0.3204562909
 40
0.3839679188
 40
0.4471842618
 40
0.5100735315
 40
0.5726142567
 40
0.6347890585
 40
0.6965900992
 40
0.7580124377
 40
0.8797181275
 40
1.0
 40
1.0
 40
1.0
 40
1.0
 10
4.6944248918
 20
5.4535793807
 30
0.0
 10
4.6944246209
 20
5.4488728957
 30
0.0
 10
4.6940271434
 20
5.4394724095
 30
0.0
 10
4.692565162
 20
5.427819342
 30
0.0
 10
4.6908313891
 20
5.4186300478
 30
0.0
 10
4.6892575895
 20
5.4118343903
 30
0.0
 10
4.6874192099
 20
5.4051391789
 30
0.0
 10
4.6853277575
 20
5.3985559827
 30
0.0
 10
4.6829932883
 20
5.3920955677
 30
0.0
 10
4.6804256622
 20
5.3857672746
 30
0.0
 10
4.6776354517
 20
5.3795787803
 30
0.0
 10
4.6736447392
 20
5.3715479339
 30
0.0
 10
4.6681571917
 20
5.3618798615
 30
0.0
 10
4.6632454431
 20
5.3544982219
 30
0.0
 10
4.6606815723
 20
5.3509186066
 30
0.0
  0
SPLINE
  5
3D6
100
AcDbEntity
  8
0
100
AcDbSpline
 62
7
  6
CONTINUOUS
 70
0
 71
3
 72
17
 73
13
 74
0
 42
0.0000001
 43
0.0000001
 44
0.0000000001
 40
0.0
 40
0.0
 40
0.0
 40
0.0
 40
0.1202881271
 40
0.2419982661
 40
0.3652053444
 40
0.4273828339
 40
0.4899263815
 40
0.6160122515
 40
0.6795270189
 40
0.7433020628
 40
0.8714226662
 40
1.0
 40
1.0
 40
1.0
 40
1.0
 10
4.2856725937
 20
5.3509133618
 30
0.0
 10
4.2831078863
 20
5.354492766
 30
0.0
 10
4.2781942132
 20
5.3618742203
 30
0.0
 10
4.271590312
 20
5.3735108802
 30
0.0
 10
4.2667715533
 20
5.3836803776
 30
0.0
 10
4.2633571816
 20
5.3920916984
 30
0.0
 10
4.2602355858
 20
5.4007279714
 30
0.0
 10
4.2576121628
 20
5.4095896504
 30
0.0
 10
4.2555193379
 20
5.4186278905
 30
0.0
 10
4.2537828731
 20
5.4278174523
 30
0.0
 10
4.2523181955
 20
5.4394711638
 30
0.0
 10
4.2519249499
 20
5.4488725457
 30
0.0
 10
4.2519248918
 20
5.4535793807
 30
0.0
  0
SPLINE
  5
3D7
100
AcDbEntity
  8
0
100
AcDbSpline
 62
7
  6
CONTINUOUS
 70
0
 71
3
 72
63
 73
59
 74
0
 42
0.0000001
 43
0.0000001
 44
0.0000000001
 40
0.0
 40
0.0
 40
0.0
 40
0.0
 40
0.0004267057
 40
0.0008661747
 40
0.0018259367
 40
0.0029540734
 40
0.0042953167
 40
0.0058760289
 40
0.0077119473
 40
0.0098126435
 40
0.0121837859
 40
0.0148288316
 40
0.0177497485
 40
0.0244213911
 40
0.0321982259
 40
0.0410709009
 40
0.0510245104
 40
0.0620399774
 40
0.0740945853
 40
0.0871622779
 40
0.1012141046
 40
0.1162183321
 40
0.1489438893
 40
0.1850362566
 40
0.2241566267
 40
0.2659344125
 40
0.3099713603
 40
0.355845171
 40
0.40311406
 40
0.499999999
 40
0.5968859369
 40
0.6441548271
 40
0.6900286391
 40
0.7340655831
 40
0.7758433716
 40
0.814963744
 40
0.8510561056
 40
0.8837816661
 40
0.898785896
 40
0.9128377231
 40
0.9259054128
 40
0.9379600178
 40
0.9489754853
 40
0.9589290967
 40
0.9678017747
 40
0.9755786112
 40
0.9822502483
 40
0.9851711622
 40
0.987816207
 40
0.9901873508
 40
0.9922880501
 40
0.9941239727
 40
0.9957046882
 40
0.9970459318
 40
0.9981740656
 40
0.9991338254
 40
0.9995732941
 40
1.0
 40
1.0
 40
1.0
 40
1.0
 10
8.3525498918
 20
5.7571680534
 30
0.0
 10
8.3525498813
 20
5.7571309306
 30
0.0
 10
8.3525431519
 20
5.7570554192
 30
0.0
 10
8.3525020794
 20
5.7569012718
 30
0.0
 10
8.3523945691
 20
5.7567058479
 30
0.0
 10
8.3521929625
 20
5.7564836831
 30
0.0
 10
8.3519163673
 20
5.7562636251
 30
0.0
 10
8.3515642983
 20
5.7560447282
 30
0.0
 10
8.3511363188
 20
5.7558264591
 30
0.0
 10
8.3506322399
 20
5.7556088353
 30
0.0
 10
8.3500521064
 20
5.7553919261
 30
0.0
 10
8.3493961074
 20
5.7551758688
 30
0.0
 10
8.3483744873
 20
5.7548757127
 30
0.0
 10
8.3469077314
 20
5.7545097905
 30
0.0
 10
8.3449218373
 20
5.7540927647
 30
0.0
 10
8.3426438592
 20
5.7536821325
 30
0.0
 10
8.3400789857
 20
5.7532790262
 30
0.0
 10
8.3372330371
 20
5.7528846477
 30
0.0
 10
8.3341126147
 20
5.7525000642
 30
0.0
 10
8.3307250006
 20
5.7521262987
 30
0.0
 10
8.3270781535
 20
5.7517643004
 30
0.0
 10
8.3217246222
 20
5.7512846188
 30
0.0
 10
8.3144531896
 20
5.7507277724
 30
0.0
 10
8.3050811038
 20
5.7501368976
 30
0.0
 10
8.2949164516
 20
5.7496119193
 30
0.0
 10
8.2840565978
 20
5.7491582011
 30
0.0
 10
8.2726059797
 20
5.7487804769
 30
0.0
 10
8.2606751445
 20
5.748482577
 30
0.0
 10
8.2441453238
 20
5.7481936822
 30
0.0
 10
8.2231748919
 20
5.7480518153
 30
0.0
 10
8.2022044599
 20
5.7481936823
 30
0.0
 10
8.185674639
 20
5.748482577
 30
0.0
 10
8.173743804
 20
5.7487804767
 30
0.0
 10
8.1622931858
 20
5.7491582013
 30
0.0
 10
8.151433332
 20
5.7496119193
 30
0.0
 10
8.1412686798
 20
5.7501368973
 30
0.0
 10
8.131896594
 20
5.7507277726
 30
0.0
 10
8.1246251614
 20
5.7512846188
 30
0.0
 10
8.1192716296
 20
5.7517643004
 30
0.0
 10
8.1156247825
 20
5.7521262986
 30
0.0
 10
8.1122371689
 20
5.7525000642
 30
0.0
 10
8.1091167469
 20
5.7528846478
 30
0.0
 10
8.1062707984
 20
5.7532790263
 30
0.0
 10
8.1037059245
 20
5.7536821325
 30
0.0
 10
8.1014279457
 20
5.7540927647
 30
0.0
 10
8.0994420516
 20
5.7545097902
 30
0.0
 10
8.0979752963
 20
5.7548757126
 30
0.0
 10
8.0969536772
 20
5.7551758688
 30
0.0
 10
8.0962976785
 20
5.7553919262
 30
0.0
 10
8.0957175446
 20
5.7556088354
 30
0.0
 10
8.0952134648
 20
5.7558264592
 30
0.0
 10
8.0947854843
 20
5.7560447282
 30
0.0
 10
8.0944334144
 20
5.7562636249
 30
0.0
 10
8.0941568189
 20
5.7564836827
 30
0.0
 10
8.0939552132
 20
5.7567058479
 30
0.0
 10
8.0938477043
 20
5.756901272
 30
0.0
 10
8.0938066322
 20
5.7570554193
 30
0.0
 10
8.0937999025
 20
5.7571309306
 30
0.0
 10
8.0937998918
 20
5.7571680534
 30
0.0
  0
SPLINE
  5
3D8
100
AcDbEntity
  8
0
100
AcDbSpline
 62
7
  6
CONTINUOUS
 70
0
 71
3
 72
28
 73
24
 74
0
 42
0.0000001
 43
0.0000001
 44
0.0000000001
 40
0.0
 40
0.0
 40
0.0
 40
0.0
 40
0.0147510465
 40
0.0297511288
 40
0.0452275647
 40
0.0613911161
 40
0.07842668
 40
0.0964845991
 40
0.1156855491
 40
0.1361259983
 40
0.1578807981
 40
0.1810012596
 40
0.2314546172
 40
0.2876486707
 40
0.3495274651
 40
0.4168983966
 40
0.4894260528
 40
0.5666599497
 40
0.6480274501
 40
0.7328523719
 40
0.8203657025
 40
0.9097161566
 40
1.0
 40
1.0
 40
1.0
 40
1.0
 10
8.0937998918
 20
5.9583959516
 30
0.0
 10
8.0937999725
 20
5.958643897
 30
0.0
 10
8.0938348857
 20
5.9591446182
 30
0.0
 10
8.0939904167
 20
5.9598909217
 30
0.0
 10
8.0942485281
 20
5.9606333563
 30
0.0
 10
8.0946086489
 20
5.9613700039
 30
0.0
 10
8.0950701402
 20
5.9620993688
 30
0.0
 10
8.0956318814
 20
5.9628202496
 30
0.0
 10
8.0962929001
 20
5.9635314163
 30
0.0
 10
8.0970523114
 20
5.9642315299
 30
0.0
 10
8.0979091483
 20
5.964919165
 30
0.0
 10
8.0992181709
 20
5.9658446903
 30
0.0
 10
8.1011010239
 20
5.9669536598
 30
0.0
 10
8.1036602676
 20
5.968174267
 30
0.0
 10
8.1065654551
 20
5.9693103247
 30
0.0
 10
8.109795998
 20
5.9703490817
 30
0.0
 10
8.113326793
 20
5.9712792063
 30
0.0
 10
8.1171278212
 20
5.972088829
 30
0.0
 10
8.1211639614
 20
5.9727677681
 30
0.0
 10
8.1253953327
 20
5.9733064233
 30
0.0
 10
8.1297775915
 20
5.9736972243
 30
0.0
 10
8.1342626638
 20
5.9739336692
 30
0.0
 10
8.1372823408
 20
5.9739866764
 30
0.0
 10
8.1387998918
 20
5.9739867593
 30
0.0
  0
SPLINE
  5
3D9
100
AcDbEntity
  8
0
100
AcDbSpline
 62
7
  6
CONTINUOUS
 70
0
 71
3
 72
28
 73
24
 74
0
 42
0.0000001
 43
0.0000001
 44
0.0000000001
 40
0.0
 40
0.0
 40
0.0
 40
0.0
 40
0.0902838577
 40
0.1796343087
 40
0.2671476384
 40
0.3519725227
 40
0.4333401423
 40
0.5105739261
 40
0.5831016941
 40
0.6504725036
 40
0.7123514074
 40
0.7685453469
 40
0.8189987744
 40
0.8421192705
 40
0.8638740785
 40
0.884314515
 40
0.903515439
 40
0.9215733287
 40
0.9386088695
 40
0.9547724107
 40
0.9702488551
 40
0.9852489532
 40
1.0
 40
1.0
 40
1.0
 40
1.0
 10
8.3075498918
 20
5.9739867593
 30
0.0
 10
8.309067443
 20
5.9739866743
 30
0.0
 10
8.3120871201
 20
5.9739336737
 30
0.0
 10
8.3165721925
 20
5.9736972251
 30
0.0
 10
8.3209544504
 20
5.9733064239
 30
0.0
 10
8.3251858221
 20
5.972767764
 30
0.0
 10
8.3292219635
 20
5.9720888347
 30
0.0
 10
8.3330229911
 20
5.9712792008
 30
0.0
 10
8.336553787
 20
5.9703490872
 30
0.0
 10
8.3397843274
 20
5.9693103183
 30
0.0
 10
8.3426895173
 20
5.9681742723
 30
0.0
 10
8.3452487574
 20
5.9669536549
 30
0.0
 10
8.3471316124
 20
5.9658446901
 30
0.0
 10
8.3484406381
 20
5.9649191658
 30
0.0
 10
8.3492974757
 20
5.9642315307
 30
0.0
 10
8.3500568861
 20
5.9635314169
 30
0.0
 10
8.3507179027
 20
5.9628202499
 30
0.0
 10
8.3512796412
 20
5.9620993686
 30
0.0
 10
8.35174113
 20
5.9613700034
 30
0.0
 10
8.3521012493
 20
5.9606333557
 30
0.0
 10
8.3523593616
 20
5.9598909214
 30
0.0
 10
8.3525148982
 20
5.9591446187
 30
0.0
 10
8.3525498126
 20
5.958643897
 30
0.0
 10
8.3525498918
 20
5.9583959516
 30
0.0
  0
SPLINE
  5
3DA
100
AcDbEntity
  8
0
100
AcDbSpline
 62
7
  6
CONTINUOUS
 70
0
 71
3
 72
20
 73
16
 74
0
 42
0.0000001
 43
0.0000001
 44
0.0000000001
 40
0.0
 40
0.0
 40
0.0
 40
0.0
 40
0.1179205302
 40
0.1771049037
 40
0.2365203112
 40
0.3562951403
 40
0.4779223915
 40
0.5396829468
 40
0.6021959485
 40
0.665575105
 40
0.7299434677
 40
0.7954327424
 40
0.8621810482
 40
0.930327122
 40
1.0
 40
1.0
 40
1.0
 40
1.0
 10
2.9795298349
 20
5.2192703014
 30
0.0
 10
2.989917689
 20
5.2194856039
 30
0.0
 10
3.0055182025
 20
5.2206028764
 30
0.0
 10
3.0261358228
 20
5.223684657
 30
0.0
 10
3.0467284183
 20
5.2278618525
 30
0.0
 10
3.0722586174
 20
5.2351791214
 30
0.0
 10
3.0970371393
 20
5.2453166779
 30
0.0
 10
3.1163219465
 20
5.2552156672
 30
0.0
 10
3.1305663112
 20
5.2636314233
 30
0.0
 10
3.1444563094
 20
5.2730370613
 30
0.0
 10
3.1579241481
 20
5.2834738146
 30
0.0
 10
3.1708876509
 20
5.2949848263
 30
0.0
 10
3.1832486546
 20
5.3076134327
 30
0.0
 10
3.1948880003
 20
5.3213971884
 30
0.0
 10
3.2019914365
 20
5.3312648689
 30
0.0
 10
3.2053748916
 20
5.3363872534
 30
0.0
  0
SPLINE
  5
3DB
100
AcDbEntity
  8
0
100
AcDbSpline
 62
7
  6
CONTINUOUS
 70
0
 71
3
 72
74
 73
70
 74
0
 42
0.0000001
 43
0.0000001
 44
0.0000000001
 40
0.0
 40
0.0
 40
0.0
 40
0.0
 40
0.0165161693
 40
0.032998524
 40
0.0494140769
 40
0.0575891186
 40
0.0657373475
 40
0.0819418046
 40
0.0980129294
 40
0.1139406689
 40
0.1297208568
 40
0.1453546751
 40
0.1608474684
 40
0.1762081128
 40
0.1914491803
 40
0.2065853127
 40
0.2216320579
 40
0.2366073152
 40
0.2515298168
 40
0.2664203964
 40
0.281300158
 40
0.2961904197
 40
0.3111140638
 40
0.3260961686
 40
0.3411609964
 40
0.3563319815
 40
0.3716337143
 40
0.3870899766
 40
0.4027175688
 40
0.4185291252
 40
0.4345313206
 40
0.450712372
 40
0.4670478488
 40
0.4752626217
 40
0.4835000859
 40
0.4917533839
 40
0.5000147079
 40
0.51652825
 40
0.532979837
 40
0.5493148811
 40
0.5574267481
 40
0.5654965831
 40
0.5814998352
 40
0.5973132275
 40
0.6129392619
 40
0.6283934502
 40
0.6436973063
 40
0.6588693501
 40
0.6739319152
 40
0.6814314514
 40
0.6889141682
 40
0.7038392004
 40
0.7187295287
 40
0.7336081961
 40
0.7484987661
 40
0.763421776
 40
0.778397033
 40
0.793443566
 40
0.8085795781
 40
0.8238207993
 40
0.8391816665
 40
0.8546745813
 40
0.870308336
 40
0.9020032343
 40
0.9342641902
 40
0.9505855775
 40
0.9670011677
 40
0.9834836995
 40
1.0
 40
1.0
 40
1.0
 40
1.0
 10
4.2519248918
 20
5.4535793807
 30
0.0
 10
4.2519250992
 20
5.4571688112
 30
0.0
 10
4.252156841
 20
5.4643423838
 30
0.0
 10
4.2531809931
 20
5.4750390827
 30
0.0
 10
4.2545882633
 20
5.4838602909
 30
0.0
 10
4.2560383185
 20
5.4908270468
 30
0.0
 10
4.2576945408
 20
5.4977005088
 30
0.0
 10
4.2601443063
 20
5.5061433818
 30
0.0
 10
4.2636629026
 20
5.5160171165
 30
0.0
 10
4.2677201727
 20
5.5255818316
 30
0.0
 10
4.2722794718
 20
5.5348113467
 30
0.0
 10
4.2773010817
 20
5.5436888427
 30
0.0
 10
4.2827479261
 20
5.5522035238
 30
0.0
 10
4.2885867663
 20
5.5603492227
 30
0.0
 10
4.2947906987
 20
5.5681211972
 30
0.0
 10
4.3013330919
 20
5.5755192757
 30
0.0
 10
4.3081882972
 20
5.5825476525
 30
0.0
 10
4.315336433
 20
5.5892096925
 30
0.0
 10
4.3227607625
 20
5.5955099206
 30
0.0
 10
4.3304493119
 20
5.6014507834
 30
0.0
 10
4.338391051
 20
5.607036223
 30
0.0
 10
4.3465755499
 20
5.6122725679
 30
0.0
 10
4.354997618
 20
5.6171619587
 30
0.0
 10
4.3636555231
 20
5.6217026521
 30
0.0
 10
4.3725468231
 20
5.6258947931
 30
0.0
 10
4.3816690202
 20
5.6297398704
 30
0.0
 10
4.3910236465
 20
5.6332303076
 30
0.0
 10
4.4006107669
 20
5.6363560867
 30
0.0
 10
4.4104254825
 20
5.6391130334
 30
0.0
 10
4.4204616806
 20
5.6414880409
 30
0.0
 10
4.4307078785
 20
5.643457476
 30
0.0
 10
4.44113983
 20
5.6450141062
 30
0.0
 10
4.4499447036
 20
5.6459542047
 30
0.0
 10
4.4570510526
 20
5.6464850891
 30
0.0
 10
4.4624132104
 20
5.6467686944
 30
0.0
 10
4.467790364
 20
5.6469360422
 30
0.0
 10
4.4749683382
 20
5.6470089751
 30
0.0
 10
4.4839290396
 20
5.6468261822
 30
0.0
 10
4.4946249126
 20
5.6461448606
 30
0.0
 10
4.5034658503
 20
5.6451998703
 30
0.0
 10
4.5104659337
 20
5.6442278943
 30
0.0
 10
4.5173732372
 20
5.6431229464
 30
0.0
 10
4.5258889286
 20
5.641488031
 30
0.0
 10
4.5359264666
 20
5.6391175734
 30
0.0
 10
4.5457402622
 20
5.6363582465
 30
0.0
 10
4.5553249725
 20
5.6332264456
 30
0.0
 10
4.5646816239
 20
5.6297410346
 30
0.0
 10
4.5738055999
 20
5.6258995041
 30
0.0
 10
4.5812234519
 20
5.6223965222
 30
0.0
 10
4.5870369152
 20
5.6194225451
 30
0.0
 10
4.592760532
 20
5.6163417079
 30
0.0
 10
4.5997749776
 20
5.6122738655
 30
0.0
 10
4.6079600077
 20
5.6070381453
 30
0.0
 10
4.6158991133
 20
5.6014493118
 30
0.0
 10
4.6235873347
 20
5.5955083781
 30
0.0
 10
4.631013458
 20
5.5892100812
 30
0.0
 10
4.6381615447
 20
5.5825478272
 30
0.0
 10
4.6450156455
 20
5.5755184744
 30
0.0
 10
4.651557503
 20
5.5681200064
 30
0.0
 10
4.6577619379
 20
5.5603483699
 30
0.0
 10
4.663602212
 20
5.5522036557
 30
0.0
 10
4.6690500833
 20
5.5436892229
 30
0.0
 10
4.6757736559
 20
5.5318001342
 30
0.0
 10
4.6830075149
 20
5.5160441951
 30
0.0
 10
4.6883857721
 20
5.4993996059
 30
0.0
 10
4.6914825213
 20
5.4856095597
 30
0.0
 10
4.6931721092
 20
5.4750395412
 30
0.0
 10
4.6941960217
 20
5.464342528
 30
0.0
 10
4.6944248479
 20
5.4571688397
 30
0.0
 10
4.6944248918
 20
5.4535793807
 30
0.0
  0
SPLINE
  5
3DC
100
AcDbEntity
  8
0
100
AcDbSpline
 62
7
  6
CONTINUOUS
 70
0
 71
3
 72
19
 73
15
 74
0
 42
0.0000001
 43
0.0000001
 44
0.0000000001
 40
0.0
 40
0.0
 40
0.0
 40
0.0
 40
0.0225388968
 40
0.0475681156
 40
0.0771358779
 40
0.1124555491
 40
0.1541495363
 40
0.2024787665
 40
0.257479794
 40
0.3190237011
 40
0.46064095
 40
0.6243084136
 40
0.8057806197
 40
1.0
 40
1.0
 40
1.0
 40
1.0
 10
8.1854852678
 20
4.9653531471
 30
0.0
 10
8.1854823246
 20
4.9653043325
 30
0.0
 10
8.1854556859
 20
4.9652017766
 30
0.0
 10
8.1853595855
 20
4.9650618677
 30
0.0
 10
8.185211807
 20
4.9649323935
 30
0.0
 10
8.1850133868
 20
4.964812071
 30
0.0
 10
8.1847647421
 20
4.9647006748
 30
0.0
 10
8.1844667069
 20
4.9645987216
 30
0.0
 10
8.1841207144
 20
4.964506924
 30
0.0
 10
8.1835718917
 20
4.9643937586
 30
0.0
 10
8.1827820833
 20
4.9642881482
 30
0.0
 10
8.1817279651
 20
4.9642155295
 30
0.0
 10
8.1805574373
 20
4.9641952294
 30
0.0
 10
8.1797423055
 20
4.9642166956
 30
0.0
 10
8.1793213418
 20
4.9642359394
 30
0.0
  0
SPLINE
  5
3DD
100
AcDbEntity
  8
0
100
AcDbSpline
 62
7
  6
CONTINUOUS
 70
0
 71
3
 72
20
 73
16
 74
0
 42
0.0000001
 43
0.0000001
 44
0.0000000001
 40
0.0
 40
0.0
 40
0.0
 40
0.0
 40
0.1997035815
 40
0.3861603468
 40
0.554458185
 40
0.7001829148
 40
0.7633837369
 40
0.8195926262
 40
0.8684711984
 40
0.9097546291
 40
0.9432753414
 40
0.9690427016
 40
0.979124922
 40
0.9874794282
 40
1.0
 40
1.0
 40
1.0
 40
1.0
 10
8.1697323025
 20
4.9565773267
 30
0.0
 10
8.1693442115
 20
4.9566275614
 30
0.0
 10
8.1685946057
 20
4.9567313018
 30
0.0
 10
8.1675214528
 20
4.9569015395
 30
0.0
 10
8.1665566063
 20
4.9570777459
 30
0.0
 10
8.1658334391
 20
4.9572316653
 30
0.0
 10
8.1653289937
 20
4.9573561863
 30
0.0
 10
8.1650109513
 20
4.9574435317
 30
0.0
 10
8.1647370004
 20
4.9575286886
 30
0.0
 10
8.1645088695
 20
4.9576109045
 30
0.0
 10
8.1643280852
 20
4.9576897312
 30
0.0
 10
8.1642089214
 20
4.9577560087
 30
0.0
 10
8.1641400615
 20
4.9578092294
 30
0.0
 10
8.1640975933
 20
4.9578520125
 30
0.0
 10
8.1640764908
 20
4.9578908034
 30
0.0
 10
8.1640750488
 20
4.9579152956
 30
0.0
  0
SPLINE
  5
3DE
100
AcDbEntity
  8
0
100
AcDbSpline
 62
7
  6
CONTINUOUS
 70
0
 71
3
 72
15
 73
11
 74
0
 42
0.0000001
 43
0.0000001
 44
0.0000000001
 40
0.0
 40
0.0
 40
0.0
 40
0.0
 40
0.200515063
 40
0.3788533517
 40
0.5344931918
 40
0.6674180852
 40
0.7781153545
 40
0.867929163
 40
0.9398352597
 40
1.0
 40
1.0
 40
1.0
 40
1.0
 10
8.2169261069
 20
4.9565773267
 30
0.0
 10
8.2168429182
 20
4.9565972643
 30
0.0
 10
8.2166863291
 20
4.9566374874
 30
0.0
 10
8.216467981
 20
4.9567035034
 30
0.0
 10
8.2162805906
 20
4.9567714218
 30
0.0
 10
8.2161248559
 20
4.9568408914
 30
0.0
 10
8.2160010702
 20
4.956911666
 30
0.0
 10
8.2159092644
 20
4.9569838858
 30
0.0
 10
8.2158490021
 20
4.9570584817
 30
0.0
 10
8.2158313204
 20
4.9571140914
 30
0.0
 10
8.215829774
 20
4.9571397125
 30
0.0
  0
LINE
  5
3DF
100
AcDbEntity
  8
0
100
AcDbLine
 62
7
  6
CONTINUOUS
 10
8.2820449328
 20
4.9577045653
 11
8.2814145804
 21
4.9574678274
  0
SPLINE
  5
3E0
100
AcDbEntity
  8
0
100
AcDbSpline
 62
7
  6
CONTINUOUS
 70
0
 71
3
 72
19
 73
15
 74
0
 42
0.0000001
 43
0.0000001
 44
0.0000000001
 40
0.0
 40
0.0
 40
0.0
 40
0.0
 40
0.040577934
 40
0.0888033399
 40
0.1439296353
 40
0.2050893997
 40
0.34152672
 40
0.489360551
 40
0.6388877923
 40
0.7800587245
 40
0.8444583408
 40
0.9032277068
 40
0.9553639826
 40
1.0
 40
1.0
 40
1.0
 40
1.0
 10
8.2814145804
 20
4.9574678274
 30
0.0
 10
8.2812491004
 20
4.957417832
 30
0.0
 10
8.2808836919
 20
4.9573192366
 30
0.0
 10
8.2802862246
 20
4.9571810764
 30
0.0
 10
8.2795992655
 20
4.9570418918
 30
0.0
 10
8.2785395969
 20
4.9568511536
 30
0.0
 10
8.2770843071
 20
4.9566308424
 30
0.0
 10
8.2752498028
 20
4.9564058802
 30
0.0
 10
8.2733899294
 20
4.9562274425
 30
0.0
 10
8.2718804176
 20
4.9561243041
 30
0.0
 10
8.2707552426
 20
4.956076744
 30
0.0
 10
8.2700085372
 20
4.9560601438
 30
0.0
 10
8.2693458444
 20
4.9560616466
 30
0.0
 10
8.2689336921
 20
4.9560756352
 30
0.0
 10
8.2687438633
 20
4.9560867772
 30
0.0
  0
SPLINE
  5
3E1
100
AcDbEntity
  8
0
100
AcDbSpline
 62
7
  6
CONTINUOUS
 70
0
 71
3
 72
17
 73
13
 74
0
 42
0.0000001
 43
0.0000001
 44
0.0000000001
 40
0.0
 40
0.0
 40
0.0
 40
0.0
 40
0.2141908871
 40
0.4027851715
 40
0.5651325167
 40
0.7008475657
 40
0.81000334
 40
0.8934504522
 40
0.9263419716
 40
0.9541658677
 40
0.9781041354
 40
1.0
 40
1.0
 40
1.0
 40
1.0
 10
8.2687438633
 20
4.9560867772
 30
0.0
 10
8.2686557847
 20
4.9560919469
 30
0.0
 10
8.2684902551
 20
4.9561036104
 30
0.0
 10
8.2682586141
 20
4.956127245
 30
0.0
 10
8.2680601252
 20
4.9561557376
 30
0.0
 10
8.2678955146
 20
4.9561888458
 30
0.0
 10
8.2677654613
 20
4.9562263288
 30
0.0
 10
8.2676795849
 20
4.9562633622
 30
0.0
 10
8.2676303362
 20
4.9562969022
 30
0.0
 10
8.2676051442
 20
4.9563213575
 30
0.0
 10
8.2675888353
 20
4.9563473984
 30
0.0
 10
8.2675843204
 20
4.9563661704
 30
0.0
 10
8.2675837809
 20
4.9563751736
 30
0.0
  0
SPLINE
  5
3E2
100
AcDbEntity
  8
0
100
AcDbSpline
 62
7
  6
CONTINUOUS
 70
0
 71
3
 72
17
 73
13
 74
0
 42
0.0000001
 43
0.0000001
 44
0.0000000001
 40
0.0
 40
0.0
 40
0.0
 40
0.0
 40
0.0431723321
 40
0.0930571614
 40
0.2098163743
 40
0.3433328157
 40
0.4860160946
 40
0.6302028636
 40
0.7684857553
 40
0.8938896023
 40
0.949731964
 40
1.0
 40
1.0
 40
1.0
 40
1.0
 10
8.119934134
 20
4.9642359394
 30
0.0
 10
8.1197495553
 20
4.9642510736
 30
0.0
 10
8.1193523357
 20
4.9642914973
 30
0.0
 10
8.1184595159
 20
4.9644059001
 30
0.0
 10
8.1171877566
 20
4.9646091459
 30
0.0
 10
8.1155308376
 20
4.9649199958
 30
0.0
 10
8.1137662099
 20
4.9652923946
 30
0.0
 10
8.1119897279
 20
4.9657057023
 30
0.0
 10
8.1102941992
 20
4.9661381115
 30
0.0
 10
8.108974233
 20
4.9665083164
 30
0.0
 10
8.1080247329
 20
4.966799608
 30
0.0
 10
8.1075921585
 20
4.966941432
 30
0.0
 10
8.1073881381
 20
4.9670112526
 30
0.0
  0
SPLINE
  5
3E3
100
AcDbEntity
  8
0
100
AcDbSpline
 62
7
  6
CONTINUOUS
 70
0
 71
3
 72
15
 73
11
 74
0
 42
0.0000001
 43
0.0000001
 44
0.0000000001
 40
0.0
 40
0.0
 40
0.0
 40
0.0
 40
0.3977334109
 40
0.5615529534
 40
0.7003958635
 40
0.813387634
 40
0.9000889142
 40
0.9337257146
 40
0.9611670586
 40
1.0
 40
1.0
 40
1.0
 40
1.0
 10
8.1073881381
 20
4.9670112526
 30
0.0
 10
8.1071405924
 20
4.9670959685
 30
0.0
 10
8.1067926873
 20
4.9672206744
 30
0.0
 10
8.1063660017
 20
4.967394701
 30
0.0
 10
8.1061167488
 20
4.9675073192
 30
0.0
 10
8.105918899
 20
4.9676099007
 30
0.0
 10
8.1057885273
 20
4.9676913163
 30
0.0
 10
8.1057127885
 20
4.9677530477
 30
0.0
 10
8.1056674341
 20
4.9677996597
 30
0.0
 10
8.1056431437
 20
4.9678401802
 30
0.0
 10
8.1056417288
 20
4.9678656864
 30
0.0
  0
SPLINE
  5
3E4
100
AcDbEntity
  8
0
100
AcDbSpline
 62
7
  6
CONTINUOUS
 70
0
 71
3
 72
24
 73
20
 74
0
 42
0.0000001
 43
0.0000001
 44
0.0000000001
 40
0.0
 40
0.0
 40
0.0
 40
0.0
 40
0.0720506419
 40
0.1492448822
 40
0.3130511411
 40
0.4792816849
 40
0.5596443191
 40
0.6363599439
 40
0.7081908207
 40
0.7740059004
 40
0.8327910286
 40
0.8836665683
 40
0.9059124501
 40
0.9259340814
 40
0.9436839501
 40
0.9591454158
 40
0.9723441258
 40
0.9833837
 40
1.0
 40
1.0
 40
1.0
 40
1.0
 10
8.1435680261
 20
4.9642359394
 30
0.0
 10
8.143260916
 20
4.9642525946
 30
0.0
 10
8.1426253611
 20
4.9642985021
 30
0.0
 10
8.1412957461
 20
4.9644335206
 30
0.0
 10
8.1395737236
 20
4.9646763616
 30
0.0
 10
8.1378509879
 20
4.9649978972
 30
0.0
 10
8.1365038956
 20
4.9652984795
 30
0.0
 10
8.1355556958
 20
4.965535006
 30
0.0
 10
8.1346741746
 20
4.9657808822
 30
0.0
 10
8.133873901
 20
4.9660317767
 30
0.0
 10
8.1331681459
 20
4.9662833351
 30
0.0
 10
8.1326473062
 20
4.9664982672
 30
0.0
 10
8.1322883806
 20
4.9666695453
 30
0.0
 10
8.1320620084
 20
4.9667896832
 30
0.0
 10
8.1318671155
 20
4.9669068841
 30
0.0
 10
8.1317046654
 20
4.9670203613
 30
0.0
 10
8.1315748747
 20
4.9671305687
 30
0.0
 10
8.1314578361
 20
4.9672584006
 30
0.0
 10
8.1313994354
 20
4.9673706937
 30
0.0
 10
8.1313953599
 20
4.9674415063
 30
0.0
  0
SPLINE
  5
3E5
100
AcDbEntity
  8
0
100
AcDbSpline
 62
7
  6
CONTINUOUS
 70
0
 71
3
 72
21
 73
17
 74
0
 42
0.0000001
 43
0.0000001
 44
0.0000000001
 40
0.0
 40
0.0
 40
0.0
 40
0.0
 40
0.1736286562
 40
0.3466635033
 40
0.5108053809
 40
0.6587034292
 40
0.7246342663
 40
0.784368624
 40
0.8374139194
 40
0.8834151674
 40
0.9222040877
 40
0.9539085513
 40
0.9673073324
 40
0.9792637722
 40
0.9900381484
 40
1.0
 40
1.0
 40
1.0
 40
1.0
 10
8.1793213418
 20
4.9642359394
 30
0.0
 10
8.1787427832
 20
4.9642623874
 30
0.0
 10
8.1775888697
 20
4.9643458203
 30
0.0
 10
8.1758968402
 20
4.9645519958
 30
0.0
 10
8.1743020851
 20
4.9648296654
 30
0.0
 10
8.1730735532
 20
4.9651176594
 30
0.0
 10
8.1721984953
 20
4.9653772395
 30
0.0
 10
8.1716349784
 20
4.9655724334
 30
0.0
 10
8.1711445475
 20
4.9657732393
 30
0.0
 10
8.1707319517
 20
4.9659773854
 30
0.0
 10
8.1704012292
 20
4.9661825668
 30
0.0
 10
8.1701844342
 20
4.9663622052
 30
0.0
 10
8.1700601877
 20
4.9665070063
 30
0.0
 10
8.1699949122
 20
4.9666089012
 30
0.0
 10
8.1699526075
 20
4.9667100998
 30
0.0
 10
8.1699399654
 20
4.9667788335
 30
0.0
 10
8.1699380246
 20
4.966812006
 30
0.0
  0
SPLINE
  5
3E6
100
AcDbEntity
  8
0
100
AcDbSpline
 62
7
  6
CONTINUOUS
 70
0
 71
3
 72
19
 73
15
 74
0
 42
0.0000001
 43
0.0000001
 44
0.0000000001
 40
0.0
 40
0.0
 40
0.0
 40
0.0
 40
0.1901109425
 40
0.3684025539
 40
0.5299986274
 40
0.6708843146
 40
0.7326265831
 40
0.7882180891
 40
0.8375276305
 40
0.8805705813
 40
0.9175561902
 40
0.9490028135
 40
0.9759158591
 40
1.0
 40
1.0
 40
1.0
 40
1.0
 10
8.221750963
 20
4.9642359394
 30
0.0
 10
8.2213164907
 20
4.9642557052
 30
0.0
 10
8.2204752369
 20
4.9643119682
 30
0.0
 10
8.2192700992
 20
4.964449959
 30
0.0
 10
8.218185267
 20
4.9646347157
 30
0.0
 10
8.2173740849
 20
4.9648295975
 30
0.0
 10
8.216810827
 20
4.9650084753
 30
0.0
 10
8.2164543159
 20
4.9651442214
 30
0.0
 10
8.216146843
 20
4.9652864986
 30
0.0
 10
8.2158899773
 20
4.9654343797
 30
0.0
 10
8.2156848038
 20
4.9655871443
 30
0.0
 10
8.2155321016
 20
4.9657447064
 30
0.0
 10
8.2154330344
 20
4.9659076123
 30
0.0
 10
8.2154047825
 20
4.9660234269
 30
0.0
 10
8.2154015697
 20
4.9660784311
 30
0.0
  0
SPLINE
  5
3E7
100
AcDbEntity
  8
0
100
AcDbSpline
 62
7
  6
CONTINUOUS
 70
0
 71
3
 72
18
 73
14
 74
0
 42
0.0000001
 43
0.0000001
 44
0.0000000001
 40
0.0
 40
0.0
 40
0.0
 40
0.0
 40
0.1996923026
 40
0.3800284984
 40
0.5387536337
 40
0.6743502914
 40
0.7861288892
 40
0.8332629696
 40
0.8748500808
 40
0.911358299
 40
0.9435510335
 40
0.9725727887
 40
1.0
 40
1.0
 40
1.0
 40
1.0
 10
8.2643973644
 20
4.9642359394
 30
0.0
 10
8.264139531
 20
4.9642496976
 30
0.0
 10
8.2636492579
 20
4.9642851031
 30
0.0
 10
8.2629572742
 20
4.9643675799
 30
0.0
 10
8.2623525839
 20
4.9644753174
 30
0.0
 10
8.261843567
 20
4.9646062808
 30
0.0
 10
8.261485355
 20
4.9647392878
 30
0.0
 10
8.2612553069
 20
4.9648595711
 30
0.0
 10
8.2611200449
 20
4.964949246
 30
0.0
 10
8.2610122819
 20
4.9650434458
 30
0.0
 10
8.2609323089
 20
4.9651423179
 30
0.0
 10
8.2608809527
 20
4.965245984
 30
0.0
 10
8.2608665188
 20
4.9653186074
 30
0.0
 10
8.2608644605
 20
4.9653540107
 30
0.0
  0
SPLINE
  5
3E8
100
AcDbEntity
  8
0
100
AcDbSpline
 62
7
  6
CONTINUOUS
 70
0
 71
3
 72
63
 73
59
 74
0
 42
0.0000001
 43
0.0000001
 44
0.0000000001
 40
0.0
 40
0.0
 40
0.0
 40
0.0
 40
0.0003725955
 40
0.0007597978
 40
0.0016253166
 40
0.0026754965
 40
0.0039532553
 40
0.0054819747
 40
0.0072748403
 40
0.009339501
 40
0.0116803265
 40
0.0142998665
 40
0.01719935
 40
0.023838309
 40
0.0315932326
 40
0.040452762
 40
0.0504005527
 40
0.0614163855
 40
0.0734766711
 40
0.0865546452
 40
0.1006207337
 40
0.1156427546
 40
0.1484128604
 40
0.1845588439
 40
0.2237394349
 40
0.2655821952
 40
0.3096870968
 40
0.3556307636
 40
0.4029706179
 40
0.4999999095
 40
0.597029204
 40
0.6443690624
 40
0.6903127351
 40
0.7344176443
 40
0.776260414
 40
0.815441016
 40
0.8515870119
 40
0.8843571316
 40
0.8993791599
 40
0.9134452561
 40
0.9265232381
 40
0.938583532
 40
0.9495993732
 40
0.9595471725
 40
0.9684067107
 40
0.9761616433
 40
0.9828006112
 40
0.9857000992
 40
0.9883196438
 40
0.9906604739
 40
0.992725139
 40
0.9945180084
 40
0.9960467317
 40
0.9973244951
 40
0.9983746803
 40
0.9992402023
 40
0.9996274049
 40
1.0
 40
1.0
 40
1.0
 40
1.0
 10
8.0787998918
 20
5.7235721118
 30
0.0
 10
8.0787998947
 20
5.7235360047
 30
0.0
 10
8.0788074679
 20
5.7234621789
 30
0.0
 10
8.0788540179
 20
5.7233108047
 30
0.0
 10
8.0789761936
 20
5.7231195961
 30
0.0
 10
8.0792013502
 20
5.7229049272
 30
0.0
 10
8.0795097874
 20
5.7226919471
 30
0.0
 10
8.0799024642
 20
5.7224798535
 30
0.0
 10
8.0803799901
 20
5.7222681434
 30
0.0
 10
8.0809425657
 20
5.7220569371
 30
0.0
 10
8.0815901353
 20
5.7218463512
 30
0.0
 10
8.0823224791
 20
5.7216365548
 30
0.0
 10
8.0834641096
 20
5.7213448021
 30
0.0
 10
8.0851023599
 20
5.7209893622
 30
0.0
 10
8.0873193541
 20
5.7205844153
 30
0.0
 10
8.0898625689
 20
5.7201856463
 30
0.0
 10
8.0927261459
 20
5.7197941654
 30
0.0
 10
8.095903502
 20
5.7194111583
 30
0.0
 10
8.0993872045
 20
5.7190376707
 30
0.0
 10
8.1031690656
 20
5.7186747016
 30
0.0
 10
8.107240157
 20
5.7183231711
 30
0.0
 10
8.1132165773
 20
5.7178573516
 30
0.0
 10
8.1213330413
 20
5.7173166766
 30
0.0
 10
8.1317928242
 20
5.716743037
 30
0.0
 10
8.1431360655
 20
5.7162334113
 30
0.0
 10
8.1552539897
 20
5.7157930092
 30
0.0
 10
8.1680300266
 20
5.7154264017
 30
0.0
 10
8.1813408801
 20
5.7151372821
 30
0.0
 10
8.1997814867
 20
5.7148569331
 30
0.0
 10
8.2231748642
 20
5.7147192582
 30
0.0
 10
8.2465682422
 20
5.7148569326
 30
0.0
 10
8.26500885
 20
5.7151372811
 30
0.0
 10
8.2783197053
 20
5.7154264004
 30
0.0
 10
8.2910957444
 20
5.7157930076
 30
0.0
 10
8.3032136713
 20
5.7162334094
 30
0.0
 10
8.3145569158
 20
5.7167430349
 30
0.0
 10
8.3250167023
 20
5.7173166742
 30
0.0
 10
8.3331331696
 20
5.7178573489
 30
0.0
 10
8.3391095928
 20
5.7183231683
 30
0.0
 10
8.3431806864
 20
5.7186746988
 30
0.0
 10
8.3469625499
 20
5.7190376678
 30
0.0
 10
8.3504462547
 20
5.7194111551
 30
0.0
 10
8.3536236133
 20
5.7197941622
 30
0.0
 10
8.3564871928
 20
5.7201856431
 30
0.0
 10
8.3590304103
 20
5.7205844121
 30
0.0
 10
8.3612474071
 20
5.720989359
 30
0.0
 10
8.3628856596
 20
5.7213447988
 30
0.0
 10
8.3640272919
 20
5.7216365514
 30
0.0
 10
8.3647596371
 20
5.7218463477
 30
0.0
 10
8.3654072081
 20
5.7220569336
 30
0.0
 10
8.365969785
 20
5.7222681399
 30
0.0
 10
8.3664473122
 20
5.7224798501
 30
0.0
 10
8.3668399904
 20
5.7226919438
 30
0.0
 10
8.367148429
 20
5.722904924
 30
0.0
 10
8.3673735874
 20
5.7231195927
 30
0.0
 10
8.367495765
 20
5.7233108011
 30
0.0
 10
8.3675423159
 20
5.7234621755
 30
0.0
 10
8.367549889
 20
5.7235360012
 30
0.0
 10
8.3675498918
 20
5.7235721083
 30
0.0
  0
SPLINE
  5
3E9
100
AcDbEntity
  8
0
100
AcDbSpline
 62
7
  6
CONTINUOUS
 70
0
 71
3
 72
15
 73
11
 74
0
 42
0.0000001
 43
0.0000001
 44
0.0000000001
 40
0.0
 40
0.0
 40
0.0
 40
0.0
 40
0.2021276826
 40
0.3810402052
 40
0.5361884046
 40
0.6677260275
 40
0.7765027702
 40
0.8646054546
 40
0.9363975323
 40
1.0
 40
1.0
 40
1.0
 40
1.0
 10
8.3007680181
 20
4.9642359394
 30
0.0
 10
8.3006649669
 20
4.9642440879
 30
0.0
 10
8.3004709489
 20
4.9642630707
 30
0.0
 10
8.3001995297
 20
4.96430309
 30
0.0
 10
8.2999664259
 20
4.9643527049
 30
0.0
 10
8.2997725766
 20
4.9644115173
 30
0.0
 10
8.2996183017
 20
4.964479349
 30
0.0
 10
8.29950336
 20
4.9645564973
 30
0.0
 10
8.2994278364
 20
4.964645218
 30
0.0
 10
8.2994074572
 20
4.9647141398
 30
0.0
 10
8.2994055635
 20
4.9647466124
 30
0.0
  0
LINE
  5
3EA
100
AcDbEntity
  8
0
100
AcDbLine
 62
7
  6
CONTINUOUS
 10
8.3253258216
 20
4.9642359394
 11
8.3251576487
 21
4.9643443907
  0
SPLINE
  5
3EB
100
AcDbEntity
  8
0
100
AcDbSpline
 62
7
  6
CONTINUOUS
 70
0
 71
3
 72
18
 73
14
 74
0
 42
0.0000001
 43
0.0000001
 44
0.0000000001
 40
0.0
 40
0.0
 40
0.0
 40
0.0
 40
0.0607875367
 40
0.1216509755
 40
0.1826431925
 40
0.2438334288
 40
0.3052705831
 40
0.3669977663
 40
0.4912786456
 40
0.6169234481
 40
0.7438151104
 40
0.8716514589
 40
1.0
 40
1.0
 40
1.0
 40
1.0
 10
8.0787998933
 20
5.9442194613
 30
0.0
 10
8.0788001113
 20
5.9446833221
 30
0.0
 10
8.0788488316
 20
5.9456123183
 30
0.0
 10
8.0790659029
 20
5.9469914354
 30
0.0
 10
8.0794249966
 20
5.9483438875
 30
0.0
 10
8.0799224594
 20
5.9496563675
 30
0.0
 10
8.0805536783
 20
5.9509164139
 30
0.0
 10
8.0815668035
 20
5.9525129784
 30
0.0
 10
8.0831390827
 20
5.9543199786
 30
0.0
 10
8.0854269685
 20
5.9560905667
 30
0.0
 10
8.0880346946
 20
5.9574052202
 30
0.0
 10
8.0908606938
 20
5.9582140588
 30
0.0
 10
8.0928204829
 20
5.9583959516
 30
0.0
 10
8.0937998918
 20
5.9583959516
 30
0.0
  0
SPLINE
  5
3EC
100
AcDbEntity
  8
0
100
AcDbSpline
 62
7
  6
CONTINUOUS
 70
0
 71
3
 72
17
 73
13
 74
0
 42
0.0000001
 43
0.0000001
 44
0.0000000001
 40
0.0
 40
0.0
 40
0.0
 40
0.0
 40
0.1128157745
 40
0.2278052189
 40
0.3458407886
 40
0.4063237521
 40
0.4678853548
 40
0.5944387462
 40
0.7258573913
 40
0.7933279514
 40
0.8617083127
 40
1.0
 40
1.0
 40
1.0
 40
1.0
 10
8.4375491751
 20
5.1725390225
 30
0.0
 10
8.4379158122
 20
5.1724492019
 30
0.0
 10
8.4386444563
 20
5.1722152783
 30
0.0
 10
8.4396871724
 20
5.1717045263
 30
0.0
 10
8.4404976488
 20
5.1711423299
 30
0.0
 10
8.441099957
 20
5.1706096782
 30
0.0
 10
8.4416770436
 20
5.1700095001
 30
0.0
 10
8.4423188182
 20
5.1691475628
 30
0.0
 10
8.4428100245
 20
5.1681687741
 30
0.0
 10
8.4430996641
 20
5.1673214664
 30
0.0
 10
8.4433150693
 20
5.1664288711
 30
0.0
 10
8.4433811815
 20
5.1657350151
 30
0.0
 10
8.4433811815
 20
5.1652722941
 30
0.0
  0
SPLINE
  5
3ED
100
AcDbEntity
  8
0
100
AcDbSpline
 62
7
  6
CONTINUOUS
 70
0
 71
3
 72
17
 73
13
 74
0
 42
0.0000001
 43
0.0000001
 44
0.0000000001
 40
0.0
 40
0.0
 40
0.0
 40
0.0
 40
0.1148591935
 40
0.2315056219
 40
0.3506664254
 40
0.4114695964
 40
0.4731708304
 40
0.5994215784
 40
0.7297558251
 40
0.7964228151
 40
0.8638593892
 40
1.0
 40
1.0
 40
1.0
 40
1.0
 10
8.4366673944
 20
5.1725390225
 30
0.0
 10
8.4370474779
 20
5.1724493224
 30
0.0
 10
8.437802331
 20
5.1722160405
 30
0.0
 10
8.4388842238
 20
5.1717059436
 30
0.0
 10
8.4397265397
 20
5.171143585
 30
0.0
 10
8.4403526539
 20
5.1706103167
 30
0.0
 10
8.4409507963
 20
5.1700112027
 30
0.0
 10
8.4416165022
 20
5.1691508738
 30
0.0
 10
8.4421278163
 20
5.1681705768
 30
0.0
 10
8.4424289881
 20
5.1673220913
 30
0.0
 10
8.4426525995
 20
5.1664298427
 30
0.0
 10
8.4427214108
 20
5.1657351763
 30
0.0
 10
8.4427214108
 20
5.1652722941
 30
0.0
  0
SPLINE
  5
3EE
100
AcDbEntity
  8
0
100
AcDbSpline
 62
7
  6
CONTINUOUS
 70
0
 71
3
 72
15
 73
11
 74
0
 42
0.0000001
 43
0.0000001
 44
0.0000000001
 40
0.0
 40
0.0
 40
0.0
 40
0.0
 40
0.1168420121
 40
0.2353147629
 40
0.3559429953
 40
0.4791990066
 40
0.6054363921
 40
0.7347168159
 40
0.8665903596
 40
1.0
 40
1.0
 40
1.0
 40
1.0
 10
8.4360254994
 20
5.1723093412
 30
0.0
 10
8.4363766552
 20
5.1721933698
 30
0.0
 10
8.4370702168
 20
5.1719156374
 30
0.0
 10
8.4380559543
 20
5.1713636562
 30
0.0
 10
8.4389737558
 20
5.1706695113
 30
0.0
 10
8.4397982284
 20
5.1698310493
 30
0.0
 10
8.4404983771
 20
5.1688514866
 30
0.0
 10
8.4410382084
 20
5.1677437562
 30
0.0
 10
8.4413813429
 20
5.1665362549
 30
0.0
 10
8.4414598783
 20
5.1656945418
 30
0.0
 10
8.4414598783
 20
5.1652722941
 30
0.0
  0
SPLINE
  5
3EF
100
AcDbEntity
  8
0
100
AcDbSpline
 62
7
  6
CONTINUOUS
 70
0
 71
3
 72
16
 73
12
 74
0
 42
0.0000001
 43
0.0000001
 44
0.0000000001
 40
0.0
 40
0.0
 40
0.0
 40
0.0
 40
0.1183132989
 40
0.2377835078
 40
0.3588905805
 40
0.4821273199
 40
0.607912941
 40
0.7364301678
 40
0.8017309467
 40
0.8675539228
 40
1.0
 40
1.0
 40
1.0
 40
1.0
 10
8.4331523495
 20
5.1725390225
 30
0.0
 10
8.433556309
 20
5.1724495085
 30
0.0
 10
8.4343576703
 20
5.1722172484
 30
0.0
 10
8.4355090548
 20
5.1717081349
 30
0.0
 10
8.4365915156
 20
5.171030642
 30
0.0
 10
8.4375745163
 20
5.1701799597
 30
0.0
 10
8.4384192468
 20
5.1691567594
 30
0.0
 10
8.4389665135
 20
5.168173833
 30
0.0
 10
8.4392882334
 20
5.1673232384
 30
0.0
 10
8.4395263962
 20
5.1664316432
 30
0.0
 10
8.4396000418
 20
5.165735477
 30
0.0
 10
8.4396000418
 20
5.1652722941
 30
0.0
  0
SPLINE
  5
3F0
100
AcDbEntity
  8
0
100
AcDbSpline
 62
7
  6
CONTINUOUS
 70
0
 71
3
 72
16
 73
12
 74
0
 42
0.0000001
 43
0.0000001
 44
0.0000000001
 40
0.0
 40
0.0
 40
0.0
 40
0.0
 40
0.1197359081
 40
0.2403754337
 40
0.3622957453
 40
0.4858880983
 40
0.611488662
 40
0.7392491537
 40
0.8039757303
 40
0.8691179037
 40
1.0
 40
1.0
 40
1.0
 40
1.0
 10
8.4305287197
 20
5.1725390225
 30
0.0
 10
8.4309430369
 20
5.1724495797
 30
0.0
 10
8.4317645812
 20
5.1722177073
 30
0.0
 10
8.4329460151
 20
5.1717090229
 30
0.0
 10
8.4340568291
 20
5.1710320894
 30
0.0
 10
8.4350658082
 20
5.1701820034
 30
0.0
 10
8.4359332197
 20
5.1691592494
 30
0.0
 10
8.4364960995
 20
5.1681752716
 30
0.0
 10
8.4368267727
 20
5.1673237488
 30
0.0
 10
8.4370712378
 20
5.1664324544
 30
0.0
 10
8.437146999
 20
5.165735613
 30
0.0
 10
8.437146999
 20
5.1652722941
 30
0.0
  0
SPLINE
  5
3F1
100
AcDbEntity
  8
0
100
AcDbSpline
 62
7
  6
CONTINUOUS
 70
0
 71
3
 72
15
 73
11
 74
0
 42
0.0000001
 43
0.0000001
 44
0.0000000001
 40
0.0
 40
0.0
 40
0.0
 40
0.0
 40
0.1209945524
 40
0.2426770168
 40
0.3653346239
 40
0.4892681059
 40
0.6147373382
 40
0.74186205
 40
0.870474215
 40
1.0
 40
1.0
 40
1.0
 40
1.0
 10
8.427344169
 20
5.172537025
 30
0.0
 10
8.427767292
 20
5.1724473378
 30
0.0
 10
8.4286059409
 20
5.1722152668
 30
0.0
 10
8.4298127483
 20
5.1717064365
 30
0.0
 10
8.4309473954
 20
5.1710297453
 30
0.0
 10
8.4319780851
 20
5.1701803154
 30
0.0
 10
8.4328644573
 20
5.1691582234
 30
0.0
 10
8.4335571441
 20
5.1679746202
 30
0.0
 10
8.4340027727
 20
5.1666612485
 30
0.0
 10
8.434105616
 20
5.1657353148
 30
0.0
 10
8.434105616
 20
5.1652722941
 30
0.0
  0
SPLINE
  5
3F2
100
AcDbEntity
  8
0
100
AcDbSpline
 62
7
  6
CONTINUOUS
 70
0
 71
3
 72
18
 73
14
 74
0
 42
0.0000001
 43
0.0000001
 44
0.0000000001
 40
0.0
 40
0.0
 40
0.0
 40
0.0
 40
0.0607875383
 40
0.1216509794
 40
0.1826431917
 40
0.2438334203
 40
0.3052705649
 40
0.3669977382
 40
0.4912785991
 40
0.6169233948
 40
0.7438150644
 40
0.8716514327
 40
1.0
 40
1.0
 40
1.0
 40
1.0
 10
8.3675498904
 20
5.9442193023
 30
0.0
 10
8.3675496779
 20
5.9446831662
 30
0.0
 10
8.367500968
 20
5.9456121695
 30
0.0
 10
8.3672839099
 20
5.9469912985
 30
0.0
 10
8.3669248272
 20
5.9483437635
 30
0.0
 10
8.3664273729
 20
5.949656257
 30
0.0
 10
8.3657961603
 20
5.9509163172
 30
0.0
 10
8.3647830402
 20
5.9525129001
 30
0.0
 10
8.3632107617
 20
5.9543199229
 30
0.0
 10
8.3609228685
 20
5.9560905344
 30
0.0
 10
8.3583151284
 20
5.957405206
 30
0.0
 10
8.3554891107
 20
5.9582140561
 30
0.0
 10
8.3535293077
 20
5.9583959516
 30
0.0
 10
8.3525498918
 20
5.9583959516
 30
0.0
  0
SPLINE
  5
3F3
100
AcDbEntity
  8
0
100
AcDbSpline
 62
7
  6
CONTINUOUS
 70
0
 71
3
 72
15
 73
11
 74
0
 42
0.0000001
 43
0.0000001
 44
0.0000000001
 40
0.0
 40
0.0
 40
0.0
 40
0.0
 40
0.1220561749
 40
0.2446155127
 40
0.3678887591
 40
0.4920988926
 40
0.6174392906
 40
0.7440005529
 40
0.8716613751
 40
1.0
 40
1.0
 40
1.0
 40
1.0
 10
8.423585182
 20
5.1725390225
 30
0.0
 10
8.4240168992
 20
5.1724496884
 30
0.0
 10
8.4248723505
 20
5.1722184105
 30
0.0
 10
8.4261041962
 20
5.1717104061
 30
0.0
 10
8.4272625487
 20
5.1710343704
 30
0.0
 10
8.4283150359
 20
5.1701853473
 30
0.0
 10
8.4292205324
 20
5.1691632367
 30
0.0
 10
8.4299286149
 20
5.1679788787
 30
0.0
 10
8.4303844963
 20
5.1666637948
 30
0.0
 10
8.4304897966
 20
5.1657358493
 30
0.0
 10
8.4304897966
 20
5.1652722941
 30
0.0
  0
SPLINE
  5
3F4
100
AcDbEntity
  8
0
100
AcDbSpline
 62
7
  6
CONTINUOUS
 70
0
 71
3
 72
14
 73
10
 74
0
 42
0.0000001
 43
0.0000001
 44
0.0000000001
 40
0.0
 40
0.0
 40
0.0
 40
0.0
 40
0.2458805798
 40
0.3697367518
 40
0.4942460612
 40
0.6195436598
 40
0.7456926589
 40
0.8726089824
 40
1.0
 40
1.0
 40
1.0
 40
1.0
 10
8.4192843057
 20
5.1725390225
 30
0.0
 10
8.4201612333
 20
5.172360534
 30
0.0
 10
8.4214572512
 20
5.1719332681
 30
0.0
 10
8.423021365
 20
5.1710353121
 30
0.0
 10
8.4240915816
 20
5.170186614
 30
0.0
 10
8.4250122466
 20
5.1691648751
 30
0.0
 10
8.4257325923
 20
5.1679805344
 30
0.0
 10
8.4261966221
 20
5.1666649097
 30
0.0
 10
8.4263038838
 20
5.165735947
 30
0.0
 10
8.4263038838
 20
5.1652722941
 30
0.0
  0
SPLINE
  5
3F5
100
AcDbEntity
  8
0
100
AcDbSpline
 62
7
  6
CONTINUOUS
 70
0
 71
3
 72
20
 73
16
 74
0
 42
0.0000001
 43
0.0000001
 44
0.0000000001
 40
0.0
 40
0.0
 40
0.0
 40
0.0
 40
0.0696730924
 40
0.1378192542
 40
0.2045676813
 40
0.2700569791
 40
0.3344253303
 40
0.3978045482
 40
0.4603176055
 40
0.5220782008
 40
0.6437054345
 40
0.7634801246
 40
0.8228954547
 40
0.8820797397
 40
1.0
 40
1.0
 40
1.0
 40
1.0
 10
3.205376616
 20
5.5707692381
 30
0.0
 10
3.2019931243
 20
5.575891581
 30
0.0
 10
3.1948897608
 20
5.5857592552
 30
0.0
 10
3.1832506661
 20
5.5995431455
 30
0.0
 10
3.1708898122
 20
5.6121717931
 30
0.0
 10
3.1579265498
 20
5.623682947
 30
0.0
 10
3.144458935
 20
5.6341198514
 30
0.0
 10
3.1305691002
 20
5.6435255855
 30
0.0
 10
3.1163248987
 20
5.6519414672
 30
0.0
 10
3.0970403024
 20
5.6618406243
 30
0.0
 10
3.0722620528
 20
5.6719784299
 30
0.0
 10
3.0467321079
 20
5.6792959881
 30
0.0
 10
3.0261397037
 20
5.6834734138
 30
0.0
 10
3.0055222768
 20
5.6865554662
 30
0.0
 10
2.9899218923
 20
5.6876728947
 30
0.0
 10
2.9795341219
 20
5.6878883535
 30
0.0
  0
SPLINE
  5
3F6
100
AcDbEntity
  8
0
100
AcDbSpline
 62
7
  6
CONTINUOUS
 70
0
 71
3
 72
14
 73
10
 74
0
 42
0.0000001
 43
0.0000001
 44
0.0000000001
 40
0.0
 40
0.0
 40
0.0
 40
0.0
 40
0.2472238333
 40
0.3715090067
 40
0.4962154375
 40
0.6214294031
 40
0.7471898788
 40
0.8734421355
 40
1.0
 40
1.0
 40
1.0
 40
1.0
 10
8.4144459071
 20
5.1725390225
 30
0.0
 10
8.4153340602
 20
5.1723606812
 30
0.0
 10
8.4166465535
 20
5.1719341872
 30
0.0
 10
8.4182328542
 20
5.1710360195
 30
0.0
 10
8.419317581
 20
5.1701876652
 30
0.0
 10
8.4202509316
 20
5.1691662257
 30
0.0
 10
8.420981472
 20
5.1679819201
 30
0.0
 10
8.4214523069
 20
5.16666585
 30
0.0
 10
8.4215612087
 20
5.1657360295
 30
0.0
 10
8.4215612087
 20
5.1652722941
 30
0.0
  0
SPLINE
  5
3F7
100
AcDbEntity
  8
0
100
AcDbSpline
 62
7
  6
CONTINUOUS
 70
0
 71
3
 72
15
 73
11
 74
0
 42
0.0000001
 43
0.0000001
 44
0.0000000001
 40
0.0
 40
0.0
 40
0.0
 40
0.0
 40
0.2482257781
 40
0.3728224743
 40
0.4976587903
 40
0.6227819032
 40
0.7482108047
 40
0.8739130529
 40
0.9369498088
 40
1.0
 40
1.0
 40
1.0
 40
1.0
 10
8.409083248
 20
5.1725390225
 30
0.0
 10
8.4099803448
 20
5.1723607945
 30
0.0
 10
8.411305957
 20
5.1719349027
 30
0.0
 10
8.4129099165
 20
5.1710365633
 30
0.0
 10
8.4140061896
 20
5.1701885174
 30
0.0
 10
8.4149496368
 20
5.1691671924
 30
0.0
 10
8.415688288
 20
5.1679834108
 30
0.0
 10
8.4160851953
 20
5.1668848856
 30
0.0
 10
8.416247348
 20
5.1659697024
 30
0.0
 10
8.4162747704
 20
5.1655046132
 30
0.0
 10
8.4162747704
 20
5.1652722941
 30
0.0
  0
SPLINE
  5
3F8
100
AcDbEntity
  8
0
100
AcDbSpline
 62
7
  6
CONTINUOUS
 70
0
 71
3
 72
14
 73
10
 74
0
 42
0.0000001
 43
0.0000001
 44
0.0000000001
 40
0.0
 40
0.0
 40
0.0
 40
0.0
 40
0.2491698771
 40
0.4984515058
 40
0.6236140531
 40
0.7489053262
 40
0.8743087521
 40
0.9371543481
 40
1.0
 40
1.0
 40
1.0
 40
1.0
 10
8.403211027
 20
5.1725390225
 30
0.0
 10
8.4041147577
 20
5.1723608764
 30
0.0
 10
8.4058896723
 20
5.1717966896
 30
0.0
 10
8.407857725
 20
5.1705266912
 30
0.0
 10
8.409122825
 20
5.1691680382
 30
0.0
 10
8.4098675923
 20
5.1679842242
 30
0.0
 10
8.4102679194
 20
5.1668852391
 30
0.0
 10
8.4104314141
 20
5.1659697773
 30
0.0
 10
8.4104590587
 20
5.1655046195
 30
0.0
 10
8.4104590587
 20
5.1652722941
 30
0.0
  0
SPLINE
  5
3F9
100
AcDbEntity
  8
0
100
AcDbSpline
 62
7
  6
CONTINUOUS
 70
0
 71
3
 72
16
 73
12
 74
0
 42
0.0000001
 43
0.0000001
 44
0.0000000001
 40
0.0
 40
0.0
 40
0.0
 40
0.0
 40
0.1249155618
 40
0.2498460548
 40
0.3747930048
 40
0.499761313
 40
0.624750232
 40
0.7497535061
 40
0.8747646059
 40
0.9373866097
 40
1.0
 40
1.0
 40
1.0
 40
1.0
 10
8.3968516525
 20
5.172537025
 30
0.0
 10
8.3973059984
 20
5.1724475142
 30
0.0
 10
8.3982054941
 20
5.172216412
 30
0.0
 10
8.3995026393
 20
5.1717087131
 30
0.0
 10
8.4007223919
 20
5.1710335777
 30
0.0
 10
8.401830942
 20
5.1701860231
 30
0.0
 10
8.4027853328
 20
5.1691653762
 30
0.0
 10
8.4035326572
 20
5.1679824247
 30
0.0
 10
8.4039345398
 20
5.1668840098
 30
0.0
 10
8.4040986046
 20
5.1659691863
 30
0.0
 10
8.4041263439
 20
5.1655044106
 30
0.0
 10
8.4041263439
 20
5.1652722941
 30
0.0
  0
SPLINE
  5
3FA
100
AcDbEntity
  8
0
100
AcDbSpline
 62
7
  6
CONTINUOUS
 70
0
 71
3
 72
17
 73
13
 74
0
 42
0.0000001
 43
0.0000001
 44
0.0000000001
 40
0.0
 40
0.0
 40
0.0
 40
0.0
 40
0.1250138191
 40
0.2500221743
 40
0.3750177129
 40
0.4999959456
 40
0.6249475321
 40
0.7498615798
 40
0.8123986564
 40
0.8749295318
 40
0.9374710429
 40
1.0
 40
1.0
 40
1.0
 40
1.0
 10
8.3900036333
 20
5.1725390225
 30
0.0
 10
8.3904594865
 20
5.1724498196
 30
0.0
 10
8.3913619754
 20
5.1722192675
 30
0.0
 10
8.392663632
 20
5.1717121121
 30
0.0
 10
8.3938877356
 20
5.1710372893
 30
0.0
 10
8.3950003971
 20
5.1701896287
 30
0.0
 10
8.3959583645
 20
5.1691690055
 30
0.0
 10
8.3965841448
 20
5.1681810714
 30
0.0
 10
8.3969509404
 20
5.1673259918
 30
0.0
 10
8.3971533598
 20
5.1666573098
 30
0.0
 10
8.3972771595
 20
5.1659698074
 30
0.0
 10
8.3973049843
 20
5.1655046255
 30
0.0
 10
8.3973049843
 20
5.1652722941
 30
0.0
  0
SPLINE
  5
3FB
100
AcDbEntity
  8
0
100
AcDbSpline
 62
7
  6
CONTINUOUS
 70
0
 71
3
 72
17
 73
13
 74
0
 42
0.0000001
 43
0.0000001
 44
0.0000000001
 40
0.0
 40
0.0
 40
0.0
 40
0.0
 40
0.1249893799
 40
0.2499773626
 40
0.3749583685
 40
0.4999297878
 40
0.6248839996
 40
0.7498110381
 40
0.812358277
 40
0.8749013519
 40
0.9374565585
 40
1.0
 40
1.0
 40
1.0
 40
1.0
 10
8.3827046611
 20
5.1725390225
 30
0.0
 10
8.3831603113
 20
5.1724498186
 30
0.0
 10
8.3840624043
 20
5.1722192609
 30
0.0
 10
8.385363474
 20
5.1717120986
 30
0.0
 10
8.3865870251
 20
5.171037266
 30
0.0
 10
8.3876991815
 20
5.1701895935
 30
0.0
 10
8.3886567077
 20
5.169168959
 30
0.0
 10
8.3892821794
 20
5.1681810425
 30
0.0
 10
8.3896487976
 20
5.1673259811
 30
0.0
 10
8.3898511225
 20
5.1666573016
 30
0.0
 10
8.3899748643
 20
5.1659698029
 30
0.0
 10
8.3900026759
 20
5.1655046251
 30
0.0
 10
8.3900026759
 20
5.1652722941
 30
0.0
  0
SPLINE
  5
3FC
100
AcDbEntity
  8
0
100
AcDbSpline
 62
7
  6
CONTINUOUS
 70
0
 71
3
 72
14
 73
10
 74
0
 42
0.0000001
 43
0.0000001
 44
0.0000000001
 40
0.0
 40
0.0
 40
0.0
 40
0.0
 40
0.2495318312
 40
0.4989855864
 40
0.6241264256
 40
0.7493127674
 40
0.8745353525
 40
0.9372708034
 40
1.0
 40
1.0
 40
1.0
 40
1.0
 10
8.374968429
 20
5.1725390225
 30
0.0
 10
8.3758752884
 20
5.1723609144
 30
0.0
 10
8.3776559212
 20
5.1717971017
 30
0.0
 10
8.3796315087
 20
5.1705273302
 30
0.0
 10
8.3809016713
 20
5.1691684083
 30
0.0
 10
8.381649275
 20
5.1679846158
 30
0.0
 10
8.382051228
 20
5.1668854056
 30
0.0
 10
8.3822153544
 20
5.165969813
 30
0.0
 10
8.3822431041
 20
5.1655046225
 30
0.0
 10
8.3822431041
 20
5.1652722941
 30
0.0
  0
SPLINE
  5
3FD
100
AcDbEntity
  8
0
100
AcDbSpline
 62
7
  6
CONTINUOUS
 70
0
 71
3
 72
14
 73
10
 74
0
 42
0.0000001
 43
0.0000001
 44
0.0000000001
 40
0.0
 40
0.0
 40
0.0
 40
0.0
 40
0.2489430924
 40
0.4981170345
 40
0.6232932657
 40
0.7486503032
 40
0.8741669486
 40
0.937081476
 40
1.0
 40
1.0
 40
1.0
 40
1.0
 10
8.3668161413
 20
5.1725390225
 30
0.0
 10
8.3677179188
 20
5.1723608525
 30
0.0
 10
8.3694892635
 20
5.1717964303
 30
0.0
 10
8.3714526099
 20
5.1705262906
 30
0.0
 10
8.372714549
 20
5.1691678067
 30
0.0
 10
8.3734575454
 20
5.1679839798
 30
0.0
 10
8.373856858
 20
5.1668851354
 30
0.0
 10
8.3740199584
 20
5.165969755
 30
0.0
 10
8.3740475374
 20
5.1655046177
 30
0.0
 10
8.3740475374
 20
5.1652722941
 30
0.0
  0
SPLINE
  5
3FE
100
AcDbEntity
  8
0
100
AcDbSpline
 62
7
  6
CONTINUOUS
 70
0
 71
3
 72
15
 73
11
 74
0
 42
0.0000001
 43
0.0000001
 44
0.0000000001
 40
0.0
 40
0.0
 40
0.0
 40
0.0
 40
0.2479059873
 40
0.3724001194
 40
0.4971889066
 40
0.6223314515
 40
0.7478529072
 40
0.8737141408
 40
0.9368476033
 40
1.0
 40
1.0
 40
1.0
 40
1.0
 10
8.3582701429
 20
5.1725390225
 30
0.0
 10
8.3591645139
 20
5.1723607604
 30
0.0
 10
8.3604861285
 20
5.1719346878
 30
0.0
 10
8.3620847078
 20
5.1710363967
 30
0.0
 10
8.363177463
 20
5.170188267
 30
0.0
 10
8.3641178349
 20
5.169166868
 30
0.0
 10
8.3648540118
 20
5.1679830704
 30
0.0
 10
8.3652495056
 20
5.1668847418
 30
0.0
 10
8.3654111085
 20
5.1659696715
 30
0.0
 10
8.3654384393
 20
5.1655046106
 30
0.0
 10
8.3654384393
 20
5.1652722941
 30
0.0
  0
LINE
  5
3FF
100
AcDbEntity
  8
0
100
AcDbLine
 62
7
  6
CONTINUOUS
 10
8.3581426974
 20
5.1652722941
 11
8.3582701429
 21
5.1725390225
  0
SPLINE
  5
400
100
AcDbEntity
  8
0
100
AcDbSpline
 62
7
  6
CONTINUOUS
 70
0
 71
3
 72
14
 73
10
 74
0
 42
0.0000001
 43
0.0000001
 44
0.0000000001
 40
0.0
 40
0.0
 40
0.0
 40
0.0
 40
0.246809034
 40
0.3709619304
 40
0.495607784
 40
0.6208478066
 40
0.7467282855
 40
0.8731853432
 40
1.0
 40
1.0
 40
1.0
 40
1.0
 10
8.3493584446
 20
5.172537025
 30
0.0
 10
8.3502421556
 20
5.1723580321
 30
0.0
 10
8.3515479911
 20
5.171930644
 30
0.0
 10
8.353125333
 20
5.1710322267
 30
0.0
 10
8.3542040275
 20
5.1701838343
 30
0.0
 10
8.3551320195
 20
5.1691627038
 30
0.0
 10
8.3558581943
 20
5.16797914
 30
0.0
 10
8.3563260895
 20
5.1666642801
 30
0.0
 10
8.3564342829
 20
5.1657355802
 30
0.0
 10
8.3564342829
 20
5.1652722941
 30
0.0
  0
SPLINE
  5
401
100
AcDbEntity
  8
0
100
AcDbSpline
 62
7
  6
CONTINUOUS
 70
0
 71
3
 72
16
 73
12
 74
0
 42
0.0000001
 43
0.0000001
 44
0.0000000001
 40
0.0
 40
0.0
 40
0.0
 40
0.0
 40
0.3683373108
 40
0.5299587653
 40
0.6698632148
 40
0.7864926972
 40
0.8798424868
 40
0.9180044136
 40
0.9506556461
 40
0.9779374865
 40
1.0
 40
1.0
 40
1.0
 40
1.0
 10
8.3488497486
 20
5.1652722941
 30
0.0
 10
8.3488497486
 20
5.1661683226
 30
0.0
 10
8.3488695013
 20
5.1674577089
 30
0.0
 10
8.3489393418
 20
5.1690858132
 30
0.0
 10
8.3490038457
 20
5.1701010811
 30
0.0
 10
8.3490790247
 20
5.1709489776
 30
0.0
 10
8.3491516921
 20
5.171548421
 30
0.0
 10
8.3492149371
 20
5.1719427755
 30
0.0
 10
8.3492601472
 20
5.1721771421
 30
0.0
 10
8.3493060717
 20
5.1723713046
 30
0.0
 10
8.3493404923
 20
5.1724864466
 30
0.0
 10
8.3493584446
 20
5.172537025
 30
0.0
  0
SPLINE
  5
402
100
AcDbEntity
  8
0
100
AcDbSpline
 62
7
  6
CONTINUOUS
 70
0
 71
3
 72
15
 73
11
 74
0
 42
0.0000001
 43
0.0000001
 44
0.0000000001
 40
0.0
 40
0.0
 40
0.0
 40
0.0
 40
0.1226696189
 40
0.2457372987
 40
0.3693693255
 40
0.4937429355
 40
0.6190116164
 40
0.7452472879
 40
0.8723544215
 40
1.0
 40
1.0
 40
1.0
 40
1.0
 10
8.340091725
 20
5.1725390225
 30
0.0
 10
8.3405282317
 20
5.1724497161
 30
0.0
 10
8.3413930164
 20
5.1722185908
 30
0.0
 10
8.342638725
 20
5.1717107634
 30
0.0
 10
8.3438101415
 20
5.1710349711
 30
0.0
 10
8.3448745848
 20
5.1701862306
 30
0.0
 10
8.3457905273
 20
5.169164357
 30
0.0
 10
8.3465069973
 20
5.1679800131
 30
0.0
 10
8.3469684632
 20
5.1666645566
 30
0.0
 10
8.3470751053
 20
5.165735916
 30
0.0
 10
8.3470751053
 20
5.1652722941
 30
0.0
  0
SPLINE
  5
403
100
AcDbEntity
  8
0
100
AcDbSpline
 62
7
  6
CONTINUOUS
 70
0
 71
3
 72
17
 73
13
 74
0
 42
0.0000001
 43
0.0000001
 44
0.0000000001
 40
0.0
 40
0.0
 40
0.0
 40
0.0
 40
0.1876094322
 40
0.3653563033
 40
0.5258860664
 40
0.6651372783
 40
0.7816587608
 40
0.8755743336
 40
0.9143383815
 40
0.9478540637
 40
0.9763254895
 40
1.0
 40
1.0
 40
1.0
 40
1.0
 10
8.3392017786
 20
5.1652722941
 30
0.0
 10
8.3392017786
 20
5.1657329776
 30
0.0
 10
8.3392145958
 20
5.1666301834
 30
0.0
 10
8.3392707972
 20
5.1679204874
 30
0.0
 10
8.3393586909
 20
5.1690899908
 30
0.0
 10
8.3394716529
 20
5.1701062614
 30
0.0
 10
8.3396033816
 20
5.1709550424
 30
0.0
 10
8.3397306869
 20
5.1715541588
 30
0.0
 10
8.3398411117
 20
5.1719471756
 30
0.0
 10
8.3399204327
 20
5.1721816787
 30
0.0
 10
8.3400011563
 20
5.1723760973
 30
0.0
 10
8.3400609893
 20
5.1724896782
 30
0.0
 10
8.340091725
 20
5.1725390225
 30
0.0
  0
SPLINE
  5
404
100
AcDbEntity
  8
0
100
AcDbSpline
 62
7
  6
CONTINUOUS
 70
0
 71
3
 72
15
 73
11
 74
0
 42
0.0000001
 43
0.0000001
 44
0.0000000001
 40
0.0
 40
0.0
 40
0.0
 40
0.0
 40
0.1217214474
 40
0.2440037157
 40
0.3670818061
 40
0.4912035139
 40
0.6165836675
 40
0.7433226308
 40
0.871284741
 40
1.0
 40
1.0
 40
1.0
 40
1.0
 10
8.3305091313
 20
5.1725390225
 30
0.0
 10
8.3309382621
 20
5.1724496731
 30
0.0
 10
8.3317886733
 20
5.1722183108
 30
0.0
 10
8.3330130304
 20
5.1717102091
 30
0.0
 10
8.3341643246
 20
5.1710340407
 30
0.0
 10
8.3352103509
 20
5.1701848653
 30
0.0
 10
8.3361102029
 20
5.1691626292
 30
0.0
 10
8.3368137556
 20
5.1679782675
 30
0.0
 10
8.3372666245
 20
5.1666633864
 30
0.0
 10
8.3373712021
 20
5.1657358136
 30
0.0
 10
8.3373712021
 20
5.1652722941
 30
0.0
  0
SPLINE
  5
405
100
AcDbEntity
  8
0
100
AcDbSpline
 62
7
  6
CONTINUOUS
 70
0
 71
3
 72
17
 73
13
 74
0
 42
0.0000001
 43
0.0000001
 44
0.0000000001
 40
0.0
 40
0.0
 40
0.0
 40
0.0
 40
0.1851763918
 40
0.3607761839
 40
0.519681642
 40
0.6580096398
 40
0.7744580978
 40
0.8693204198
 40
0.9090237366
 40
0.9438467565
 40
0.974060028
 40
1.0
 40
1.0
 40
1.0
 40
1.0
 10
8.3292410719
 20
5.1652722941
 30
0.0
 10
8.3292410719
 20
5.1657330277
 30
0.0
 10
8.3292593526
 20
5.1666307831
 30
0.0
 10
8.3293395095
 20
5.1679216906
 30
0.0
 10
8.3294648832
 20
5.1690918676
 30
0.0
 10
8.3296261121
 20
5.1701089928
 30
0.0
 10
8.3298142315
 20
5.1709588974
 30
0.0
 10
8.3299959338
 20
5.1715575366
 30
0.0
 10
8.3301528155
 20
5.1719489714
 30
0.0
 10
8.3302662239
 20
5.1721838973
 30
0.0
 10
8.3303818503
 20
5.172378842
 30
0.0
 10
8.3304662895
 20
5.1724907516
 30
0.0
 10
8.3305091313
 20
5.1725390225
 30
0.0
  0
SPLINE
  5
406
100
AcDbEntity
  8
0
100
AcDbSpline
 62
7
  6
CONTINUOUS
 70
0
 71
3
 72
15
 73
11
 74
0
 42
0.0000001
 43
0.0000001
 44
0.0000000001
 40
0.0
 40
0.0
 40
0.0
 40
0.0
 40
0.1206019619
 40
0.2419591929
 40
0.3643877654
 40
0.4882177063
 40
0.6137339622
 40
0.7410674077
 40
0.8700328867
 40
1.0
 40
1.0
 40
1.0
 40
1.0
 10
8.3206323419
 20
5.1725390225
 30
0.0
 10
8.3210529571
 20
5.1724496206
 30
0.0
 10
8.3218867741
 20
5.1722179706
 30
0.0
 10
8.3230864633
 20
5.1717095405
 30
0.0
 10
8.3242145004
 20
5.1710329292
 30
0.0
 10
8.325239233
 20
5.1701832538
 30
0.0
 10
8.3261204831
 20
5.1691606179
 30
0.0
 10
8.3268091203
 20
5.1679762633
 30
0.0
 10
8.3272520878
 20
5.1666620572
 30
0.0
 10
8.3273542947
 20
5.1657356974
 30
0.0
 10
8.3273542947
 20
5.1652722941
 30
0.0
  0
SPLINE
  5
407
100
AcDbEntity
  8
0
100
AcDbSpline
 62
7
  6
CONTINUOUS
 70
0
 71
3
 72
17
 73
13
 74
0
 42
0.0000001
 43
0.0000001
 44
0.0000000001
 40
0.0
 40
0.0
 40
0.0
 40
0.0
 40
0.1821814426
 40
0.355148698
 40
0.5120833683
 40
0.6493254999
 40
0.7657536183
 40
0.8618528043
 40
0.9027322181
 40
0.9391556621
 40
0.9714468007
 40
1.0
 40
1.0
 40
1.0
 40
1.0
 10
8.3189896451
 20
5.1652722941
 30
0.0
 10
8.3189896451
 20
5.1657330946
 30
0.0
 10
8.3190133581
 20
5.1666315841
 30
0.0
 10
8.319117328
 20
5.1679232862
 30
0.0
 10
8.3192799764
 20
5.1690943321
 30
0.0
 10
8.3194892772
 20
5.1701124978
 30
0.0
 10
8.3197336585
 20
5.1709637147
 30
0.0
 10
8.3199693996
 20
5.1715614824
 30
0.0
 10
8.3201718749
 20
5.1719509599
 30
0.0
 10
8.3203192298
 20
5.1721861893
 30
0.0
 10
8.3204696345
 20
5.1723814138
 30
0.0
 10
8.3205778488
 20
5.1724916266
 30
0.0
 10
8.3206323419
 20
5.1725390225
 30
0.0
  0
SPLINE
  5
408
100
AcDbEntity
  8
0
100
AcDbSpline
 62
7
  6
CONTINUOUS
 70
0
 71
3
 72
16
 73
12
 74
0
 42
0.0000001
 43
0.0000001
 44
0.0000000001
 40
0.0
 40
0.0
 40
0.0
 40
0.0
 40
0.1192827682
 40
0.2395493847
 40
0.3612097856
 40
0.4846878008
 40
0.610346501
 40
0.7383480373
 40
0.8032579452
 40
0.8686176898
 40
1.0
 40
1.0
 40
1.0
 40
1.0
 10
8.3104884283
 20
5.1725390225
 30
0.0
 10
8.3108994133
 20
5.1724495574
 30
0.0
 10
8.3117144643
 20
5.1722175631
 30
0.0
 10
8.3128862343
 20
5.1717087429
 30
0.0
 10
8.3139879315
 20
5.1710316307
 30
0.0
 10
8.3149885586
 20
5.1701813521
 30
0.0
 10
8.3158486775
 20
5.1691584507
 30
0.0
 10
8.3164065308
 20
5.1681748075
 30
0.0
 10
8.3167343213
 20
5.1673235837
 30
0.0
 10
8.3169767594
 20
5.1664321915
 30
0.0
 10
8.3170518388
 20
5.1657355689
 30
0.0
 10
8.3170518388
 20
5.1652722941
 30
0.0
  0
SPLINE
  5
409
100
AcDbEntity
  8
0
100
AcDbSpline
 62
7
  6
CONTINUOUS
 70
0
 71
3
 72
16
 73
12
 74
0
 42
0.0000001
 43
0.0000001
 44
0.0000000001
 40
0.0
 40
0.0
 40
0.0
 40
0.0
 40
0.1788132923
 40
0.3488349585
 40
0.5035944687
 40
0.6396875409
 40
0.7561907
 40
0.8537805734
 40
0.896012487
 40
0.9342322584
 40
1.0
 40
1.0
 40
1.0
 40
1.0
 10
8.3084755967
 20
5.1652722941
 30
0.0
 10
8.3084755967
 20
5.1657331776
 30
0.0
 10
8.3085047011
 20
5.1666325772
 30
0.0
 10
8.3086322934
 20
5.1679252461
 30
0.0
 10
8.3088319416
 20
5.1690973224
 30
0.0
 10
8.3090890061
 20
5.1701166259
 30
0.0
 10
8.3093894165
 20
5.1709692266
 30
0.0
 10
8.3096785057
 20
5.1715655958
 30
0.0
 10
8.3099256393
 20
5.1719530174
 30
0.0
 10
8.310155386
 20
5.1722518334
 30
0.0
 10
8.3103501983
 20
5.1724409037
 30
0.0
 10
8.3104884283
 20
5.1725390225
 30
0.0
  0
SPLINE
  5
40A
100
AcDbEntity
  8
0
100
AcDbSpline
 62
7
  6
CONTINUOUS
 70
0
 71
3
 72
16
 73
12
 74
0
 42
0.0000001
 43
0.0000001
 44
0.0000000001
 40
0.0
 40
0.0
 40
0.0
 40
0.0
 40
0.1177962088
 40
0.2368424294
 40
0.3576559043
 40
0.480765814
 40
0.6066205287
 40
0.7354127835
 40
0.8009212832
 40
0.8669900843
 40
1.0
 40
1.0
 40
1.0
 40
1.0
 10
8.3001051944
 20
5.1725390225
 30
0.0
 10
8.3005054632
 20
5.1724494818
 30
0.0
 10
8.3012996324
 20
5.172217077
 30
0.0
 10
8.3024403011
 20
5.1717078057
 30
0.0
 10
8.3035126472
 20
5.1710301104
 30
0.0
 10
8.3044863779
 20
5.1701792178
 30
0.0
 10
8.305323017
 20
5.169155867
 30
0.0
 10
8.3058647281
 20
5.1681733234
 30
0.0
 10
8.3061832626
 20
5.1673230585
 30
0.0
 10
8.3064191783
 20
5.1664313584
 30
0.0
 10
8.3064920727
 20
5.1657354293
 30
0.0
 10
8.3064920727
 20
5.1652722941
 30
0.0
  0
SPLINE
  5
40B
100
AcDbEntity
  8
0
100
AcDbSpline
 62
7
  6
CONTINUOUS
 70
0
 71
3
 72
15
 73
11
 74
0
 42
0.0000001
 43
0.0000001
 44
0.0000000001
 40
0.0
 40
0.0
 40
0.0
 40
0.0
 40
0.1751887102
 40
0.3420556415
 40
0.4945149849
 40
0.6294396242
 40
0.7461085532
 40
0.8453714603
 40
0.9290926626
 40
1.0
 40
1.0
 40
1.0
 40
1.0
 10
8.297727745
 20
5.1652722941
 30
0.0
 10
8.297727745
 20
5.1657332758
 30
0.0
 10
8.297762189
 20
5.1666337509
 30
0.0
 10
8.2979131651
 20
5.1679275365
 30
0.0
 10
8.2981494513
 20
5.169100768
 30
0.0
 10
8.2984538638
 20
5.1701212122
 30
0.0
 10
8.2988098341
 20
5.1709751845
 30
0.0
 10
8.2992041064
 20
5.171661138
 30
0.0
 10
8.2996262557
 20
5.172183017
 30
0.0
 10
8.2999452699
 20
5.1724429141
 30
0.0
 10
8.3001051944
 20
5.1725390225
 30
0.0
  0
SPLINE
  5
40C
100
AcDbEntity
  8
0
100
AcDbSpline
 62
7
  6
CONTINUOUS
 70
0
 71
3
 72
16
 73
12
 74
0
 42
0.0000001
 43
0.0000001
 44
0.0000000001
 40
0.0
 40
0.0
 40
0.0
 40
0.0
 40
0.1161112311
 40
0.2337822844
 40
0.3536505671
 40
0.4763603806
 40
0.6024495544
 40
0.7321371465
 40
0.7983168191
 40
0.8651776036
 40
1.0
 40
1.0
 40
1.0
 40
1.0
 10
8.2895135113
 20
5.172537025
 30
0.0
 10
8.2899015946
 20
5.1724470889
 30
0.0
 10
8.290671964
 20
5.1722136715
 30
0.0
 10
8.2917770802
 20
5.171703364
 30
0.0
 10
8.292815762
 20
5.1710247827
 30
0.0
 10
8.2937585469
 20
5.1701733062
 30
0.0
 10
8.2945681102
 20
5.1691499218
 30
0.0
 10
8.2950912755
 20
5.1681692508
 30
0.0
 10
8.2953991425
 20
5.1673206818
 30
0.0
 10
8.2956274841
 20
5.1664294096
 30
0.0
 10
8.2956978643
 20
5.1657348586
 30
0.0
 10
8.2956978643
 20
5.1652722941
 30
0.0
  0
SPLINE
  5
40D
100
AcDbEntity
  8
0
100
AcDbSpline
 62
7
  6
CONTINUOUS
 70
0
 71
3
 72
15
 73
11
 74
0
 42
0.0000001
 43
0.0000001
 44
0.0000000001
 40
0.0
 40
0.0
 40
0.0
 40
0.0
 40
0.1713527259
 40
0.3349043202
 40
0.4849879187
 40
0.6187651204
 40
0.7357062809
 40
0.8367962744
 40
0.9239887608
 40
1.0
 40
1.0
 40
1.0
 40
1.0
 10
8.2867817095
 20
5.1652722941
 30
0.0
 10
8.2867817095
 20
5.1657329717
 30
0.0
 10
8.2868213625
 20
5.166633893
 30
0.0
 10
8.2869951329
 20
5.1679278987
 30
0.0
 10
8.2872671753
 20
5.1691015914
 30
0.0
 10
8.2876178184
 20
5.1701227519
 30
0.0
 10
8.2880281668
 20
5.1709776579
 30
0.0
 10
8.2884829806
 20
5.1716644777
 30
0.0
 10
8.288970265
 20
5.1721866129
 30
0.0
 10
8.289332549
 20
5.1724420865
 30
0.0
 10
8.2895135113
 20
5.172537025
 30
0.0
  0
SPLINE
  5
40E
100
AcDbEntity
  8
0
100
AcDbSpline
 62
7
  6
CONTINUOUS
 70
0
 71
3
 72
17
 73
13
 74
0
 42
0.0000001
 43
0.0000001
 44
0.0000000001
 40
0.0
 40
0.0
 40
0.0
 40
0.0
 40
0.1142030212
 40
0.2303163545
 40
0.349113944
 40
0.4098131998
 40
0.4714685392
 40
0.5978149633
 40
0.7284976201
 40
0.795423572
 40
0.8631646586
 40
1.0
 40
1.0
 40
1.0
 40
1.0
 10
8.2787351825
 20
5.1725390225
 30
0.0
 10
8.2791108923
 20
5.1724492846
 30
0.0
 10
8.2798572208
 20
5.1722158005
 30
0.0
 10
8.2809263788
 20
5.1717054948
 30
0.0
 10
8.2817583454
 20
5.1711431845
 30
0.0
 10
8.2823767177
 20
5.170610112
 30
0.0
 10
8.2829680193
 20
5.1700106547
 30
0.0
 10
8.2836259522
 20
5.1691497991
 30
0.0
 10
8.2841307185
 20
5.1681699874
 30
0.0
 10
8.2844281356
 20
5.1673218864
 30
0.0
 10
8.2846490788
 20
5.1664295232
 30
0.0
 10
8.2847170102
 20
5.1657351233
 30
0.0
 10
8.2847170102
 20
5.1652722941
 30
0.0
  0
SPLINE
  5
40F
100
AcDbEntity
  8
0
100
AcDbSpline
 62
7
  6
CONTINUOUS
 70
0
 71
3
 72
15
 73
11
 74
0
 42
0.0000001
 43
0.0000001
 44
0.0000000001
 40
0.0
 40
0.0
 40
0.0
 40
0.0
 40
0.1676078136
 40
0.3279258826
 40
0.4757038055
 40
0.6083926568
 40
0.7256477382
 40
0.8285647216
 40
0.9191365633
 40
1.0
 40
1.0
 40
1.0
 40
1.0
 10
8.2756490282
 20
5.1652722941
 30
0.0
 10
8.2756490282
 20
5.1657335133
 30
0.0
 10
8.2756939539
 20
5.1666365793
 30
0.0
 10
8.2758907617
 20
5.1679329708
 30
0.0
 10
8.2761988883
 20
5.1691086549
 30
0.0
 10
8.2765960985
 20
5.1701312911
 30
0.0
 10
8.2770610748
 20
5.1709870717
 30
0.0
 10
8.2775764622
 20
5.17167391
 30
0.0
 10
8.2781284398
 20
5.1721948024
 30
0.0
 10
8.2785332542
 20
5.1724455386
 30
0.0
 10
8.2787351825
 20
5.1725390225
 30
0.0
  0
SPLINE
  5
410
100
AcDbEntity
  8
0
100
AcDbSpline
 62
7
  6
CONTINUOUS
 70
0
 71
3
 72
17
 73
13
 74
0
 42
0.0000001
 43
0.0000001
 44
0.0000000001
 40
0.0
 40
0.0
 40
0.0
 40
0.0
 40
0.1120836996
 40
0.2264818007
 40
0.3441184756
 40
0.404489159
 40
0.4660030856
 40
0.5926682143
 40
0.7244748693
 40
0.7922312462
 40
0.8609465052
 40
1.0
 40
1.0
 40
1.0
 40
1.0
 10
8.2678069782
 20
5.1725390225
 30
0.0
 10
8.2681689195
 20
5.1724491568
 30
0.0
 10
8.2688884095
 20
5.1722149943
 30
0.0
 10
8.2699174256
 20
5.1717040042
 30
0.0
 10
8.2707167671
 20
5.1711418747
 30
0.0
 10
8.2713107581
 20
5.1706094488
 30
0.0
 10
8.271880474
 20
5.1700088932
 30
0.0
 10
8.272513867
 20
5.1691464022
 30
0.0
 10
8.272998067
 20
5.1681681515
 30
0.0
 10
8.2732836871
 20
5.1673212518
 30
0.0
 10
8.2734962243
 20
5.1664285392
 30
0.0
 10
8.2735613978
 20
5.1657349601
 30
0.0
 10
8.2735613978
 20
5.1652722941
 30
0.0
  0
SPLINE
  5
411
100
AcDbEntity
  8
0
100
AcDbSpline
 62
7
  6
CONTINUOUS
 70
0
 71
3
 72
15
 73
11
 74
0
 42
0.0000001
 43
0.0000001
 44
0.0000000001
 40
0.0
 40
0.0
 40
0.0
 40
0.0
 40
0.1638333155
 40
0.3209172663
 40
0.466432624
 40
0.5981146095
 40
0.7157778605
 40
0.8205824496
 40
0.9144945145
 40
1.0
 40
1.0
 40
1.0
 40
1.0
 10
8.2643786794
 20
5.1652722941
 30
0.0
 10
8.2643786794
 20
5.16573365
 30
0.0
 10
8.2644287229
 20
5.1666382019
 30
0.0
 10
8.2646478667
 20
5.1679360277
 30
0.0
 10
8.2649909835
 20
5.1691129395
 30
0.0
 10
8.2654333421
 20
5.1701364816
 30
0.0
 10
8.2659512195
 20
5.1709927334
 30
0.0
 10
8.2665250997
 20
5.1716793717
 30
0.0
 10
8.2671392376
 20
5.1721991527
 30
0.0
 10
8.2675847228
 20
5.1724463969
 30
0.0
 10
8.2678069782
 20
5.1725390225
 30
0.0
  0
SPLINE
  5
412
100
AcDbEntity
  8
0
100
AcDbSpline
 62
7
  6
CONTINUOUS
 70
0
 71
3
 72
16
 73
12
 74
0
 42
0.0000001
 43
0.0000001
 44
0.0000000001
 40
0.0
 40
0.0
 40
0.0
 40
0.0
 40
0.1097384068
 40
0.222252876
 40
0.3386326506
 40
0.4599318672
 40
0.5869807118
 40
0.7200472701
 40
0.7887229307
 40
0.8585115759
 40
1.0
 40
1.0
 40
1.0
 40
1.0
 10
8.2567564405
 20
5.1725390225
 30
0.0
 10
8.2571036757
 20
5.172449004
 30
0.0
 10
8.2577944744
 20
5.1722140563
 30
0.0
 10
8.258780594
 20
5.1717022075
 30
0.0
 10
8.2597068324
 20
5.1710214762
 30
0.0
 10
8.2605465668
 20
5.1701677743
 30
0.0
 10
8.2612664357
 20
5.1691428346
 30
0.0
 10
8.2617288388
 20
5.1681662165
 30
0.0
 10
8.2620018839
 20
5.1673205941
 30
0.0
 10
8.2622054342
 20
5.1664275237
 30
0.0
 10
8.2622676794
 20
5.1657347927
 30
0.0
 10
8.2622676794
 20
5.1652722941
 30
0.0
  0
SPLINE
  5
413
100
AcDbEntity
  8
0
100
AcDbSpline
 62
7
  6
CONTINUOUS
 70
0
 71
3
 72
15
 73
11
 74
0
 42
0.0000001
 43
0.0000001
 44
0.0000000001
 40
0.0
 40
0.0
 40
0.0
 40
0.0
 40
0.1601487669
 40
0.3140932072
 40
0.4574439387
 40
0.5882086909
 40
0.7063369326
 40
0.8130153008
 40
0.9101369866
 40
1.0
 40
1.0
 40
1.0
 40
1.0
 10
8.2529953939
 20
5.1652722941
 30
0.0
 10
8.2529953939
 20
5.1657337966
 30
0.0
 10
8.2530504562
 20
5.166639939
 30
0.0
 10
8.2532914682
 20
5.1679392519
 30
0.0
 10
8.2536688089
 20
5.1691173447
 30
0.0
 10
8.2541552567
 20
5.1701416205
 30
0.0
 10
8.2547246622
 20
5.170998058
 30
0.0
 10
8.2553553157
 20
5.1716841823
 30
0.0
 10
8.2560295537
 20
5.1722026994
 30
0.0
 10
8.2565143601
 20
5.1724470606
 30
0.0
 10
8.2567564405
 20
5.1725390225
 30
0.0
  0
SPLINE
  5
414
100
AcDbEntity
  8
0
100
AcDbSpline
 62
7
  6
CONTINUOUS
 70
0
 71
3
 72
16
 73
12
 74
0
 42
0.0000001
 43
0.0000001
 44
0.0000000001
 40
0.0
 40
0.0
 40
0.0
 40
0.0
 40
0.1071306407
 40
0.2175634524
 40
0.3325670292
 40
0.4533461602
 40
0.5808249824
 40
0.715266327
 40
0.7849382971
 40
0.8558868763
 40
1.0
 40
1.0
 40
1.0
 40
1.0
 10
8.245613858
 20
5.1725390225
 30
0.0
 10
8.245945495
 20
5.1724488204
 30
0.0
 10
8.2466058659
 20
5.1722129198
 30
0.0
 10
8.2475462724
 20
5.1717001975
 30
0.0
 10
8.2484292161
 20
5.171018552
 30
0.0
 10
8.2492292395
 20
5.1701641427
 30
0.0
 10
8.2499146042
 20
5.1691389655
 30
0.0
 10
8.2503538874
 20
5.1681642195
 30
0.0
 10
8.250613649
 20
5.1673199161
 30
0.0
 10
8.25080765
 20
5.1664264898
 30
0.0
 10
8.2508668105
 20
5.1657346226
 30
0.0
 10
8.2508668105
 20
5.1652722941
 30
0.0
  0
SPLINE
  5
415
100
AcDbEntity
  8
0
100
AcDbSpline
 62
7
  6
CONTINUOUS
 70
0
 71
3
 72
15
 73
11
 74
0
 42
0.0000001
 43
0.0000001
 44
0.0000000001
 40
0.0
 40
0.0
 40
0.0
 40
0.0
 40
0.1565944623
 40
0.307527265
 40
0.4488314685
 40
0.5787713924
 40
0.6974056196
 40
0.8059136719
 40
0.906081553
 40
1.0
 40
1.0
 40
1.0
 40
1.0
 10
8.2415303724
 20
5.1652722941
 30
0.0
 10
8.2415303724
 20
5.1657339516
 30
0.0
 10
8.2415903412
 20
5.1666417708
 30
0.0
 10
8.2418526898
 20
5.1679425985
 30
0.0
 10
8.2422633732
 20
5.169121797
 30
0.0
 10
8.2427926832
 20
5.1701466203
 30
0.0
 10
8.2434120378
 20
5.1710029876
 30
0.0
 10
8.2440975494
 20
5.1716883774
 30
0.0
 10
8.2448297211
 20
5.1722055971
 30
0.0
 10
8.2453525116
 20
5.1724475811
 30
0.0
 10
8.245613858
 20
5.1725390225
 30
0.0
  0
SPLINE
  5
416
100
AcDbEntity
  8
0
100
AcDbSpline
 62
7
  6
CONTINUOUS
 70
0
 71
3
 72
15
 73
11
 74
0
 42
0.0000001
 43
0.0000001
 44
0.0000000001
 40
0.0
 40
0.0
 40
0.0
 40
0.0
 40
0.1042693319
 40
0.2124407285
 40
0.3259756519
 40
0.4462325329
 40
0.5742222919
 40
0.7101871808
 40
0.8530421867
 40
1.0
 40
1.0
 40
1.0
 40
1.0
 10
8.2344097719
 20
5.1725390225
 30
0.0
 10
8.2347249674
 20
5.1724485983
 30
0.0
 10
8.2353532404
 20
5.172211563
 30
0.0
 10
8.2362452978
 20
5.1716978651
 30
0.0
 10
8.237082421
 20
5.1710152616
 30
0.0
 10
8.237840425
 20
5.1701602143
 30
0.0
 10
8.238489391
 20
5.1691348256
 30
0.0
 10
8.2389936654
 20
5.1679529421
 30
0.0
 10
8.2393161685
 20
5.1666476279
 30
0.0
 10
8.2393900399
 20
5.1657344519
 30
0.0
 10
8.2393900399
 20
5.1652722941
 30
0.0
  0
SPLINE
  5
417
100
AcDbEntity
  8
0
100
AcDbSpline
 62
7
  6
CONTINUOUS
 70
0
 71
3
 72
14
 73
10
 74
0
 42
0.0000001
 43
0.0000001
 44
0.0000000001
 40
0.0
 40
0.0
 40
0.0
 40
0.0
 40
0.3007261528
 40
0.4402225968
 40
0.5695291461
 40
0.6887883394
 40
0.7991451712
 40
0.9022562854
 40
1.0
 40
1.0
 40
1.0
 40
1.0
 10
8.2300150399
 20
5.1652722941
 30
0.0
 10
8.2300150399
 20
5.1661781277
 30
0.0
 10
8.2302010936
 20
5.1675158518
 30
0.0
 10
8.2308058587
 20
5.1691259721
 30
0.0
 10
8.2313766995
 20
5.1701514753
 30
0.0
 10
8.2320442276
 20
5.1710074817
 30
0.0
 10
8.2327825265
 20
5.171692017
 30
0.0
 10
8.2335703727
 20
5.1722079737
 30
0.0
 10
8.234129778
 20
5.1724479948
 30
0.0
 10
8.2344097719
 20
5.1725390225
 30
0.0
  0
SPLINE
  5
418
100
AcDbEntity
  8
0
100
AcDbSpline
 62
7
  6
CONTINUOUS
 70
0
 71
3
 72
15
 73
11
 74
0
 42
0.0000001
 43
0.0000001
 44
0.0000000001
 40
0.0
 40
0.0
 40
0.0
 40
0.0
 40
0.1011215708
 40
0.2068337525
 40
0.3187981634
 40
0.438520978
 40
0.5670834587
 40
0.7046850535
 40
0.8500433628
 40
1.0
 40
1.0
 40
1.0
 40
1.0
 10
8.2231748918
 20
5.172537025
 30
0.0
 10
8.2234725438
 20
5.1724460188
 30
0.0
 10
8.2240664705
 20
5.1722070902
 30
0.0
 10
8.2249066005
 20
5.1716918069
 30
0.0
 10
8.2256944225
 20
5.1710080239
 30
0.0
 10
8.226407209
 20
5.1701524969
 30
0.0
 10
8.2270169914
 20
5.1691275634
 30
0.0
 10
8.2274904815
 20
5.1679472247
 30
0.0
 10
8.227793123
 20
5.1666444279
 30
0.0
 10
8.2278623918
 20
5.1657338777
 30
0.0
 10
8.2278623918
 20
5.1652723091
 30
0.0
  0
SPLINE
  5
419
100
AcDbEntity
  8
0
100
AcDbSpline
 62
7
  6
CONTINUOUS
 70
0
 71
3
 72
15
 73
11
 74
0
 42
0.0000001
 43
0.0000001
 44
0.0000000001
 40
0.0
 40
0.0
 40
0.0
 40
0.0
 40
0.0760111712
 40
0.163203274
 40
0.2642928595
 40
0.3812338079
 40
0.5150106435
 40
0.6650944658
 40
0.828646297
 40
1.0
 40
1.0
 40
1.0
 40
1.0
 10
8.1568362723
 20
5.172537025
 30
0.0
 10
8.1570172344
 20
5.1724420866
 30
0.0
 10
8.1573795175
 20
5.1721866138
 30
0.0
 10
8.1578668005
 20
5.1716644805
 30
0.0
 10
8.1583216136
 20
5.1709776635
 30
0.0
 10
8.1587319616
 20
5.1701227602
 30
0.0
 10
8.159082606
 20
5.1691016012
 30
0.0
 10
8.159354649
 20
5.1679279083
 30
0.0
 10
8.1595284205
 20
5.1666338989
 30
0.0
 10
8.1595680742
 20
5.1657329743
 30
0.0
 10
8.1595680742
 20
5.1652722941
 30
0.0
  0
SPLINE
  5
41A
100
AcDbEntity
  8
0
100
AcDbSpline
 62
7
  6
CONTINUOUS
 70
0
 71
3
 72
16
 73
12
 74
0
 42
0.0000001
 43
0.0000001
 44
0.0000000001
 40
0.0
 40
0.0
 40
0.0
 40
0.0
 40
0.1348216185
 40
0.2016821602
 40
0.2678618416
 40
0.3975491716
 40
0.523638545
 40
0.646348474
 40
0.7662171336
 40
0.8838886717
 40
1.0
 40
1.0
 40
1.0
 40
1.0
 10
8.1506519193
 20
5.1652722941
 30
0.0
 10
8.1506519193
 20
5.165734856
 30
0.0
 10
8.1507222976
 20
5.1664294036
 30
0.0
 10
8.1509506391
 20
5.1673206723
 30
0.0
 10
8.1512585028
 20
5.1681692406
 30
0.0
 10
8.1517816679
 20
5.1691499116
 30
0.0
 10
8.1525912284
 20
5.1701732983
 30
0.0
 10
8.1535340145
 20
5.1710247772
 30
0.0
 10
8.1545726983
 20
5.1717033617
 30
0.0
 10
8.1556778174
 20
5.1722136707
 30
0.0
 10
8.1564481887
 20
5.1724470888
 30
0.0
 10
8.1568362723
 20
5.172537025
 30
0.0
  0
SPLINE
  5
41B
100
AcDbEntity
  8
0
100
AcDbSpline
 62
7
  6
CONTINUOUS
 70
0
 71
3
 72
15
 73
11
 74
0
 42
0.0000001
 43
0.0000001
 44
0.0000000001
 40
0.0
 40
0.0
 40
0.0
 40
0.0
 40
0.0709072728
 40
0.1546281011
 40
0.2538905931
 40
0.3705592983
 40
0.5054835535
 40
0.6579431178
 40
0.8248102887
 40
1.0
 40
1.0
 40
1.0
 40
1.0
 10
8.1462445892
 20
5.1725390225
 30
0.0
 10
8.1464045136
 20
5.1724429142
 30
0.0
 10
8.1467235269
 20
5.1721830179
 30
0.0
 10
8.147145675
 20
5.1716611409
 30
0.0
 10
8.1475399468
 20
5.1709751901
 30
0.0
 10
8.1478959165
 20
5.1701212205
 30
0.0
 10
8.1482003302
 20
5.1691007778
 30
0.0
 10
8.148436617
 20
5.1679275462
 30
0.0
 10
8.148587594
 20
5.1666337568
 30
0.0
 10
8.1486220386
 20
5.1657332785
 30
0.0
 10
8.1486220386
 20
5.1652722941
 30
0.0
  0
SPLINE
  5
41C
100
AcDbEntity
  8
0
100
AcDbSpline
 62
7
  6
CONTINUOUS
 70
0
 71
3
 72
16
 73
12
 74
0
 42
0.0000001
 43
0.0000001
 44
0.0000000001
 40
0.0
 40
0.0
 40
0.0
 40
0.0
 40
0.133009145
 40
0.1990777054
 40
0.2645862108
 40
0.3933782009
 40
0.5192331076
 40
0.6423431288
 40
0.7631569813
 40
0.8822036929
 40
1.0
 40
1.0
 40
1.0
 40
1.0
 10
8.1398577109
 20
5.1652722941
 30
0.0
 10
8.1398577109
 20
5.1657354266
 30
0.0
 10
8.1399306032
 20
5.1664313524
 30
0.0
 10
8.140166519
 20
5.1673230488
 30
0.0
 10
8.1404850501
 20
5.1681733132
 30
0.0
 10
8.1410267608
 20
5.1691558567
 30
0.0
 10
8.1418633971
 20
5.1701792098
 30
0.0
 10
8.142837129
 20
5.1710301049
 30
0.0
 10
8.1439094772
 20
5.1717078034
 30
0.0
 10
8.145050149
 20
5.1722170763
 30
0.0
 10
8.1458443201
 20
5.1724494818
 30
0.0
 10
8.1462445892
 20
5.1725390225
 30
0.0
  0
SPLINE
  5
41D
100
AcDbEntity
  8
0
100
AcDbSpline
 62
7
  6
CONTINUOUS
 70
0
 71
3
 72
16
 73
12
 74
0
 42
0.0000001
 43
0.0000001
 44
0.0000000001
 40
0.0
 40
0.0
 40
0.0
 40
0.0
 40
0.0657676804
 40
0.1039872806
 40
0.1462190003
 40
0.2438084526
 40
0.3603113774
 40
0.4964040494
 40
0.6511637786
 40
0.8211856865
 40
1.0
 40
1.0
 40
1.0
 40
1.0
 10
8.1358613553
 20
5.1725390225
 30
0.0
 10
8.1359995851
 20
5.1724409038
 30
0.0
 10
8.1361943971
 20
5.1722518339
 30
0.0
 10
8.1364241432
 20
5.1719530189
 30
0.0
 10
8.1366712759
 20
5.1715655991
 30
0.0
 10
8.1369603648
 20
5.1709692323
 30
0.0
 10
8.1372607748
 20
5.1701166342
 30
0.0
 10
8.1375178402
 20
5.1690973321
 30
0.0
 10
8.1377174889
 20
5.1679252557
 30
0.0
 10
8.1378450821
 20
5.1666325831
 30
0.0
 10
8.1378741869
 20
5.1657331803
 30
0.0
 10
8.1378741869
 20
5.1652722941
 30
0.0
  0
SPLINE
  5
41E
100
AcDbEntity
  8
0
100
AcDbSpline
 62
7
  6
CONTINUOUS
 70
0
 71
3
 72
16
 73
12
 74
0
 42
0.0000001
 43
0.0000001
 44
0.0000000001
 40
0.0
 40
0.0
 40
0.0
 40
0.0
 40
0.1313815485
 40
0.1967410549
 40
0.2616509657
 40
0.3896522348
 40
0.5153111196
 40
0.6387892426
 40
0.7604500207
 40
0.8807171324
 40
1.0
 40
1.0
 40
1.0
 40
1.0
 10
8.1292979448
 20
5.1652722941
 30
0.0
 10
8.1292979448
 20
5.1657355662
 30
0.0
 10
8.1293730221
 20
5.1664321855
 30
0.0
 10
8.1296154602
 20
5.1673235741
 30
0.0
 10
8.1299432472
 20
5.1681747972
 30
0.0
 10
8.1305011001
 20
5.1691584404
 30
0.0
 10
8.1313612162
 20
5.1701813442
 30
0.0
 10
8.1323618445
 20
5.1710316252
 30
0.0
 10
8.1334635439
 20
5.1717087405
 30
0.0
 10
8.1346353169
 20
5.1722175623
 30
0.0
 10
8.13545037
 20
5.1724495573
 30
0.0
 10
8.1358613553
 20
5.1725390225
 30
0.0
  0
SPLINE
  5
41F
100
AcDbEntity
  8
0
100
AcDbSpline
 62
7
  6
CONTINUOUS
 70
0
 71
3
 72
17
 73
13
 74
0
 42
0.0000001
 43
0.0000001
 44
0.0000000001
 40
0.0
 40
0.0
 40
0.0
 40
0.0
 40
0.0285531995
 40
0.0608442793
 40
0.0972675588
 40
0.1381467811
 40
0.2342455398
 40
0.3506734139
 40
0.4879151305
 40
0.644850018
 40
0.817817517
 40
1.0
 40
1.0
 40
1.0
 40
1.0
 10
8.1257174418
 20
5.1725390225
 30
0.0
 10
8.1257719348
 20
5.1724916266
 30
0.0
 10
8.125880149
 20
5.1723814138
 30
0.0
 10
8.1260305534
 20
5.1721861899
 30
0.0
 10
8.1261779078
 20
5.1719509614
 30
0.0
 10
8.1263803824
 20
5.1715614857
 30
0.0
 10
8.1266161232
 20
5.1709637203
 30
0.0
 10
8.1268605041
 20
5.1701125061
 30
0.0
 10
8.1270698058
 20
5.1690943418
 30
0.0
 10
8.1272324545
 20
5.1679232958
 30
0.0
 10
8.1273364251
 20
5.16663159
 30
0.0
 10
8.1273601386
 20
5.1657330972
 30
0.0
 10
8.1273601386
 20
5.1652722941
 30
0.0
  0
SPLINE
  5
420
100
AcDbEntity
  8
0
100
AcDbSpline
 62
7
  6
CONTINUOUS
 70
0
 71
3
 72
15
 73
11
 74
0
 42
0.0000001
 43
0.0000001
 44
0.0000000001
 40
0.0
 40
0.0
 40
0.0
 40
0.0
 40
0.1299663579
 40
0.2589316078
 40
0.3862647832
 40
0.5117812165
 40
0.635611261
 40
0.7580402094
 40
0.8793979386
 40
1.0
 40
1.0
 40
1.0
 40
1.0
 10
8.1189954889
 20
5.1652722941
 30
0.0
 10
8.1189954889
 20
5.1657356947
 30
0.0
 10
8.1190976941
 20
5.166662051
 30
0.0
 10
8.1195406589
 20
5.1679762534
 30
0.0
 10
8.1202292942
 20
5.1691606076
 30
0.0
 10
8.1211105417
 20
5.1701832458
 30
0.0
 10
8.1221352755
 20
5.1710329237
 30
0.0
 10
8.1232633148
 20
5.1717095382
 30
0.0
 10
8.1244630071
 20
5.1722179698
 30
0.0
 10
8.1252968262
 20
5.1724496205
 30
0.0
 10
8.1257174418
 20
5.1725390225
 30
0.0
  0
SPLINE
  5
421
100
AcDbEntity
  8
0
100
AcDbSpline
 62
7
  6
CONTINUOUS
 70
0
 71
3
 72
17
 73
13
 74
0
 42
0.0000001
 43
0.0000001
 44
0.0000000001
 40
0.0
 40
0.0
 40
0.0
 40
0.0
 40
0.0259399725
 40
0.0561531877
 40
0.0909760502
 40
0.1306791765
 40
0.2255410595
 40
0.3419892695
 40
0.4803168449
 40
0.6392225051
 40
0.8148225467
 40
1.0
 40
1.0
 40
1.0
 40
1.0
 10
8.1158406523
 20
5.1725390225
 30
0.0
 10
8.1158834941
 20
5.1724907516
 30
0.0
 10
8.1159679332
 20
5.1723788421
 30
0.0
 10
8.1160835594
 20
5.1721838979
 30
0.0
 10
8.1161969674
 20
5.1719489729
 30
0.0
 10
8.1163538485
 20
5.17155754
 30
0.0
 10
8.1165355507
 20
5.170958903
 30
0.0
 10
8.1167236698
 20
5.1701090012
 30
0.0
 10
8.1168848993
 20
5.1690918773
 30
0.0
 10
8.1170102733
 20
5.1679217002
 30
0.0
 10
8.1170904307
 20
5.166630789
 30
0.0
 10
8.1171087117
 20
5.1657330303
 30
0.0
 10
8.1171087117
 20
5.1652722941
 30
0.0
  0
SPLINE
  5
422
100
AcDbEntity
  8
0
100
AcDbSpline
 62
7
  6
CONTINUOUS
 70
0
 71
3
 72
15
 73
11
 74
0
 42
0.0000001
 43
0.0000001
 44
0.0000000001
 40
0.0
 40
0.0
 40
0.0
 40
0.0
 40
0.1287145103
 40
0.2566763922
 40
0.3834150847
 40
0.508795409
 40
0.632917217
 40
0.7559956835
 40
0.8782784535
 40
1.0
 40
1.0
 40
1.0
 40
1.0
 10
8.1089785815
 20
5.1652722941
 30
0.0
 10
8.1089785815
 20
5.1657358109
 30
0.0
 10
8.1090831574
 20
5.1666633802
 30
0.0
 10
8.1095360236
 20
5.1679782577
 30
0.0
 10
8.1102395742
 20
5.169162619
 30
0.0
 10
8.1111394236
 20
5.1701848574
 30
0.0
 10
8.1121854511
 20
5.1710340352
 30
0.0
 10
8.1133367475
 20
5.1717102068
 30
0.0
 10
8.1145611079
 20
5.17221831
 30
0.0
 10
8.1154115211
 20
5.172449673
 30
0.0
 10
8.1158406523
 20
5.1725390225
 30
0.0
  0
SPLINE
  5
423
100
AcDbEntity
  8
0
100
AcDbSpline
 62
7
  6
CONTINUOUS
 70
0
 71
3
 72
17
 73
13
 74
0
 42
0.0000001
 43
0.0000001
 44
0.0000000001
 40
0.0
 40
0.0
 40
0.0
 40
0.0
 40
0.0236745115
 40
0.0521458829
 40
0.0856614114
 40
0.1244252711
 40
0.2183404055
 40
0.3348616277
 40
0.4741124012
 40
0.6346423794
 40
0.8123894975
 40
1.0
 40
1.0
 40
1.0
 40
1.0
 10
8.1062580586
 20
5.1725390225
 30
0.0
 10
8.1062887943
 20
5.1724896782
 30
0.0
 10
8.1063486272
 20
5.1723760974
 30
0.0
 10
8.1064293507
 20
5.1721816793
 30
0.0
 10
8.1065086714
 20
5.1719471771
 30
0.0
 10
8.1066190959
 20
5.1715541622
 30
0.0
 10
8.106746401
 20
5.170955048
 30
0.0
 10
8.1068781295
 20
5.1701062699
 30
0.0
 10
8.1069910919
 20
5.1690900005
 30
0.0
 10
8.1070789858
 20
5.167920497
 30
0.0
 10
8.1071351876
 20
5.1666301893
 30
0.0
 10
8.107148005
 20
5.1657329802
 30
0.0
 10
8.107148005
 20
5.1652722941
 30
0.0
  0
SPLINE
  5
424
100
AcDbEntity
  8
0
100
AcDbSpline
 62
7
  6
CONTINUOUS
 70
0
 71
3
 72
15
 73
11
 74
0
 42
0.0000001
 43
0.0000001
 44
0.0000000001
 40
0.0
 40
0.0
 40
0.0
 40
0.0
 40
0.1276448358
 40
0.25475174
 40
0.3809871378
 40
0.5062559856
 40
0.630629694
 40
0.7542620962
 40
0.8773302801
 40
1.0
 40
1.0
 40
1.0
 40
1.0
 10
8.0992746783
 20
5.1652722941
 30
0.0
 10
8.0992746783
 20
5.1657359134
 30
0.0
 10
8.0993813187
 20
5.1666645505
 30
0.0
 10
8.0998427817
 20
5.1679800033
 30
0.0
 10
8.1005592497
 20
5.1691643468
 30
0.0
 10
8.1014751895
 20
5.1701862227
 30
0.0
 10
8.102539634
 20
5.1710349656
 30
0.0
 10
8.1037110529
 20
5.1717107611
 30
0.0
 10
8.1049567648
 20
5.17221859
 30
0.0
 10
8.1058215516
 20
5.1724497161
 30
0.0
 10
8.1062580586
 20
5.1725390225
 30
0.0
  0
SPLINE
  5
425
100
AcDbEntity
  8
0
100
AcDbSpline
 62
7
  6
CONTINUOUS
 70
0
 71
3
 72
16
 73
12
 74
0
 42
0.0000001
 43
0.0000001
 44
0.0000000001
 40
0.0
 40
0.0
 40
0.0
 40
0.0
 40
0.0220625148
 40
0.049344302
 40
0.0819953843
 40
0.1201571241
 40
0.213506473
 40
0.3301356913
 40
0.4700396966
 40
0.6316613663
 40
1.0
 40
1.0
 40
1.0
 40
1.0
 10
8.096991339
 20
5.172537025
 30
0.0
 10
8.0970092913
 20
5.1724864466
 30
0.0
 10
8.0970437118
 20
5.1723713047
 30
0.0
 10
8.0970896363
 20
5.1721771427
 30
0.0
 10
8.0971348462
 20
5.171942777
 30
0.0
 10
8.097198091
 20
5.1715484244
 30
0.0
 10
8.0972707583
 20
5.1709489832
 30
0.0
 10
8.0973459372
 20
5.1701010895
 30
0.0
 10
8.0974104413
 20
5.1690858229
 30
0.0
 10
8.0974802821
 20
5.1674577158
 30
0.0
 10
8.097500035
 20
5.1661683259
 30
0.0
 10
8.097500035
 20
5.1652722941
 30
0.0
  0
SPLINE
  5
426
100
AcDbEntity
  8
0
100
AcDbSpline
 62
7
  6
CONTINUOUS
 70
0
 71
3
 72
14
 73
10
 74
0
 42
0.0000001
 43
0.0000001
 44
0.0000000001
 40
0.0
 40
0.0
 40
0.0
 40
0.0
 40
0.126813921
 40
0.2532707503
 40
0.3791509543
 40
0.5043911402
 40
0.6290370904
 40
0.7531903611
 40
1.0
 40
1.0
 40
1.0
 40
1.0
 10
8.0899155007
 20
5.1652722941
 30
0.0
 10
8.0899155007
 20
5.1657355775
 30
0.0
 10
8.0900236924
 20
5.1666642739
 30
0.0
 10
8.0904915847
 20
5.1679791302
 30
0.0
 10
8.0912177574
 20
5.1691626936
 30
0.0
 10
8.0921457468
 20
5.1701838264
 30
0.0
 10
8.0932244425
 20
5.1710322212
 30
0.0
 10
8.0948017868
 20
5.1719306423
 30
0.0
 10
8.0961076259
 20
5.1723580317
 30
0.0
 10
8.096991339
 20
5.172537025
 30
0.0
  0
LINE
  5
427
100
AcDbEntity
  8
0
100
AcDbLine
 62
7
  6
CONTINUOUS
 10
8.0880796407
 20
5.1725390225
 11
8.0882070862
 21
5.1652722941
  0
SPLINE
  5
428
100
AcDbEntity
  8
0
100
AcDbSpline
 62
7
  6
CONTINUOUS
 70
0
 71
3
 72
15
 73
11
 74
0
 42
0.0000001
 43
0.0000001
 44
0.0000000001
 40
0.0
 40
0.0
 40
0.0
 40
0.0
 40
0.06315223
 40
0.1262851214
 40
0.2521461263
 40
0.3776673065
 40
0.5028100123
 40
0.6275988953
 40
0.7520934034
 40
1.0
 40
1.0
 40
1.0
 40
1.0
 10
8.0809113443
 20
5.1652722941
 30
0.0
 10
8.0809113443
 20
5.16550461
 30
0.0
 10
8.0809386747
 20
5.1659696682
 30
0.0
 10
8.0811002757
 20
5.1668847352
 30
0.0
 10
8.0814957671
 20
5.1679830604
 30
0.0
 10
8.0822319419
 20
5.1691668578
 30
0.0
 10
8.0831723111
 20
5.1701882591
 30
0.0
 10
8.0842650675
 20
5.1710363912
 30
0.0
 10
8.0858636493
 20
5.1719346861
 30
0.0
 10
8.0871852675
 20
5.1723607599
 30
0.0
 10
8.0880796407
 20
5.1725390225
 30
0.0
  0
SPLINE
  5
429
100
AcDbEntity
  8
0
100
AcDbSpline
 62
7
  6
CONTINUOUS
 70
0
 71
3
 72
14
 73
10
 74
0
 42
0.0000001
 43
0.0000001
 44
0.0000000001
 40
0.0
 40
0.0
 40
0.0
 40
0.0
 40
0.0629183581
 40
0.1258323166
 40
0.2513487334
 40
0.3767054947
 40
0.5018818849
 40
0.7510562954
 40
1.0
 40
1.0
 40
1.0
 40
1.0
 10
8.0723022462
 20
5.1652722941
 30
0.0
 10
8.0723022462
 20
5.1655046171
 30
0.0
 10
8.0723298248
 20
5.1659697517
 30
0.0
 10
8.0724929234
 20
5.1668851288
 30
0.0
 10
8.0728922335
 20
5.1679839699
 30
0.0
 10
8.0736352277
 20
5.1691677965
 30
0.0
 10
8.0748971644
 20
5.1705262845
 30
0.0
 10
8.0768605142
 20
5.1717964281
 30
0.0
 10
8.0786318626
 20
5.172360852
 30
0.0
 10
8.0795336423
 20
5.1725390225
 30
0.0
  0
SPLINE
  5
42A
100
AcDbEntity
  8
0
100
AcDbSpline
 62
7
  6
CONTINUOUS
 70
0
 71
3
 72
14
 73
10
 74
0
 42
0.0000001
 43
0.0000001
 44
0.0000000001
 40
0.0
 40
0.0
 40
0.0
 40
0.0
 40
0.0627290311
 40
0.1254639144
 40
0.2506862709
 40
0.3758723359
 40
0.5010133325
 40
0.7504675553
 40
1.0
 40
1.0
 40
1.0
 40
1.0
 10
8.0641066795
 20
5.1652722941
 30
0.0
 10
8.0641066795
 20
5.1655046219
 30
0.0
 10
8.0641344289
 20
5.1659698097
 30
0.0
 10
8.0642985534
 20
5.166885399
 30
0.0
 10
8.0647005039
 20
5.1679846059
 30
0.0
 10
8.0654481053
 20
5.169168398
 30
0.0
 10
8.0667182655
 20
5.170527324
 30
0.0
 10
8.0686938565
 20
5.1717970996
 30
0.0
 10
8.070474493
 20
5.1723609139
 30
0.0
 10
8.0713813546
 20
5.1725390225
 30
0.0
  0
SPLINE
  5
42B
100
AcDbEntity
  8
0
100
AcDbSpline
 62
7
  6
CONTINUOUS
 70
0
 71
3
 72
16
 73
12
 74
0
 42
0.0000001
 43
0.0000001
 44
0.0000000001
 40
0.0
 40
0.0
 40
0.0
 40
0.0
 40
0.062555374
 40
0.1251221143
 40
0.2500429646
 40
0.3749938902
 40
0.4999724276
 40
0.6249681132
 40
0.7499736695
 40
0.8749863402
 40
1.0
 40
1.0
 40
1.0
 40
1.0
 10
8.0563471077
 20
5.1652722941
 30
0.0
 10
8.0563471077
 20
5.1655046245
 30
0.0
 10
8.0563749498
 20
5.1659698415
 30
0.0
 10
8.0565396244
 20
5.166885543
 30
0.0
 10
8.056943027
 20
5.1679849669
 30
0.0
 10
8.0576930021
 20
5.1691686573
 30
0.0
 10
8.0586506105
 20
5.1701896638
 30
0.0
 10
8.0597627453
 20
5.1710372396
 30
0.0
 10
8.0609863049
 20
5.171712102
 30
0.0
 10
8.0622873763
 20
5.1722192585
 30
0.0
 10
8.063189472
 20
5.1724498185
 30
0.0
 10
8.0636451225
 20
5.1725390225
 30
0.0
  0
SPLINE
  5
42C
100
AcDbEntity
  8
0
100
AcDbSpline
 62
7
  6
CONTINUOUS
 70
0
 71
3
 72
17
 73
13
 74
0
 42
0.0000001
 43
0.0000001
 44
0.0000000001
 40
0.0
 40
0.0
 40
0.0
 40
0.0
 40
0.0625287923
 40
0.1250697377
 40
0.1876003849
 40
0.2501374534
 40
0.3750512247
 40
0.5000029675
 40
0.6249812941
 40
0.749977209
 40
0.8749860767
 40
1.0
 40
1.0
 40
1.0
 40
1.0
 10
8.0490447993
 20
5.1652722941
 30
0.0
 10
8.0490447993
 20
5.1655046249
 30
0.0
 10
8.0490726238
 20
5.165969804
 30
0.0
 10
8.0491964215
 20
5.1666573032
 30
0.0
 10
8.0493988409
 20
5.1673259821
 30
0.0
 10
8.0497656326
 20
5.1681810612
 30
0.0
 10
8.0503914125
 20
5.1691689951
 30
0.0
 10
8.0513493768
 20
5.1701896208
 30
0.0
 10
8.0524620397
 20
5.1710372838
 30
0.0
 10
8.0536861456
 20
5.1717121098
 30
0.0
 10
8.0549878057
 20
5.1722192668
 30
0.0
 10
8.0558902967
 20
5.1724498195
 30
0.0
 10
8.0563461503
 20
5.1725390225
 30
0.0
  0
SPLINE
  5
42D
100
AcDbEntity
  8
0
100
AcDbSpline
 62
7
  6
CONTINUOUS
 70
0
 71
3
 72
16
 73
12
 74
0
 42
0.0000001
 43
0.0000001
 44
0.0000000001
 40
0.0
 40
0.0
 40
0.0
 40
0.0
 40
0.0626132253
 40
0.1252346639
 40
0.2502455353
 40
0.3752485322
 40
0.500237607
 40
0.6252060082
 40
0.7501533321
 40
0.875084335
 40
1.0
 40
1.0
 40
1.0
 40
1.0
 10
8.0422234397
 20
5.1652722941
 30
0.0
 10
8.0422234397
 20
5.16550441
 30
0.0
 10
8.0422511786
 20
5.165969183
 30
0.0
 10
8.0424152415
 20
5.1668840032
 30
0.0
 10
8.0428171216
 20
5.1679824148
 30
0.0
 10
8.0435644439
 20
5.1691653659
 30
0.0
 10
8.0445188321
 20
5.1701860153
 30
0.0
 10
8.0456273833
 20
5.1710335722
 30
0.0
 10
8.0468471383
 20
5.1717087108
 30
0.0
 10
8.0481442869
 20
5.1722164112
 30
0.0
 10
8.0490437848
 20
5.1724475141
 30
0.0
 10
8.0494981311
 20
5.172537025
 30
0.0
  0
SPLINE
  5
42E
100
AcDbEntity
  8
0
100
AcDbSpline
 62
7
  6
CONTINUOUS
 70
0
 71
3
 72
14
 73
10
 74
0
 42
0.0000001
 43
0.0000001
 44
0.0000000001
 40
0.0
 40
0.0
 40
0.0
 40
0.0
 40
0.0628454861
 40
0.1256905136
 40
0.2510937109
 40
0.3763847076
 40
0.5015474134
 40
0.7508295101
 40
1.0
 40
1.0
 40
1.0
 40
1.0
 10
8.0358907249
 20
5.1652722941
 30
0.0
 10
8.0358907249
 20
5.1655046189
 30
0.0
 10
8.0359183691
 20
5.1659697739
 30
0.0
 10
8.0360818619
 20
5.1668852325
 30
0.0
 10
8.0364821866
 20
5.1679842143
 30
0.0
 10
8.0372269517
 20
5.1691680279
 30
0.0
 10
8.0384920493
 20
5.170526685
 30
0.0
 10
8.0404601054
 20
5.1717966875
 30
0.0
 10
8.0422350237
 20
5.172360876
 30
0.0
 10
8.0431387566
 20
5.1725390225
 30
0.0
  0
SPLINE
  5
42F
100
AcDbEntity
  8
0
100
AcDbSpline
 62
7
  6
CONTINUOUS
 70
0
 71
3
 72
15
 73
11
 74
0
 42
0.0000001
 43
0.0000001
 44
0.0000000001
 40
0.0
 40
0.0
 40
0.0
 40
0.0
 40
0.0630500243
 40
0.1260862097
 40
0.2517882274
 40
0.3772168559
 40
0.502340128
 40
0.6271765371
 40
0.7517736103
 40
1.0
 40
1.0
 40
1.0
 40
1.0
 10
8.0300750132
 20
5.1652722941
 30
0.0
 10
8.0300750132
 20
5.1655046126
 30
0.0
 10
8.0301024352
 20
5.165969699
 30
0.0
 10
8.0302645861
 20
5.166884879
 30
0.0
 10
8.0306614909
 20
5.1679834009
 30
0.0
 10
8.0314001399
 20
5.1691671821
 30
0.0
 10
8.0323435845
 20
5.1701885095
 30
0.0
 10
8.0334398588
 20
5.1710365578
 30
0.0
 10
8.0350438208
 20
5.171934901
 30
0.0
 10
8.0363694366
 20
5.1723607941
 30
0.0
 10
8.0372665356
 20
5.1725390225
 30
0.0
  0
SPLINE
  5
430
100
AcDbEntity
  8
0
100
AcDbSpline
 62
7
  6
CONTINUOUS
 70
0
 71
3
 72
14
 73
10
 74
0
 42
0.0000001
 43
0.0000001
 44
0.0000000001
 40
0.0
 40
0.0
 40
0.0
 40
0.0
 40
0.1265571276
 40
0.2528091552
 40
0.3785693556
 40
0.5037834836
 40
0.6284900107
 40
0.7527755598
 40
1.0
 40
1.0
 40
1.0
 40
1.0
 10
8.0247885749
 20
5.1652722941
 30
0.0
 10
8.0247885749
 20
5.1657360268
 30
0.0
 10
8.024897475
 20
5.1666658438
 30
0.0
 10
8.0253683069
 20
5.1679819102
 30
0.0
 10
8.0260988453
 20
5.1691662154
 30
0.0
 10
8.0270321932
 20
5.1701876574
 30
0.0
 10
8.0281169212
 20
5.171036014
 30
0.0
 10
8.0297032244
 20
5.1719341855
 30
0.0
 10
8.0310157213
 20
5.1723606808
 30
0.0
 10
8.0319038765
 20
5.1725390225
 30
0.0
  0
SPLINE
  5
431
100
AcDbEntity
  8
0
100
AcDbSpline
 62
7
  6
CONTINUOUS
 70
0
 71
3
 72
14
 73
10
 74
0
 42
0.0000001
 43
0.0000001
 44
0.0000000001
 40
0.0
 40
0.0
 40
0.0
 40
0.0
 40
0.1273902766
 40
0.254306371
 40
0.380455096
 40
0.5057528606
 40
0.6302622681
 40
0.754118816
 40
1.0
 40
1.0
 40
1.0
 40
1.0
 10
8.0200458998
 20
5.1652722941
 30
0.0
 10
8.0200458998
 20
5.1657359443
 30
0.0
 10
8.0201531598
 20
5.1666649035
 30
0.0
 10
8.0206171867
 20
5.1679805245
 30
0.0
 10
8.0213375303
 20
5.1691648648
 30
0.0
 10
8.0222581927
 20
5.1701866061
 30
0.0
 10
8.0233284105
 20
5.1710353066
 30
0.0
 10
8.0248925267
 20
5.1719332663
 30
0.0
 10
8.0261885481
 20
5.1723605336
 30
0.0
 10
8.0270654779
 20
5.1725390225
 30
0.0
  0
SPLINE
  5
432
100
AcDbEntity
  8
0
100
AcDbSpline
 62
7
  6
CONTINUOUS
 70
0
 71
3
 72
15
 73
11
 74
0
 42
0.0000001
 43
0.0000001
 44
0.0000000001
 40
0.0
 40
0.0
 40
0.0
 40
0.0
 40
0.1283378785
 40
0.2559984714
 40
0.382559461
 40
0.5079000291
 40
0.6321102624
 40
0.7553838844
 40
0.8779437246
 40
1.0
 40
1.0
 40
1.0
 40
1.0
 10
8.015859987
 20
5.1652722941
 30
0.0
 10
8.015859987
 20
5.1657358466
 30
0.0
 10
8.0159652856
 20
5.1666637886
 30
0.0
 10
8.0164211642
 20
5.1679788688
 30
0.0
 10
8.0171292447
 20
5.1691632264
 30
0.0
 10
8.0180347386
 20
5.1701853394
 30
0.0
 10
8.019087227
 20
5.1710343649
 30
0.0
 10
8.0202455817
 20
5.1717104037
 30
0.0
 10
8.0214774307
 20
5.1722184097
 30
0.0
 10
8.0223328841
 20
5.1724496883
 30
0.0
 10
8.0227646016
 20
5.1725390225
 30
0.0
  0
SPLINE
  5
433
100
AcDbEntity
  8
0
100
AcDbSpline
 62
7
  6
CONTINUOUS
 70
0
 71
3
 72
15
 73
11
 74
0
 42
0.0000001
 43
0.0000001
 44
0.0000000001
 40
0.0
 40
0.0
 40
0.0
 40
0.0
 40
0.1295250345
 40
0.2581369711
 40
0.3852614121
 40
0.5107308194
 40
0.6346644038
 40
0.7573223853
 40
0.8790053477
 40
1.0
 40
1.0
 40
1.0
 40
1.0
 10
8.0122441676
 20
5.1652722941
 30
0.0
 10
8.0122441676
 20
5.1657353121
 30
0.0
 10
8.0123470093
 20
5.1666612423
 30
0.0
 10
8.0127926351
 20
5.1679746103
 30
0.0
 10
8.0134853199
 20
5.1691582132
 30
0.0
 10
8.0143716896
 20
5.1701803075
 30
0.0
 10
8.0154023805
 20
5.1710297398
 30
0.0
 10
8.0165370297
 20
5.1717064341
 30
0.0
 10
8.0177438404
 20
5.1722152661
 30
0.0
 10
8.0185824913
 20
5.1724473378
 30
0.0
 10
8.0190056146
 20
5.172537025
 30
0.0
  0
SPLINE
  5
434
100
AcDbEntity
  8
0
100
AcDbSpline
 62
7
  6
CONTINUOUS
 70
0
 71
3
 72
18
 73
14
 74
0
 42
0.0000001
 43
0.0000001
 44
0.0000000001
 40
0.0
 40
0.0
 40
0.0
 40
0.0
 40
0.0607876811
 40
0.1216512861
 40
0.182643378
 40
0.2438333511
 40
0.3052701539
 40
0.3669969544
 40
0.4912770933
 40
0.6169215652
 40
0.7438134373
 40
0.8716504834
 40
1.0
 40
1.0
 40
1.0
 40
1.0
 10
8.0787998918
 20
5.7838786782
 30
0.0
 10
8.0787998918
 20
5.784342667
 30
0.0
 10
8.0788482042
 20
5.7852719431
 30
0.0
 10
8.0790647493
 20
5.7866515325
 30
0.0
 10
8.0794234094
 20
5.7880044958
 30
0.0
 10
8.0799205319
 20
5.789317511
 30
0.0
 10
8.0805515048
 20
5.7905781052
 30
0.0
 10
8.0815644255
 20
5.7921754009
 30
0.0
 10
8.08313668
 20
5.7939832909
 30
0.0
 10
8.0854248571
 20
5.795754803
 30
0.0
 10
8.0880331347
 20
5.7970701715
 30
0.0
 10
8.0908598663
 20
5.7978794613
 30
0.0
 10
8.0928202073
 20
5.7980614568
 30
0.0
 10
8.0937998918
 20
5.7980614568
 30
0.0
  0
SPLINE
  5
435
100
AcDbEntity
  8
0
100
AcDbSpline
 62
7
  6
CONTINUOUS
 70
0
 71
3
 72
16
 73
12
 74
0
 42
0.0000001
 43
0.0000001
 44
0.0000000001
 40
0.0
 40
0.0
 40
0.0
 40
0.0
 40
0.1308813371
 40
0.1960232729
 40
0.2607498516
 40
0.3885100755
 40
0.5141108216
 40
0.6377032814
 40
0.75962397
 40
0.8802639921
 40
1.0
 40
1.0
 40
1.0
 40
1.0
 10
8.0092027846
 20
5.1652722941
 30
0.0
 10
8.0092027846
 20
5.1657356103
 30
0.0
 10
8.0092785437
 20
5.1664324485
 30
0.0
 10
8.0095230088
 20
5.1673237391
 30
0.0
 10
8.0098536785
 20
5.1681752614
 30
0.0
 10
8.0104165579
 20
5.169159239
 30
0.0
 10
8.0112839666
 20
5.1701819955
 30
0.0
 10
8.0122929469
 20
5.1710320838
 30
0.0
 10
8.013403763
 20
5.1717090206
 30
0.0
 10
8.0145852
 20
5.1722177065
 30
0.0
 10
8.0154067463
 20
5.1724495797
 30
0.0
 10
8.0158210639
 20
5.1725390225
 30
0.0
  0
SPLINE
  5
436
100
AcDbEntity
  8
0
100
AcDbSpline
 62
7
  6
CONTINUOUS
 70
0
 71
3
 72
16
 73
12
 74
0
 42
0.0000001
 43
0.0000001
 44
0.0000000001
 40
0.0
 40
0.0
 40
0.0
 40
0.0
 40
0.1324453098
 40
0.1982680461
 40
0.2635688297
 40
0.3920857909
 40
0.5178716013
 40
0.6411084509
 40
0.7622159011
 40
0.8816866025
 40
1.0
 40
1.0
 40
1.0
 40
1.0
 10
8.0067497418
 20
5.1652722941
 30
0.0
 10
8.0067497418
 20
5.1657354743
 30
0.0
 10
8.0068233853
 20
5.1664316372
 30
0.0
 10
8.0070615481
 20
5.1673232288
 30
0.0
 10
8.0073832646
 20
5.1681738228
 30
0.0
 10
8.0079305309
 20
5.1691567491
 30
0.0
 10
8.0087752587
 20
5.1701799518
 30
0.0
 10
8.0097582606
 20
5.1710306364
 30
0.0
 10
8.0108407235
 20
5.1717081326
 30
0.0
 10
8.011992111
 20
5.1722172476
 30
0.0
 10
8.0127934742
 20
5.1724495084
 30
0.0
 10
8.0131974341
 20
5.1725390225
 30
0.0
  0
SPLINE
  5
437
100
AcDbEntity
  8
0
100
AcDbSpline
 62
7
  6
CONTINUOUS
 70
0
 71
3
 72
16
 73
12
 74
0
 42
0.0000001
 43
0.0000001
 44
0.0000000001
 40
0.0
 40
0.0
 40
0.0
 40
0.0
 40
0.1338007097
 40
0.2002318455
 40
0.2660731729
 40
0.3954036404
 40
0.5215249262
 40
0.6445689167
 40
0.7649659463
 40
0.8832503648
 40
1.0
 40
1.0
 40
1.0
 40
1.0
 10
8.0048899053
 20
5.1652722941
 30
0.0
 10
8.0048899053
 20
5.1657146961
 30
0.0
 10
8.0049549697
 20
5.1663790632
 30
0.0
 10
8.0051663675
 20
5.1672339988
 30
0.0
 10
8.0054523558
 20
5.1680515543
 30
0.0
 10
8.0059401629
 20
5.1690022551
 30
0.0
 10
8.0066987005
 20
5.1700048255
 30
0.0
 10
8.0075869283
 20
5.1708512295
 30
0.0
 10
8.008570484
 20
5.1715392015
 30
0.0
 10
8.0096218322
 20
5.1720721867
 30
0.0
 10
8.0103579926
 20
5.1723290759
 30
0.0
 10
8.0107298345
 20
5.1724327488
 30
0.0
  0
SPLINE
  5
438
100
AcDbEntity
  8
0
100
AcDbSpline
 62
7
  6
CONTINUOUS
 70
0
 71
3
 72
17
 73
13
 74
0
 42
0.0000001
 43
0.0000001
 44
0.0000000001
 40
0.0
 40
0.0
 40
0.0
 40
0.0
 40
0.1361398238
 40
0.2035761526
 40
0.2702431534
 40
0.4005771401
 40
0.5268280942
 40
0.5885292383
 40
0.6493326168
 40
0.7684937992
 40
0.8851407102
 40
1.0
 40
1.0
 40
1.0
 40
1.0
 10
8.0036283728
 20
5.1652722941
 30
0.0
 10
8.0036283728
 20
5.1657351737
 30
0.0
 10
8.0036971822
 20
5.1664298367
 30
0.0
 10
8.0039207935
 20
5.1673220817
 30
0.0
 10
8.0042219621
 20
5.1681705666
 30
0.0
 10
8.0047332761
 20
5.1691508635
 30
0.0
 10
8.005398979
 20
5.170011194
 30
0.0
 10
8.0059971219
 20
5.1706103091
 30
0.0
 10
8.0066232364
 20
5.1711435797
 30
0.0
 10
8.0074655548
 20
5.1717059412
 30
0.0
 10
8.0085474505
 20
5.1722160398
 30
0.0
 10
8.0093023054
 20
5.1724493224
 30
0.0
 10
8.0096823892
 20
5.1725390225
 30
0.0
  0
SPLINE
  5
439
100
AcDbEntity
  8
0
100
AcDbSpline
 62
7
  6
CONTINUOUS
 70
0
 71
3
 72
16
 73
12
 74
0
 42
0.0000001
 43
0.0000001
 44
0.0000000001
 40
0.0
 40
0.0
 40
0.0
 40
0.0
 40
0.1384127364
 40
0.2067025282
 40
0.2740331788
 40
0.4051662172
 40
0.5315373627
 40
0.6534607905
 40
0.7716278337
 40
0.8868656906
 40
1.0
 40
1.0
 40
1.0
 40
1.0
 10
8.0029744314
 20
5.1655639863
 30
0.0
 10
8.0029923736
 20
5.1660132876
 30
0.0
 10
8.0030814543
 20
5.1666839262
 30
0.0
 10
8.0033189586
 20
5.1675428031
 30
0.0
 10
8.0036241368
 20
5.1683550049
 30
0.0
 10
8.0041242655
 20
5.1692907599
 30
0.0
 10
8.0048833556
 20
5.1702688746
 30
0.0
 10
8.0057582248
 20
5.1710835427
 30
0.0
 10
8.0067169599
 20
5.1717342595
 30
0.0
 10
8.0077341539
 20
5.1722252585
 30
0.0
 10
8.0084436273
 20
5.1724515675
 30
0.0
 10
8.0088006085
 20
5.1725390225
 30
0.0
  0
SPLINE
  5
43A
100
AcDbEntity
  8
0
100
AcDbSpline
 62
7
  6
CONTINUOUS
 70
0
 71
3
 72
18
 73
14
 74
0
 42
0.0000001
 43
0.0000001
 44
0.0000000001
 40
0.0
 40
0.0
 40
0.0
 40
0.0
 40
0.0607876811
 40
0.1216512861
 40
0.182643378
 40
0.2438333511
 40
0.3052701539
 40
0.3669969544
 40
0.4912770933
 40
0.6169215652
 40
0.7438134373
 40
0.8716504834
 40
1.0
 40
1.0
 40
1.0
 40
1.0
 10
8.3675498918
 20
5.7838786782
 30
0.0
 10
8.3675498918
 20
5.784342667
 30
0.0
 10
8.3675015794
 20
5.7852719431
 30
0.0
 10
8.3672850343
 20
5.7866515325
 30
0.0
 10
8.3669263742
 20
5.7880044958
 30
0.0
 10
8.3664292517
 20
5.789317511
 30
0.0
 10
8.3657982788
 20
5.7905781052
 30
0.0
 10
8.3647853581
 20
5.7921754009
 30
0.0
 10
8.3632131036
 20
5.7939832909
 30
0.0
 10
8.3609249265
 20
5.795754803
 30
0.0
 10
8.358316649
 20
5.7970701715
 30
0.0
 10
8.3554899173
 20
5.7978794613
 30
0.0
 10
8.3535295763
 20
5.7980614568
 30
0.0
 10
8.3525498918
 20
5.7980614568
 30
0.0
  0
SPLINE
  5
43B
100
AcDbEntity
  8
0
100
AcDbSpline
 62
7
  6
CONTINUOUS
 70
0
 71
3
 72
17
 73
13
 74
0
 42
0.0000001
 43
0.0000001
 44
0.0000000001
 40
0.0
 40
0.0
 40
0.0
 40
0.0
 40
0.1368346008
 40
0.2045753967
 40
0.2715013215
 40
0.4021835965
 40
0.5285301438
 40
0.5901853755
 40
0.650884839
 40
0.769682853
 40
0.8857967615
 40
1.0
 40
1.0
 40
1.0
 40
1.0
 10
8.1616327734
 20
5.1652724251
 30
0.0
 10
8.1616327734
 20
5.1657352458
 30
0.0
 10
8.1617007258
 20
5.166429632
 30
0.0
 10
8.1619216754
 20
5.167321977
 30
0.0
 10
8.1622190983
 20
5.1681700614
 30
0.0
 10
8.1627238683
 20
5.1691498537
 30
0.0
 10
8.1633817973
 20
5.1700106931
 30
0.0
 10
8.1639730957
 20
5.1706101392
 30
0.0
 10
8.1645914637
 20
5.1711432034
 30
0.0
 10
8.1654234249
 20
5.1717055058
 30
0.0
 10
8.1664925739
 20
5.1722158043
 30
0.0
 10
8.1672388954
 20
5.1724492856
 30
0.0
 10
8.1676146011
 20
5.1725390225
 30
0.0
  0
SPLINE
  5
43C
100
AcDbEntity
  8
0
100
AcDbSpline
 62
7
  6
CONTINUOUS
 70
0
 71
3
 72
15
 73
11
 74
0
 42
0.0000001
 43
0.0000001
 44
0.0000000001
 40
0.0
 40
0.0
 40
0.0
 40
0.0
 40
0.0808640874
 40
0.1714359824
 40
0.2743526379
 40
0.3916071585
 40
0.5242949371
 40
0.6720723214
 40
0.8323903167
 40
1.0
 40
1.0
 40
1.0
 40
1.0
 10
8.1676146011
 20
5.1725390225
 30
0.0
 10
8.1678165229
 20
5.1724455416
 30
0.0
 10
8.1682213234
 20
5.1721948163
 30
0.0
 10
8.1687732842
 20
5.1716739494
 30
0.0
 10
8.1692886586
 20
5.1709871478
 30
0.0
 10
8.1697536267
 20
5.1701314138
 30
0.0
 10
8.1701508369
 20
5.1691088318
 30
0.0
 10
8.1704589737
 20
5.1679332055
 30
0.0
 10
8.1706557928
 20
5.1666368668
 30
0.0
 10
8.1707007554
 20
5.1657338336
 30
0.0
 10
8.1707007554
 20
5.1652726279
 30
0.0
  0
SPLINE
  5
43D
100
AcDbEntity
  8
0
100
AcDbSpline
 62
7
  6
CONTINUOUS
 70
0
 71
3
 72
17
 73
13
 74
0
 42
0.0000001
 43
0.0000001
 44
0.0000000001
 40
0.0
 40
0.0
 40
0.0
 40
0.0
 40
0.1390527979
 40
0.2077677266
 40
0.275524036
 40
0.407330205
 40
0.5339953936
 40
0.5955091981
 40
0.65588009
 40
0.7735172279
 40
0.8879159779
 40
1.0
 40
1.0
 40
1.0
 40
1.0
 10
8.1727883858
 20
5.1652725049
 30
0.0
 10
8.1727883858
 20
5.1657351588
 30
0.0
 10
8.1728535928
 20
5.1664287177
 30
0.0
 10
8.1730661399
 20
5.1673214034
 30
0.0
 10
8.1733517709
 20
5.1681682767
 30
0.0
 10
8.1738359767
 20
5.1691464965
 30
0.0
 10
8.1744693653
 20
5.1700089603
 30
0.0
 10
8.1750390762
 20
5.1706094972
 30
0.0
 10
8.1756330602
 20
5.1711419084
 30
0.0
 10
8.176432392
 20
5.1717040235
 30
0.0
 10
8.1774613925
 20
5.1722150007
 30
0.0
 10
8.1781808707
 20
5.1724491585
 30
0.0
 10
8.1785428054
 20
5.1725390225
 30
0.0
  0
SPLINE
  5
43E
100
AcDbEntity
  8
0
100
AcDbSpline
 62
7
  6
CONTINUOUS
 70
0
 71
3
 72
15
 73
11
 74
0
 42
0.0000001
 43
0.0000001
 44
0.0000000001
 40
0.0
 40
0.0
 40
0.0
 40
0.0
 40
0.0855054383
 40
0.1794171153
 40
0.2842213129
 40
0.4018843476
 40
0.5335659482
 40
0.6790815241
 40
0.8361657063
 40
1.0
 40
1.0
 40
1.0
 40
1.0
 10
8.1785428054
 20
5.1725390225
 30
0.0
 10
8.1787650603
 20
5.1724463971
 30
0.0
 10
8.1792105437
 20
5.1721991541
 30
0.0
 10
8.179824679
 20
5.1716793761
 30
0.0
 10
8.1803985578
 20
5.1709927422
 30
0.0
 10
8.1809164341
 20
5.1701364951
 30
0.0
 10
8.1813587943
 20
5.169112957
 30
0.0
 10
8.1817019124
 20
5.1679360476
 30
0.0
 10
8.1819210581
 20
5.1666382205
 30
0.0
 10
8.1819711042
 20
5.1657336668
 30
0.0
 10
8.1819711042
 20
5.165272309
 30
0.0
  0
SPLINE
  5
43F
100
AcDbEntity
  8
0
100
AcDbSpline
 62
7
  6
CONTINUOUS
 70
0
 71
3
 72
29
 73
25
 74
0
 42
0.0000001
 43
0.0000001
 44
0.0000000001
 40
0.0
 40
0.0
 40
0.0
 40
0.0
 40
0.0032090827
 40
0.0066788638
 40
0.0105750806
 40
0.0150140867
 40
0.0257888197
 40
0.0393498488
 40
0.0558104154
 40
0.0751771275
 40
0.097399421
 40
0.1223847562
 40
0.1801219389
 40
0.2471215381
 40
0.3217845464
 40
0.4022517677
 40
0.4864671091
 40
0.5722438941
 40
0.6573405463
 40
0.7395402644
 40
0.8167263965
 40
0.8869551658
 40
0.9485158275
 40
1.0
 40
1.0
 40
1.0
 40
1.0
 10
8.2305199858
 20
4.9571393097
 30
0.0
 10
8.2305190607
 20
4.9571245318
 30
0.0
 10
8.2305127985
 20
4.9570939285
 30
0.0
 10
8.2304913896
 20
4.9570496575
 30
0.0
 10
8.2304583123
 20
4.95700603
 30
0.0
 10
8.2303946997
 20
4.9569445993
 30
0.0
 10
8.2302833222
 20
4.9568707093
 30
0.0
 10
8.2301135908
 20
4.9567887499
 30
0.0
 10
8.2298999307
 20
4.9567087674
 30
0.0
 10
8.2296434164
 20
4.9566312753
 30
0.0
 10
8.2293452976
 20
4.9565568205
 30
0.0
 10
8.2288712835
 20
4.9564574971
 30
0.0
 10
8.2281888228
 20
4.9563480233
 30
0.0
 10
8.2272748359
 20
4.9562410904
 30
0.0
 10
8.2262532388
 20
4.9561565358
 30
0.0
 10
8.2251503756
 20
4.9560968002
 30
0.0
 10
8.2239951011
 20
4.9560636985
 30
0.0
 10
8.2228180116
 20
4.9560582081
 30
0.0
 10
8.2216504202
 20
4.9560804952
 30
0.0
 10
8.2205233219
 20
4.9561298927
 30
0.0
 10
8.2194663899
 20
4.956204934
 30
0.0
 10
8.2185069879
 20
4.9563033492
 30
0.0
 10
8.2176695498
 20
4.9564222262
 30
0.0
 10
8.2171571153
 20
4.9565219615
 30
0.0
 10
8.2169261069
 20
4.9565773267
 30
0.0
  0
SPLINE
  5
440
100
AcDbEntity
  8
0
100
AcDbSpline
 62
7
  6
CONTINUOUS
 70
0
 71
3
 72
16
 73
12
 74
0
 42
0.0000001
 43
0.0000001
 44
0.0000000001
 40
0.0
 40
0.0
 40
0.0
 40
0.0
 40
0.1414876822
 40
0.2112760274
 40
0.2799516546
 40
0.4130178032
 40
0.5400667641
 40
0.6613660853
 40
0.7777462936
 40
0.8902613474
 40
1.0
 40
1.0
 40
1.0
 40
1.0
 10
8.1840821042
 20
5.1652724189
 30
0.0
 10
8.1840821042
 20
5.1657349092
 30
0.0
 10
8.1841443676
 20
5.1664276269
 30
0.0
 10
8.1843479236
 20
5.16732068
 30
0.0
 10
8.1846209737
 20
5.1681662865
 30
0.0
 10
8.18508338
 20
5.1691428864
 30
0.0
 10
8.1858032455
 20
5.1701678082
 30
0.0
 10
8.1866429753
 20
5.1710214961
 30
0.0
 10
8.187569207
 20
5.171702218
 30
0.0
 10
8.1885553189
 20
5.1722140599
 30
0.0
 10
8.1892461116
 20
5.1724490049
 30
0.0
 10
8.1895933431
 20
5.1725390225
 30
0.0
  0
SPLINE
  5
441
100
AcDbEntity
  8
0
100
AcDbSpline
 62
7
  6
CONTINUOUS
 70
0
 71
3
 72
15
 73
11
 74
0
 42
0.0000001
 43
0.0000001
 44
0.0000000001
 40
0.0
 40
0.0
 40
0.0
 40
0.0
 40
0.0898634222
 40
0.1869850185
 40
0.2936630892
 40
0.4117909583
 40
0.5425549474
 40
0.6859054185
 40
0.8398498378
 40
1.0
 40
1.0
 40
1.0
 40
1.0
 10
8.1895933431
 20
5.1725390225
 30
0.0
 10
8.1898354179
 20
5.1724470627
 30
0.0
 10
8.1903202123
 20
5.1722027091
 30
0.0
 10
8.190994435
 20
5.1716842106
 30
0.0
 10
8.1916250767
 20
5.1709981135
 30
0.0
 10
8.1921944747
 20
5.17014171
 30
0.0
 10
8.1926809229
 20
5.1691174736
 30
0.0
 10
8.1930582727
 20
5.1679394221
 30
0.0
 10
8.1932992951
 20
5.166640146
 30
0.0
 10
8.1933543897
 20
5.1657340258
 30
0.0
 10
8.1933543897
 20
5.165272532
 30
0.0
  0
SPLINE
  5
442
100
AcDbEntity
  8
0
100
AcDbSpline
 62
7
  6
CONTINUOUS
 70
0
 71
3
 72
16
 73
12
 74
0
 42
0.0000001
 43
0.0000001
 44
0.0000000001
 40
0.0
 40
0.0
 40
0.0
 40
0.0
 40
0.1441124287
 40
0.2150606788
 40
0.284732581
 40
0.419173423
 40
0.5466523027
 40
0.6674315232
 40
0.7824355636
 40
0.8928690212
 40
1.0
 40
1.0
 40
1.0
 40
1.0
 10
8.1954829732
 20
5.1652724723
 30
0.0
 10
8.1954829732
 20
5.1657347901
 30
0.0
 10
8.1955421591
 20
5.1664266398
 30
0.0
 10
8.1957361679
 20
5.1673200428
 30
0.0
 10
8.1959959374
 20
5.1681643239
 30
0.0
 10
8.196435225
 20
5.169139044
 30
0.0
 10
8.1971205862
 20
5.1701641946
 30
0.0
 10
8.1979206031
 20
5.1710185829
 30
0.0
 10
8.1988035369
 20
5.1717002136
 30
0.0
 10
8.1997439319
 20
5.1722129252
 30
0.0
 10
8.2004042937
 20
5.1724488218
 30
0.0
 10
8.2007359256
 20
5.1725390225
 30
0.0
  0
SPLINE
  5
443
100
AcDbEntity
  8
0
100
AcDbSpline
 62
7
  6
CONTINUOUS
 70
0
 71
3
 72
15
 73
11
 74
0
 42
0.0000001
 43
0.0000001
 44
0.0000000001
 40
0.0
 40
0.0
 40
0.0
 40
0.0
 40
0.0939183706
 40
0.194085829
 40
0.3025934952
 40
0.4212275368
 40
0.5511671319
 40
0.6924715847
 40
0.8434046265
 40
1.0
 40
1.0
 40
1.0
 40
1.0
 10
8.2007359256
 20
5.1725390225
 30
0.0
 10
8.2009972717
 20
5.1724475812
 30
0.0
 10
8.2015200606
 20
5.1722055981
 30
0.0
 10
8.2022522299
 20
5.1716883804
 30
0.0
 10
8.2029377402
 20
5.1710029942
 30
0.0
 10
8.2035570938
 20
5.1701466302
 30
0.0
 10
8.2040864057
 20
5.1691218095
 30
0.0
 10
8.2044970903
 20
5.1679426115
 30
0.0
 10
8.2047594408
 20
5.1666417807
 30
0.0
 10
8.2048194112
 20
5.1657339586
 30
0.0
 10
8.2048194112
 20
5.1652722987
 30
0.0
  0
SPLINE
  5
444
100
AcDbEntity
  8
0
100
AcDbSpline
 62
7
  6
CONTINUOUS
 70
0
 71
3
 72
15
 73
11
 74
0
 42
0.0000001
 43
0.0000001
 44
0.0000000001
 40
0.0
 40
0.0
 40
0.0
 40
0.0
 40
0.146957265
 40
0.2898117185
 40
0.4257758632
 40
0.5537655104
 40
0.674022429
 40
0.7875578869
 40
0.8957300933
 40
1.0
 40
1.0
 40
1.0
 40
1.0
 10
8.2069597437
 20
5.1652726085
 30
0.0
 10
8.2069597437
 20
5.1657347492
 30
0.0
 10
8.2070336695
 20
5.1666478883
 30
0.0
 10
8.2073561858
 20
5.1679531445
 30
0.0
 10
8.2078604731
 20
5.1691349719
 30
0.0
 10
8.2085094339
 20
5.1701603123
 30
0.0
 10
8.2092674266
 20
5.1710153206
 30
0.0
 10
8.2101045321
 20
5.1716978955
 30
0.0
 10
8.2109965684
 20
5.1722115733
 30
0.0
 10
8.2116248249
 20
5.1724486008
 30
0.0
 10
8.2119400117
 20
5.1725390225
 30
0.0
  0
SPLINE
  5
445
100
AcDbEntity
  8
0
100
AcDbSpline
 62
7
  6
CONTINUOUS
 70
0
 71
3
 72
14
 73
10
 74
0
 42
0.0000001
 43
0.0000001
 44
0.0000000001
 40
0.0
 40
0.0
 40
0.0
 40
0.0
 40
0.0977436358
 40
0.2008543181
 40
0.3112107674
 40
0.430469785
 40
0.5597760223
 40
0.6992727196
 40
1.0
 40
1.0
 40
1.0
 40
1.0
 10
8.2119400117
 20
5.1725390225
 30
0.0
 10
8.2122200052
 20
5.1724479949
 30
0.0
 10
8.2127794088
 20
5.1722079747
 30
0.0
 10
8.2135672525
 20
5.1716920201
 30
0.0
 10
8.2143055499
 20
5.1710074884
 30
0.0
 10
8.2149730769
 20
5.1701514853
 30
0.0
 10
8.2155439197
 20
5.1691259848
 30
0.0
 10
8.2161486873
 20
5.1675158629
 30
0.0
 10
8.2163347437
 20
5.1661781355
 30
0.0
 10
8.2163347437
 20
5.1652722991
 30
0.0
  0
SPLINE
  5
446
100
AcDbEntity
  8
0
100
AcDbSpline
 62
7
  6
CONTINUOUS
 70
0
 71
3
 72
19
 73
15
 74
0
 42
0.0000001
 43
0.0000001
 44
0.0000000001
 40
0.0
 40
0.0
 40
0.0
 40
0.0
 40
0.0221795845
 40
0.0461386924
 40
0.0740071483
 40
0.1071456495
 40
0.1463391904
 40
0.1920021638
 40
0.2443291019
 40
0.3033803294
 40
0.4413759939
 40
0.6048696436
 40
0.7919415409
 40
1.0
 40
1.0
 40
1.0
 40
1.0
 10
8.1469441948
 20
4.9647461845
 30
0.0
 10
8.1469426106
 20
4.9647199908
 30
0.0
 10
8.1469292443
 20
4.964665642
 30
0.0
 10
8.1468797429
 20
4.9645917986
 30
0.0
 10
8.1468032755
 20
4.9645252916
 30
0.0
 10
8.1467006052
 20
4.9644651037
 30
0.0
 10
8.1465716632
 20
4.9644108458
 30
0.0
 10
8.1464165317
 20
4.9643625027
 30
0.0
 10
8.1462354786
 20
4.9643202082
 30
0.0
 10
8.1459446953
 20
4.9642695338
 30
0.0
 10
8.1455198946
 20
4.9642258737
 30
0.0
 10
8.1449421588
 20
4.9642015641
 30
0.0
 10
8.1442810442
 20
4.964204004
 30
0.0
 10
8.1438138271
 20
4.9642226091
 30
0.0
 10
8.1435680261
 20
4.9642359394
 30
0.0
  0
SPLINE
  5
447
100
AcDbEntity
  8
0
100
AcDbSpline
 62
7
  6
CONTINUOUS
 70
0
 71
3
 72
15
 73
11
 74
0
 42
0.0000001
 43
0.0000001
 44
0.0000000001
 40
0.0
 40
0.0
 40
0.0
 40
0.0
 40
0.1499557594
 40
0.2953138531
 40
0.4329151904
 40
0.5614779593
 40
0.6812009387
 40
0.7931657262
 40
0.8988783483
 40
1.0
 40
1.0
 40
1.0
 40
1.0
 10
8.2184873918
 20
5.1652723041
 30
0.0
 10
8.2184873918
 20
5.1657338703
 30
0.0
 10
8.2185566587
 20
5.1666444176
 30
0.0
 10
8.218859298
 20
5.1679472115
 30
0.0
 10
8.2193327867
 20
5.1691275508
 30
0.0
 10
8.219942567
 20
5.170152487
 30
0.0
 10
8.2206553546
 20
5.1710080172
 30
0.0
 10
8.2214431783
 20
5.1716918038
 30
0.0
 10
8.222283311
 20
5.1722070892
 30
0.0
 10
8.2228772394
 20
5.1724460187
 30
0.0
 10
8.2231748918
 20
5.172537025
 30
0.0
  0
ENDSEC
  0
SECTION
  2
OBJECTS
  0
DICTIONARY
  5
C
100
AcDbDictionary
280
0
281
1
  3
ACAD_GROUP
350
D
  3
ACAD_MLINESTYLE
350
17
  3
ACAD_LAYOUT
350
1A
  3
ACAD_PLOTSETTINGS
350
19
  3
ACAD_PLOTSTYLENAME
350
E
  0
DICTIONARY
  5
D
102
{ACAD_REACTORS
330
C
102
}
100
AcDbDictionary
280
0
281
1
  0
ACDBDICTIONARYWDFLT
  5
E
102
{ACAD_REACTORS
330
C
102
}
100
AcDbDictionary
281
1
  3
Normal
350
F
100
AcDbDictionaryWithDefault
340
F
  0
DICTIONARY
  5
17
102
{ACAD_REACTORS
330
C
102
}
100
AcDbDictionary
280
0
281
1
  3
Standard
350
18
  0
DICTIONARY
  5
19
102
{ACAD_REACTORS
330
C
102
}
100
AcDbDictionary
281
1
  0
DICTIONARY
  5
1A
102
{ACAD_REACTORS
330
C
102
}
100
AcDbDictionary
281
1
  3
Model
350
448
  3
Layout1
350
449
  0
ACDBPLACEHOLDER
  5
F
102
{ACAD_REACTORS
330
E
102
}
  0
MLINESTYLE
  5
18
102
{ACAD_REACTORS
330
17
102
}
100
AcDbMlineStyle
  2
STANDARD
 70
0
  3

 62
256
 51
90.0
 52
90.0
 71
2
 49
0.5
 62
256
  6
BYLAYER
 49
-0.5
 62
256
  6
BYLAYER
  0
LAYOUT
  5
448
102
{ACAD_REACTORS
330
1A
102
}
100
AcDbPlotSettings
  1

  2
none_device
  4
ANSI_A_(11.00_x_8.50_Inches)
  6

 40
0.0
 41
0.0
 42
0.0
 43
0.0
 44
279.4
 45
215.9
 46
0.0
 47
0.0
 48
0.0
 49
0.0
140
0.0
141
0.0
142
1.0
143
1.0
 70
1024
 72
0
 73
0
 74
0
  7

 75
0
147
1.0
148
0.0
149
0.0
100
AcDbLayout
  1
Model
 70
0
 71
0
 10
0.0
 20
0.0
 11
11.0
 21
8.5
 12
0.0
 22
0.0
 32
0.0
 14
0.0
 24
0.0
 34
0.0
 15
0.0
 25
0.0
 35
0.0
146
0.0
 13
0.0
 23
0.0
 33
0.0
 16
1.0
 26
0.0
 36
0.0
 17
0.0
 27
1.0
 37
0.0
 76
0
330
202
345
0
346
0
  0
LAYOUT
  5
449
102
{ACAD_REACTORS
330
1A
102
}
100
AcDbPlotSettings
  1

  2
none_device
  4
ANSI_A_(11.00_x_8.50_Inches)
  6

 40
0.0
 41
0.0
 42
0.0
 43
0.0
 44
279.4
 45
215.9
 46
0.0
 47
0.0
 48
0.0
 49
0.0
140
0.0
141
0.0
142
1.0
143
1.0
 70
0
 72
0
 73
0
 74
0
  7

 75
0
147
1.0
148
0.0
149
0.0
100
AcDbLayout
  1
Layout1
 70
0
 71
1
 10
0.0
 20
0.0
 11
11.0
 21
8.5
 12
0.0
 22
0.0
 32
0.0
 14
0.0
 24
0.0
 34
0.0
 15
0.0
 25
0.0
 35
0.0
146
0.0
 13
0.0
 23
0.0
 33
0.0
 16
1.0
 26
0.0
 36
0.0
 17
0.0
 27
1.0
 37
0.0
 76
0
330
203
345
0
346
0
  0
ENDSEC
  0
EOF
