999
DXF file: 1400-5462_RIGHT.dxf
999
Pro/ENGINEER 2019352 by Parametric Technology Corporation
  0
SECTION
  2
HEADER
  9
$ACADVER
  1
AC1032
  9
$DWGCODEPAGE
  3
ANSI_1252
  9
$EXTMAX
 10
11.0
 20
8.5
 30
0.0
  9
$EXTMIN
 10
0.0
 20
0.0
 30
0.0
  9
$LIMMIN
 10
0.0
 20
0.0
  9
$LIMMAX
 10
11.0
 20
8.5
  9
$VIEWCTR
 10
5.5
 20
4.25
  9
$VIEWSIZE
 40
8.5
  9
$CLAYER
  8
0
  9
$LTSCALE
 40
0.605
  9
$CELTYPE
  6
BYLAYER
  9
$DIMSCALE
 40
1.0
  9
$DIMASZ
 40
0.1
  9
$DIMEXO
 40
0.0625
  9
$DIMDLI
 40
0.418
  9
$DIMEXE
 40
0.125
  9
$DIMCEN
 40
0.099
  9
$DIMLFAC
 40
1.0
  9
$DIMBLK
  1
_FILLED
  9
$DIMALT
 70
1
  9
$DIMALTD
 70
2
  9
$DIMALTTD
 70
2
  9
$DIMALTF
 40
25.4
  9
$DIMTXT
 40
0.08
  9
$DIMTOL
 70
1
  9
$DIMLIM
 70
0
  9
$DIMTFAC
 40
1.0
  9
$DIMTP
 40
0.001
  9
$DIMTM
 40
0.001
  9
$DIMGAP
 40
0.09
  9
$DIMDSEP
 70
46
  9
$AUNITS
 70
0
  9
$PDMODE
 70
3
  9
$PDSIZE
 40
0.3125
  9
$HANDSEED
  5
2B2
  9
$TILEMODE
 70
1
  9
$MEASUREMENT
 70
0
  9
$INSUNITS
 70
1
  0
ENDSEC
  0
SECTION
  2
CLASSES
  0
CLASS
  1
ACDBDICTIONARYWDFLT
  2
AcDbDictionaryWithDefault
  3
AutoCAD 2000
 90
0
 91
1
280
0
281
0
  0
CLASS
  1
ACDBPLACEHOLDER
  2
AcDbPlaceHolder
  3
AutoCAD 2000
 90
0
 91
1
280
0
281
0
  0
CLASS
  1
LAYOUT
  2
AcDbLayout
  3
AutoCAD 2000
 90
0
 91
0
280
0
281
0
  0
ENDSEC
  0
SECTION
  2
TABLES
  0
TABLE
  2
VPORT
  5
8
100
AcDbSymbolTable
 70
2
  0
VPORT
  5
1F4
100
AcDbSymbolTableRecord
100
AcDbViewportTableRecord
  2
*ACTIVE
 70
0
 10
0.0
 20
0.0
 11
1.0
 21
1.0
 12
5.5
 22
4.25
 13
0.0
 23
0.0
 14
1.0
 24
1.0
 15
0.0
 25
0.0
 16
0.0
 26
0.0
 36
1.0
 17
0.0
 27
0.0
 37
0.0
 40
8.5
 41
1.2941176471
 42
50.0
 43
0.0
 44
0.0
 50
0.0
 51
0.0
 71
0
 72
100
 73
1
 74
1
 75
0
 76
0
 77
0
 78
0
  0
ENDTAB
  0
TABLE
  2
LTYPE
  5
5
100
AcDbSymbolTable
 70
6
  0
LTYPE
  5
14
100
AcDbSymbolTableRecord
100
AcDbLinetypeTableRecord
  2
BYBLOCK
 70
0
  3

 72
65
 73
0
 40
0.0
  0
LTYPE
  5
15
100
AcDbSymbolTableRecord
100
AcDbLinetypeTableRecord
  2
BYLAYER
 70
0
  3

 72
65
 73
0
 40
0.0
  0
LTYPE
  5
16
100
AcDbSymbolTableRecord
100
AcDbLinetypeTableRecord
  2
CONTINUOUS
 70
64
  3
Solid line
 72
65
 73
0
 40
0.0
  0
LTYPE
  5
1F5
100
AcDbSymbolTableRecord
100
AcDbLinetypeTableRecord
  2
CENTER
 70
64
  3
____ _ ____ _ ____ _ ____ _ ____ _ ____ _ ____
 72
65
 73
4
 40
0.6
 49
0.375
 74
0
 49
-0.075
 74
0
 49
0.075
 74
0
 49
-0.075
 74
0
  0
LTYPE
  5
1F6
100
AcDbSymbolTableRecord
100
AcDbLinetypeTableRecord
  2
HIDDEN
 70
64
  3
- - - - - - - - - - - - - - - - - - - -
 72
65
 73
2
 40
0.2
 49
0.1
 74
0
 49
-0.1
 74
0
  0
LTYPE
  5
1F7
100
AcDbSymbolTableRecord
100
AcDbLinetypeTableRecord
  2
PHANTOM
 70
64
  3
_____ _ _ _____ _ _ _____ _ _ _____
 72
65
 73
6
 40
0.8
 49
0.45
 74
0
 49
-0.05
 74
0
 49
0.1
 74
0
 49
-0.05
 74
0
 49
0.1
 74
0
 49
-0.05
 74
0
  0
LTYPE
  5
1F8
100
AcDbSymbolTableRecord
100
AcDbLinetypeTableRecord
  2
DOT
 70
64
  3
. . . . . . . . . . . . . . . . . . . .
 72
65
 73
2
 40
0.2
 49
0.1
 74
0
 49
-0.1
 74
0
  0
LTYPE
  5
1F9
100
AcDbSymbolTableRecord
100
AcDbLinetypeTableRecord
  2
DASHED
 70
64
  3
- - - - - - - - - - - - - - - - - - - -
 72
65
 73
2
 40
0.2
 49
0.1
 74
0
 49
-0.1
 74
0
  0
ENDTAB
  0
TABLE
  2
LAYER
  5
2
100
AcDbSymbolTable
 70
36
  0
LAYER
  5
10
100
AcDbSymbolTableRecord
100
AcDbLayerTableRecord
  2
0
 70
0
 62
7
  6
CONTINUOUS
370
-3
390
F
  0
LAYER
  5
1FA
100
AcDbSymbolTableRecord
100
AcDbLayerTableRecord
  2
DEFAULT_1
 70
0
 62
7
  6
CENTER
370
-3
390
F
  0
LAYER
  5
1FB
100
AcDbSymbolTableRecord
100
AcDbLayerTableRecord
  2
DEFAULT_2
 70
0
 62
8
  6
HIDDEN
370
-3
390
F
  0
LAYER
  5
1FC
100
AcDbSymbolTableRecord
100
AcDbLayerTableRecord
  2
DEFAULT_3
 70
0
 62
7
  6
PHANTOM
370
-3
390
F
  0
LAYER
  5
1FD
100
AcDbSymbolTableRecord
100
AcDbLayerTableRecord
  2
DEFAULT_COORDINATE_SYSTEM
 70
0
 62
7
  6
CONTINUOUS
370
-3
390
F
  0
LAYER
  5
1FE
100
AcDbSymbolTableRecord
100
AcDbLayerTableRecord
  2
DEFAULT_DATUM_AXES
 70
0
 62
7
  6
CONTINUOUS
370
-3
390
F
  0
LAYER
  5
1FF
100
AcDbSymbolTableRecord
100
AcDbLayerTableRecord
  2
DEFAULT_DATUM_PLANES
 70
0
 62
7
  6
CONTINUOUS
370
-3
390
F
  0
ENDTAB
  0
TABLE
  2
STYLE
  5
3
100
AcDbSymbolTable
 70
1
  0
STYLE
  5
11
100
AcDbSymbolTableRecord
100
AcDbTextStyleTableRecord
  2
STANDARD
 70
0
 40
0.0
 41
0.8
 50
0.0
 71
0
 42
0.2
  3
txt
  4

  0
STYLE
  5
200
100
AcDbSymbolTableRecord
100
AcDbTextStyleTableRecord
  2
TEXTSTYLE_1
 70
0
 40
0.0
 41
0.8
 50
0.0
 71
0
 42
0.2
  3
gdt
  4

  0
ENDTAB
  0
TABLE
  2
VIEW
  5
6
100
AcDbSymbolTable
 70
0
  0
ENDTAB
  0
TABLE
  2
UCS
  5
7
100
AcDbSymbolTable
 70
0
  0
ENDTAB
  0
TABLE
  2
APPID
  5
9
100
AcDbSymbolTable
 70
1
  0
APPID
  5
201
100
AcDbSymbolTableRecord
100
AcDbRegAppTableRecord
  2
ACAD
 70
0
  0
ENDTAB
  0
TABLE
  2
BLOCK_RECORD
  5
1
100
AcDbSymbolTable
 70
0
  0
BLOCK_RECORD
  5
202
100
AcDbSymbolTableRecord
100
AcDbBlockTableRecord
  2
*Model_Space
  0
BLOCK_RECORD
  5
203
100
AcDbSymbolTableRecord
100
AcDbBlockTableRecord
  2
*Paper_Space
  0
BLOCK_RECORD
  5
204
100
AcDbSymbolTableRecord
100
AcDbBlockTableRecord
  2
_FILLED
  0
ENDTAB
  0
TABLE
  2
DIMSTYLE
  5
A
100
AcDbSymbolTable
 70
1
100
AcDbDimStyleTable
 71
0
  0
DIMSTYLE
105
205
100
AcDbSymbolTableRecord
100
AcDbDimStyleTableRecord
  2
STANDARD
 70
0
  3

  4

 40
1.0
 41
0.1
 42
0.0625
 43
0.38
 44
0.125
 45
0.0
 46
0.0
 47
0.001
 48
0.001
140
0.08
141
0.09
142
0.0
143
25.4
144
1.0
145
0.0
146
1.0
147
0.09
 71
1.0
 72
0.0
 73
1
 74
1
 75
0
 76
0
 77
0
 78
4
 79
1
170
1
171
2
172
0
173
0
174
0
175
0
176
0
177
0
178
0
270
2
179
3
271
3
272
3
273
2
274
2
275
0
280
0
281
0
282
0
283
1
284
4
285
0
286
0
287
3
288
0
340
11
278
46
341
204
342
204
343
204
344
204
  0
ENDTAB
  0
ENDSEC
  0
SECTION
  2
BLOCKS
  0
BLOCK
  5
20
100
AcDbEntity
  8
0
100
AcDbBlockBegin
  2
*Model_Space
 70
0
 10
0.0
 20
0.0
 30
0.0
  3
*Model_Space
  1

  0
ENDBLK
  5
21
100
AcDbEntity
  8
0
100
AcDbBlockEnd
  0
BLOCK
  5
1C
100
AcDbEntity
  8
0
100
AcDbBlockBegin
  2
*Paper_Space
 70
0
 10
0.0
 20
0.0
 30
0.0
  3
*Paper_Space
  1

  0
ENDBLK
  5
1D
100
AcDbEntity
  8
0
100
AcDbBlockEnd
  0
BLOCK
  5
206
100
AcDbEntity
  8
0
100
AcDbBlockBegin
  2
_FILLED
 70
64
 10
0.0
 20
0.0
  3
_FILLED
  1

  0
SOLID
  5
207
100
AcDbEntity
  8
0
  6
BYBLOCK
 62
0
100
AcDbTrace
 10
0.0
 20
0.0
 11
-1.0
 21
0.2
 12
-1.0
 22
-0.2
 13
-1.0
 23
-0.2
  0
ENDBLK
  5
208
100
AcDbEntity
  8
0
  6
BYBLOCK
 62
0
100
AcDbBlockEnd
  0
ENDSEC
  0
SECTION
  2
ENTITIES
  0
MTEXT
  5
209
100
AcDbEntity
  8
0
100
AcDbMText
 62
2
  6
CONTINUOUS
  7
STANDARD
 71
3
 72
1
 10
5.145941791
 20
1.2154756097
 30
0.0
 11
1.0
 21
0.0
 31
0.0
 73
2
 44
0.9
  1
SCALE 0.250
 40
0.08
 41
0.704
  0
LINE
  5
20A
100
AcDbEntity
  8
0
100
AcDbLine
 62
7
  6
CONTINUOUS
 10
0.0
 20
0.0
 11
0.0
 21
8.5
  0
LINE
  5
20B
100
AcDbEntity
  8
0
100
AcDbLine
 62
7
  6
CONTINUOUS
 10
0.0
 20
0.0
 11
11.0
 21
0.0
  0
LINE
  5
20C
100
AcDbEntity
  8
0
100
AcDbLine
 62
7
  6
CONTINUOUS
 10
0.0
 20
8.5
 11
11.0
 21
8.5
  0
LINE
  5
20D
100
AcDbEntity
  8
0
100
AcDbLine
 62
7
  6
CONTINUOUS
 10
11.0
 20
0.0
 11
11.0
 21
8.5
  0
LINE
  5
20E
100
AcDbEntity
  8
0
100
AcDbLine
 62
7
  6
CONTINUOUS
 10
5.9057735273
 20
2.4284178933
 11
5.4107735273
 21
2.4284178933
  0
LINE
  5
20F
100
AcDbEntity
  8
0
100
AcDbLine
 62
7
  6
CONTINUOUS
 10
5.4107735273
 20
2.5271678933
 11
5.9057735273
 21
2.5271678933
  0
LINE
  5
210
100
AcDbEntity
  8
0
100
AcDbLine
 62
7
  6
CONTINUOUS
 10
5.4182735273
 20
2.5346678933
 11
5.8982735273
 21
2.5346678933
  0
LINE
  5
211
100
AcDbEntity
  8
0
100
AcDbLine
 62
7
  6
CONTINUOUS
 10
3.5553820636
 20
5.3408681695
 11
3.5364528958
 21
5.2173097355
  0
LINE
  5
212
100
AcDbEntity
  8
0
100
AcDbLine
 62
7
  6
CONTINUOUS
 10
3.449189432
 20
4.6477053549
 11
3.5349385623
 21
5.2074250608
  0
LINE
  5
213
100
AcDbEntity
  8
0
100
AcDbLine
 62
7
  6
CONTINUOUS
 10
3.5372940806
 20
5.2095933628
 11
3.538240539
 21
5.2157712845
  0
LINE
  5
214
100
AcDbEntity
  8
0
100
AcDbLine
 62
7
  6
CONTINUOUS
 10
3.555604453
 20
5.2143757145
 11
3.5554151613
 21
5.2131401301
  0
LINE
  5
215
100
AcDbEntity
  8
0
100
AcDbLine
 62
7
  6
CONTINUOUS
 10
3.773177582
 20
4.9132988056
 11
3.7738443931
 21
4.9146277001
  0
LINE
  5
216
100
AcDbEntity
  8
0
100
AcDbLine
 62
7
  6
CONTINUOUS
 10
3.7738443931
 20
4.9146277001
 11
3.7744885953
 21
4.9158854907
  0
LINE
  5
217
100
AcDbEntity
  8
0
100
AcDbLine
 62
7
  6
CONTINUOUS
 10
3.7744885953
 20
4.9158854907
 11
3.7751157268
 21
4.9170868122
  0
LINE
  5
218
100
AcDbEntity
  8
0
100
AcDbLine
 62
7
  6
CONTINUOUS
 10
3.7751070276
 20
4.9170703797
 11
3.7757043151
 21
4.9181947486
  0
LINE
  5
219
100
AcDbEntity
  8
0
100
AcDbLine
 62
7
  6
CONTINUOUS
 10
3.7756965963
 20
4.9181804208
 11
3.7762613128
 21
4.919226659
  0
LINE
  5
21A
100
AcDbEntity
  8
0
100
AcDbLine
 62
7
  6
CONTINUOUS
 10
3.7762545572
 20
4.9192142894
 11
3.7767843212
 21
4.9201817694
  0
LINE
  5
21B
100
AcDbEntity
  8
0
100
AcDbLine
 62
7
  6
CONTINUOUS
 10
3.7767785051
 20
4.9201712195
 11
3.7772711739
 21
4.9210595235
  0
LWPOLYLINE
  5
21C
100
AcDbEntity
  8
0
100
AcDbPolyline
 62
7
  6
CONTINUOUS
 90
10
 70
0
 10
3.7799122719
 20
4.9256456956
 10
3.7799655567
 20
4.9257404186
 10
3.7800146743
 20
4.925837368
 10
3.7800595318
 20
4.9259363605
 10
3.7801000445
 20
4.9260372091
 10
3.7801361359
 20
4.9261397231
 10
3.7801677377
 20
4.9262437088
 10
3.7801947903
 20
4.9263489698
 10
3.7802172424
 20
4.9264553071
 10
3.7802316923
 20
4.9265399003
  0
LINE
  5
21D
100
AcDbEntity
  8
0
100
AcDbLine
 62
7
  6
CONTINUOUS
 10
3.7772662701
 20
4.9210507033
 11
3.7777201457
 21
4.9218595325
  0
LINE
  5
21E
100
AcDbEntity
  8
0
100
AcDbLine
 62
7
  6
CONTINUOUS
 10
3.7777160655
 20
4.9218522876
 11
3.7783195371
 21
4.9229137407
  0
LINE
  5
21F
100
AcDbEntity
  8
0
100
AcDbLine
 62
7
  6
CONTINUOUS
 10
3.778316545
 20
4.9229085409
 11
3.7788246161
 21
4.9237905449
  0
LINE
  5
220
100
AcDbEntity
  8
0
100
AcDbLine
 62
7
  6
CONTINUOUS
 10
3.7788246161
 20
4.9237905449
 11
3.7793530152
 21
4.9246975549
  0
LINE
  5
221
100
AcDbEntity
  8
0
100
AcDbLine
 62
7
  6
CONTINUOUS
 10
3.7793530152
 20
4.9246975549
 11
3.7799122719
 21
4.9256456956
  0
LINE
  5
222
100
AcDbEntity
  8
0
100
AcDbLine
 62
7
  6
CONTINUOUS
 10
3.7795690725
 20
4.925430519
 11
3.7802320267
 21
4.9265398473
  0
LWPOLYLINE
  5
223
100
AcDbEntity
  8
0
100
AcDbPolyline
 62
7
  6
CONTINUOUS
 90
10
 70
0
 10
3.7619840624
 20
4.8074301334
 10
3.7619956042
 20
4.8075152053
 10
3.7620060149
 20
4.8076233863
 10
3.7620117141
 20
4.807731917
 10
3.762012691
 20
4.8078405923
 10
3.7620089438
 20
4.8079492068
 10
3.7620004797
 20
4.8080575555
 10
3.7619873148
 20
4.8081654337
 10
3.7619694739
 20
4.8082726373
 10
3.7619469908
 20
4.8083789639
  0
LINE
  5
224
100
AcDbEntity
  8
0
100
AcDbLine
 62
7
  6
CONTINUOUS
 10
3.7990145679
 20
5.1770852538
 11
3.7988252763
 21
5.1758496695
  0
LINE
  5
225
100
AcDbEntity
  8
0
100
AcDbLine
 62
7
  6
CONTINUOUS
 10
3.7585602221
 20
4.8651135684
 11
3.7596959722
 21
4.8725270744
  0
LINE
  5
226
100
AcDbEntity
  8
0
100
AcDbLine
 62
7
  6
CONTINUOUS
 10
3.7586576418
 20
4.8643301682
 11
3.7599061498
 21
4.8724948758
  0
LINE
  5
227
100
AcDbEntity
  8
0
100
AcDbLine
 62
7
  6
CONTINUOUS
 10
3.8159998986
 20
5.1732185152
 11
3.8150534402
 21
5.1670405935
  0
LINE
  5
228
100
AcDbEntity
  8
0
100
AcDbLine
 62
7
  6
CONTINUOUS
 10
3.837095293
 20
5.2977096668
 11
3.8363381263
 21
5.2927673294
  0
LINE
  5
229
100
AcDbEntity
  8
0
100
AcDbLine
 62
7
  6
CONTINUOUS
 10
3.8283878758
 20
5.2408727872
 11
3.8181661252
 21
5.1741512328
  0
LINE
  5
22A
100
AcDbEntity
  8
0
100
AcDbLine
 62
7
  6
CONTINUOUS
 10
3.7309026615
 20
4.6045468522
 11
3.7619843982
 21
4.807430082
  0
LINE
  5
22B
100
AcDbEntity
  8
0
100
AcDbLine
 62
7
  6
CONTINUOUS
 10
3.7802320296
 20
4.9265398487
 11
3.8166517918
 21
5.1642665581
  0
LINE
  5
22C
100
AcDbEntity
  8
0
100
AcDbLine
 62
7
  6
CONTINUOUS
 10
3.7926392943
 20
4.9135110054
 11
3.77772311
 21
4.8161469594
  0
LINE
  5
22D
100
AcDbEntity
  8
0
100
AcDbLine
 62
7
  6
CONTINUOUS
 10
3.8008031782
 20
4.905331521
 11
3.7879612885
 21
4.8215072455
  0
LWPOLYLINE
  5
22E
100
AcDbEntity
  8
0
100
AcDbPolyline
 62
7
  6
CONTINUOUS
 90
46
 70
0
 10
3.7599061498
 20
4.8724948758
 10
3.7600188738
 20
4.8732164131
 10
3.7601832801
 20
4.874222437
 10
3.7603561447
 20
4.8752287423
 10
3.7605373433
 20
4.8762346782
 10
3.7607268159
 20
4.8772399755
 10
3.7609245816
 20
4.8782447408
 10
3.7611305533
 20
4.8792484952
 10
3.7613446396
 20
4.8802507551
 10
3.7615668737
 20
4.8812515999
 10
3.7617971773
 20
4.8822505643
 10
3.7620354278
 20
4.8832471281
 10
3.7622815595
 20
4.8842413469
 10
3.7625353947
 20
4.885232861
 10
3.7627967379
 20
4.8862212581
 10
3.7630654957
 20
4.8872065122
 10
3.7633414705
 20
4.8881882048
 10
3.7636244626
 20
4.889165927
 10
3.7639143802
 20
4.8901396422
 10
3.7642110139
 20
4.8911089088
 10
3.7645141444
 20
4.8920732754
 10
3.7648236418
 20
4.8930327022
 10
3.7651392688
 20
4.8939869318
 10
3.7654606859
 20
4.8949354191
 10
3.7657875765
 20
4.8958777162
 10
3.7661196784
 20
4.8968135487
 10
3.7664566194
 20
4.8977423478
 10
3.7667979005
 20
4.8986632359
 10
3.7671431763
 20
4.899575791
 10
3.7674920924
 20
4.9004795831
 10
3.7678441166
 20
4.9013737637
 10
3.7681988777
 20
4.9022579952
 10
3.7685559739
 20
4.9031318987
 10
3.7689148096
 20
4.9039946458
 10
3.7692750151
 20
4.9048459827
 10
3.7696361445
 20
4.9056854825
 10
3.769997481
 20
4.906512119
 10
3.7703586127
 20
4.9073255982
 10
3.7707191099
 20
4.9081255908
 10
3.7710782312
 20
4.9089110978
 10
3.7714355575
 20
4.90968185
 10
3.7717906763
 20
4.9104375901
 10
3.7721428712
 20
4.9111774286
 10
3.7724917186
 20
4.9119011114
 10
3.7728368338
 20
4.9126084643
 10
3.773177582
 20
4.9132988056
  0
LINE
  5
22F
100
AcDbEntity
  8
0
100
AcDbLine
 62
7
  6
CONTINUOUS
 10
5.5020235273
 20
3.4021678933
 11
5.8145235273
 21
3.4021678933
  0
LINE
  5
230
100
AcDbEntity
  8
0
100
AcDbLine
 62
7
  6
CONTINUOUS
 10
5.5095235273
 20
3.4096678933
 11
5.8070235273
 21
3.4096678933
  0
LINE
  5
231
100
AcDbEntity
  8
0
100
AcDbLine
 62
7
  6
CONTINUOUS
 10
5.5020235273
 20
3.4171678933
 11
5.8145235273
 21
3.4171678933
  0
LINE
  5
232
100
AcDbEntity
  8
0
100
AcDbLine
 62
7
  6
CONTINUOUS
 10
3.7619843928
 20
4.8074300469
 11
3.7616972852
 21
4.8086305268
  0
LINE
  5
233
100
AcDbEntity
  8
0
100
AcDbLine
 62
7
  6
CONTINUOUS
 10
3.7619469908
 20
4.8083789639
 11
3.7616463207
 21
4.8096728425
  0
LINE
  5
234
100
AcDbEntity
  8
0
100
AcDbLine
 62
7
  6
CONTINUOUS
 10
3.7616463207
 20
4.8096728425
 11
3.7613961131
 21
4.8107805531
  0
LINE
  5
235
100
AcDbEntity
  8
0
100
AcDbLine
 62
7
  6
CONTINUOUS
 10
3.7613954088
 20
4.8107836994
 11
3.7611622983
 21
4.811841779
  0
LINE
  5
236
100
AcDbEntity
  8
0
100
AcDbLine
 62
7
  6
CONTINUOUS
 10
3.7612449995
 20
4.8114632416
 11
3.760987349
 21
4.8126549776
  0
LINE
  5
237
100
AcDbEntity
  8
0
100
AcDbLine
 62
7
  6
CONTINUOUS
 10
3.7610778737
 20
4.8122320348
 11
3.7607981703
 21
4.8135543552
  0
LINE
  5
238
100
AcDbEntity
  8
0
100
AcDbLine
 62
7
  6
CONTINUOUS
 10
3.7608959349
 20
4.8130868562
 11
3.7605960893
 21
4.8145394221
  0
LINE
  5
239
100
AcDbEntity
  8
0
100
AcDbLine
 62
7
  6
CONTINUOUS
 10
3.760700423
 20
4.8140275837
 11
3.7604906819
 21
4.8150637907
  0
LINE
  5
23A
100
AcDbEntity
  8
0
100
AcDbLine
 62
7
  6
CONTINUOUS
 10
3.7604927767
 20
4.8150533494
 11
3.7602722944
 21
4.8161755516
  0
LINE
  5
23B
100
AcDbEntity
  8
0
100
AcDbLine
 62
7
  6
CONTINUOUS
 10
3.7603849228
 20
4.8155978475
 11
3.7601598129
 21
4.8167626473
  0
LINE
  5
23C
100
AcDbEntity
  8
0
100
AcDbLine
 62
7
  6
CONTINUOUS
 10
3.7601623953
 20
4.8167492459
 11
3.7599296037
 21
4.8179982063
  0
LINE
  5
23D
100
AcDbEntity
  8
0
100
AcDbLine
 62
7
  6
CONTINUOUS
 10
3.7599324911
 20
4.8179826307
 11
3.7596974147
 21
4.8192959375
  0
LINE
  5
23E
100
AcDbEntity
  8
0
100
AcDbLine
 62
7
  6
CONTINUOUS
 10
3.7596974147
 20
4.8192959375
 11
3.759459546
 21
4.8206863704
  0
LWPOLYLINE
  5
23F
100
AcDbEntity
  8
0
100
AcDbPolyline
 62
7
  6
CONTINUOUS
 90
46
 70
0
 10
3.759459546
 20
4.8206863704
 10
3.7592213917
 20
4.8221513024
 10
3.759103044
 20
4.8229106746
 10
3.7589856052
 20
4.8236875864
 10
3.7588694718
 20
4.824481202
 10
3.7587549523
 20
4.8252912522
 10
3.7586423757
 20
4.8261173602
 10
3.7585321666
 20
4.8269584374
 10
3.7584246467
 20
4.8278141097
 10
3.7583201368
 20
4.8286840033
 10
3.758219047
 20
4.8295669389
 10
3.7581216893
 20
4.8304624799
 10
3.758028367
 20
4.8313702382
 10
3.7579394528
 20
4.8322890159
 10
3.7578552402
 20
4.8332182582
 10
3.7577760005
 20
4.8341576055
 10
3.7577020484
 20
4.835106093
 10
3.7576336488
 20
4.8360632342
 10
3.7575710529
 20
4.8370285887
 10
3.7575145221
 20
4.838001208
 10
3.7574642761
 20
4.838980594
 10
3.7574205281
 20
4.8399662683
 10
3.7573835011
 20
4.840957284
 10
3.7573533884
 20
4.8419529966
 10
3.7573303456
 20
4.8429530634
 10
3.7573145203
 20
4.8439569821
 10
3.7573060544
 20
4.8449641039
 10
3.7573050799
 20
4.8459741039
 10
3.7573117245
 20
4.8469869778
 10
3.7573260892
 20
4.8480022363
 10
3.7573482626
 20
4.8490194055
 10
3.7573783449
 20
4.8500385098
 10
3.7574164258
 20
4.8510590955
 10
3.7574625674
 20
4.8520807003
 10
3.7575168354
 20
4.8531033505
 10
3.7575792749
 20
4.8541265965
 10
3.7576499266
 20
4.8551499904
 10
3.7577288439
 20
4.8561735688
 10
3.7578160268
 20
4.8571968772
 10
3.7579114723
 20
4.8582194785
 10
3.7580152234
 20
4.8592414383
 10
3.7581272524
 20
4.8602623316
 10
3.758247517
 20
4.8612817409
 10
3.758376038
 20
4.8622997552
 10
3.7585127819
 20
4.8633161074
 10
3.7586576418
 20
4.8643301682
  0
LINE
  5
240
100
AcDbEntity
  8
0
100
AcDbLine
 62
7
  6
CONTINUOUS
 10
4.5123177577
 20
5.6977512504
 11
4.6097934985
 21
5.9655636474
  0
LINE
  5
241
100
AcDbEntity
  8
0
100
AcDbLine
 62
7
  6
CONTINUOUS
 10
5.5020235273
 20
3.7934178933
 11
5.8145235273
 21
3.7934178933
  0
LINE
  5
242
100
AcDbEntity
  8
0
100
AcDbLine
 62
7
  6
CONTINUOUS
 10
5.5095235273
 20
3.8009178933
 11
5.8070235273
 21
3.8009178933
  0
LINE
  5
243
100
AcDbEntity
  8
0
100
AcDbLine
 62
7
  6
CONTINUOUS
 10
5.5926485273
 20
3.8086678933
 11
5.7238985273
 21
3.8086678933
  0
LINE
  5
244
100
AcDbEntity
  8
0
100
AcDbLine
 62
7
  6
CONTINUOUS
 10
5.5645235273
 20
3.9336678933
 11
5.7520235273
 21
3.9336678933
  0
LINE
  5
245
100
AcDbEntity
  8
0
100
AcDbLine
 62
7
  6
CONTINUOUS
 10
5.5645235273
 20
3.9530428933
 11
5.3145235273
 21
3.9530428933
  0
LINE
  5
246
100
AcDbEntity
  8
0
100
AcDbLine
 62
7
  6
CONTINUOUS
 10
5.7520235273
 20
3.9530428933
 11
6.0020235273
 21
3.9530428933
  0
LINE
  5
247
100
AcDbEntity
  8
0
100
AcDbLine
 62
7
  6
CONTINUOUS
 10
5.5645235273
 20
4.0642928933
 11
5.3145235273
 21
4.0642928933
  0
LINE
  5
248
100
AcDbEntity
  8
0
100
AcDbLine
 62
7
  6
CONTINUOUS
 10
5.7520235273
 20
4.0642928933
 11
6.0020235273
 21
4.0642928933
  0
LINE
  5
249
100
AcDbEntity
  8
0
100
AcDbLine
 62
7
  6
CONTINUOUS
 10
5.5645235273
 20
4.0836678933
 11
5.7520235273
 21
4.0836678933
  0
LINE
  5
24A
100
AcDbEntity
  8
0
100
AcDbLine
 62
7
  6
CONTINUOUS
 10
5.5020235273
 20
4.0896678933
 11
5.8145235273
 21
4.0896678933
  0
LINE
  5
24B
100
AcDbEntity
  8
0
100
AcDbLine
 62
7
  6
CONTINUOUS
 10
5.18184875
 20
5.4540618983
 11
5.2793244909
 21
5.7218742952
  0
LINE
  5
24C
100
AcDbEntity
  8
0
100
AcDbLine
 62
7
  6
CONTINUOUS
 10
5.5095236242
 20
4.0971678933
 11
5.8070234303
 21
4.0971678933
  0
LINE
  5
24D
100
AcDbEntity
  8
0
100
AcDbLine
 62
7
  6
CONTINUOUS
 10
5.5157735273
 20
4.1021678933
 11
5.8007735273
 21
4.1021678933
  0
LINE
  5
24E
100
AcDbEntity
  8
0
100
AcDbLine
 62
7
  6
CONTINUOUS
 10
5.5095235273
 20
3.4096678933
 11
5.5020235273
 21
3.4171678933
  0
LINE
  5
24F
100
AcDbEntity
  8
0
100
AcDbLine
 62
7
  6
CONTINUOUS
 10
3.6079557239
 20
4.6165535859
 11
3.5979857382
 21
4.618080989
  0
LINE
  5
250
100
AcDbEntity
  8
0
100
AcDbLine
 62
7
  6
CONTINUOUS
 10
3.4882724588
 20
4.6348890774
 11
3.5369084877
 21
4.6274380316
  0
LINE
  5
251
100
AcDbEntity
  8
0
100
AcDbLine
 62
7
  6
CONTINUOUS
 10
3.5401833578
 20
4.6269363211
 11
3.5569136609
 21
4.6243732365
  0
LINE
  5
252
100
AcDbEntity
  8
0
100
AcDbLine
 62
7
  6
CONTINUOUS
 10
3.5700920195
 20
4.6223543103
 11
3.5800620052
 21
4.6208269072
  0
LINE
  5
253
100
AcDbEntity
  8
0
100
AcDbLine
 62
7
  6
CONTINUOUS
 10
3.6211340825
 20
4.6145346597
 11
3.6378643856
 21
4.6119715752
  0
LINE
  5
254
100
AcDbEntity
  8
0
100
AcDbLine
 62
7
  6
CONTINUOUS
 10
3.6411392557
 20
4.6114698647
 11
3.6897752846
 21
4.6040188188
  0
LINE
  5
255
100
AcDbEntity
  8
0
100
AcDbLine
 62
7
  6
CONTINUOUS
 10
3.7280528918
 20
4.6024542696
 11
3.451282035
 21
4.6448556002
  0
LINE
  5
256
100
AcDbEntity
  8
0
100
AcDbLine
 62
7
  6
CONTINUOUS
 10
3.7309026615
 20
4.6045468522
 11
3.449189432
 21
4.6477053549
  0
LINE
  5
257
100
AcDbEntity
  8
0
100
AcDbLine
 62
7
  6
CONTINUOUS
 10
5.8070235273
 20
3.4096678933
 11
5.8145235273
 21
3.4021678933
  0
LINE
  5
258
100
AcDbEntity
  8
0
100
AcDbLine
 62
7
  6
CONTINUOUS
 10
3.7597679476
 20
4.8188976926
 11
3.77772311
 21
4.8161469594
  0
LINE
  5
259
100
AcDbEntity
  8
0
100
AcDbLine
 62
7
  6
CONTINUOUS
 10
5.3145235273
 20
4.0642928933
 11
5.3145235273
 21
3.9530428933
  0
LINE
  5
25A
100
AcDbEntity
  8
0
100
AcDbLine
 62
7
  6
CONTINUOUS
 10
3.7585602221
 20
4.8651135684
 11
3.7587703996
 21
4.8650813692
  0
LINE
  5
25B
100
AcDbEntity
  8
0
100
AcDbLine
 62
7
  6
CONTINUOUS
 10
3.7596959722
 20
4.8725270744
 11
3.7599061498
 21
4.8724948758
  0
LINE
  5
25C
100
AcDbEntity
  8
0
100
AcDbLine
 62
7
  6
CONTINUOUS
 10
3.7746840959
 20
4.9162617441
 11
3.7926392943
 21
4.9135110054
  0
LINE
  5
25D
100
AcDbEntity
  8
0
100
AcDbLine
 62
7
  6
CONTINUOUS
 10
5.4107735273
 20
2.4284178933
 11
5.4107735273
 21
2.5271678933
  0
LINE
  5
25E
100
AcDbEntity
  8
0
100
AcDbLine
 62
7
  6
CONTINUOUS
 10
5.5095235273
 20
4.0971678933
 11
5.5020235273
 21
4.0896678933
  0
LINE
  5
25F
100
AcDbEntity
  8
0
100
AcDbLine
 62
7
  6
CONTINUOUS
 10
5.8070235273
 20
4.0971678933
 11
5.8145235273
 21
4.0896678933
  0
LINE
  5
260
100
AcDbEntity
  8
0
100
AcDbLine
 62
7
  6
CONTINUOUS
 10
5.5020235273
 20
2.5346678933
 11
5.5020235273
 21
3.9530428933
  0
LINE
  5
261
100
AcDbEntity
  8
0
100
AcDbLine
 62
7
  6
CONTINUOUS
 10
5.5020235273
 20
4.0642928933
 11
5.5020235273
 21
4.0896678933
  0
LINE
  5
262
100
AcDbEntity
  8
0
100
AcDbLine
 62
7
  6
CONTINUOUS
 10
5.5157735273
 20
4.1021678933
 11
5.5157735273
 21
4.9771678933
  0
LINE
  5
263
100
AcDbEntity
  8
0
100
AcDbLine
 62
7
  6
CONTINUOUS
 10
5.5645235273
 20
3.9336678933
 11
5.5645235273
 21
3.9530428933
  0
LINE
  5
264
100
AcDbEntity
  8
0
100
AcDbLine
 62
7
  6
CONTINUOUS
 10
5.5645235273
 20
4.0642928933
 11
5.5645235273
 21
4.0836678933
  0
LINE
  5
265
100
AcDbEntity
  8
0
100
AcDbLine
 62
7
  6
CONTINUOUS
 10
5.5926485273
 20
3.8086678933
 11
5.5926485273
 21
3.9336678933
  0
LINE
  5
266
100
AcDbEntity
  8
0
100
AcDbLine
 62
7
  6
CONTINUOUS
 10
5.5950235273
 20
3.8009178933
 11
5.5950235273
 21
3.8086678933
  0
LINE
  5
267
100
AcDbEntity
  8
0
100
AcDbLine
 62
7
  6
CONTINUOUS
 10
5.5157735273
 20
4.9771678933
 11
5.8007735273
 21
4.9771678933
  0
LINE
  5
268
100
AcDbEntity
  8
0
100
AcDbLine
 62
7
  6
CONTINUOUS
 10
3.8166517918
 20
5.1642665581
 11
3.5349385623
 21
5.2074250608
  0
LINE
  5
269
100
AcDbEntity
  8
0
100
AcDbLine
 62
7
  6
CONTINUOUS
 10
3.8150534402
 20
5.1670405935
 11
3.5372940806
 21
5.2095933628
  0
LINE
  5
26A
100
AcDbEntity
  8
0
100
AcDbLine
 62
7
  6
CONTINUOUS
 10
3.8159998986
 20
5.1732185152
 11
3.538240539
 21
5.2157712845
  0
LINE
  5
26B
100
AcDbEntity
  8
0
100
AcDbLine
 62
7
  6
CONTINUOUS
 10
3.8181661252
 20
5.1741512328
 11
3.5364528958
 21
5.2173097355
  0
LINE
  5
26C
100
AcDbEntity
  8
0
100
AcDbLine
 62
7
  6
CONTINUOUS
 10
5.7215235273
 20
3.8009178933
 11
5.7215235273
 21
3.8086678933
  0
LINE
  5
26D
100
AcDbEntity
  8
0
100
AcDbLine
 62
7
  6
CONTINUOUS
 10
5.7238985273
 20
3.8086678933
 11
5.7238985273
 21
3.9336678933
  0
LINE
  5
26E
100
AcDbEntity
  8
0
100
AcDbLine
 62
7
  6
CONTINUOUS
 10
5.7520235273
 20
3.9336678933
 11
5.7520235273
 21
3.9530428933
  0
LINE
  5
26F
100
AcDbEntity
  8
0
100
AcDbLine
 62
7
  6
CONTINUOUS
 10
5.7520235273
 20
4.0642928933
 11
5.7520235273
 21
4.0836678933
  0
LINE
  5
270
100
AcDbEntity
  8
0
100
AcDbLine
 62
7
  6
CONTINUOUS
 10
3.837095293
 20
5.2977096668
 11
3.5553820636
 21
5.3408681695
  0
LINE
  5
271
100
AcDbEntity
  8
0
100
AcDbLine
 62
7
  6
CONTINUOUS
 10
5.8007735273
 20
4.1021678933
 11
5.8007735273
 21
4.9771678933
  0
LINE
  5
272
100
AcDbEntity
  8
0
100
AcDbLine
 62
7
  6
CONTINUOUS
 10
5.8145235273
 20
2.5346678933
 11
5.8145235273
 21
3.9530428933
  0
LINE
  5
273
100
AcDbEntity
  8
0
100
AcDbLine
 62
7
  6
CONTINUOUS
 10
5.8145235273
 20
4.0642928933
 11
5.8145235273
 21
4.0896678933
  0
LINE
  5
274
100
AcDbEntity
  8
0
100
AcDbLine
 62
7
  6
CONTINUOUS
 10
5.9057735273
 20
2.4284178933
 11
5.9057735273
 21
2.5271678933
  0
LINE
  5
275
100
AcDbEntity
  8
0
100
AcDbLine
 62
7
  6
CONTINUOUS
 10
5.5095235273
 20
3.4096678933
 11
5.5020235273
 21
3.4021678933
  0
LINE
  5
276
100
AcDbEntity
  8
0
100
AcDbLine
 62
7
  6
CONTINUOUS
 10
6.0020235273
 20
4.0642928933
 11
6.0020235273
 21
3.9530428933
  0
LINE
  5
277
100
AcDbEntity
  8
0
100
AcDbLine
 62
7
  6
CONTINUOUS
 10
5.8070235273
 20
3.4096678933
 11
5.8145235273
 21
3.4171678933
  0
LINE
  5
278
100
AcDbEntity
  8
0
100
AcDbLine
 62
7
  6
CONTINUOUS
 10
5.18184875
 20
5.4540618983
 11
4.5123177577
 21
5.6977512504
  0
LINE
  5
279
100
AcDbEntity
  8
0
100
AcDbLine
 62
7
  6
CONTINUOUS
 10
5.2793244909
 20
5.7218742952
 11
4.6097934985
 21
5.9655636474
  0
ARC
  5
27A
100
AcDbEntity
  8
0
100
AcDbCircle
 62
7
  6
CONTINUOUS
 10
5.0082735273
 20
4.9771678933
 40
0.7925
100
AcDbArc
 50
0.0
 51
70.0
  0
ARC
  5
27B
100
AcDbEntity
  8
0
100
AcDbCircle
 62
7
  6
CONTINUOUS
 10
4.338742535
 20
5.2208572454
 40
0.7925
100
AcDbArc
 50
70.0
 51
171.29
  0
ARC
  5
27C
100
AcDbEntity
  8
0
100
AcDbCircle
 62
7
  6
CONTINUOUS
 10
5.0082735273
 20
4.9771678933
 40
0.5075
100
AcDbArc
 50
0.0
 51
70.0
  0
ARC
  5
27D
100
AcDbEntity
  8
0
100
AcDbCircle
 62
7
  6
CONTINUOUS
 10
4.338742535
 20
5.2208572454
 40
0.5075
100
AcDbArc
 50
70.0
 51
171.29
  0
ARC
  5
27E
100
AcDbEntity
  8
0
100
AcDbCircle
 62
7
  6
CONTINUOUS
 10
3.6599056234
 20
4.884021217
 40
0.1425
100
AcDbArc
 50
333.9793829162
 51
8.6006170838
  0
CIRCLE
  5
27F
100
AcDbEntity
  8
0
100
AcDbCircle
 62
7
  6
CONTINUOUS
 10
5.6582735273
 20
4.0086678933
 40
0.055625
  0
ARC
  5
280
100
AcDbEntity
  8
0
100
AcDbCircle
 62
7
  6
CONTINUOUS
 10
3.7791995851
 20
4.8257845173
 40
0.00975
100
AcDbArc
 50
261.29
 51
333.9793829162
  0
ARC
  5
281
100
AcDbEntity
  8
0
100
AcDbCircle
 62
7
  6
CONTINUOUS
 10
3.7911628192
 20
4.9038734475
 40
0.00975
100
AcDbArc
 50
8.6006170838
 51
81.29
  0
ARC
  5
282
100
AcDbEntity
  8
0
100
AcDbCircle
 62
7
  6
CONTINUOUS
 10
5.4182735273
 20
2.5271678933
 40
0.0075
100
AcDbArc
 50
90.0
 51
180.0
  0
ARC
  5
283
100
AcDbEntity
  8
0
100
AcDbCircle
 62
7
  6
CONTINUOUS
 10
5.8982735273
 20
2.5271678933
 40
0.0075
100
AcDbArc
 50
0.0
 51
90.0
  0
ARC
  5
284
100
AcDbEntity
  8
0
100
AcDbCircle
 62
7
  6
CONTINUOUS
 10
5.5095235273
 20
3.7934178933
 40
0.0075
100
AcDbArc
 50
90.0
 51
180.0
  0
ARC
  5
285
100
AcDbEntity
  8
0
100
AcDbCircle
 62
7
  6
CONTINUOUS
 10
5.8070235273
 20
3.7934178933
 40
0.0075
100
AcDbArc
 50
0.0
 51
90.0
  0
ARC
  5
286
100
AcDbEntity
  8
0
100
AcDbCircle
 62
7
  6
CONTINUOUS
 10
3.4516606007
 20
4.6473267715
 40
0.0025
100
AcDbArc
 50
171.29
 51
261.29
  0
ARC
  5
287
100
AcDbEntity
  8
0
100
AcDbCircle
 62
7
  6
CONTINUOUS
 10
3.7284314928
 20
4.6049254356
 40
0.0025
100
AcDbArc
 50
261.29
 51
351.29
  0
ARC
  5
288
100
AcDbEntity
  8
0
100
AcDbCircle
 62
7
  6
CONTINUOUS
 10
3.537409731
 20
5.2070464774
 40
0.0025
100
AcDbArc
 50
86.29
 51
171.29
  0
ARC
  5
289
100
AcDbEntity
  8
0
100
AcDbCircle
 62
7
  6
CONTINUOUS
 10
3.8141806231
 20
5.1646451415
 40
0.0025
100
AcDbArc
 50
351.29
 51
73.79
  0
SPLINE
  5
28A
100
AcDbEntity
  8
0
100
AcDbSpline
 62
7
  6
CONTINUOUS
 70
0
 71
3
 72
12
 73
8
 74
0
 42
0.0000001
 43
0.0000001
 44
0.0000000001
 40
0.0
 40
0.0
 40
0.0
 40
0.0
 40
0.0770863199
 40
0.2948917781
 40
0.6186608248
 40
0.8055973811
 40
1.0
 40
1.0
 40
1.0
 40
1.0
 10
3.8283878758
 20
5.2408727872
 30
0.0
 10
3.8283674247
 20
5.241550774
 30
0.0
 10
3.8283062263
 20
5.2441449403
 30
0.0
 10
3.8283164442
 20
5.2495898917
 30
0.0
 10
3.8286397063
 20
5.2559963318
 30
0.0
 10
3.8292460989
 20
5.2621720254
 30
0.0
 10
3.8296934551
 20
5.2654984878
 30
0.0
 10
3.8299524951
 20
5.2671893481
 30
0.0
  0
SPLINE
  5
28B
100
AcDbEntity
  8
0
100
AcDbSpline
 62
7
  6
CONTINUOUS
 70
0
 71
3
 72
12
 73
8
 74
0
 42
0.0000001
 43
0.0000001
 44
0.0000000001
 40
0.0
 40
0.0
 40
0.0
 40
0.0
 40
0.1944026186
 40
0.3813391749
 40
0.7051082216
 40
0.9229136797
 40
1.0
 40
1.0
 40
1.0
 40
1.0
 10
3.8299524951
 20
5.2671893481
 30
0.0
 10
3.8302115351
 20
5.2688802085
 30
0.0
 10
3.8307805525
 20
5.2721880323
 30
0.0
 10
3.8320508128
 20
5.2782620213
 30
0.0
 10
3.8336602976
 20
5.284471412
 30
0.0
 10
3.8352806244
 20
5.2896696944
 30
0.0
 10
3.8361156416
 20
5.2921265604
 30
0.0
 10
3.8363381263
 20
5.2927673294
 30
0.0
  0
SPLINE
  5
28C
100
AcDbEntity
  8
0
100
AcDbSpline
 62
7
  6
CONTINUOUS
 70
0
 71
3
 72
29
 73
25
 74
0
 42
0.0000001
 43
0.0000001
 44
0.0000000001
 40
0.0
 40
0.0
 40
0.0
 40
0.0
 40
0.0109764197
 40
0.0427247391
 40
0.0923235276
 40
0.1563309125
 40
0.1927477309
 40
0.2316470354
 40
0.3156674933
 40
0.360229826
 40
0.4060646697
 40
0.4527981346
 40
0.5000000008
 40
0.5472018688
 40
0.5939353324
 40
0.6397701741
 40
0.6843325063
 40
0.7683529636
 40
0.807252268
 40
0.8436690855
 40
0.9076764711
 40
0.9572752599
 40
0.9890235798
 40
1.0
 40
1.0
 40
1.0
 40
1.0
 10
5.5645235273
 20
3.9530428933
 30
0.0
 10
5.5647448279
 20
3.9534158741
 30
0.0
 10
5.5656020828
 20
3.9548701383
 30
0.0
 10
5.5674183825
 20
3.9580338641
 30
0.0
 10
5.5701581465
 20
3.9630823406
 30
0.0
 10
5.5727834972
 20
3.9683996684
 30
0.0
 10
5.5750159018
 20
3.9734326264
 30
0.0
 10
5.5773700963
 20
3.9792722959
 30
0.0
 10
5.5794609863
 20
3.9855634163
 30
0.0
 10
5.5811023591
 20
3.9922601341
 30
0.0
 10
5.5820641909
 20
3.997596342
 30
0.0
 10
5.5826707096
 20
4.0030900995
 30
0.0
 10
5.5828782212
 20
4.0086678934
 30
0.0
 10
5.5826707096
 20
4.0142456874
 30
0.0
 10
5.5820641909
 20
4.0197394447
 30
0.0
 10
5.5811023591
 20
4.0250756526
 30
0.0
 10
5.5794609863
 20
4.0317723702
 30
0.0
 10
5.5773700963
 20
4.0380634905
 30
0.0
 10
5.5750159018
 20
4.04390316
 30
0.0
 10
5.5727834972
 20
4.048936118
 30
0.0
 10
5.5701581466
 20
4.0542534458
 30
0.0
 10
5.5674183826
 20
4.0593019224
 30
0.0
 10
5.5656020828
 20
4.0624656482
 30
0.0
 10
5.564744828
 20
4.0639199124
 30
0.0
 10
5.5645235273
 20
4.0642928933
 30
0.0
  0
SPLINE
  5
28D
100
AcDbEntity
  8
0
100
AcDbSpline
 62
7
  6
CONTINUOUS
 70
0
 71
3
 72
17
 73
13
 74
0
 42
0.0000001
 43
0.0000001
 44
0.0000000001
 40
0.0
 40
0.0
 40
0.0
 40
0.0
 40
0.0863580384
 40
0.1720448945
 40
0.2564072621
 40
0.3388356537
 40
0.4956512036
 40
0.63849999
 40
0.7637881514
 40
0.8680496043
 40
0.9478490484
 40
1.0
 40
1.0
 40
1.0
 40
1.0
 10
3.7596959722
 20
4.8725270744
 30
0.0
 10
3.75994388
 20
4.874145085
 30
0.0
 10
3.7605011512
 20
4.8773591713
 30
0.0
 10
3.7615152478
 20
4.8821134669
 30
0.0
 10
3.7626906924
 20
4.8867537046
 30
0.0
 10
3.7644113253
 20
4.8926424283
 30
0.0
 10
3.7667938136
 20
4.8994876586
 30
0.0
 10
3.7698867704
 20
4.9069290618
 30
0.0
 10
3.7729100532
 20
4.9133100327
 30
0.0
 10
3.7756217074
 20
4.9185101899
 30
0.0
 10
3.7778040932
 20
4.9224200993
 30
0.0
 10
3.7790646004
 20
4.9245804289
 30
0.0
 10
3.7795690725
 20
4.925430519
 30
0.0
  0
SPLINE
  5
28E
100
AcDbEntity
  8
0
100
AcDbSpline
 62
7
  6
CONTINUOUS
 70
0
 71
3
 72
17
 73
13
 74
0
 42
0.0000001
 43
0.0000001
 44
0.0000000001
 40
0.0
 40
0.0
 40
0.0
 40
0.0
 40
0.0515223611
 40
0.1309256613
 40
0.2350061133
 40
0.3602966856
 40
0.5032990269
 40
0.6603898507
 40
0.742990664
 40
0.8275438793
 40
0.9134321582
 40
1.0
 40
1.0
 40
1.0
 40
1.0
 10
3.7616972852
 20
4.8086305268
 30
0.0
 10
3.7614726897
 20
4.8095819656
 30
0.0
 10
3.7609195724
 20
4.8120038938
 30
0.0
 10
3.7600092275
 20
4.8163694169
 30
0.0
 10
3.758976018
 20
4.8221373815
 30
0.0
 10
3.7579960953
 20
4.8291367973
 30
0.0
 10
3.7572659951
 20
4.8371787334
 30
0.0
 10
3.7570375933
 20
4.8444419705
 30
0.0
 10
3.7571563876
 20
4.8505941648
 30
0.0
 10
3.7574235861
 20
4.8553891309
 30
0.0
 10
3.7578793055
 20
4.86024544
 30
0.0
 10
3.7583114875
 20
4.8634899674
 30
0.0
 10
3.7585602221
 20
4.8651135684
 30
0.0
  0
SPLINE
  5
28F
100
AcDbEntity
  8
0
100
AcDbSpline
 62
7
  6
CONTINUOUS
 70
0
 71
3
 72
29
 73
25
 74
0
 42
0.0000001
 43
0.0000001
 44
0.0000000001
 40
0.0
 40
0.0
 40
0.0
 40
0.0
 40
0.0109764197
 40
0.0427247392
 40
0.0923235279
 40
0.1563309131
 40
0.1927477315
 40
0.2316470362
 40
0.3156674932
 40
0.3602298256
 40
0.4060646694
 40
0.4527981345
 40
0.5000000011
 40
0.5472018688
 40
0.5939353326
 40
0.6397701745
 40
0.6843325062
 40
0.7683529627
 40
0.8072522672
 40
0.8436690848
 40
0.9076764707
 40
0.9572752598
 40
0.9890235798
 40
1.0
 40
1.0
 40
1.0
 40
1.0
 10
5.7520235273
 20
4.0642928933
 30
0.0
 10
5.7518022266
 20
4.0639199124
 30
0.0
 10
5.7509449717
 20
4.0624656482
 30
0.0
 10
5.749128672
 20
4.0593019224
 30
0.0
 10
5.746388908
 20
4.0542534459
 30
0.0
 10
5.7437635573
 20
4.0489361181
 30
0.0
 10
5.7415311527
 20
4.0439031601
 30
0.0
 10
5.7391769582
 20
4.0380634906
 30
0.0
 10
5.7370860682
 20
4.0317723702
 30
0.0
 10
5.7354446954
 20
4.0250756525
 30
0.0
 10
5.7344828636
 20
4.0197394446
 30
0.0
 10
5.7338763449
 20
4.0142456871
 30
0.0
 10
5.7336688333
 20
4.0086678931
 30
0.0
 10
5.7338763449
 20
4.0030900992
 30
0.0
 10
5.7344828636
 20
3.9975963418
 30
0.0
 10
5.7354446954
 20
3.992260134
 30
0.0
 10
5.7370860682
 20
3.9855634164
 30
0.0
 10
5.7391769582
 20
3.9792722961
 30
0.0
 10
5.7415311527
 20
3.9734326266
 30
0.0
 10
5.7437635572
 20
3.9683996686
 30
0.0
 10
5.7463889079
 20
3.9630823408
 30
0.0
 10
5.749128672
 20
3.9580338642
 30
0.0
 10
5.7509449717
 20
3.9548701384
 30
0.0
 10
5.7518022266
 20
3.9534158741
 30
0.0
 10
5.7520235273
 20
3.9530428933
 30
0.0
  0
ELLIPSE
  5
290
100
AcDbEntity
  8
0
100
AcDbEllipse
 62
7
  6
CONTINUOUS
 10
3.5887173719
 20
4.6174532981
 30
0.0
 11
0.0691924602
 21
-0.0612318758
 31
0.0
 40
0.0717446904
 41
1.5001189359
 42
1.5848321117
  0
ELLIPSE
  5
291
100
AcDbEntity
  8
0
100
AcDbEllipse
 62
7
  6
CONTINUOUS
 10
3.7094555491
 20
4.6725911353
 30
0.0
 11
0.1874770892
 21
0.0845641504
 31
0.0
 40
0.0549449437
 41
-2.1674769265
 42
-2.1197055383
  0
ELLIPSE
  5
292
100
AcDbEntity
  8
0
100
AcDbEllipse
 62
7
  6
CONTINUOUS
 10
3.5887173719
 20
4.6174532981
 30
0.0
 11
0.0689822258
 21
-0.058624365
 31
0.0
 40
0.2168892597
 41
1.272662537
 42
1.3573757127
  0
ELLIPSE
  5
293
100
AcDbEntity
  8
0
100
AcDbEllipse
 62
7
  6
CONTINUOUS
 10
3.6987157837
 20
4.6742364687
 30
0.0
 11
0.179331108
 21
0.0824947055
 31
0.0
 40
0.1730990572
 41
-1.9953170383
 42
-1.9475456502
  0
ELLIPSE
  5
294
100
AcDbEntity
  8
0
100
AcDbEllipse
 62
7
  6
CONTINUOUS
 10
3.5887173719
 20
4.6174532981
 30
0.0
 11
0.0689927161
 21
-0.0529919009
 31
0.0
 40
0.365809989
 41
1.024197395
 42
1.0465220114
  0
ELLIPSE
  5
295
100
AcDbEntity
  8
0
100
AcDbEllipse
 62
7
  6
CONTINUOUS
 10
3.6782875359
 20
4.6773660788
 30
0.0
 11
0.164485918
 21
0.0776508014
 31
0.0
 40
0.3175215947
 41
-1.8116761715
 42
-1.7639047834
  0
ELLIPSE
  5
296
100
AcDbEntity
  8
0
100
AcDbEllipse
 62
7
  6
CONTINUOUS
 10
3.6501704651
 20
4.6816736177
 30
0.0
 11
0.1461669158
 21
0.0677812734
 31
0.0
 40
0.5099348041
 41
-1.5970917109
 42
-1.5493203228
  0
ELLIPSE
  5
297
100
AcDbEntity
  8
0
100
AcDbEllipse
 62
7
  6
CONTINUOUS
 10
3.5887173719
 20
4.6174532981
 30
0.0
 11
0.0843502327
 21
0.0377091156
 31
0.0
 40
0.0717446904
 41
1.5567605419
 42
1.6414737176
  0
ELLIPSE
  5
298
100
AcDbEntity
  8
0
100
AcDbEllipse
 62
7
  6
CONTINUOUS
 10
3.6171168659
 20
4.6867374333
 30
0.0
 11
0.1330782108
 21
0.0386269878
 31
0.0
 40
0.7641869673
 41
-1.226898569
 42
-1.1791271808
  0
ELLIPSE
  5
299
100
AcDbEntity
  8
0
100
AcDbEllipse
 62
7
  6
CONTINUOUS
 10
3.4900235718
 20
4.7062081422
 30
0.0
 11
0.1535623218
 21
-0.1368114317
 31
0.0
 40
0.0549449437
 41
-1.0218871153
 42
-0.9741157271
  0
ELLIPSE
  5
29A
100
AcDbEntity
  8
0
100
AcDbEllipse
 62
7
  6
CONTINUOUS
 10
3.5887173719
 20
4.6174532981
 30
0.0
 11
0.0833690199
 21
0.0352841347
 31
0.0
 40
0.2168892597
 41
1.7842169409
 42
1.8689301166
  0
ELLIPSE
  5
29B
100
AcDbEntity
  8
0
100
AcDbEllipse
 62
7
  6
CONTINUOUS
 10
3.5007633372
 20
4.7045628087
 30
0.0
 11
0.1464094865
 21
-0.1323982061
 31
0.0
 40
0.1730990572
 41
-1.1940470034
 42
-1.1462756153
  0
ELLIPSE
  5
29C
100
AcDbEntity
  8
0
100
AcDbEllipse
 62
7
  6
CONTINUOUS
 10
3.5887173719
 20
4.6174532981
 30
0.0
 11
0.0816928165
 21
0.0299068581
 31
0.0
 40
0.365809989
 41
2.0950706422
 42
2.1173952585
  0
ELLIPSE
  5
29D
100
AcDbEntity
  8
0
100
AcDbEllipse
 62
7
  6
CONTINUOUS
 10
3.5211915849
 20
4.7014331986
 30
0.0
 11
0.1336952963
 21
-0.1233322014
 31
0.0
 40
0.3175215947
 41
-1.3776878702
 42
-1.3299164821
  0
ELLIPSE
  5
29E
100
AcDbEntity
  8
0
100
AcDbEllipse
 62
7
  6
CONTINUOUS
 10
3.5493086558
 20
4.6971256597
 30
0.0
 11
-0.1191711577
 21
0.1084311
 31
0.0
 40
0.5099348041
 41
1.5493203228
 42
1.5970917109
  0
ELLIPSE
  5
29F
100
AcDbEntity
  8
0
100
AcDbEllipse
 62
7
  6
CONTINUOUS
 10
3.582362255
 20
4.6920618441
 30
0.0
 11
-0.1154107858
 21
0.0766955337
 31
0.0
 40
0.7641869673
 41
1.1791271808
 42
1.226898569
  0
ELLIPSE
  5
2A0
100
AcDbEntity
  8
0
100
AcDbEllipse
 62
7
  6
CONTINUOUS
 10
3.5901596218
 20
4.6268674542
 30
0.0
 11
0.0055620949
 21
-0.0049221765
 31
0.0
 40
0.0717446904
 41
-0.7495168797
 42
0.5276674715
  0
ELLIPSE
  5
2A1
100
AcDbEntity
  8
0
100
AcDbEllipse
 62
7
  6
CONTINUOUS
 10
3.4900235718
 20
4.7062081422
 30
0.0
 11
0.1535623218
 21
-0.1368114317
 31
0.0
 40
0.0549449437
 41
0.8052278119
 42
0.8529992
  0
ELLIPSE
  5
2A2
100
AcDbEntity
  8
0
100
AcDbEllipse
 62
7
  6
CONTINUOUS
 10
3.5007633372
 20
4.7045628087
 30
0.0
 11
0.1464094865
 21
-0.1323982061
 31
0.0
 40
0.1730990572
 41
0.6330679237
 42
0.6808393119
  0
ELLIPSE
  5
2A3
100
AcDbEntity
  8
0
100
AcDbEllipse
 62
7
  6
CONTINUOUS
 10
3.618872227
 20
4.6224686794
 30
0.0
 11
0.005545195
 21
-0.0047125695
 31
0.0
 40
0.2168892597
 41
5.3062120285
 42
6.5833963797
  0
ELLIPSE
  5
2A4
100
AcDbEntity
  8
0
100
AcDbEllipse
 62
7
  6
CONTINUOUS
 10
3.5211915849
 20
4.7014331986
 30
0.0
 11
0.1336952963
 21
-0.1233322014
 31
0.0
 40
0.3175215947
 41
0.449427057
 42
0.4971984451
  0
ELLIPSE
  5
2A5
100
AcDbEntity
  8
0
100
AcDbEllipse
 62
7
  6
CONTINUOUS
 10
3.6447742424
 20
4.6185004873
 30
0.0
 11
0.0055460383
 21
-0.0042597991
 31
0.0
 40
0.365809989
 41
5.1407069884
 42
6.3349312378
  0
ELLIPSE
  5
2A6
100
AcDbEntity
  8
0
100
AcDbEllipse
 62
7
  6
CONTINUOUS
 10
3.5493086558
 20
4.6971256597
 30
0.0
 11
-0.1191711577
 21
0.1084311
 31
0.0
 40
0.5099348041
 41
-2.9067500572
 42
-2.8589786691
  0
ELLIPSE
  5
2A7
100
AcDbEntity
  8
0
100
AcDbEllipse
 62
7
  6
CONTINUOUS
 10
3.5901596218
 20
4.6268674542
 30
0.0
 11
0.0067805653
 21
0.0030312794
 31
0.0
 40
0.0717446904
 41
8.8971104901
 42
10.1742948295
  0
ELLIPSE
  5
2A8
100
AcDbEntity
  8
0
100
AcDbEllipse
 62
7
  6
CONTINUOUS
 10
3.582362255
 20
4.6920618441
 30
0.0
 11
-0.1154107858
 21
0.0766955337
 31
0.0
 40
0.7641869673
 41
-3.2769431992
 42
-3.2291718111
  0
ELLIPSE
  5
2A9
100
AcDbEntity
  8
0
100
AcDbEllipse
 62
7
  6
CONTINUOUS
 10
3.7094555491
 20
4.6725911353
 30
0.0
 11
0.1874770892
 21
0.0845641504
 31
0.0
 40
0.0549449437
 41
2.2885934535
 42
2.3363648417
  0
ELLIPSE
  5
2AA
100
AcDbEntity
  8
0
100
AcDbEllipse
 62
7
  6
CONTINUOUS
 10
3.5614470165
 20
4.6312662289
 30
0.0
 11
0.0067016897
 21
0.0028363452
 31
0.0
 40
0.2168892597
 41
2.8413815819
 42
4.1185659213
  0
ELLIPSE
  5
2AB
100
AcDbEntity
  8
0
100
AcDbEllipse
 62
7
  6
CONTINUOUS
 10
3.6987157837
 20
4.6742364687
 30
0.0
 11
0.179331108
 21
0.0824947055
 31
0.0
 40
0.1730990572
 41
2.4607533417
 42
2.5085247298
  0
ELLIPSE
  5
2AC
100
AcDbEntity
  8
0
100
AcDbEllipse
 62
7
  6
CONTINUOUS
 10
3.5355450012
 20
4.635234421
 30
0.0
 11
0.0065669467
 21
0.0024040883
 31
0.0
 40
0.365809989
 41
3.0898467238
 42
4.2840709762
  0
ELLIPSE
  5
2AD
100
AcDbEntity
  8
0
100
AcDbEllipse
 62
7
  6
CONTINUOUS
 10
3.6782875359
 20
4.6773660788
 30
0.0
 11
0.164485918
 21
0.0776508014
 31
0.0
 40
0.3175215947
 41
2.6443942085
 42
2.6921655966
  0
ELLIPSE
  5
2AE
100
AcDbEntity
  8
0
100
AcDbEllipse
 62
7
  6
CONTINUOUS
 10
3.6501704651
 20
4.6816736177
 30
0.0
 11
0.1461669158
 21
0.0677812734
 31
0.0
 40
0.5099348041
 41
2.8589786691
 42
2.9067500572
  0
ELLIPSE
  5
2AF
100
AcDbEntity
  8
0
100
AcDbEllipse
 62
7
  6
CONTINUOUS
 10
3.6171168659
 20
4.6867374333
 30
0.0
 11
0.1330782108
 21
0.0386269878
 31
0.0
 40
0.7641869673
 41
-3.0540134961
 42
-3.006242108
  0
ENDSEC
  0
SECTION
  2
OBJECTS
  0
DICTIONARY
  5
C
100
AcDbDictionary
280
0
281
1
  3
ACAD_GROUP
350
D
  3
ACAD_MLINESTYLE
350
17
  3
ACAD_LAYOUT
350
1A
  3
ACAD_PLOTSETTINGS
350
19
  3
ACAD_PLOTSTYLENAME
350
E
  0
DICTIONARY
  5
D
102
{ACAD_REACTORS
330
C
102
}
100
AcDbDictionary
280
0
281
1
  0
ACDBDICTIONARYWDFLT
  5
E
102
{ACAD_REACTORS
330
C
102
}
100
AcDbDictionary
281
1
  3
Normal
350
F
100
AcDbDictionaryWithDefault
340
F
  0
DICTIONARY
  5
17
102
{ACAD_REACTORS
330
C
102
}
100
AcDbDictionary
280
0
281
1
  3
Standard
350
18
  0
DICTIONARY
  5
19
102
{ACAD_REACTORS
330
C
102
}
100
AcDbDictionary
281
1
  0
DICTIONARY
  5
1A
102
{ACAD_REACTORS
330
C
102
}
100
AcDbDictionary
281
1
  3
Model
350
2B0
  3
Layout1
350
2B1
  0
ACDBPLACEHOLDER
  5
F
102
{ACAD_REACTORS
330
E
102
}
  0
MLINESTYLE
  5
18
102
{ACAD_REACTORS
330
17
102
}
100
AcDbMlineStyle
  2
STANDARD
 70
0
  3

 62
256
 51
90.0
 52
90.0
 71
2
 49
0.5
 62
256
  6
BYLAYER
 49
-0.5
 62
256
  6
BYLAYER
  0
LAYOUT
  5
2B0
102
{ACAD_REACTORS
330
1A
102
}
100
AcDbPlotSettings
  1

  2
none_device
  4
ANSI_A_(11.00_x_8.50_Inches)
  6

 40
0.0
 41
0.0
 42
0.0
 43
0.0
 44
279.4
 45
215.9
 46
0.0
 47
0.0
 48
0.0
 49
0.0
140
0.0
141
0.0
142
1.0
143
1.0
 70
1024
 72
0
 73
0
 74
0
  7

 75
0
147
1.0
148
0.0
149
0.0
100
AcDbLayout
  1
Model
 70
0
 71
0
 10
0.0
 20
0.0
 11
11.0
 21
8.5
 12
0.0
 22
0.0
 32
0.0
 14
0.0
 24
0.0
 34
0.0
 15
0.0
 25
0.0
 35
0.0
146
0.0
 13
0.0
 23
0.0
 33
0.0
 16
1.0
 26
0.0
 36
0.0
 17
0.0
 27
1.0
 37
0.0
 76
0
330
202
345
0
346
0
  0
LAYOUT
  5
2B1
102
{ACAD_REACTORS
330
1A
102
}
100
AcDbPlotSettings
  1

  2
none_device
  4
ANSI_A_(11.00_x_8.50_Inches)
  6

 40
0.0
 41
0.0
 42
0.0
 43
0.0
 44
279.4
 45
215.9
 46
0.0
 47
0.0
 48
0.0
 49
0.0
140
0.0
141
0.0
142
1.0
143
1.0
 70
0
 72
0
 73
0
 74
0
  7

 75
0
147
1.0
148
0.0
149
0.0
100
AcDbLayout
  1
Layout1
 70
0
 71
1
 10
0.0
 20
0.0
 11
11.0
 21
8.5
 12
0.0
 22
0.0
 32
0.0
 14
0.0
 24
0.0
 34
0.0
 15
0.0
 25
0.0
 35
0.0
146
0.0
 13
0.0
 23
0.0
 33
0.0
 16
1.0
 26
0.0
 36
0.0
 17
0.0
 27
1.0
 37
0.0
 76
0
330
203
345
0
346
0
  0
ENDSEC
  0
EOF
