999
DXF file: 1400-5463_RIGHT.dxf
999
Pro/ENGINEER 2019352 by Parametric Technology Corporation
  0
SECTION
  2
HEADER
  9
$ACADVER
  1
AC1032
  9
$DWGCODEPAGE
  3
ANSI_1252
  9
$EXTMAX
 10
11.0
 20
8.5
 30
0.0
  9
$EXTMIN
 10
0.0
 20
0.0
 30
0.0
  9
$LIMMIN
 10
0.0
 20
0.0
  9
$LIMMAX
 10
11.0
 20
8.5
  9
$VIEWCTR
 10
5.5
 20
4.25
  9
$VIEWSIZE
 40
8.5
  9
$CLAYER
  8
0
  9
$LTSCALE
 40
0.605
  9
$CELTYPE
  6
BYLAYER
  9
$DIMSCALE
 40
1.0
  9
$DIMASZ
 40
0.1
  9
$DIMEXO
 40
0.0625
  9
$DIMDLI
 40
0.418
  9
$DIMEXE
 40
0.125
  9
$DIMCEN
 40
0.099
  9
$DIMLFAC
 40
1.0
  9
$DIMBLK
  1
_FILLED
  9
$DIMALT
 70
1
  9
$DIMALTD
 70
2
  9
$DIMALTTD
 70
2
  9
$DIMALTF
 40
25.4
  9
$DIMTXT
 40
0.08
  9
$DIMTOL
 70
1
  9
$DIMLIM
 70
0
  9
$DIMTFAC
 40
1.0
  9
$DIMTP
 40
0.001
  9
$DIMTM
 40
0.001
  9
$DIMGAP
 40
0.09
  9
$DIMDSEP
 70
46
  9
$AUNITS
 70
0
  9
$PDMODE
 70
3
  9
$PDSIZE
 40
0.3125
  9
$HANDSEED
  5
2A6
  9
$TILEMODE
 70
1
  9
$MEASUREMENT
 70
0
  9
$INSUNITS
 70
1
  0
ENDSEC
  0
SECTION
  2
CLASSES
  0
CLASS
  1
ACDBDICTIONARYWDFLT
  2
AcDbDictionaryWithDefault
  3
AutoCAD 2000
 90
0
 91
1
280
0
281
0
  0
CLASS
  1
ACDBPLACEHOLDER
  2
AcDbPlaceHolder
  3
AutoCAD 2000
 90
0
 91
1
280
0
281
0
  0
CLASS
  1
LAYOUT
  2
AcDbLayout
  3
AutoCAD 2000
 90
0
 91
0
280
0
281
0
  0
ENDSEC
  0
SECTION
  2
TABLES
  0
TABLE
  2
VPORT
  5
8
100
AcDbSymbolTable
 70
2
  0
VPORT
  5
1F4
100
AcDbSymbolTableRecord
100
AcDbViewportTableRecord
  2
*ACTIVE
 70
0
 10
0.0
 20
0.0
 11
1.0
 21
1.0
 12
5.5
 22
4.25
 13
0.0
 23
0.0
 14
1.0
 24
1.0
 15
0.0
 25
0.0
 16
0.0
 26
0.0
 36
1.0
 17
0.0
 27
0.0
 37
0.0
 40
8.5
 41
1.2941176471
 42
50.0
 43
0.0
 44
0.0
 50
0.0
 51
0.0
 71
0
 72
100
 73
1
 74
1
 75
0
 76
0
 77
0
 78
0
  0
ENDTAB
  0
TABLE
  2
LTYPE
  5
5
100
AcDbSymbolTable
 70
6
  0
LTYPE
  5
14
100
AcDbSymbolTableRecord
100
AcDbLinetypeTableRecord
  2
BYBLOCK
 70
0
  3

 72
65
 73
0
 40
0.0
  0
LTYPE
  5
15
100
AcDbSymbolTableRecord
100
AcDbLinetypeTableRecord
  2
BYLAYER
 70
0
  3

 72
65
 73
0
 40
0.0
  0
LTYPE
  5
16
100
AcDbSymbolTableRecord
100
AcDbLinetypeTableRecord
  2
CONTINUOUS
 70
64
  3
Solid line
 72
65
 73
0
 40
0.0
  0
LTYPE
  5
1F5
100
AcDbSymbolTableRecord
100
AcDbLinetypeTableRecord
  2
CENTER
 70
64
  3
____ _ ____ _ ____ _ ____ _ ____ _ ____ _ ____
 72
65
 73
4
 40
0.6
 49
0.375
 74
0
 49
-0.075
 74
0
 49
0.075
 74
0
 49
-0.075
 74
0
  0
LTYPE
  5
1F6
100
AcDbSymbolTableRecord
100
AcDbLinetypeTableRecord
  2
HIDDEN
 70
64
  3
- - - - - - - - - - - - - - - - - - - -
 72
65
 73
2
 40
0.2
 49
0.1
 74
0
 49
-0.1
 74
0
  0
LTYPE
  5
1F7
100
AcDbSymbolTableRecord
100
AcDbLinetypeTableRecord
  2
PHANTOM
 70
64
  3
_____ _ _ _____ _ _ _____ _ _ _____
 72
65
 73
6
 40
0.8
 49
0.45
 74
0
 49
-0.05
 74
0
 49
0.1
 74
0
 49
-0.05
 74
0
 49
0.1
 74
0
 49
-0.05
 74
0
  0
LTYPE
  5
1F8
100
AcDbSymbolTableRecord
100
AcDbLinetypeTableRecord
  2
DOT
 70
64
  3
. . . . . . . . . . . . . . . . . . . .
 72
65
 73
2
 40
0.2
 49
0.1
 74
0
 49
-0.1
 74
0
  0
LTYPE
  5
1F9
100
AcDbSymbolTableRecord
100
AcDbLinetypeTableRecord
  2
DASHED
 70
64
  3
- - - - - - - - - - - - - - - - - - - -
 72
65
 73
2
 40
0.2
 49
0.1
 74
0
 49
-0.1
 74
0
  0
ENDTAB
  0
TABLE
  2
LAYER
  5
2
100
AcDbSymbolTable
 70
36
  0
LAYER
  5
10
100
AcDbSymbolTableRecord
100
AcDbLayerTableRecord
  2
0
 70
0
 62
7
  6
CONTINUOUS
370
-3
390
F
  0
LAYER
  5
1FA
100
AcDbSymbolTableRecord
100
AcDbLayerTableRecord
  2
DEFAULT_1
 70
0
 62
7
  6
CENTER
370
-3
390
F
  0
LAYER
  5
1FB
100
AcDbSymbolTableRecord
100
AcDbLayerTableRecord
  2
DEFAULT_2
 70
0
 62
8
  6
HIDDEN
370
-3
390
F
  0
LAYER
  5
1FC
100
AcDbSymbolTableRecord
100
AcDbLayerTableRecord
  2
DEFAULT_3
 70
0
 62
7
  6
PHANTOM
370
-3
390
F
  0
LAYER
  5
1FD
100
AcDbSymbolTableRecord
100
AcDbLayerTableRecord
  2
DEFAULT_COORDINATE_SYSTEM
 70
0
 62
7
  6
CONTINUOUS
370
-3
390
F
  0
LAYER
  5
1FE
100
AcDbSymbolTableRecord
100
AcDbLayerTableRecord
  2
DEFAULT_DATUM_AXES
 70
0
 62
7
  6
CONTINUOUS
370
-3
390
F
  0
LAYER
  5
1FF
100
AcDbSymbolTableRecord
100
AcDbLayerTableRecord
  2
DEFAULT_DATUM_PLANES
 70
0
 62
7
  6
CONTINUOUS
370
-3
390
F
  0
ENDTAB
  0
TABLE
  2
STYLE
  5
3
100
AcDbSymbolTable
 70
1
  0
STYLE
  5
11
100
AcDbSymbolTableRecord
100
AcDbTextStyleTableRecord
  2
STANDARD
 70
0
 40
0.0
 41
0.8
 50
0.0
 71
0
 42
0.2
  3
txt
  4

  0
STYLE
  5
200
100
AcDbSymbolTableRecord
100
AcDbTextStyleTableRecord
  2
TEXTSTYLE_1
 70
0
 40
0.0
 41
0.8
 50
0.0
 71
0
 42
0.2
  3
gdt
  4

  0
ENDTAB
  0
TABLE
  2
VIEW
  5
6
100
AcDbSymbolTable
 70
0
  0
ENDTAB
  0
TABLE
  2
UCS
  5
7
100
AcDbSymbolTable
 70
0
  0
ENDTAB
  0
TABLE
  2
APPID
  5
9
100
AcDbSymbolTable
 70
1
  0
APPID
  5
201
100
AcDbSymbolTableRecord
100
AcDbRegAppTableRecord
  2
ACAD
 70
0
  0
ENDTAB
  0
TABLE
  2
BLOCK_RECORD
  5
1
100
AcDbSymbolTable
 70
0
  0
BLOCK_RECORD
  5
202
100
AcDbSymbolTableRecord
100
AcDbBlockTableRecord
  2
*Model_Space
  0
BLOCK_RECORD
  5
203
100
AcDbSymbolTableRecord
100
AcDbBlockTableRecord
  2
*Paper_Space
  0
BLOCK_RECORD
  5
204
100
AcDbSymbolTableRecord
100
AcDbBlockTableRecord
  2
_FILLED
  0
ENDTAB
  0
TABLE
  2
DIMSTYLE
  5
A
100
AcDbSymbolTable
 70
1
100
AcDbDimStyleTable
 71
0
  0
DIMSTYLE
105
205
100
AcDbSymbolTableRecord
100
AcDbDimStyleTableRecord
  2
STANDARD
 70
0
  3

  4

 40
1.0
 41
0.1
 42
0.0625
 43
0.38
 44
0.125
 45
0.0
 46
0.0
 47
0.001
 48
0.001
140
0.08
141
0.09
142
0.0
143
25.4
144
1.0
145
0.0
146
1.0
147
0.09
 71
1.0
 72
0.0
 73
1
 74
1
 75
0
 76
0
 77
0
 78
4
 79
1
170
1
171
2
172
0
173
0
174
0
175
0
176
0
177
0
178
0
270
2
179
3
271
3
272
3
273
2
274
2
275
0
280
0
281
0
282
0
283
1
284
4
285
0
286
0
287
3
288
0
340
11
278
46
341
204
342
204
343
204
344
204
  0
ENDTAB
  0
ENDSEC
  0
SECTION
  2
BLOCKS
  0
BLOCK
  5
20
100
AcDbEntity
  8
0
100
AcDbBlockBegin
  2
*Model_Space
 70
0
 10
0.0
 20
0.0
 30
0.0
  3
*Model_Space
  1

  0
ENDBLK
  5
21
100
AcDbEntity
  8
0
100
AcDbBlockEnd
  0
BLOCK
  5
1C
100
AcDbEntity
  8
0
100
AcDbBlockBegin
  2
*Paper_Space
 70
0
 10
0.0
 20
0.0
 30
0.0
  3
*Paper_Space
  1

  0
ENDBLK
  5
1D
100
AcDbEntity
  8
0
100
AcDbBlockEnd
  0
BLOCK
  5
206
100
AcDbEntity
  8
0
100
AcDbBlockBegin
  2
_FILLED
 70
64
 10
0.0
 20
0.0
  3
_FILLED
  1

  0
SOLID
  5
207
100
AcDbEntity
  8
0
  6
BYBLOCK
 62
0
100
AcDbTrace
 10
0.0
 20
0.0
 11
-1.0
 21
0.2
 12
-1.0
 22
-0.2
 13
-1.0
 23
-0.2
  0
ENDBLK
  5
208
100
AcDbEntity
  8
0
  6
BYBLOCK
 62
0
100
AcDbBlockEnd
  0
ENDSEC
  0
SECTION
  2
ENTITIES
  0
MTEXT
  5
209
100
AcDbEntity
  8
0
100
AcDbMText
 62
2
  6
CONTINUOUS
  7
STANDARD
 71
3
 72
1
 10
5.0785332909
 20
0.9244054925
 30
0.0
 11
1.0
 21
0.0
 31
0.0
 73
2
 44
0.9
  1
SCALE 0.250
 40
0.08
 41
0.704
  0
LINE
  5
20A
100
AcDbEntity
  8
0
100
AcDbLine
 62
7
  6
CONTINUOUS
 10
0.0
 20
0.0
 11
0.0
 21
8.5
  0
LINE
  5
20B
100
AcDbEntity
  8
0
100
AcDbLine
 62
7
  6
CONTINUOUS
 10
0.0
 20
0.0
 11
11.0
 21
0.0
  0
LINE
  5
20C
100
AcDbEntity
  8
0
100
AcDbLine
 62
7
  6
CONTINUOUS
 10
0.0
 20
8.5
 11
11.0
 21
8.5
  0
LINE
  5
20D
100
AcDbEntity
  8
0
100
AcDbLine
 62
7
  6
CONTINUOUS
 10
11.0
 20
0.0
 11
11.0
 21
8.5
  0
LINE
  5
20E
100
AcDbEntity
  8
0
100
AcDbLine
 62
7
  6
CONTINUOUS
 10
6.0121246879
 20
2.4284785791
 11
5.5171246879
 21
2.4284785791
  0
LINE
  5
20F
100
AcDbEntity
  8
0
100
AcDbLine
 62
7
  6
CONTINUOUS
 10
5.5171246879
 20
2.5272285791
 11
6.0121246879
 21
2.5272285791
  0
LINE
  5
210
100
AcDbEntity
  8
0
100
AcDbLine
 62
7
  6
CONTINUOUS
 10
5.5246246879
 20
2.5347285791
 11
6.0046246879
 21
2.5347285791
  0
LINE
  5
211
100
AcDbEntity
  8
0
100
AcDbLine
 62
7
  6
CONTINUOUS
 10
3.6617332242
 20
5.3409288553
 11
3.6428040564
 21
5.2173704213
  0
LINE
  5
212
100
AcDbEntity
  8
0
100
AcDbLine
 62
7
  6
CONTINUOUS
 10
3.5555405926
 20
4.6477660407
 11
3.6412897229
 21
5.2074857466
  0
LINE
  5
213
100
AcDbEntity
  8
0
100
AcDbLine
 62
7
  6
CONTINUOUS
 10
3.6436452412
 20
5.2096540486
 11
3.6445916996
 21
5.2158319703
  0
LINE
  5
214
100
AcDbEntity
  8
0
100
AcDbLine
 62
7
  6
CONTINUOUS
 10
3.6619556136
 20
5.2144364003
 11
3.6617663219
 21
5.213200816
  0
LINE
  5
215
100
AcDbEntity
  8
0
100
AcDbLine
 62
7
  6
CONTINUOUS
 10
3.9053657285
 20
5.1771459397
 11
3.9051764369
 21
5.1759103553
  0
LINE
  5
216
100
AcDbEntity
  8
0
100
AcDbLine
 62
7
  6
CONTINUOUS
 10
3.8649113827
 20
4.8651742542
 11
3.8660471328
 21
4.8725877602
  0
LINE
  5
217
100
AcDbEntity
  8
0
100
AcDbLine
 62
7
  6
CONTINUOUS
 10
3.864998178
 20
4.8643184383
 11
3.8662573104
 21
4.8725555616
  0
LINE
  5
218
100
AcDbEntity
  8
0
100
AcDbLine
 62
7
  6
CONTINUOUS
 10
3.9223510592
 20
5.173279201
 11
3.9214046008
 21
5.1671012793
  0
LWPOLYLINE
  5
219
100
AcDbEntity
  8
0
100
AcDbPolyline
 62
7
  6
CONTINUOUS
 90
43
 70
0
 10
3.8662573104
 20
4.8725555616
 10
3.8663798798
 20
4.8733388279
 10
3.8665745991
 20
4.8745213198
 10
3.8667809947
 20
4.8757041655
 10
3.8669988641
 20
4.8768863031
 10
3.8672281109
 20
4.8780672926
 10
3.8674687732
 20
4.8792473049
 10
3.8677207145
 20
4.8804255703
 10
3.8679837819
 20
4.8816012676
 10
3.8682580216
 20
4.882774455
 10
3.8685432362
 20
4.8839444884
 10
3.8688391092
 20
4.8851106693
 10
3.8691454951
 20
4.886272995
 10
3.8694620831
 20
4.8874308091
 10
3.8697885535
 20
4.888583456
 10
3.8701247599
 20
4.8897308904
 10
3.8704703704
 20
4.8908724129
 10
3.8708250316
 20
4.8920072875
 10
3.8711885385
 20
4.8931354111
 10
3.8715605201
 20
4.8942563916
 10
3.8719404127
 20
4.8953693097
 10
3.8723276573
 20
4.8964733225
 10
3.8727218061
 20
4.8975679443
 10
3.8731222555
 20
4.8986522863
 10
3.8735281789
 20
4.8997249291
 10
3.8739390018
 20
4.9007851941
 10
3.8743541232
 20
4.9018324058
 10
3.8747726368
 20
4.9028652781
 10
3.8751939519
 20
4.9038833766
 10
3.8756173626
 20
4.9048860086
 10
3.8760417723
 20
4.9058716117
 10
3.8764665372
 20
4.9068397392
 10
3.8768909427
 20
4.9077897941
 10
3.8773137849
 20
4.9087201301
 10
3.877734378
 20
4.9096302954
 10
3.8781520501
 20
4.9105198641
 10
3.8785656417
 20
4.9113873977
 10
3.8789744605
 20
4.9122324773
 10
3.8793778885
 20
4.913054836
 10
3.8797749206
 20
4.9138534245
 10
3.8801649152
 20
4.9146279424
 10
3.8805472693
 20
4.9153781575
 10
3.8809210968
 20
4.9161032597
  0
LINE
  5
21A
100
AcDbEntity
  8
0
100
AcDbLine
 62
7
  6
CONTINUOUS
 10
3.8809210968
 20
4.9161032597
 11
3.8816410009
 21
4.9174772594
  0
LINE
  5
21B
100
AcDbEntity
  8
0
100
AcDbLine
 62
7
  6
CONTINUOUS
 10
3.8812963646
 20
4.916823015
 11
3.8819949957
 21
4.9181424343
  0
LINE
  5
21C
100
AcDbEntity
  8
0
100
AcDbLine
 62
7
  6
CONTINUOUS
 10
3.8819858251
 20
4.9181253685
 11
3.8826503213
 21
4.9193569014
  0
LINE
  5
21D
100
AcDbEntity
  8
0
100
AcDbLine
 62
7
  6
CONTINUOUS
 10
3.8826424756
 20
4.9193425385
 11
3.8832584752
 21
4.9204652145
  0
LINE
  5
21E
100
AcDbEntity
  8
0
100
AcDbLine
 62
7
  6
CONTINUOUS
 10
3.8832519257
 20
4.9204533563
 11
3.8838160969
 21
4.9214665739
  0
LWPOLYLINE
  5
21F
100
AcDbEntity
  8
0
100
AcDbPolyline
 62
7
  6
CONTINUOUS
 90
10
 70
0
 10
3.8862634307
 20
4.9257063784
 10
3.8863193206
 20
4.9258059902
 10
3.8863706023
 20
4.9259080508
 10
3.8864171688
 20
4.9260123473
 10
3.8864589229
 20
4.9261186618
 10
3.8864957774
 20
4.9262267725
 10
3.8865276555
 20
4.9263364537
 10
3.8865544905
 20
4.9264474764
 10
3.8865762265
 20
4.926559609
 10
3.8865828529
 20
4.9266005862
  0
LINE
  5
220
100
AcDbEntity
  8
0
100
AcDbLine
 62
7
  6
CONTINUOUS
 10
3.8838107525
 20
4.9214570138
 11
3.884320455
 21
4.9223603099
  0
LINE
  5
221
100
AcDbEntity
  8
0
100
AcDbLine
 62
7
  6
CONTINUOUS
 10
3.8843161868
 20
4.9223527972
 11
3.8847696124
 21
4.9231469297
  0
LINE
  5
222
100
AcDbEntity
  8
0
100
AcDbLine
 62
7
  6
CONTINUOUS
 10
3.8847696124
 20
4.9231469297
 11
3.8853336921
 21
4.9241234159
  0
LINE
  5
223
100
AcDbEntity
  8
0
100
AcDbLine
 62
7
  6
CONTINUOUS
 10
3.8853336921
 20
4.9241234159
 11
3.8858828177
 21
4.925062296
  0
LINE
  5
224
100
AcDbEntity
  8
0
100
AcDbLine
 62
7
  6
CONTINUOUS
 10
3.8858828177
 20
4.925062296
 11
3.8862634307
 21
4.9257063784
  0
LINE
  5
225
100
AcDbEntity
  8
0
100
AcDbLine
 62
7
  6
CONTINUOUS
 10
3.8857872481
 20
4.9252667555
 11
3.8865831901
 21
4.9266005346
  0
LINE
  5
226
100
AcDbEntity
  8
0
100
AcDbLine
 62
7
  6
CONTINUOUS
 10
3.8863793245
 20
4.9262612421
 11
3.8865831045
 21
4.9266003925
  0
LWPOLYLINE
  5
227
100
AcDbEntity
  8
0
100
AcDbPolyline
 62
7
  6
CONTINUOUS
 90
10
 70
0
 10
3.868335223
 20
4.8074908193
 10
3.868341172
 20
4.8075319296
 10
3.8683540011
 20
4.8076454259
 10
3.8683616328
 20
4.8077593893
 10
3.8683640512
 20
4.8078735819
 10
3.8683612514
 20
4.8079877654
 10
3.8683532393
 20
4.8081017015
 10
3.8683400316
 20
4.8082151525
 10
3.8683216559
 20
4.8083278815
 10
3.8682981506
 20
4.8084396532
  0
LINE
  5
228
100
AcDbEntity
  8
0
100
AcDbLine
 62
7
  6
CONTINUOUS
 10
3.9434464536
 20
5.2977703526
 11
3.9426892869
 21
5.2928280153
  0
LINE
  5
229
100
AcDbEntity
  8
0
100
AcDbLine
 62
7
  6
CONTINUOUS
 10
3.9347390364
 20
5.240933473
 11
3.9245172858
 21
5.1742119186
  0
LINE
  5
22A
100
AcDbEntity
  8
0
100
AcDbLine
 62
7
  6
CONTINUOUS
 10
3.8372538221
 20
4.604607538
 11
3.8683355588
 21
4.8074907678
  0
LINE
  5
22B
100
AcDbEntity
  8
0
100
AcDbLine
 62
7
  6
CONTINUOUS
 10
3.8865831902
 20
4.9266005345
 11
3.9230029524
 21
5.1643272439
  0
LINE
  5
22C
100
AcDbEntity
  8
0
100
AcDbLine
 62
7
  6
CONTINUOUS
 10
3.8989904549
 20
4.9135716912
 11
3.8840742706
 21
4.8162076452
  0
LINE
  5
22D
100
AcDbEntity
  8
0
100
AcDbLine
 62
7
  6
CONTINUOUS
 10
3.9071543388
 20
4.9053922068
 11
3.8943124491
 21
4.8215679313
  0
LINE
  5
22E
100
AcDbEntity
  8
0
100
AcDbLine
 62
7
  6
CONTINUOUS
 10
5.6083746879
 20
3.4022285791
 11
5.9208746879
 21
3.4022285791
  0
LINE
  5
22F
100
AcDbEntity
  8
0
100
AcDbLine
 62
7
  6
CONTINUOUS
 10
5.6158746879
 20
3.4097285791
 11
5.9133746879
 21
3.4097285791
  0
LINE
  5
230
100
AcDbEntity
  8
0
100
AcDbLine
 62
7
  6
CONTINUOUS
 10
5.6083746879
 20
3.4172285791
 11
5.9208746879
 21
3.4172285791
  0
LINE
  5
231
100
AcDbEntity
  8
0
100
AcDbLine
 62
7
  6
CONTINUOUS
 10
3.8683355586
 20
4.807490767
 11
3.8682117591
 21
4.8080042506
  0
LINE
  5
232
100
AcDbEntity
  8
0
100
AcDbLine
 62
7
  6
CONTINUOUS
 10
3.8683355586
 20
4.8074907677
 11
3.8679899716
 21
4.8089395747
  0
LINE
  5
233
100
AcDbEntity
  8
0
100
AcDbLine
 62
7
  6
CONTINUOUS
 10
3.8682981506
 20
4.8084396532
 11
3.8680196151
 21
4.8096369099
  0
LINE
  5
234
100
AcDbEntity
  8
0
100
AcDbLine
 62
7
  6
CONTINUOUS
 10
3.8680196151
 20
4.8096369099
 11
3.8678094324
 21
4.8105635047
  0
LINE
  5
235
100
AcDbEntity
  8
0
100
AcDbLine
 62
7
  6
CONTINUOUS
 10
3.8678086673
 20
4.8105669213
 11
3.8675437928
 21
4.8117631931
  0
LINE
  5
236
100
AcDbEntity
  8
0
100
AcDbLine
 62
7
  6
CONTINUOUS
 10
3.867638901
 20
4.8113296939
 11
3.867444372
 21
4.8122215384
  0
LINE
  5
237
100
AcDbEntity
  8
0
100
AcDbLine
 62
7
  6
CONTINUOUS
 10
3.8675450606
 20
4.8117573898
 11
3.8673398011
 21
4.8127095963
  0
LINE
  5
238
100
AcDbEntity
  8
0
100
AcDbLine
 62
7
  6
CONTINUOUS
 10
3.8674458202
 20
4.8122148125
 11
3.867230308
 21
4.8132274399
  0
LINE
  5
239
100
AcDbEntity
  8
0
100
AcDbLine
 62
7
  6
CONTINUOUS
 10
3.8673414373
 20
4.8127018825
 11
3.8671161435
 21
4.8137750549
  0
LINE
  5
23A
100
AcDbEntity
  8
0
100
AcDbLine
 62
7
  6
CONTINUOUS
 10
3.8671181815
 20
4.8137651708
 11
3.8668749884
 21
4.8149587685
  0
LINE
  5
23B
100
AcDbEntity
  8
0
100
AcDbLine
 62
7
  6
CONTINUOUS
 10
3.8669998536
 20
4.8143411744
 11
3.8666219653
 21
4.8162441016
  0
LINE
  5
23C
100
AcDbEntity
  8
0
100
AcDbLine
 62
7
  6
CONTINUOUS
 10
3.8667486687
 20
4.8155944608
 11
3.8664865308
 21
4.8169522994
  0
LINE
  5
23D
100
AcDbEntity
  8
0
100
AcDbLine
 62
7
  6
CONTINUOUS
 10
3.8666219653
 20
4.8162441016
 11
3.8663515501
 21
4.8176738713
  0
LWPOLYLINE
  5
23E
100
AcDbEntity
  8
0
100
AcDbPolyline
 62
7
  6
CONTINUOUS
 90
43
 70
0
 10
3.8663549099
 20
4.8176559365
 10
3.8660797475
 20
4.8191791873
 10
3.8659403108
 20
4.819981226
 10
3.8658002556
 20
4.8208097217
 10
3.8656601812
 20
4.8216636685
 10
3.8655205837
 20
4.8225426768
 10
3.8653819778
 20
4.8234462673
 10
3.8652449986
 20
4.824373154
 10
3.8651101452
 20
4.8253229176
 10
3.8649779523
 20
4.8262949404
 10
3.8648491071
 20
4.827287467
 10
3.8647241298
 20
4.8282998856
 10
3.8646035401
 20
4.8293315806
 10
3.864487996
 20
4.8303806203
 10
3.8643780012
 20
4.8314462245
 10
3.8642740285
 20
4.8325277809
 10
3.8641766477
 20
4.8336234712
 10
3.8640863169
 20
4.8347324119
 10
3.8640034624
 20
4.835853993
 10
3.8639285578
 20
4.8369867129
 10
3.8638619838
 20
4.8381297674
 10
3.8638041015
 20
4.8392823788
 10
3.8637552907
 20
4.8404430013
 10
3.8637158788
 20
4.8416106273
 10
3.8636861447
 20
4.8427846802
 10
3.8636663381
 20
4.8439642182
 10
3.8636566912
 20
4.8451481493
 10
3.8636574167
 20
4.8463359806
 10
3.8636687128
 20
4.8475276782
 10
3.8636907355
 20
4.8487224391
 10
3.8637236271
 20
4.8499195143
 10
3.8637675527
 20
4.8511189632
 10
3.8638226249
 20
4.8523200484
 10
3.8638889112
 20
4.8535220124
 10
3.8639665251
 20
4.8547249133
 10
3.8640555271
 20
4.8559280251
 10
3.8641559208
 20
4.8571306223
 10
3.8642677713
 20
4.8583327945
 10
3.8643910744
 20
4.8595338321
 10
3.8645257753
 20
4.8607330505
 10
3.8646719026
 20
4.8619305972
 10
3.8648294242
 20
4.8631260642
 10
3.864998178
 20
4.8643184383
  0
LINE
  5
23F
100
AcDbEntity
  8
0
100
AcDbLine
 62
7
  6
CONTINUOUS
 10
3.8662145336
 20
4.8184234705
 11
3.8661191456
 21
4.8189583727
  0
LINE
  5
240
100
AcDbEntity
  8
0
100
AcDbLine
 62
7
  6
CONTINUOUS
 10
4.6186689183
 20
5.6978119363
 11
4.7161446591
 21
5.9656243332
  0
LINE
  5
241
100
AcDbEntity
  8
0
100
AcDbLine
 62
7
  6
CONTINUOUS
 10
5.6083746879
 20
3.7934785791
 11
5.9208746879
 21
3.7934785791
  0
LINE
  5
242
100
AcDbEntity
  8
0
100
AcDbLine
 62
7
  6
CONTINUOUS
 10
5.9133746879
 20
3.8009785791
 11
5.6158746879
 21
3.8009785791
  0
LINE
  5
243
100
AcDbEntity
  8
0
100
AcDbLine
 62
7
  6
CONTINUOUS
 10
5.8427495324
 20
3.8087285791
 11
5.6864998434
 21
3.8087285791
  0
LINE
  5
244
100
AcDbEntity
  8
0
100
AcDbLine
 62
7
  6
CONTINUOUS
 10
5.6083746879
 20
4.0897285791
 11
5.6918891245
 21
4.0897285791
  0
LINE
  5
245
100
AcDbEntity
  8
0
100
AcDbLine
 62
7
  6
CONTINUOUS
 10
5.8373602512
 20
4.0897285791
 11
5.9208746879
 21
4.0897285791
  0
LINE
  5
246
100
AcDbEntity
  8
0
100
AcDbLine
 62
7
  6
CONTINUOUS
 10
5.6158746879
 20
4.0972285791
 11
5.6952942534
 21
4.0972285791
  0
LINE
  5
247
100
AcDbEntity
  8
0
100
AcDbLine
 62
7
  6
CONTINUOUS
 10
5.8339551224
 20
4.0972285791
 11
5.9133746879
 21
4.0972285791
  0
LINE
  5
248
100
AcDbEntity
  8
0
100
AcDbLine
 62
7
  6
CONTINUOUS
 10
5.6221246879
 20
4.1022285791
 11
5.6981285417
 21
4.1022285791
  0
LINE
  5
249
100
AcDbEntity
  8
0
100
AcDbLine
 62
7
  6
CONTINUOUS
 10
5.831120834
 20
4.1022285791
 11
5.9071246879
 21
4.1022285791
  0
LINE
  5
24A
100
AcDbEntity
  8
0
100
AcDbLine
 62
7
  6
CONTINUOUS
 10
5.6158746879
 20
3.4097285791
 11
5.6083746879
 21
3.4172285791
  0
LINE
  5
24B
100
AcDbEntity
  8
0
100
AcDbLine
 62
7
  6
CONTINUOUS
 10
5.2881999106
 20
5.4541225841
 11
5.3856756515
 21
5.7219349811
  0
LINE
  5
24C
100
AcDbEntity
  8
0
100
AcDbLine
 62
7
  6
CONTINUOUS
 10
3.7143068845
 20
4.6166142718
 11
3.7043368988
 21
4.6181416749
  0
LINE
  5
24D
100
AcDbEntity
  8
0
100
AcDbLine
 62
7
  6
CONTINUOUS
 10
3.5946236194
 20
4.6349497632
 11
3.6432596483
 21
4.6274987174
  0
LINE
  5
24E
100
AcDbEntity
  8
0
100
AcDbLine
 62
7
  6
CONTINUOUS
 10
3.6465345184
 20
4.6269970069
 11
3.6632648215
 21
4.6244339223
  0
LINE
  5
24F
100
AcDbEntity
  8
0
100
AcDbLine
 62
7
  6
CONTINUOUS
 10
3.6764431801
 20
4.6224149961
 11
3.6864131658
 21
4.620887593
  0
LINE
  5
250
100
AcDbEntity
  8
0
100
AcDbLine
 62
7
  6
CONTINUOUS
 10
3.7274852431
 20
4.6145953456
 11
3.7442155462
 21
4.612032261
  0
LINE
  5
251
100
AcDbEntity
  8
0
100
AcDbLine
 62
7
  6
CONTINUOUS
 10
3.7474904163
 20
4.6115305505
 11
3.7961264452
 21
4.6040795046
  0
LINE
  5
252
100
AcDbEntity
  8
0
100
AcDbLine
 62
7
  6
CONTINUOUS
 10
3.8344040701
 20
4.6025149527
 11
3.557633178
 21
4.6449162887
  0
LINE
  5
253
100
AcDbEntity
  8
0
100
AcDbLine
 62
7
  6
CONTINUOUS
 10
3.8372538221
 20
4.604607538
 11
3.5555405926
 21
4.6477660407
  0
LINE
  5
254
100
AcDbEntity
  8
0
100
AcDbLine
 62
7
  6
CONTINUOUS
 10
5.9133746879
 20
3.4097285791
 11
5.9208746879
 21
3.4022285791
  0
LINE
  5
255
100
AcDbEntity
  8
0
100
AcDbLine
 62
7
  6
CONTINUOUS
 10
3.8661191548
 20
4.8189583713
 11
3.8840742706
 21
4.8162076452
  0
LINE
  5
256
100
AcDbEntity
  8
0
100
AcDbLine
 62
7
  6
CONTINUOUS
 10
3.8649113827
 20
4.8651742542
 11
3.8651215602
 21
4.865142055
  0
LINE
  5
257
100
AcDbEntity
  8
0
100
AcDbLine
 62
7
  6
CONTINUOUS
 10
3.8660471328
 20
4.8725877602
 11
3.8662573104
 21
4.8725555616
  0
LINE
  5
258
100
AcDbEntity
  8
0
100
AcDbLine
 62
7
  6
CONTINUOUS
 10
3.8810353326
 20
4.9163224182
 11
3.8989904549
 21
4.9135716912
  0
LINE
  5
259
100
AcDbEntity
  8
0
100
AcDbLine
 62
7
  6
CONTINUOUS
 10
5.5171246879
 20
2.4284785791
 11
5.5171246879
 21
2.5272285791
  0
LINE
  5
25A
100
AcDbEntity
  8
0
100
AcDbLine
 62
7
  6
CONTINUOUS
 10
5.6158746879
 20
4.0972285791
 11
5.6083746879
 21
4.0897285791
  0
LINE
  5
25B
100
AcDbEntity
  8
0
100
AcDbLine
 62
7
  6
CONTINUOUS
 10
5.9133746879
 20
4.0972285791
 11
5.9208746879
 21
4.0897285791
  0
LINE
  5
25C
100
AcDbEntity
  8
0
100
AcDbLine
 62
7
  6
CONTINUOUS
 10
5.6083746879
 20
2.5347285791
 11
5.6083746879
 21
4.0897285791
  0
LINE
  5
25D
100
AcDbEntity
  8
0
100
AcDbLine
 62
7
  6
CONTINUOUS
 10
5.6221246879
 20
4.1022285791
 11
5.6221246879
 21
4.9772285791
  0
LINE
  5
25E
100
AcDbEntity
  8
0
100
AcDbLine
 62
7
  6
CONTINUOUS
 10
5.6221246879
 20
4.9772285791
 11
5.9071246879
 21
4.9772285791
  0
LINE
  5
25F
100
AcDbEntity
  8
0
100
AcDbLine
 62
7
  6
CONTINUOUS
 10
3.9230029524
 20
5.1643272439
 11
3.6412897229
 21
5.2074857466
  0
LINE
  5
260
100
AcDbEntity
  8
0
100
AcDbLine
 62
7
  6
CONTINUOUS
 10
3.9214046008
 20
5.1671012793
 11
3.6436452412
 21
5.2096540486
  0
LINE
  5
261
100
AcDbEntity
  8
0
100
AcDbLine
 62
7
  6
CONTINUOUS
 10
3.9223510592
 20
5.173279201
 11
3.6445916996
 21
5.2158319703
  0
LINE
  5
262
100
AcDbEntity
  8
0
100
AcDbLine
 62
7
  6
CONTINUOUS
 10
3.9245172858
 20
5.1742119186
 11
3.6428040564
 21
5.2173704213
  0
LINE
  5
263
100
AcDbEntity
  8
0
100
AcDbLine
 62
7
  6
CONTINUOUS
 10
5.6864996879
 20
4.0612270232
 11
5.6864996879
 21
3.8087285791
  0
LINE
  5
264
100
AcDbEntity
  8
0
100
AcDbLine
 62
7
  6
CONTINUOUS
 10
3.9434464536
 20
5.2977703526
 11
3.6617332242
 21
5.3409288553
  0
LINE
  5
265
100
AcDbEntity
  8
0
100
AcDbLine
 62
7
  6
CONTINUOUS
 10
5.8427496879
 20
4.0612270187
 11
5.8427496879
 21
3.8087285791
  0
LINE
  5
266
100
AcDbEntity
  8
0
100
AcDbLine
 62
7
  6
CONTINUOUS
 10
5.9071246879
 20
4.1022285791
 11
5.9071246879
 21
4.9772285791
  0
LINE
  5
267
100
AcDbEntity
  8
0
100
AcDbLine
 62
7
  6
CONTINUOUS
 10
5.9208746879
 20
2.5347285791
 11
5.9208746879
 21
4.0897285791
  0
LINE
  5
268
100
AcDbEntity
  8
0
100
AcDbLine
 62
7
  6
CONTINUOUS
 10
5.6158746879
 20
3.4097285791
 11
5.6083746879
 21
3.4022285791
  0
LINE
  5
269
100
AcDbEntity
  8
0
100
AcDbLine
 62
7
  6
CONTINUOUS
 10
6.0121246879
 20
2.4284785791
 11
6.0121246879
 21
2.5272285791
  0
LINE
  5
26A
100
AcDbEntity
  8
0
100
AcDbLine
 62
7
  6
CONTINUOUS
 10
5.9133746879
 20
3.4097285791
 11
5.9208746879
 21
3.4172285791
  0
LINE
  5
26B
100
AcDbEntity
  8
0
100
AcDbLine
 62
7
  6
CONTINUOUS
 10
5.2881999106
 20
5.4541225841
 11
4.6186689183
 21
5.6978119363
  0
LINE
  5
26C
100
AcDbEntity
  8
0
100
AcDbLine
 62
7
  6
CONTINUOUS
 10
5.3856756515
 20
5.7219349811
 11
4.7161446591
 21
5.9656243332
  0
ARC
  5
26D
100
AcDbEntity
  8
0
100
AcDbCircle
 62
7
  6
CONTINUOUS
 10
5.1146246879
 20
4.9772285791
 40
0.7925
100
AcDbArc
 50
0.0
 51
70.0
  0
ARC
  5
26E
100
AcDbEntity
  8
0
100
AcDbCircle
 62
7
  6
CONTINUOUS
 10
4.4450936956
 20
5.2209179312
 40
0.7925
100
AcDbArc
 50
70.0
 51
171.29
  0
ARC
  5
26F
100
AcDbEntity
  8
0
100
AcDbCircle
 62
7
  6
CONTINUOUS
 10
5.1146246879
 20
4.9772285791
 40
0.5075
100
AcDbArc
 50
0.0
 51
70.0
  0
ARC
  5
270
100
AcDbEntity
  8
0
100
AcDbCircle
 62
7
  6
CONTINUOUS
 10
4.4450936956
 20
5.2209179312
 40
0.5075
100
AcDbArc
 50
70.0
 51
171.29
  0
ARC
  5
271
100
AcDbEntity
  8
0
100
AcDbCircle
 62
7
  6
CONTINUOUS
 10
3.766256784
 20
4.8840819028
 40
0.1425
100
AcDbArc
 50
333.9793829162
 51
8.6006170838
  0
CIRCLE
  5
272
100
AcDbEntity
  8
0
100
AcDbCircle
 62
7
  6
CONTINUOUS
 10
5.7646246879
 20
4.0612285791
 40
0.078125
  0
CIRCLE
  5
273
100
AcDbEntity
  8
0
100
AcDbCircle
 62
7
  6
CONTINUOUS
 10
5.7646246879
 20
4.0612285791
 40
0.073125
  0
ARC
  5
274
100
AcDbEntity
  8
0
100
AcDbCircle
 62
7
  6
CONTINUOUS
 10
3.8855507457
 20
4.8258452031
 40
0.00975
100
AcDbArc
 50
261.29
 51
333.9793829162
  0
ARC
  5
275
100
AcDbEntity
  8
0
100
AcDbCircle
 62
7
  6
CONTINUOUS
 10
3.8975139798
 20
4.9039341334
 40
0.00975
100
AcDbArc
 50
8.6006170838
 51
81.29
  0
ARC
  5
276
100
AcDbEntity
  8
0
100
AcDbCircle
 62
7
  6
CONTINUOUS
 10
5.5246246879
 20
2.5272285791
 40
0.0075
100
AcDbArc
 50
90.0
 51
180.0
  0
ARC
  5
277
100
AcDbEntity
  8
0
100
AcDbCircle
 62
7
  6
CONTINUOUS
 10
6.0046246879
 20
2.5272285791
 40
0.0075
100
AcDbArc
 50
0.0
 51
90.0
  0
ARC
  5
278
100
AcDbEntity
  8
0
100
AcDbCircle
 62
7
  6
CONTINUOUS
 10
5.6158746879
 20
3.7934785791
 40
0.0075
100
AcDbArc
 50
90.0
 51
180.0
  0
ARC
  5
279
100
AcDbEntity
  8
0
100
AcDbCircle
 62
7
  6
CONTINUOUS
 10
5.9133746879
 20
3.7934785791
 40
0.0075
100
AcDbArc
 50
0.0
 51
90.0
  0
ARC
  5
27A
100
AcDbEntity
  8
0
100
AcDbCircle
 62
7
  6
CONTINUOUS
 10
3.5580117613
 20
4.6473874574
 40
0.0025
100
AcDbArc
 50
171.29
 51
261.29
  0
ARC
  5
27B
100
AcDbEntity
  8
0
100
AcDbCircle
 62
7
  6
CONTINUOUS
 10
3.8347826534
 20
4.6049861214
 40
0.0025
100
AcDbArc
 50
261.29
 51
351.29
  0
ARC
  5
27C
100
AcDbEntity
  8
0
100
AcDbCircle
 62
7
  6
CONTINUOUS
 10
3.6437608916
 20
5.2071071632
 40
0.0025
100
AcDbArc
 50
84.0172727273
 51
171.29
  0
ARC
  5
27D
100
AcDbEntity
  8
0
100
AcDbCircle
 62
7
  6
CONTINUOUS
 10
3.9205317837
 20
5.1647058273
 40
0.0025
100
AcDbArc
 50
351.29
 51
73.1081818182
  0
SPLINE
  5
27E
100
AcDbEntity
  8
0
100
AcDbSpline
 62
7
  6
CONTINUOUS
 70
0
 71
3
 72
11
 73
7
 74
0
 42
0.0000001
 43
0.0000001
 44
0.0000000001
 40
0.0
 40
0.0
 40
0.0
 40
0.0
 40
0.0770911094
 40
0.294909844
 40
0.6186983452
 40
1.0
 40
1.0
 40
1.0
 40
1.0
 10
3.9347390364
 20
5.240933473
 30
0.0
 10
3.9347185835
 20
5.2416114527
 30
0.0
 10
3.9346573869
 20
5.2442056276
 30
0.0
 10
3.9346676358
 20
5.2496507097
 30
0.0
 10
3.9350769109
 20
5.2577652068
 30
0.0
 10
3.9357956051
 20
5.2639337796
 30
0.0
 10
3.9363036557
 20
5.2672500339
 30
0.0
  0
SPLINE
  5
27F
100
AcDbEntity
  8
0
100
AcDbSpline
 62
7
  6
CONTINUOUS
 70
0
 71
3
 72
11
 73
7
 74
0
 42
0.0000001
 43
0.0000001
 44
0.0000000001
 40
0.0
 40
0.0
 40
0.0
 40
0.0
 40
0.3813016526
 40
0.7050901547
 40
0.9229088883
 40
1.0
 40
1.0
 40
1.0
 40
1.0
 10
3.9363036557
 20
5.2672500339
 30
0.0
 10
3.9368117063
 20
5.2705662883
 30
0.0
 10
3.9379726839
 20
5.2766671032
 30
0.0
 10
3.9400114481
 20
5.2845319623
 30
0.0
 10
3.9416317845
 20
5.2897303788
 30
0.0
 10
3.9424668026
 20
5.2921872536
 30
0.0
 10
3.9426892869
 20
5.2928280153
 30
0.0
  0
SPLINE
  5
280
100
AcDbEntity
  8
0
100
AcDbSpline
 62
7
  6
CONTINUOUS
 70
0
 71
3
 72
29
 73
25
 74
0
 42
0.0000001
 43
0.0000001
 44
0.0000000001
 40
0.0
 40
0.0
 40
0.0
 40
0.0
 40
0.0362810646
 40
0.0543774361
 40
0.0724182898
 40
0.090387261
 40
0.1082699716
 40
0.1437224526
 40
0.1787104251
 40
0.2131941023
 40
0.2471596219
 40
0.2806139749
 40
0.3135782788
 40
0.3460802573
 40
0.4098091125
 40
0.4720998928
 40
0.5332053866
 40
0.5933462737
 40
0.6527101662
 40
0.7114547478
 40
0.7697145958
 40
0.8276062363
 40
0.8852323266
 40
1.0
 40
1.0
 40
1.0
 40
1.0
 10
5.7646246879
 20
3.9606035791
 30
0.0
 10
5.762920627
 20
3.9606036675
 30
0.0
 10
5.7603649463
 20
3.9607126548
 30
0.0
 10
5.7569816911
 20
3.9610692852
 30
0.0
 10
5.7544668307
 20
3.9614401816
 30
0.0
 10
5.7519793675
 20
3.9619128497
 30
0.0
 10
5.74871677
 20
3.9626721933
 30
0.0
 10
5.7447349486
 20
3.9638523116
 30
0.0
 10
5.7401271723
 20
3.9656128937
 30
0.0
 10
5.7357253543
 20
3.9676787054
 30
0.0
 10
5.7315411417
 20
3.9700101203
 30
0.0
 10
5.7275807073
 20
3.9725744597
 30
0.0
 10
5.7238449331
 20
3.9753418147
 30
0.0
 10
5.7191888553
 20
3.9792376516
 30
0.0
 10
5.7138878128
 20
3.9844881767
 30
0.0
 10
5.7082930501
 20
3.9912833941
 30
0.0
 10
5.7034431141
 20
3.9984237401
 30
0.0
 10
5.6992827806
 20
4.0058271724
 30
0.0
 10
5.6957641916
 20
4.0134328466
 30
0.0
 10
5.692847626
 20
4.0211937798
 30
0.0
 10
5.6905013715
 20
4.0290727218
 30
0.0
 10
5.6887006669
 20
4.0370401934
 30
0.0
 10
5.687005226
 20
4.0477277497
 30
0.0
 10
5.686499873
 20
4.055837162
 30
0.0
 10
5.6864996879
 20
4.0612276073
 30
0.0
  0
SPLINE
  5
281
100
AcDbEntity
  8
0
100
AcDbSpline
 62
7
  6
CONTINUOUS
 70
0
 71
3
 72
16
 73
12
 74
0
 42
0.0000001
 43
0.0000001
 44
0.0000000001
 40
0.0
 40
0.0
 40
0.0
 40
0.0
 40
0.0541590148
 40
0.13522094
 40
0.2400633425
 40
0.3653471581
 40
0.5077081536
 40
0.6636516783
 40
0.8292620266
 40
0.9143039681
 40
1.0
 40
1.0
 40
1.0
 40
1.0
 10
3.8679899716
 20
4.8089395747
 30
0.0
 10
3.8677561332
 20
4.8099354749
 30
0.0
 10
3.867191596
 20
4.8124265415
 30
0.0
 10
3.8662757861
 20
4.8168679829
 30
0.0
 10
3.8652546684
 20
4.8226576187
 30
0.0
 10
3.8642987252
 20
4.8296303265
 30
0.0
 10
3.8635970085
 20
4.8376043659
 30
0.0
 10
3.8633417729
 20
4.8463690439
 30
0.0
 10
3.8636403303
 20
4.8540506006
 30
0.0
 10
3.8642394177
 20
4.8603766342
 30
0.0
 10
3.8646662629
 20
4.8635742487
 30
0.0
 10
3.8649113827
 20
4.8651742542
 30
0.0
  0
SPLINE
  5
282
100
AcDbEntity
  8
0
100
AcDbSpline
 62
7
  6
CONTINUOUS
 70
0
 71
3
 72
28
 73
24
 74
0
 42
0.0000001
 43
0.0000001
 44
0.0000000001
 40
0.0
 40
0.0
 40
0.0
 40
0.0
 40
0.1147759924
 40
0.172406205
 40
0.2303020253
 40
0.3472428515
 40
0.4066109944
 40
0.466756343
 40
0.5278660728
 40
0.5901614596
 40
0.6538947982
 40
0.6863991118
 40
0.7193657851
 40
0.7528225159
 40
0.7867904889
 40
0.8212766448
 40
0.8562671317
 40
0.8917221809
 40
0.9096061879
 40
0.9275764593
 40
0.9456186212
 40
0.9637163049
 40
1.0
 40
1.0
 40
1.0
 40
1.0
 10
5.8427496879
 20
4.0612285791
 30
0.0
 10
5.8427495608
 20
4.0558380939
 30
0.0
 10
5.8422443091
 20
4.0477288467
 30
0.0
 10
5.8405487423
 20
4.0370405977
 30
0.0
 10
5.8381408588
 20
4.026385434
 30
0.0
 10
5.8346334353
 20
4.0159146539
 30
0.0
 10
5.8299669406
 20
4.0058280013
 30
0.0
 10
5.8258065527
 20
3.9984240566
 30
0.0
 10
5.8209565492
 20
3.9912838166
 30
0.0
 10
5.8153618885
 20
3.9844884078
 30
0.0
 10
5.8100607726
 20
3.9792378871
 30
0.0
 10
5.8054046959
 20
3.9753419942
 30
0.0
 10
5.8016689243
 20
3.9725745823
 30
0.0
 10
5.7977084412
 20
3.9700102608
 30
0.0
 10
5.7935242327
 20
3.9676787771
 30
0.0
 10
5.7891223902
 20
3.9656129302
 30
0.0
 10
5.7845145502
 20
3.9638524217
 30
0.0
 10
5.780532719
 20
3.9626722401
 30
0.0
 10
5.7772701026
 20
3.9619128667
 30
0.0
 10
5.7747826207
 20
3.961440196
 30
0.0
 10
5.77226774
 20
3.9610693092
 30
0.0
 10
5.7688844606
 20
3.9607126689
 30
0.0
 10
5.7663287613
 20
3.960603679
 30
0.0
 10
5.7646246879
 20
3.9606035791
 30
0.0
  0
SPLINE
  5
283
100
AcDbEntity
  8
0
100
AcDbSpline
 62
7
  6
CONTINUOUS
 70
0
 71
3
 72
16
 73
12
 74
0
 42
0.0000001
 43
0.0000001
 44
0.0000000001
 40
0.0
 40
0.0
 40
0.0
 40
0.0
 40
0.0854920732
 40
0.170338185
 40
0.3355956838
 40
0.4912716099
 40
0.6334834305
 40
0.7587647662
 40
0.8637826649
 40
0.9452292583
 40
1.0
 40
1.0
 40
1.0
 40
1.0
 10
3.8660471328
 20
4.8725877602
 30
0.0
 10
3.8662914228
 20
4.8741821588
 30
0.0
 10
3.8668397066
 20
4.8773498545
 30
0.0
 10
3.8681556698
 20
4.8835445968
 30
0.0
 10
3.8701616054
 20
4.8909406759
 30
0.0
 10
3.8730164514
 20
4.8992054715
 30
0.0
 10
3.8760618539
 20
4.9065900932
 30
0.0
 10
3.8790538876
 20
4.9129521094
 30
0.0
 10
3.8817599201
 20
4.9181757136
 30
0.0
 10
3.8839694355
 20
4.9221553863
 30
0.0
 10
3.8852609805
 20
4.9243774719
 30
0.0
 10
3.8857872503
 20
4.925266801
 30
0.0
  0
ELLIPSE
  5
284
100
AcDbEntity
  8
0
100
AcDbEllipse
 62
7
  6
CONTINUOUS
 10
3.8158067097
 20
4.6726518211
 30
0.0
 11
0.1874770892
 21
0.0845641504
 31
0.0
 40
0.0549449437
 41
-2.1674769265
 42
-2.1197055383
  0
ELLIPSE
  5
285
100
AcDbEntity
  8
0
100
AcDbEllipse
 62
7
  6
CONTINUOUS
 10
3.6950685325
 20
4.6175139839
 30
0.0
 11
0.0689822258
 21
-0.058624365
 31
0.0
 40
0.2168892597
 41
1.272662537
 42
1.3573757127
  0
ELLIPSE
  5
286
100
AcDbEntity
  8
0
100
AcDbEllipse
 62
7
  6
CONTINUOUS
 10
3.8050669443
 20
4.6742971545
 30
0.0
 11
0.179331108
 21
0.0824947055
 31
0.0
 40
0.1730990572
 41
-1.9953170383
 42
-1.9475456502
  0
ELLIPSE
  5
287
100
AcDbEntity
  8
0
100
AcDbEllipse
 62
7
  6
CONTINUOUS
 10
3.6950685325
 20
4.6175139839
 30
0.0
 11
0.0689927161
 21
-0.0529919009
 31
0.0
 40
0.365809989
 41
1.024197395
 42
1.0465220114
  0
ELLIPSE
  5
288
100
AcDbEntity
  8
0
100
AcDbEllipse
 62
7
  6
CONTINUOUS
 10
3.7846386965
 20
4.6774267647
 30
0.0
 11
0.164485918
 21
0.0776508014
 31
0.0
 40
0.3175215947
 41
-1.8116761715
 42
-1.7639047834
  0
ELLIPSE
  5
289
100
AcDbEntity
  8
0
100
AcDbEllipse
 62
7
  6
CONTINUOUS
 10
3.7565216257
 20
4.6817343035
 30
0.0
 11
0.1461669158
 21
0.0677812734
 31
0.0
 40
0.5099348041
 41
-1.5970917109
 42
-1.5493203228
  0
ELLIPSE
  5
28A
100
AcDbEntity
  8
0
100
AcDbEllipse
 62
7
  6
CONTINUOUS
 10
3.7234680265
 20
4.6867981191
 30
0.0
 11
0.1330782108
 21
0.0386269878
 31
0.0
 40
0.7641869673
 41
-1.226898569
 42
-1.1791271808
  0
ELLIPSE
  5
28B
100
AcDbEntity
  8
0
100
AcDbEllipse
 62
7
  6
CONTINUOUS
 10
3.6950685325
 20
4.6175139839
 30
0.0
 11
0.0691924602
 21
-0.0612318758
 31
0.0
 40
0.0717446904
 41
1.5001189359
 42
1.5848321117
  0
ELLIPSE
  5
28C
100
AcDbEntity
  8
0
100
AcDbEllipse
 62
7
  6
CONTINUOUS
 10
3.6950685325
 20
4.6175139839
 30
0.0
 11
0.0843502327
 21
0.0377091156
 31
0.0
 40
0.0717446904
 41
1.5567605419
 42
1.6414737176
  0
ELLIPSE
  5
28D
100
AcDbEntity
  8
0
100
AcDbEllipse
 62
7
  6
CONTINUOUS
 10
3.5963747324
 20
4.706268828
 30
0.0
 11
0.1535623218
 21
-0.1368114317
 31
0.0
 40
0.0549449437
 41
-1.0218871153
 42
-0.9741157271
  0
ELLIPSE
  5
28E
100
AcDbEntity
  8
0
100
AcDbEllipse
 62
7
  6
CONTINUOUS
 10
3.6887134156
 20
4.6921225299
 30
0.0
 11
-0.1154107858
 21
0.0766955337
 31
0.0
 40
0.7641869673
 41
1.1791271808
 42
1.226898569
  0
ELLIPSE
  5
28F
100
AcDbEntity
  8
0
100
AcDbEllipse
 62
7
  6
CONTINUOUS
 10
3.6950685325
 20
4.6175139839
 30
0.0
 11
0.0833690199
 21
0.0352841347
 31
0.0
 40
0.2168892597
 41
1.7842169409
 42
1.8689301166
  0
ELLIPSE
  5
290
100
AcDbEntity
  8
0
100
AcDbEllipse
 62
7
  6
CONTINUOUS
 10
3.6556598164
 20
4.6971863455
 30
0.0
 11
-0.1191711577
 21
0.1084311
 31
0.0
 40
0.5099348041
 41
1.5493203228
 42
1.5970917109
  0
ELLIPSE
  5
291
100
AcDbEntity
  8
0
100
AcDbEllipse
 62
7
  6
CONTINUOUS
 10
3.6071144978
 20
4.7046234945
 30
0.0
 11
0.1464094865
 21
-0.1323982061
 31
0.0
 40
0.1730990572
 41
-1.1940470034
 42
-1.1462756153
  0
ELLIPSE
  5
292
100
AcDbEntity
  8
0
100
AcDbEllipse
 62
7
  6
CONTINUOUS
 10
3.6275427455
 20
4.7014938844
 30
0.0
 11
0.1336952963
 21
-0.1233322014
 31
0.0
 40
0.3175215947
 41
-1.3776878702
 42
-1.3299164821
  0
ELLIPSE
  5
293
100
AcDbEntity
  8
0
100
AcDbEllipse
 62
7
  6
CONTINUOUS
 10
3.6950685325
 20
4.6175139839
 30
0.0
 11
0.0816928165
 21
0.0299068581
 31
0.0
 40
0.365809989
 41
2.0950706422
 42
2.1173952585
  0
ELLIPSE
  5
294
100
AcDbEntity
  8
0
100
AcDbEllipse
 62
7
  6
CONTINUOUS
 10
3.6071144978
 20
4.7046234945
 30
0.0
 11
0.1464094865
 21
-0.1323982061
 31
0.0
 40
0.1730990572
 41
0.6330679237
 42
0.6808393119
  0
ELLIPSE
  5
295
100
AcDbEntity
  8
0
100
AcDbEllipse
 62
7
  6
CONTINUOUS
 10
3.7252233876
 20
4.6225293652
 30
0.0
 11
0.005545195
 21
-0.0047125695
 31
0.0
 40
0.2168892597
 41
5.3063303365
 42
6.5833842611
  0
ELLIPSE
  5
296
100
AcDbEntity
  8
0
100
AcDbEllipse
 62
7
  6
CONTINUOUS
 10
3.6275427455
 20
4.7014938844
 30
0.0
 11
0.1336952963
 21
-0.1233322014
 31
0.0
 40
0.3175215947
 41
0.449427057
 42
0.4971984451
  0
ELLIPSE
  5
297
100
AcDbEntity
  8
0
100
AcDbEllipse
 62
7
  6
CONTINUOUS
 10
3.751125403
 20
4.6185611731
 30
0.0
 11
0.0055460383
 21
-0.0042597991
 31
0.0
 40
0.365809989
 41
5.1407372327
 42
6.3349191192
  0
ELLIPSE
  5
298
100
AcDbEntity
  8
0
100
AcDbEllipse
 62
7
  6
CONTINUOUS
 10
3.6556598164
 20
4.6971863455
 30
0.0
 11
-0.1191711577
 21
0.1084311
 31
0.0
 40
0.5099348041
 41
-2.9067500572
 42
-2.8589786691
  0
ELLIPSE
  5
299
100
AcDbEntity
  8
0
100
AcDbEllipse
 62
7
  6
CONTINUOUS
 10
3.6887134156
 20
4.6921225299
 30
0.0
 11
-0.1154107858
 21
0.0766955337
 31
0.0
 40
0.7641869673
 41
-3.2769431992
 42
-3.2291718111
  0
ELLIPSE
  5
29A
100
AcDbEntity
  8
0
100
AcDbEllipse
 62
7
  6
CONTINUOUS
 10
3.6965107824
 20
4.62692814
 30
0.0
 11
0.0055620949
 21
-0.0049221765
 31
0.0
 40
0.0717446904
 41
-0.7493985717
 42
0.5276553529
  0
ELLIPSE
  5
29B
100
AcDbEntity
  8
0
100
AcDbEllipse
 62
7
  6
CONTINUOUS
 10
3.5963747324
 20
4.706268828
 30
0.0
 11
0.1535623218
 21
-0.1368114317
 31
0.0
 40
0.0549449437
 41
0.8052278119
 42
0.8529992
  0
ELLIPSE
  5
29C
100
AcDbEntity
  8
0
100
AcDbEllipse
 62
7
  6
CONTINUOUS
 10
3.6965107824
 20
4.62692814
 30
0.0
 11
0.0067805653
 21
0.0030312794
 31
0.0
 40
0.0717446904
 41
8.8971226174
 42
10.1741765075
  0
ELLIPSE
  5
29D
100
AcDbEntity
  8
0
100
AcDbEllipse
 62
7
  6
CONTINUOUS
 10
3.8158067097
 20
4.6726518211
 30
0.0
 11
0.1874770892
 21
0.0845641504
 31
0.0
 40
0.0549449437
 41
2.2885934535
 42
2.3363648417
  0
ELLIPSE
  5
29E
100
AcDbEntity
  8
0
100
AcDbEllipse
 62
7
  6
CONTINUOUS
 10
3.6677981771
 20
4.6313269148
 30
0.0
 11
0.0067016897
 21
0.0028363452
 31
0.0
 40
0.2168892597
 41
2.8413937092
 42
4.1184475993
  0
ELLIPSE
  5
29F
100
AcDbEntity
  8
0
100
AcDbEllipse
 62
7
  6
CONTINUOUS
 10
3.7234680265
 20
4.6867981191
 30
0.0
 11
0.1330782108
 21
0.0386269878
 31
0.0
 40
0.7641869673
 41
-3.0540134961
 42
-3.006242108
  0
ELLIPSE
  5
2A0
100
AcDbEntity
  8
0
100
AcDbEllipse
 62
7
  6
CONTINUOUS
 10
3.8050669443
 20
4.6742971545
 30
0.0
 11
0.179331108
 21
0.0824947055
 31
0.0
 40
0.1730990572
 41
2.4607533417
 42
2.5085247298
  0
ELLIPSE
  5
2A1
100
AcDbEntity
  8
0
100
AcDbEllipse
 62
7
  6
CONTINUOUS
 10
3.7565216257
 20
4.6817343035
 30
0.0
 11
0.1461669158
 21
0.0677812734
 31
0.0
 40
0.5099348041
 41
2.8589786691
 42
2.9067500572
  0
ELLIPSE
  5
2A2
100
AcDbEntity
  8
0
100
AcDbEllipse
 62
7
  6
CONTINUOUS
 10
3.6418961618
 20
4.6352951068
 30
0.0
 11
0.0065669467
 21
0.0024040883
 31
0.0
 40
0.365809989
 41
3.0898588511
 42
4.2840407341
  0
ELLIPSE
  5
2A3
100
AcDbEntity
  8
0
100
AcDbEllipse
 62
7
  6
CONTINUOUS
 10
3.7846386965
 20
4.6774267647
 30
0.0
 11
0.164485918
 21
0.0776508014
 31
0.0
 40
0.3175215947
 41
2.6443942085
 42
2.6921655966
  0
ENDSEC
  0
SECTION
  2
OBJECTS
  0
DICTIONARY
  5
C
100
AcDbDictionary
280
0
281
1
  3
ACAD_GROUP
350
D
  3
ACAD_MLINESTYLE
350
17
  3
ACAD_LAYOUT
350
1A
  3
ACAD_PLOTSETTINGS
350
19
  3
ACAD_PLOTSTYLENAME
350
E
  0
DICTIONARY
  5
D
102
{ACAD_REACTORS
330
C
102
}
100
AcDbDictionary
280
0
281
1
  0
ACDBDICTIONARYWDFLT
  5
E
102
{ACAD_REACTORS
330
C
102
}
100
AcDbDictionary
281
1
  3
Normal
350
F
100
AcDbDictionaryWithDefault
340
F
  0
DICTIONARY
  5
17
102
{ACAD_REACTORS
330
C
102
}
100
AcDbDictionary
280
0
281
1
  3
Standard
350
18
  0
DICTIONARY
  5
19
102
{ACAD_REACTORS
330
C
102
}
100
AcDbDictionary
281
1
  0
DICTIONARY
  5
1A
102
{ACAD_REACTORS
330
C
102
}
100
AcDbDictionary
281
1
  3
Model
350
2A4
  3
Layout1
350
2A5
  0
ACDBPLACEHOLDER
  5
F
102
{ACAD_REACTORS
330
E
102
}
  0
MLINESTYLE
  5
18
102
{ACAD_REACTORS
330
17
102
}
100
AcDbMlineStyle
  2
STANDARD
 70
0
  3

 62
256
 51
90.0
 52
90.0
 71
2
 49
0.5
 62
256
  6
BYLAYER
 49
-0.5
 62
256
  6
BYLAYER
  0
LAYOUT
  5
2A4
102
{ACAD_REACTORS
330
1A
102
}
100
AcDbPlotSettings
  1

  2
none_device
  4
ANSI_A_(11.00_x_8.50_Inches)
  6

 40
0.0
 41
0.0
 42
0.0
 43
0.0
 44
279.4
 45
215.9
 46
0.0
 47
0.0
 48
0.0
 49
0.0
140
0.0
141
0.0
142
1.0
143
1.0
 70
1024
 72
0
 73
0
 74
0
  7

 75
0
147
1.0
148
0.0
149
0.0
100
AcDbLayout
  1
Model
 70
0
 71
0
 10
0.0
 20
0.0
 11
11.0
 21
8.5
 12
0.0
 22
0.0
 32
0.0
 14
0.0
 24
0.0
 34
0.0
 15
0.0
 25
0.0
 35
0.0
146
0.0
 13
0.0
 23
0.0
 33
0.0
 16
1.0
 26
0.0
 36
0.0
 17
0.0
 27
1.0
 37
0.0
 76
0
330
202
345
0
346
0
  0
LAYOUT
  5
2A5
102
{ACAD_REACTORS
330
1A
102
}
100
AcDbPlotSettings
  1

  2
none_device
  4
ANSI_A_(11.00_x_8.50_Inches)
  6

 40
0.0
 41
0.0
 42
0.0
 43
0.0
 44
279.4
 45
215.9
 46
0.0
 47
0.0
 48
0.0
 49
0.0
140
0.0
141
0.0
142
1.0
143
1.0
 70
0
 72
0
 73
0
 74
0
  7

 75
0
147
1.0
148
0.0
149
0.0
100
AcDbLayout
  1
Layout1
 70
0
 71
1
 10
0.0
 20
0.0
 11
11.0
 21
8.5
 12
0.0
 22
0.0
 32
0.0
 14
0.0
 24
0.0
 34
0.0
 15
0.0
 25
0.0
 35
0.0
146
0.0
 13
0.0
 23
0.0
 33
0.0
 16
1.0
 26
0.0
 36
0.0
 17
0.0
 27
1.0
 37
0.0
 76
0
330
203
345
0
346
0
  0
ENDSEC
  0
EOF
