  0
SECTION
  2
HEADER
  9
$ACADVER
  1
AC1021
  9
$DWGCODEPAGE
  3
ANSI_1252
  9
$EXTMAX
 10
33.1102362205
 20
23.3858267717
 30
0.0
  9
$EXTMIN
 10
0.0
 20
0.0
 30
0.0
  9
$LIMMIN
 10
0.0
 20
0.0
  9
$LIMMAX
 10
33.1102362205
 20
23.3858267717
  9
$VIEWCTR
 10
16.5551181102
 20
11.6929133858
  9
$VIEWSIZE
 40
23.3858267717
  9
$CLAYER
  8
0
  9
$LTSCALE
 40
1.8210629921
  9
$CELTYPE
  6
BYLAYER
  9
$DIMSCALE
 40
1.0
  9
$DIMASZ
 40
0.1875
  9
$DIMEXO
 40
0.2069389764
  9
$DIMDLI
 40
1.2581889764
  9
$DIMEXE
 40
0.595984252
  9
$DIMCEN
 40
0.297992126
  9
$DIMLFAC
 40
1.0
  9
$DIMBLK
  1
_CLOSED
  9
$DIMTXT
 40
0.15625
  9
$DIMTOL
 70
0
  9
$DIMLIM
 70
0
  9
$DIMTFAC
 40
1.0
  9
$PDMODE
 70
3
  9
$PDSIZE
 40
0.3125
  9
$HANDSEED
  5
397
  9
$TILEMODE
 70
1
  9
$MEASUREMENT
 70
0
  9
$INSUNITS
 70
1
  0
ENDSEC
  0
SECTION
  2
CLASSES
  0
CLASS
  1
ACDBDICTIONARYWDFLT
  2
AcDbDictionaryWithDefault
  3
AutoCAD 2000
 90
0
 91
1
280
0
281
0
  0
CLASS
  1
ACDBPLACEHOLDER
  2
AcDbPlaceHolder
  3
AutoCAD 2000
 90
0
 91
1
280
0
281
0
  0
CLASS
  1
LAYOUT
  2
AcDbLayout
  3
AutoCAD 2000
 90
0
 91
0
280
0
281
0
  0
ENDSEC
  0
SECTION
  2
TABLES
  0
TABLE
  2
VPORT
  5
8
100
AcDbSymbolTable
 70
2
  0
VPORT
  5
1F4
100
AcDbSymbolTableRecord
100
AcDbViewportTableRecord
  2
*ACTIVE
 70
0
 10
0.0
 20
0.0
 11
1.0
 21
1.0
 12
16.5551181102
 22
11.6929133858
 13
0.0
 23
0.0
 14
1.0
 24
1.0
 15
0.0
 25
0.0
 16
0.0
 26
0.0
 36
1.0
 17
0.0
 27
0.0
 37
0.0
 40
23.3858267717
 41
1.4158249158
 42
50.0
 43
0.0
 44
0.0
 50
0.0
 51
0.0
 71
0
 72
100
 73
1
 74
1
 75
0
 76
0
 77
0
 78
0
  0
ENDTAB
  0
TABLE
  2
LTYPE
  5
5
100
AcDbSymbolTable
 70
6
  0
LTYPE
  5
14
100
AcDbSymbolTableRecord
100
AcDbLinetypeTableRecord
  2
BYBLOCK
 70
0
  3

 72
65
 73
0
 40
0.0
  0
LTYPE
  5
15
100
AcDbSymbolTableRecord
100
AcDbLinetypeTableRecord
  2
BYLAYER
 70
0
  3

 72
65
 73
0
 40
0.0
  0
LTYPE
  5
16
100
AcDbSymbolTableRecord
100
AcDbLinetypeTableRecord
  2
CONTINUOUS
 70
64
  3
Solid line
 72
65
 73
0
 40
0.0
  0
LTYPE
  5
1F5
100
AcDbSymbolTableRecord
100
AcDbLinetypeTableRecord
  2
CENTER
 70
64
  3
____ _ ____ _ ____ _ ____ _ ____ _ ____ _ ____
 72
65
 73
4
 40
0.6
 49
0.375
 74
0
 49
-0.075
 74
0
 49
0.075
 74
0
 49
-0.075
 74
0
  0
LTYPE
  5
1F6
100
AcDbSymbolTableRecord
100
AcDbLinetypeTableRecord
  2
HIDDEN
 70
64
  3
- - - - - - - - - - - - - - - - - - - -
 72
65
 73
2
 40
0.2
 49
0.1
 74
0
 49
-0.1
 74
0
  0
LTYPE
  5
1F7
100
AcDbSymbolTableRecord
100
AcDbLinetypeTableRecord
  2
PHANTOM
 70
64
  3
_____ _ _ _____ _ _ _____ _ _ _____
 72
65
 73
6
 40
0.8
 49
0.45
 74
0
 49
-0.05
 74
0
 49
0.1
 74
0
 49
-0.05
 74
0
 49
0.1
 74
0
 49
-0.05
 74
0
  0
LTYPE
  5
1F8
100
AcDbSymbolTableRecord
100
AcDbLinetypeTableRecord
  2
DOT
 70
64
  3
. . . . . . . . . . . . . . . . . . . .
 72
65
 73
2
 40
0.2
 49
0.1
 74
0
 49
-0.1
 74
0
  0
LTYPE
  5
1F9
100
AcDbSymbolTableRecord
100
AcDbLinetypeTableRecord
  2
DASHED
 70
64
  3
- - - - - - - - - - - - - - - - - - - -
 72
65
 73
2
 40
0.2
 49
0.1
 74
0
 49
-0.1
 74
0
  0
ENDTAB
  0
TABLE
  2
LAYER
  5
2
100
AcDbSymbolTable
 70
36
  0
LAYER
  5
10
100
AcDbSymbolTableRecord
100
AcDbLayerTableRecord
  2
0
 70
0
 62
7
  6
CONTINUOUS
370
-3
390
F
  0
LAYER
  5
1FA
100
AcDbSymbolTableRecord
100
AcDbLayerTableRecord
  2
DEFAULT_1
 70
0
 62
7
  6
CENTER
370
-3
390
F
  0
LAYER
  5
1FB
100
AcDbSymbolTableRecord
100
AcDbLayerTableRecord
  2
DEFAULT_2
 70
0
 62
8
  6
HIDDEN
370
-3
390
F
  0
LAYER
  5
1FC
100
AcDbSymbolTableRecord
100
AcDbLayerTableRecord
  2
DEFAULT_3
 70
0
 62
7
  6
PHANTOM
370
-3
390
F
  0
LAYER
  5
1FD
100
AcDbSymbolTableRecord
100
AcDbLayerTableRecord
  2
DEFAULT_COORDINATE_SYSTEM
 70
0
 62
7
  6
CONTINUOUS
370
-3
390
F
  0
LAYER
  5
1FE
100
AcDbSymbolTableRecord
100
AcDbLayerTableRecord
  2
DEFAULT_DATUM_AXES
 70
0
 62
7
  6
CONTINUOUS
370
-3
390
F
  0
LAYER
  5
1FF
100
AcDbSymbolTableRecord
100
AcDbLayerTableRecord
  2
DEFAULT_DATUM_CURVES
 70
0
 62
7
  6
CONTINUOUS
370
-3
390
F
  0
LAYER
  5
200
100
AcDbSymbolTableRecord
100
AcDbLayerTableRecord
  2
DEFAULT_DATUM_PLANES
 70
0
 62
7
  6
CONTINUOUS
370
-3
390
F
  0
ENDTAB
  0
TABLE
  2
STYLE
  5
3
100
AcDbSymbolTable
 70
1
  0
STYLE
  5
11
100
AcDbSymbolTableRecord
100
AcDbTextStyleTableRecord
  2
STANDARD
 70
0
 40
0.0
 41
0.8
 50
0.0
 71
0
 42
0.2
  3
txt
  4

  0
STYLE
  5
201
100
AcDbSymbolTableRecord
100
AcDbTextStyleTableRecord
  2
TEXTSTYLE_1
 70
0
 40
0.0
 41
0.8
 50
0.0
 71
0
 42
0.2
  3
gdt
  4

  0
ENDTAB
  0
TABLE
  2
VIEW
  5
6
100
AcDbSymbolTable
 70
0
  0
ENDTAB
  0
TABLE
  2
UCS
  5
7
100
AcDbSymbolTable
 70
0
  0
ENDTAB
  0
TABLE
  2
APPID
  5
9
100
AcDbSymbolTable
 70
1
  0
APPID
  5
202
100
AcDbSymbolTableRecord
100
AcDbRegAppTableRecord
  2
ACAD
 70
0
  0
ENDTAB
  0
TABLE
  2
BLOCK_RECORD
  5
1
100
AcDbSymbolTable
 70
0
  0
BLOCK_RECORD
  5
203
100
AcDbSymbolTableRecord
100
AcDbBlockTableRecord
  2
*Model_Space
  0
BLOCK_RECORD
  5
204
100
AcDbSymbolTableRecord
100
AcDbBlockTableRecord
  2
*Paper_Space
  0
ENDTAB
  0
TABLE
  2
DIMSTYLE
  5
A
100
AcDbSymbolTable
 70
1
100
AcDbDimStyleTable
 71
0
  0
DIMSTYLE
105
205
100
AcDbSymbolTableRecord
100
AcDbDimStyleTableRecord
  2
STANDARD
 70
0
  3

  4

 40
1.0
 41
0.1875
 42
0.0625
 43
0.38
 44
0.18
 45
0.0
 46
0.0
 47
0.001
 48
0.001
140
0.15625
141
0.09
142
0.0
143
25.4
144
1.0
145
0.0
146
1.0
147
0.09
 71
0.0
 72
0.0
 73
1
 74
1
 75
0
 76
0
 77
0
 78
4
170
0
171
2
172
0
173
0
174
0
175
0
176
0
177
0
178
0
270
2
271
3
272
3
273
2
274
2
275
0
280
0
281
0
282
0
283
1
284
4
285
0
286
0
287
3
288
0
340
11
  0
ENDTAB
  0
ENDSEC
  0
SECTION
  2
BLOCKS
  0
BLOCK
  5
20
100
AcDbEntity
  8
0
100
AcDbBlockBegin
  2
*Model_Space
 70
0
 10
0.0
 20
0.0
 30
0.0
  3
*Model_Space
  1

  0
ENDBLK
  5
21
100
AcDbEntity
  8
0
100
AcDbBlockEnd
  0
BLOCK
  5
1C
100
AcDbEntity
  8
0
100
AcDbBlockBegin
  2
*Paper_Space
 70
0
 10
0.0
 20
0.0
 30
0.0
  3
*Paper_Space
  1

  0
ENDBLK
  5
1D
100
AcDbEntity
  8
0
100
AcDbBlockEnd
  0
ENDSEC
  0
SECTION
  2
ENTITIES
  0
LINE
  5
206
100
AcDbEntity
  8
0
100
AcDbLine
 62
6
  6
CONTINUOUS
 10
14.6947138126
 20
11.8387904145
 11
14.6947138126
 21
12.1587902654
  0
LINE
  5
207
100
AcDbEntity
  8
0
100
AcDbLine
 62
6
  6
CONTINUOUS
 10
14.7017848804
 20
11.8317193467
 11
14.7017848804
 21
12.1658613332
  0
LINE
  5
208
100
AcDbEntity
  8
0
100
AcDbLine
 62
6
  6
CONTINUOUS
 10
14.7607138126
 20
11.7267950941
 11
14.7607138126
 21
12.2707855858
  0
LINE
  5
209
100
AcDbEntity
  8
0
100
AcDbLine
 62
9
  6
CONTINUOUS
 10
14.7847138126
 20
11.703293776
 11
14.7847138126
 21
12.294286904
  0
LINE
  5
20A
100
AcDbEntity
  8
0
100
AcDbLine
 62
9
  6
CONTINUOUS
 10
14.8197138126
 20
11.6682937749
 11
14.8197138126
 21
12.3292869051
  0
LINE
  5
20B
100
AcDbEntity
  8
0
100
AcDbLine
 62
6
  6
CONTINUOUS
 10
14.9027138126
 20
11.6682937749
 11
14.9027138126
 21
12.3292869051
  0
LINE
  5
20C
100
AcDbEntity
  8
0
100
AcDbLine
 62
6
  6
CONTINUOUS
 10
14.6947138126
 20
12.1587902654
 11
14.7017848804
 21
12.1658613332
  0
LINE
  5
20D
100
AcDbEntity
  8
0
100
AcDbLine
 62
6
  6
CONTINUOUS
 10
14.6947138126
 20
11.8387904145
 11
14.7017848804
 21
11.8317193467
  0
LINE
  5
20E
100
AcDbEntity
  8
0
100
AcDbLine
 62
7
  6
CONTINUOUS
 10
17.7511453494
 20
11.416142344
 11
17.7388166915
 21
11.4129455717
  0
LINE
  5
20F
100
AcDbEntity
  8
0
100
AcDbLine
 62
9
  6
CONTINUOUS
 10
15.5904194721
 20
11.6204559916
 11
15.5904194721
 21
12.3771246883
  0
LINE
  5
210
100
AcDbEntity
  8
0
100
AcDbLine
 62
7
  6
CONTINUOUS
 10
17.7512510104
 20
11.53202239
 11
17.738969029
 21
11.5288377208
  0
LINE
  5
211
100
AcDbEntity
  8
0
100
AcDbLine
 62
7
  6
CONTINUOUS
 10
17.6605609215
 20
11.6919160579
 11
17.6519471159
 21
11.6896825322
  0
LINE
  5
212
100
AcDbEntity
  8
0
100
AcDbLine
 62
7
  6
CONTINUOUS
 10
17.7511599289
 20
11.5908459636
 11
17.7388395275
 21
11.5889088073
  0
LINE
  5
213
100
AcDbEntity
  8
0
100
AcDbLine
 62
6
  6
CONTINUOUS
 10
17.7512534046
 20
11.7032580436
 11
17.7389721548
 21
11.7013270431
  0
LINE
  5
214
100
AcDbEntity
  8
0
100
AcDbLine
 62
6
  6
CONTINUOUS
 10
15.9757138126
 20
11.64629034
 11
15.9757138126
 21
12.35129034
  0
LINE
  5
215
100
AcDbEntity
  8
0
100
AcDbLine
 62
7
  6
CONTINUOUS
 10
16.0197138126
 20
11.64629034
 11
16.0197138126
 21
12.35129034
  0
LINE
  5
216
100
AcDbEntity
  8
0
100
AcDbLine
 62
9
  6
CONTINUOUS
 10
17.6744736922
 20
11.8069705753
 11
17.6621771334
 21
11.8050371678
  0
LINE
  5
217
100
AcDbEntity
  8
0
100
AcDbLine
 62
6
  6
CONTINUOUS
 10
17.6575047628
 20
11.8515868536
 11
17.6519455423
 21
11.8507127685
  0
LINE
  5
218
100
AcDbEntity
  8
0
100
AcDbLine
 62
6
  6
CONTINUOUS
 10
17.7511453494
 20
11.744830806
 11
17.7388166915
 21
11.7441812398
  0
LINE
  5
219
100
AcDbEntity
  8
0
100
AcDbLine
 62
6
  6
CONTINUOUS
 10
15.9757138126
 20
11.64629034
 11
16.0197138126
 21
11.64629034
  0
LINE
  5
21A
100
AcDbEntity
  8
0
100
AcDbLine
 62
6
  6
CONTINUOUS
 10
14.8197138126
 20
11.6682937749
 11
14.9027138126
 21
11.6682937749
  0
LINE
  5
21B
100
AcDbEntity
  8
0
100
AcDbLine
 62
6
  6
CONTINUOUS
 10
14.7607138126
 20
11.72679034
 11
14.7847138126
 21
11.72679034
  0
LINE
  5
21C
100
AcDbEntity
  8
0
100
AcDbLine
 62
6
  6
CONTINUOUS
 10
16.1597138126
 20
11.62379034
 11
16.1597138126
 21
12.37379034
  0
LINE
  5
21D
100
AcDbEntity
  8
0
100
AcDbLine
 62
6
  6
CONTINUOUS
 10
17.7512510104
 20
11.8689741537
 11
17.738969029
 21
11.8683270468
  0
LINE
  5
21E
100
AcDbEntity
  8
0
100
AcDbLine
 62
9
  6
CONTINUOUS
 10
17.6744604567
 20
11.9623794374
 11
17.6621634005
 21
11.9617315363
  0
LINE
  5
21F
100
AcDbEntity
  8
0
100
AcDbLine
 62
7
  6
CONTINUOUS
 10
17.6656280285
 20
12.0034987033
 11
17.6519471159
 21
12.0027778902
  0
LINE
  5
220
100
AcDbEntity
  8
0
100
AcDbLine
 62
9
  6
CONTINUOUS
 10
16.388349305
 20
11.45379034
 11
16.388349305
 21
12.54379034
  0
LINE
  5
221
100
AcDbEntity
  8
0
100
AcDbLine
 62
7
  6
CONTINUOUS
 10
17.7512534046
 20
12.0471207129
 11
17.7389721548
 21
12.0477677813
  0
LINE
  5
222
100
AcDbEntity
  8
0
100
AcDbLine
 62
6
  6
CONTINUOUS
 10
14.7607138126
 20
12.27079034
 11
14.7847138126
 21
12.27079034
  0
LINE
  5
223
100
AcDbEntity
  8
0
100
AcDbLine
 62
7
  6
CONTINUOUS
 10
17.6744736922
 20
12.1291294357
 11
17.6621771334
 21
12.1297773107
  0
LINE
  5
224
100
AcDbEntity
  8
0
100
AcDbLine
 62
6
  6
CONTINUOUS
 10
14.8197138126
 20
12.3292869051
 11
14.9027138126
 21
12.3292869051
  0
LINE
  5
225
100
AcDbEntity
  8
0
100
AcDbLine
 62
6
  6
CONTINUOUS
 10
15.9757138126
 20
12.35129034
 11
16.0197138126
 21
12.35129034
  0
LINE
  5
226
100
AcDbEntity
  8
0
100
AcDbLine
 62
7
  6
CONTINUOUS
 10
17.7511453494
 20
12.0894764795
 11
17.7388166915
 21
12.091414934
  0
LINE
  5
227
100
AcDbEntity
  8
0
100
AcDbLine
 62
6
  6
CONTINUOUS
 10
17.7512510104
 20
12.2140827458
 11
17.738969029
 21
12.2160138613
  0
LINE
  5
228
100
AcDbEntity
  8
0
100
AcDbLine
 62
7
  6
CONTINUOUS
 10
17.6744604567
 20
12.2830972209
 11
17.6621634005
 21
12.2850307066
  0
LINE
  5
229
100
AcDbEntity
  8
0
100
AcDbLine
 62
7
  6
CONTINUOUS
 10
17.6656280285
 20
12.3134716241
 11
17.6519471159
 21
12.3156226958
  0
LINE
  5
22A
100
AcDbEntity
  8
0
100
AcDbLine
 62
6
  6
CONTINUOUS
 10
17.667250655
 20
10.6912984787
 11
17.6838821978
 21
10.6625498941
  0
LINE
  5
22B
100
AcDbEntity
  8
0
100
AcDbLine
 62
6
  6
CONTINUOUS
 10
17.7511599289
 20
12.2750955304
 11
17.7388395275
 21
12.2782901618
  0
LINE
  5
22C
100
AcDbEntity
  8
0
100
AcDbLine
 62
6
  6
CONTINUOUS
 10
17.7512534046
 20
12.3879466071
 11
17.7389721548
 21
12.3911310866
  0
LINE
  5
22D
100
AcDbEntity
  8
0
100
AcDbLine
 62
7
  6
CONTINUOUS
 10
17.6563931856
 20
11.5461587117
 11
17.6519455423
 21
11.5445696967
  0
LINE
  5
22E
100
AcDbEntity
  8
0
100
AcDbLine
 62
7
  6
CONTINUOUS
 10
17.6744736922
 20
12.4430986115
 11
17.6621771334
 21
12.4462870605
  0
LINE
  5
22F
100
AcDbEntity
  8
0
100
AcDbLine
 62
7
  6
CONTINUOUS
 10
17.665627291
 20
12.4675433482
 11
17.6519455423
 21
12.4710909715
  0
LINE
  5
230
100
AcDbEntity
  8
0
100
AcDbLine
 62
7
  6
CONTINUOUS
 10
17.7511453494
 20
12.4284240094
 11
17.7388166915
 21
12.4328286843
  0
LINE
  5
231
100
AcDbEntity
  8
0
100
AcDbLine
 62
7
  6
CONTINUOUS
 10
17.7512510104
 20
12.5456637243
 11
17.738969029
 21
12.5500517231
  0
LINE
  5
232
100
AcDbEntity
  8
0
100
AcDbLine
 62
7
  6
CONTINUOUS
 10
17.6656280285
 20
12.6036719626
 11
17.6519471159
 21
12.6085597592
  0
LINE
  5
233
100
AcDbEntity
  8
0
100
AcDbLine
 62
9
  6
CONTINUOUS
 10
17.4047138126
 20
10.9660259024
 11
17.4047138126
 21
13.0315547776
  0
LINE
  5
234
100
AcDbEntity
  8
0
100
AcDbLine
 62
7
  6
CONTINUOUS
 10
17.6581567006
 20
11.3988014587
 11
17.6519471159
 21
11.3960095545
  0
LINE
  5
235
100
AcDbEntity
  8
0
100
AcDbLine
 62
7
  6
CONTINUOUS
 10
17.6744604567
 20
11.3478154882
 11
17.6621634005
 21
11.3422865834
  0
LINE
  5
236
100
AcDbEntity
  8
0
100
AcDbLine
 62
7
  6
CONTINUOUS
 10
17.7512534046
 20
11.3779647554
 11
17.7389721548
 21
11.3735770179
  0
LINE
  5
237
100
AcDbEntity
  8
0
100
AcDbLine
 62
6
  6
CONTINUOUS
 10
17.7511599289
 20
11.2764887416
 11
17.7388395275
 21
11.2720870164
  0
LINE
  5
238
100
AcDbEntity
  8
0
100
AcDbLine
 62
6
  6
CONTINUOUS
 10
17.6634204535
 20
12.6324531066
 11
17.6617552755
 21
12.6330276367
  0
LINE
  5
239
100
AcDbEntity
  8
0
100
AcDbLine
 62
6
  6
CONTINUOUS
 10
17.6740999092
 20
12.6274773338
 11
17.6617650012
 21
12.6330232572
  0
LINE
  5
23A
100
AcDbEntity
  8
0
100
AcDbLine
 62
7
  6
CONTINUOUS
 10
17.6756399551
 20
12.6269590713
 11
17.6634204535
 21
12.6324531066
  0
LINE
  5
23B
100
AcDbEntity
  8
0
100
AcDbLine
 62
7
  6
CONTINUOUS
 10
17.7511599289
 20
12.6019939583
 11
17.7388395275
 21
12.6075333595
  0
LINE
  5
23C
100
AcDbEntity
  8
0
100
AcDbLine
 62
6
  6
CONTINUOUS
 10
17.5447138126
 20
10.88379034
 11
17.5447138126
 21
13.11379034
  0
LINE
  5
23D
100
AcDbEntity
  8
0
100
AcDbLine
 62
7
  6
CONTINUOUS
 10
17.6554916116
 20
11.2688636369
 11
17.6519455423
 21
11.2669669783
  0
LINE
  5
23E
100
AcDbEntity
  8
0
100
AcDbLine
 62
6
  6
CONTINUOUS
 10
17.7512510104
 20
11.2243993732
 11
17.738969029
 21
11.2188772462
  0
LINE
  5
23F
100
AcDbEntity
  8
0
100
AcDbLine
 62
7
  6
CONTINUOUS
 10
17.665627291
 20
12.7401939793
 11
17.6519455423
 21
12.7463454586
  0
LINE
  5
240
100
AcDbEntity
  8
0
100
AcDbLine
 62
7
  6
CONTINUOUS
 10
17.7512534046
 20
12.7043203819
 11
17.7389721548
 21
12.70984218
  0
LINE
  5
241
100
AcDbEntity
  8
0
100
AcDbLine
 62
6
  6
CONTINUOUS
 10
17.6740596859
 20
12.7529682286
 11
17.6617236844
 21
12.7595662899
  0
LINE
  5
242
100
AcDbEntity
  8
0
100
AcDbLine
 62
7
  6
CONTINUOUS
 10
17.6811396668
 20
12.7516661677
 11
17.6691913027
 21
12.7580568964
  0
LINE
  5
243
100
AcDbEntity
  8
0
100
AcDbLine
 62
7
  6
CONTINUOUS
 10
17.6363653265
 20
10.82379034
 11
17.6363653265
 21
13.17379034
  0
LINE
  5
244
100
AcDbEntity
  8
0
100
AcDbLine
 62
7
  6
CONTINUOUS
 10
17.6467274774
 20
10.78129034
 11
17.6467274774
 21
13.21629034
  0
LINE
  5
245
100
AcDbEntity
  8
0
100
AcDbLine
 62
9
  6
CONTINUOUS
 10
17.6647138126
 20
10.8135173971
 11
17.6647138126
 21
10.817794766
  0
LINE
  5
246
100
AcDbEntity
  8
0
100
AcDbLine
 62
9
  6
CONTINUOUS
 10
17.6647138126
 20
10.9892561974
 11
17.6647138126
 21
10.9912177505
  0
LINE
  5
247
100
AcDbEntity
  8
0
100
AcDbLine
 62
9
  6
CONTINUOUS
 10
17.6647138126
 20
12.0034505356
 11
17.6647138126
 21
12.0060343363
  0
LINE
  5
248
100
AcDbEntity
  8
0
100
AcDbLine
 62
9
  6
CONTINUOUS
 10
17.6647138126
 20
12.1296436594
 11
17.6647138126
 21
12.155166084
  0
LINE
  5
249
100
AcDbEntity
  8
0
100
AcDbLine
 62
9
  6
CONTINUOUS
 10
17.6647138126
 20
12.3136153678
 11
17.6647138126
 21
12.3293713214
  0
LINE
  5
24A
100
AcDbEntity
  8
0
100
AcDbLine
 62
9
  6
CONTINUOUS
 10
17.6647138126
 20
12.4677802095
 11
17.6647138126
 21
12.4717052725
  0
LINE
  5
24B
100
AcDbEntity
  8
0
100
AcDbLine
 62
9
  6
CONTINUOUS
 10
17.6647138126
 20
12.6039985856
 11
17.6647138126
 21
12.6316974361
  0
LINE
  5
24C
100
AcDbEntity
  8
0
100
AcDbLine
 62
9
  6
CONTINUOUS
 10
17.6647138126
 20
12.7406046903
 11
17.6647138126
 21
12.7579669833
  0
LINE
  5
24D
100
AcDbEntity
  8
0
100
AcDbLine
 62
9
  6
CONTINUOUS
 10
17.6647138126
 20
12.8587420871
 11
17.6647138126
 21
12.8885782917
  0
LINE
  5
24E
100
AcDbEntity
  8
0
100
AcDbLine
 62
9
  6
CONTINUOUS
 10
17.6647138126
 20
12.9779934974
 11
17.6647138126
 21
12.9900182392
  0
LINE
  5
24F
100
AcDbEntity
  8
0
100
AcDbLine
 62
9
  6
CONTINUOUS
 10
17.6647138126
 20
13.0746659372
 11
17.6647138126
 21
13.092292107
  0
LINE
  5
250
100
AcDbEntity
  8
0
100
AcDbLine
 62
9
  6
CONTINUOUS
 10
17.6647138126
 20
13.2263791134
 11
17.6647138126
 21
13.2335890929
  0
LINE
  5
251
100
AcDbEntity
  8
0
100
AcDbLine
 62
9
  6
CONTINUOUS
 10
17.7607940147
 20
10.61629034
 11
17.7607940147
 21
13.38129034
  0
LINE
  5
252
100
AcDbEntity
  8
0
100
AcDbLine
 62
6
  6
CONTINUOUS
 10
17.7747138126
 20
10.602145793
 11
17.7747138126
 21
13.3954348869
  0
LINE
  5
253
100
AcDbEntity
  8
0
100
AcDbLine
 62
7
  6
CONTINUOUS
 10
17.6565605815
 20
11.1430334627
 11
17.6519471159
 21
11.1402115105
  0
LINE
  5
254
100
AcDbEntity
  8
0
100
AcDbLine
 62
7
  6
CONTINUOUS
 10
17.665633964
 20
11.2038711673
 11
17.6650980023
 21
11.2035845017
  0
LINE
  5
255
100
AcDbEntity
  8
0
100
AcDbLine
 62
7
  6
CONTINUOUS
 10
17.7511453494
 20
11.1240637984
 11
17.7388166915
 21
11.118520685
  0
LINE
  5
256
100
AcDbEntity
  8
0
100
AcDbLine
 62
7
  6
CONTINUOUS
 10
17.7511453494
 20
12.7403760757
 11
17.7388166915
 21
12.7469702092
  0
LINE
  5
257
100
AcDbEntity
  8
0
100
AcDbLine
 62
7
  6
CONTINUOUS
 10
17.6608072123
 20
12.8584438366
 11
17.6519471159
 21
12.8631827675
  0
LINE
  5
258
100
AcDbEntity
  8
0
100
AcDbLine
 62
7
  6
CONTINUOUS
 10
17.7512510104
 20
12.8428826368
 11
17.738969029
 21
12.8494518048
  0
LINE
  5
259
100
AcDbEntity
  8
0
100
AcDbLine
 62
7
  6
CONTINUOUS
 10
17.6652868922
 20
10.9896452301
 11
17.6606141823
 21
10.9864731803
  0
LINE
  5
25A
100
AcDbEntity
  8
0
100
AcDbLine
 62
9
  6
CONTINUOUS
 10
17.665633964
 20
11.089707614
 11
17.6615986214
 21
11.0872392865
  0
LINE
  5
25B
100
AcDbEntity
  8
0
100
AcDbLine
 62
7
  6
CONTINUOUS
 10
17.7512534046
 20
11.0916802218
 11
17.7389721548
 21
11.0851114451
  0
LINE
  5
25C
100
AcDbEntity
  8
0
100
AcDbLine
 62
7
  6
CONTINUOUS
 10
17.7511599289
 20
11.0075163854
 11
17.7388395275
 21
11.000926668
  0
LINE
  5
25D
100
AcDbEntity
  8
0
100
AcDbLine
 62
6
  6
CONTINUOUS
 10
17.6691030754
 20
12.8858934793
 11
17.6562563153
 21
12.8937515509
  0
LINE
  5
25E
100
AcDbEntity
  8
0
100
AcDbLine
 62
9
  6
CONTINUOUS
 10
17.6756399551
 20
12.887078649
 11
17.6634204535
 21
12.8945530408
  0
LINE
  5
25F
100
AcDbEntity
  8
0
100
AcDbLine
 62
6
  6
CONTINUOUS
 10
17.7511599289
 20
12.8909908845
 11
17.7388395275
 21
12.8985269945
  0
LINE
  5
260
100
AcDbEntity
  8
0
100
AcDbLine
 62
7
  6
CONTINUOUS
 10
17.7512534046
 20
12.9763631093
 11
17.7389721548
 21
12.9838752711
  0
LINE
  5
261
100
AcDbEntity
  8
0
100
AcDbLine
 62
6
  6
CONTINUOUS
 10
17.668703154
 20
12.9873100913
 11
17.6557931862
 21
12.9960739695
  0
LINE
  5
262
100
AcDbEntity
  8
0
100
AcDbLine
 62
7
  6
CONTINUOUS
 10
17.6811396668
 20
12.9921017348
 11
17.6691913027
 21
13.0002128323
  0
LINE
  5
263
100
AcDbEntity
  8
0
100
AcDbLine
 62
6
  6
CONTINUOUS
 10
17.6520714436
 20
13.2466019885
 11
17.6519592365
 21
13.2474214424
  0
LINE
  5
264
100
AcDbEntity
  8
0
100
AcDbLine
 62
6
  6
CONTINUOUS
 10
17.9397138126
 20
10.57629034
 11
17.9397138126
 21
13.42129034
  0
LINE
  5
265
100
AcDbEntity
  8
0
100
AcDbLine
 62
7
  6
CONTINUOUS
 10
17.6540263923
 20
10.865887938
 11
17.6519455423
 21
10.8642645106
  0
LINE
  5
266
100
AcDbEntity
  8
0
100
AcDbLine
 62
7
  6
CONTINUOUS
 10
17.6597579178
 20
10.8346996589
 11
17.6570626882
 21
10.8325969079
  0
LINE
  5
267
100
AcDbEntity
  8
0
100
AcDbLine
 62
7
  6
CONTINUOUS
 10
17.6552712071
 20
10.9408053648
 11
17.6519471159
 21
10.938361132
  0
LINE
  5
268
100
AcDbEntity
  8
0
100
AcDbLine
 62
9
  6
CONTINUOUS
 10
17.6642496062
 20
10.904947238
 11
17.6581599463
 21
10.9004694587
  0
LINE
  5
269
100
AcDbEntity
  8
0
100
AcDbLine
 62
7
  6
CONTINUOUS
 10
17.7512510104
 20
10.9654341889
 11
17.738969029
 21
10.9579215796
  0
LINE
  5
26A
100
AcDbEntity
  8
0
100
AcDbLine
 62
7
  6
CONTINUOUS
 10
17.7511453494
 20
10.8869475384
 11
17.7388166915
 21
10.8794063781
  0
LINE
  5
26B
100
AcDbEntity
  8
0
100
AcDbLine
 62
7
  6
CONTINUOUS
 10
17.7511453494
 20
13.0057315829
 11
17.7388166915
 21
13.0141008413
  0
LINE
  5
26C
100
AcDbEntity
  8
0
100
AcDbLine
 62
6
  6
CONTINUOUS
 10
17.7512510104
 20
13.0870641259
 11
17.738969029
 21
13.0954016981
  0
LINE
  5
26D
100
AcDbEntity
  8
0
100
AcDbLine
 62
7
  6
CONTINUOUS
 10
17.665633964
 20
13.0916155117
 11
17.6596433626
 21
13.0960204525
  0
LINE
  5
26E
100
AcDbEntity
  8
0
100
AcDbLine
 62
7
  6
CONTINUOUS
 10
17.6756399551
 20
13.0913838054
 11
17.6634204535
 21
13.1003689102
  0
LINE
  5
26F
100
AcDbEntity
  8
0
100
AcDbLine
 62
6
  6
CONTINUOUS
 10
17.6607966164
 20
13.155518917
 11
17.6530369413
 21
13.1615728223
  0
LINE
  5
270
100
AcDbEntity
  8
0
100
AcDbLine
 62
7
  6
CONTINUOUS
 10
17.6561517306
 20
10.747932346
 11
17.6549650366
 21
10.7469365916
  0
LINE
  5
271
100
AcDbEntity
  8
0
100
AcDbLine
 62
7
  6
CONTINUOUS
 10
17.6524796992
 20
10.7448511459
 11
17.6519419145
 21
10.744399891
  0
LINE
  5
272
100
AcDbEntity
  8
0
100
AcDbLine
 62
9
  6
CONTINUOUS
 10
17.6683030224
 20
10.6921815199
 11
17.667250655
 21
10.6912984787
  0
LINE
  5
273
100
AcDbEntity
  8
0
100
AcDbLine
 62
7
  6
CONTINUOUS
 10
17.6531458745
 20
10.7654672945
 11
17.6519455423
 21
10.7644680383
  0
LINE
  5
274
100
AcDbEntity
  8
0
100
AcDbLine
 62
7
  6
CONTINUOUS
 10
17.6551204614
 20
10.7527909038
 11
17.6539463865
 21
10.7518135064
  0
LINE
  5
275
100
AcDbEntity
  8
0
100
AcDbLine
 62
7
  6
CONTINUOUS
 10
17.6691533522
 20
10.707712958
 11
17.6677578955
 21
10.7065512638
  0
LINE
  5
276
100
AcDbEntity
  8
0
100
AcDbLine
 62
6
  6
CONTINUOUS
 10
17.6656280285
 20
10.8142604149
 11
17.6626425915
 21
10.8118340376
  0
LINE
  5
277
100
AcDbEntity
  8
0
100
AcDbLine
 62
6
  6
CONTINUOUS
 10
17.6540720956
 20
10.8048684718
 11
17.6519471159
 21
10.8031414205
  0
LINE
  5
278
100
AcDbEntity
  8
0
100
AcDbLine
 62
7
  6
CONTINUOUS
 10
17.666388889
 20
10.7588429028
 11
17.6621634005
 21
10.7554086887
  0
LINE
  5
279
100
AcDbEntity
  8
0
100
AcDbLine
 62
9
  6
CONTINUOUS
 10
17.6811396668
 20
10.7173782576
 11
17.6792549576
 21
10.7158464833
  0
LINE
  5
27A
100
AcDbEntity
  8
0
100
AcDbLine
 62
7
  6
CONTINUOUS
 10
17.7512510104
 20
10.7713985719
 11
17.738969029
 21
10.7623675253
  0
LINE
  5
27B
100
AcDbEntity
  8
0
100
AcDbLine
 62
7
  6
CONTINUOUS
 10
17.7511453494
 20
10.7196924507
 11
17.7388166915
 21
10.7106270824
  0
LINE
  5
27C
100
AcDbEntity
  8
0
100
AcDbLine
 62
7
  6
CONTINUOUS
 10
17.7512534046
 20
10.8623927532
 11
17.7389721548
 21
10.8540556776
  0
LINE
  5
27D
100
AcDbEntity
  8
0
100
AcDbLine
 62
6
  6
CONTINUOUS
 10
17.7511599289
 20
10.8008294174
 11
17.7388395275
 21
10.7924657639
  0
LINE
  5
27E
100
AcDbEntity
  8
0
100
AcDbLine
 62
6
  6
CONTINUOUS
 10
17.7511599289
 20
13.1239275692
 11
17.7388395275
 21
13.1329868664
  0
LINE
  5
27F
100
AcDbEntity
  8
0
100
AcDbLine
 62
7
  6
CONTINUOUS
 10
17.7512534046
 20
13.1869813444
 11
17.7389721548
 21
13.1960118532
  0
LINE
  5
280
100
AcDbEntity
  8
0
100
AcDbLine
 62
7
  6
CONTINUOUS
 10
17.6778952714
 20
13.1726550904
 11
17.6691913027
 21
13.1794457101
  0
LINE
  5
281
100
AcDbEntity
  8
0
100
AcDbLine
 62
7
  6
CONTINUOUS
 10
17.7511453494
 20
13.2078172685
 11
17.7388166915
 21
13.2174357805
  0
LINE
  5
282
100
AcDbEntity
  8
0
100
AcDbLine
 62
7
  6
CONTINUOUS
 10
17.7512510104
 20
13.2628653707
 11
17.738969029
 21
13.2724474668
  0
LINE
  5
283
100
AcDbEntity
  8
0
100
AcDbLine
 62
7
  6
CONTINUOUS
 10
17.658553769
 20
13.2124460748
 11
17.6534288928
 21
13.2166112552
  0
LINE
  5
284
100
AcDbEntity
  8
0
100
AcDbLine
 62
7
  6
CONTINUOUS
 10
17.665627291
 20
13.225636695
 11
17.6599198253
 21
13.230275368
  0
LINE
  5
285
100
AcDbEntity
  8
0
100
AcDbLine
 62
6
  6
CONTINUOUS
 10
17.6656494697
 20
13.2352985115
 11
17.663511707
 21
13.2370781627
  0
LINE
  5
286
100
AcDbEntity
  8
0
100
AcDbLine
 62
6
  6
CONTINUOUS
 10
17.654126317
 20
13.2448913412
 11
17.6520181998
 21
13.246646313
  0
LINE
  5
287
100
AcDbEntity
  8
0
100
AcDbLine
 62
7
  6
CONTINUOUS
 10
17.672027381
 20
13.2821326816
 11
17.6691913027
 21
13.2844936688
  0
LINE
  5
288
100
AcDbEntity
  8
0
100
AcDbLine
 62
7
  6
CONTINUOUS
 10
17.6523708026
 20
13.2570001809
 11
17.6519592365
 21
13.2573455259
  0
LINE
  5
289
100
AcDbEntity
  8
0
100
AcDbLine
 62
7
  6
CONTINUOUS
 10
17.6648163548
 20
13.2945975924
 11
17.6634204535
 21
13.2957688927
  0
LINE
  5
28A
100
AcDbEntity
  8
0
100
AcDbLine
 62
7
  6
CONTINUOUS
 10
17.7511599289
 20
10.6215296206
 11
17.7388395275
 21
10.6112730949
  0
LINE
  5
28B
100
AcDbEntity
  8
0
100
AcDbLine
 62
7
  6
CONTINUOUS
 10
17.7512510104
 20
10.6544844938
 11
17.738969029
 21
10.6445024637
  0
LINE
  5
28C
100
AcDbEntity
  8
0
100
AcDbLine
 62
6
  6
CONTINUOUS
 10
17.7511453494
 20
10.6328077876
 11
17.7388166915
 21
10.6227878217
  0
LINE
  5
28D
100
AcDbEntity
  8
0
100
AcDbLine
 62
7
  6
CONTINUOUS
 10
17.7512534046
 20
10.7045093242
 11
17.7389721548
 21
10.6949277989
  0
LINE
  5
28E
100
AcDbEntity
  8
0
100
AcDbLine
 62
6
  6
CONTINUOUS
 10
17.7511599289
 20
10.66941474
 11
17.7388395275
 21
10.6598026695
  0
LINE
  5
28F
100
AcDbEntity
  8
0
100
AcDbLine
 62
7
  6
CONTINUOUS
 10
17.7511599289
 20
13.2861677438
 11
17.7388395275
 21
13.2961809994
  0
LINE
  5
290
100
AcDbEntity
  8
0
100
AcDbLine
 62
7
  6
CONTINUOUS
 10
17.7512534046
 20
13.3229411688
 11
17.7389721548
 21
13.3329226045
  0
LINE
  5
291
100
AcDbEntity
  8
0
100
AcDbLine
 62
7
  6
CONTINUOUS
 10
17.7511453494
 20
13.3339353457
 11
17.7388166915
 21
13.3441987448
  0
LINE
  5
292
100
AcDbEntity
  8
0
100
AcDbLine
 62
6
  6
CONTINUOUS
 10
17.7512510104
 20
13.3592401323
 11
17.738969029
 21
13.369464674
  0
LINE
  5
293
100
AcDbEntity
  8
0
100
AcDbLine
 62
7
  6
CONTINUOUS
 10
17.7511453494
 20
13.3761613519
 11
17.7388166915
 21
13.386424751
  0
LINE
  5
294
100
AcDbEntity
  8
0
100
AcDbLine
 62
7
  6
CONTINUOUS
 10
17.7512534046
 20
13.3756997268
 11
17.7389721548
 21
13.386004919
  0
ARC
  5
295
100
AcDbEntity
  8
0
100
AcDbCircle
 62
6
  6
CONTINUOUS
 10
-9.7399291102
 20
10.8824334393
 40
27.478915918
100
AcDbArc
 50
359.8124097284
 51
359.9408300432
  0
ARC
  5
296
100
AcDbEntity
  8
0
100
AcDbCircle
 62
6
  6
CONTINUOUS
 10
0.7719101099
 20
10.7864525897
 40
16.9670760138
100
AcDbArc
 50
359.7439455091
 51
359.9186676005
  0
ARC
  5
297
100
AcDbEntity
  8
0
100
AcDbCircle
 62
7
  6
CONTINUOUS
 10
4.3529153615
 20
10.7226488548
 40
13.3983503223
100
AcDbArc
 50
359.772352711
 51
359.9224293414
  0
ARC
  5
298
100
AcDbEntity
  8
0
100
AcDbCircle
 62
6
  6
CONTINUOUS
 10
1.2451458394
 20
13.3740898165
 40
16.4938776903
100
AcDbArc
 50
359.7293624282
 51
359.8569948196
  0
ARC
  5
299
100
AcDbEntity
  8
0
100
AcDbCircle
 62
6
  6
CONTINUOUS
 10
9.5402209123
 20
10.7083222484
 40
8.1987621838
100
AcDbArc
 50
359.6609264595
 51
359.9063949225
  0
ARC
  5
29A
100
AcDbEntity
  8
0
100
AcDbCircle
 62
7
  6
CONTINUOUS
 10
13.9438496687
 20
10.6622046895
 40
3.8074091687
100
AcDbArc
 50
359.5576164612
 51
359.8838225912
  0
ARC
  5
29B
100
AcDbEntity
  8
0
100
AcDbCircle
 62
6
  6
CONTINUOUS
 10
15.6228014316
 20
10.6484807708
 40
2.1161707468
100
AcDbArc
 50
359.3043409277
 51
359.8922864414
  0
ARC
  5
29C
100
AcDbEntity
  8
0
100
AcDbCircle
 62
6
  6
CONTINUOUS
 10
16.3420652661
 20
10.0545556249
 40
1.4
100
AcDbArc
 50
40.6208291884
 51
88.1054547173
  0
ARC
  5
29D
100
AcDbEntity
  8
0
100
AcDbCircle
 62
6
  6
CONTINUOUS
 10
17.9688603179
 20
11.301705036
 40
0.726
100
AcDbArc
 50
254.4892346397
 51
267.6991450867
  0
ARC
  5
29E
100
AcDbEntity
  8
0
100
AcDbCircle
 62
7
  6
CONTINUOUS
 10
18.1548197619
 20
11.0902597832
 40
0.489186454
100
AcDbArc
 50
180.0646726693
 51
181.8421417437
  0
ARC
  5
29F
100
AcDbEntity
  8
0
100
AcDbCircle
 62
6
  6
CONTINUOUS
 10
15.8006395426
 20
11.37129034
 40
0.326
100
AcDbArc
 50
57.5177951966
 51
130.1541931822
  0
ARC
  5
2A0
100
AcDbEntity
  8
0
100
AcDbCircle
 62
7
  6
CONTINUOUS
 10
17.9297223744
 20
10.8347977062
 40
0.2648916833
100
AcDbArc
 50
184.4466559362
 51
187.7282935817
  0
ARC
  5
2A1
100
AcDbEntity
  8
0
100
AcDbCircle
 62
6
  6
CONTINUOUS
 10
17.5944724816
 20
11.1287884519
 40
0.25
100
AcDbArc
 50
220.6208291884
 51
258.5194848001
  0
ARC
  5
2A2
100
AcDbEntity
  8
0
100
AcDbCircle
 62
6
  6
CONTINUOUS
 10
16.396614312
 20
11.7036536819
 40
0.25
100
AcDbArc
 50
198.62987012
 51
268.1054547173
  0
ARC
  5
2A3
100
AcDbEntity
  8
0
100
AcDbCircle
 62
6
  6
CONTINUOUS
 10
16.1958976155
 20
11.8711579458
 40
0.25
100
AcDbArc
 50
225.1918438316
 51
261.6780538142
  0
ARC
  5
2A4
100
AcDbEntity
  8
0
100
AcDbCircle
 62
7
  6
CONTINUOUS
 10
17.8641341602
 20
10.7957586637
 40
0.1990740382
100
AcDbArc
 50
203.1864731185
 51
213.4531152136
  0
ARC
  5
2A5
100
AcDbEntity
  8
0
100
AcDbCircle
 62
6
  6
CONTINUOUS
 10
17.8365832375
 20
10.7706923921
 40
0.1871193873
100
AcDbArc
 50
189.3676563872
 51
215.2955098946
  0
ARC
  5
2A6
100
AcDbEntity
  8
0
100
AcDbCircle
 62
6
  6
CONTINUOUS
 10
17.8290848504
 20
10.7653588058
 40
0.1779173202
100
AcDbArc
 50
215.2999512124
 51
220.0252592655
  0
ARC
  5
2A7
100
AcDbEntity
  8
0
100
AcDbCircle
 62
6
  6
CONTINUOUS
 10
17.826980685
 20
10.7635925289
 40
0.1751700951
100
AcDbArc
 50
220.0254868966
 51
227.1068770427
  0
ARC
  5
2A8
100
AcDbEntity
  8
0
100
AcDbCircle
 62
6
  6
CONTINUOUS
 10
17.8262924783
 20
10.7628802524
 40
0.1741798487
100
AcDbArc
 50
227.1132580542
 51
229.6130470869
  0
ARC
  5
2A9
100
AcDbEntity
  8
0
100
AcDbCircle
 62
6
  6
CONTINUOUS
 10
17.8365832375
 20
10.7706923921
 40
0.172
100
AcDbArc
 50
240.1909528228
 51
243.8555953188
  0
ARC
  5
2AA
100
AcDbEntity
  8
0
100
AcDbCircle
 62
6
  6
CONTINUOUS
 10
17.6363653265
 20
10.92379034
 40
0.1
100
AcDbArc
 50
203.5781784782
 51
270.0
  0
ARC
  5
2AB
100
AcDbEntity
  8
0
100
AcDbCircle
 62
6
  6
CONTINUOUS
 10
14.7037138126
 20
11.7747519945
 40
0.057
100
AcDbArc
 50
0.0350669172
 51
91.9393119103
  0
ARC
  5
2AC
100
AcDbEntity
  8
0
100
AcDbCircle
 62
6
  6
CONTINUOUS
 10
14.8197138126
 20
11.7032937749
 40
0.035
100
AcDbArc
 50
179.9999982105
 51
270.0
  0
ARC
  5
2AD
100
AcDbEntity
  8
0
100
AcDbCircle
 62
6
  6
CONTINUOUS
 10
17.7475749642
 20
10.5893597495
 40
0.03
100
AcDbArc
 50
25.2267350659
 51
63.8555953188
  0
ARC
  5
2AE
100
AcDbEntity
  8
0
100
AcDbCircle
 62
6
  6
CONTINUOUS
 10
17.6467274774
 20
10.76329034
 40
0.018
100
AcDbArc
 50
72.9330111451
 51
90.0
  0
ARC
  5
2AF
100
AcDbEntity
  8
0
100
AcDbCircle
 62
6
  6
CONTINUOUS
 10
6.4577935243
 20
13.4251194509
 40
11.2813134495
100
AcDbArc
 50
359.5890146359
 51
359.7173381483
  0
ARC
  5
2B0
100
AcDbEntity
  8
0
100
AcDbCircle
 62
6
  6
CONTINUOUS
 10
17.9688603179
 20
12.6958756439
 40
0.726
100
AcDbArc
 50
92.3008549133
 51
105.5107653603
  0
ARC
  5
2B1
100
AcDbEntity
  8
0
100
AcDbCircle
 62
6
  6
CONTINUOUS
 10
15.2712202853
 20
11.99879034
 40
0.495
100
AcDbArc
 50
49.8458068178
 51
138.1125252055
  0
ARC
  5
2B2
100
AcDbEntity
  8
0
100
AcDbCircle
 62
6
  6
CONTINUOUS
 10
15.2712202853
 20
11.99879034
 40
0.495
100
AcDbArc
 50
221.8874747945
 51
310.1541931822
  0
ARC
  5
2B3
100
AcDbEntity
  8
0
100
AcDbCircle
 62
6
  6
CONTINUOUS
 10
15.8006395426
 20
12.62629034
 40
0.326
100
AcDbArc
 50
229.8458068178
 51
302.4822048034
  0
ARC
  5
2B4
100
AcDbEntity
  8
0
100
AcDbCircle
 62
6
  6
CONTINUOUS
 10
17.5944724816
 20
12.868792228
 40
0.25
100
AcDbArc
 50
101.4805151999
 51
139.3791708116
  0
ARC
  5
2B5
100
AcDbEntity
  8
0
100
AcDbCircle
 62
6
  6
CONTINUOUS
 10
16.396614312
 20
12.293926998
 40
0.25
100
AcDbArc
 50
91.8945452827
 51
161.37012988
  0
ARC
  5
2B6
100
AcDbEntity
  8
0
100
AcDbCircle
 62
6
  6
CONTINUOUS
 10
16.1958976155
 20
12.1264227341
 40
0.25
100
AcDbArc
 50
98.3219461858
 51
134.8081561684
  0
ARC
  5
2B7
100
AcDbEntity
  8
0
100
AcDbCircle
 62
6
  6
CONTINUOUS
 10
14.7037138126
 20
12.2228286854
 40
0.057
100
AcDbArc
 50
268.0606880897
 51
359.9649330828
  0
ARC
  5
2B8
100
AcDbEntity
  8
0
100
AcDbCircle
 62
6
  6
CONTINUOUS
 10
14.8197138126
 20
12.2942869051
 40
0.035
100
AcDbArc
 50
90.0
 51
180.0000017895
  0
ARC
  5
2B9
100
AcDbEntity
  8
0
100
AcDbCircle
 62
7
  6
CONTINUOUS
 10
17.6842932703
 20
12.7653131449
 40
0.0165438679
100
AcDbArc
 50
206.0775912408
 51
206.6081867422
  0
ARC
  5
2BA
100
AcDbEntity
  8
0
100
AcDbCircle
 62
6
  6
CONTINUOUS
 10
16.3420652661
 20
13.943025055
 40
1.4
100
AcDbArc
 50
271.8945452827
 51
319.3791708116
  0
ARC
  5
2BB
100
AcDbEntity
  8
0
100
AcDbCircle
 62
7
  6
CONTINUOUS
 10
19.1043616131
 20
13.3597086088
 40
1.3656426578
100
AcDbArc
 50
178.8966654616
 51
179.2386297105
  0
ARC
  5
2BC
100
AcDbEntity
  8
0
100
AcDbCircle
 62
7
  6
CONTINUOUS
 10
19.0786930653
 20
13.3564434222
 40
1.3275793227
100
AcDbArc
 50
179.1689056509
 51
179.5220687762
  0
ARC
  5
2BD
100
AcDbEntity
  8
0
100
AcDbCircle
 62
6
  6
CONTINUOUS
 10
17.8365832375
 20
13.2268882878
 40
0.1871193873
100
AcDbArc
 50
137.7658885876
 51
170.6323436128
  0
ARC
  5
2BE
100
AcDbEntity
  8
0
100
AcDbCircle
 62
7
  6
CONTINUOUS
 10
17.8339757306
 20
13.2319252371
 40
0.1814538063
100
AcDbArc
 50
121.6641186193
 51
133.4463818335
  0
ARC
  5
2BF
100
AcDbEntity
  8
0
100
AcDbCircle
 62
6
  6
CONTINUOUS
 10
17.8285018073
 20
13.2342956023
 40
0.1761577169
100
AcDbArc
 50
120.5465312367
 51
137.7573451741
  0
ARC
  5
2C0
100
AcDbEntity
  8
0
100
AcDbCircle
 62
6
  6
CONTINUOUS
 10
17.8365832375
 20
13.2268882878
 40
0.172
100
AcDbArc
 50
176.9753351939
 51
177.7672963034
  0
ARC
  5
2C1
100
AcDbEntity
  8
0
100
AcDbCircle
 62
6
  6
CONTINUOUS
 10
17.8365832375
 20
13.2268882878
 40
0.172
100
AcDbArc
 50
116.1444046812
 51
119.883305762
  0
ARC
  5
2C2
100
AcDbEntity
  8
0
100
AcDbCircle
 62
6
  6
CONTINUOUS
 10
17.8293215666
 20
13.2337472088
 40
0.1620035657
100
AcDbArc
 50
118.8090202759
 51
123.5313603947
  0
ARC
  5
2C3
100
AcDbEntity
  8
0
100
AcDbCircle
 62
7
  6
CONTINUOUS
 10
17.8206659226
 20
13.2261353412
 40
0.1575434243
100
AcDbArc
 50
116.1795935448
 51
118.6398455243
  0
ARC
  5
2C4
100
AcDbEntity
  8
0
100
AcDbCircle
 62
7
  6
CONTINUOUS
 10
17.8070204589
 20
13.2285316556
 40
0.141824612
100
AcDbArc
 50
140.0998450991
 51
152.2867571328
  0
ARC
  5
2C5
100
AcDbEntity
  8
0
100
AcDbCircle
 62
6
  6
CONTINUOUS
 10
17.6363653265
 20
13.07379034
 40
0.1
100
AcDbArc
 50
90.0
 51
156.4218215218
  0
ARC
  5
2C6
100
AcDbEntity
  8
0
100
AcDbCircle
 62
6
  6
CONTINUOUS
 10
17.7475749642
 20
13.4082209305
 40
0.03
100
AcDbArc
 50
296.1444046812
 51
334.7732649341
  0
ARC
  5
2C7
100
AcDbEntity
  8
0
100
AcDbCircle
 62
6
  6
CONTINUOUS
 10
17.6467274774
 20
13.23429034
 40
0.018
100
AcDbArc
 50
337.7122192455
 51
357.7672963034
  0
ARC
  5
2C8
100
AcDbEntity
  8
0
100
AcDbCircle
 62
6
  6
CONTINUOUS
 10
17.6467274774
 20
13.23429034
 40
0.018
100
AcDbArc
 50
270.0
 51
287.1948574413
  0
LINE
  5
2C9
100
AcDbEntity
  8
0
100
AcDbLine
 62
6
  6
CONTINUOUS
 10
17.6519592365
 20
10.7501592376
 11
17.6519455423
 21
10.7644680383
  0
SPLINE
  5
2CA
100
AcDbEntity
  8
0
100
AcDbSpline
 62
6
  6
CONTINUOUS
 70
0
 71
3
 72
15
 73
11
 74
9
 42
0.0000001
 43
0.0000001
 44
0.0000000001
 12
-0.1024892475
 22
0.0638102876
 32
0.0
 13
-0.0440572935
 23
0.1124044196
 33
0.0
 40
0.0
 40
0.0
 40
0.0
 40
0.0
 40
0.124473432
 40
0.248682517
 40
0.3728256867
 40
0.4971349999
 40
0.6218144287
 40
0.7470587247
 40
0.8730712524
 40
1.0
 40
1.0
 40
1.0
 40
1.0
 10
17.7388395275
 20
10.6112730949
 30
0.0
 10
17.7345871314
 20
10.6139206568
 30
0.0
 10
17.7263071509
 20
10.6195660205
 30
0.0
 10
17.714636186
 20
10.6290202432
 30
0.0
 10
17.7037793685
 20
10.6393906894
 30
0.0
 10
17.6937824453
 20
10.6506169661
 30
0.0
 10
17.6846876591
 20
10.6626410567
 30
0.0
 10
17.6765352111
 20
10.6754043994
 30
0.0
 10
17.6693664062
 20
10.6888465065
 30
0.0
 10
17.6652844992
 20
10.6981846327
 30
0.0
 10
17.6634204535
 20
10.7029404168
 30
0.0
 11
17.7388395275
 21
10.6112730949
 31
0.0
 11
17.7264224135
 21
10.6197375729
 31
0.0
 11
17.7147689809
 21
10.6291753389
 31
0.0
 11
17.703929437
 21
10.6395261648
 31
0.0
 11
17.693946863
 21
10.6507326448
 31
0.0
 11
17.6848641454
 21
10.662736163
 31
0.0
 11
17.6767223023
 21
10.6754777609
 31
0.0
 11
17.6695606837
 21
10.6889002277
 31
0.0
 11
17.6634204535
 21
10.7029404168
 31
0.0
  0
LINE
  5
2CB
100
AcDbEntity
  8
0
100
AcDbLine
 62
6
  6
CONTINUOUS
 10
17.6519592365
 20
10.7797749795
 11
17.6519471159
 21
10.8031414205
  0
SPLINE
  5
2CC
100
AcDbEntity
  8
0
100
AcDbSpline
 62
6
  6
CONTINUOUS
 70
0
 71
3
 72
20
 73
16
 74
14
 42
0.0000001
 43
0.0000001
 44
0.0000000001
 12
-0.0306764475
 22
0.0679671177
 32
0.0
 13
-0.0
 23
0.0745692532
 33
0.0
 40
0.0
 40
0.0
 40
0.0
 40
0.0
 40
0.1728043132
 40
0.3362785666
 40
0.4885896096
 40
0.6276697236
 40
0.7511003785
 40
0.8060976529
 40
0.8561321593
 40
0.9008431374
 40
0.9399082102
 40
0.9572282312
 40
0.9730331518
 40
0.987298331
 40
1.0
 40
1.0
 40
1.0
 40
1.0
 10
17.6691913027
 20
10.7076673709
 30
0.0
 10
17.6674242952
 20
10.7115823746
 30
0.0
 10
17.6642488955
 20
10.7193227862
 30
0.0
 10
17.6603761466
 20
10.7308409942
 30
0.0
 10
17.6574052551
 20
10.741756166
 30
0.0
 10
17.655218068
 20
10.751836593
 30
0.0
 10
17.6538974598
 20
10.7596200838
 30
0.0
 10
17.6531231781
 20
10.7652461096
 30
0.0
 10
17.6526874725
 20
10.7689428309
 30
0.0
 10
17.6523607965
 20
10.772252994
 30
0.0
 10
17.6521645097
 20
10.7747584238
 30
0.0
 10
17.6520563884
 20
10.7765495892
 30
0.0
 10
17.6520010456
 20
10.7777262799
 30
0.0
 10
17.651967667
 20
10.7787889538
 30
0.0
 10
17.6519592365
 20
10.7794592615
 30
0.0
 10
17.6519592365
 20
10.7797749795
 30
0.0
 11
17.6691913027
 21
10.7076673709
 31
0.0
 11
17.6642954477
 21
10.7195869652
 31
0.0
 11
17.6604057185
 21
10.7311398798
 31
0.0
 11
17.6574190541
 21
10.7420978748
 31
0.0
 11
17.6552175893
 21
10.7522326305
 31
0.0
 11
17.6536785886
 21
10.7613071839
 31
0.0
 11
17.6531201647
 21
10.765370093
 31
0.0
 11
17.6526843581
 21
10.769075589
 31
0.0
 11
17.6523589379
 21
10.772393734
 31
0.0
 11
17.6521343028
 21
10.7752981132
 31
0.0
 11
17.6520571069
 21
10.7765873451
 31
0.0
 11
17.6520024659
 21
10.7777646389
 31
0.0
 11
17.6519699767
 21
10.7788278864
 31
0.0
 11
17.6519592365
 21
10.7797749795
 31
0.0
  0
SPLINE
  5
2CD
100
AcDbEntity
  8
0
100
AcDbSpline
 62
7
  6
CONTINUOUS
 70
0
 71
3
 72
9
 73
5
 74
3
 42
0.0000001
 43
0.0000001
 44
0.0000000001
 12
0.0071748636
 22
-0.0288332173
 32
0.0
 13
0.0117116943
 23
-0.027306946
 33
0.0
 40
0.0
 40
0.0
 40
0.0
 40
0.0
 40
0.4833451471
 40
1.0
 40
1.0
 40
1.0
 40
1.0
 10
17.6717163561
 20
10.7455314391
 30
0.0
 10
17.6728723346
 20
10.7408859739
 30
0.0
 10
17.6756174653
 20
10.7313592684
 30
0.0
 10
17.6791226989
 20
10.722081013
 30
0.0
 10
17.6811396668
 20
10.7173782576
 30
0.0
 11
17.6717163561
 21
10.7455314391
 31
0.0
 11
17.6757036029
 21
10.7317346437
 31
0.0
 11
17.6811396668
 21
10.7173782576
 31
0.0
  0
SPLINE
  5
2CE
100
AcDbEntity
  8
0
100
AcDbSpline
 62
6
  6
CONTINUOUS
 70
0
 71
3
 72
15
 73
11
 74
9
 42
0.0000001
 43
0.0000001
 44
0.0000000001
 12
-0.0911145165
 22
0.0635599792
 32
0.0
 13
-0.0457017912
 23
0.1012574558
 33
0.0
 40
0.0
 40
0.0
 40
0.0
 40
0.0
 40
0.1235616223
 40
0.2473401024
 40
0.3714281227
 40
0.4959418335
 40
0.620973659
 40
0.746607364
 40
0.8729323561
 40
1.0
 40
1.0
 40
1.0
 40
1.0
 10
17.7388166915
 20
10.6227878217
 30
0.0
 10
17.735063939
 20
10.6254056797
 30
0.0
 10
17.7277353892
 20
10.6309146841
 30
0.0
 10
17.7173367981
 20
10.6399335881
 30
0.0
 10
17.7075579661
 20
10.6496716133
 30
0.0
 10
17.6984314774
 20
10.6600847271
 30
0.0
 10
17.6899875853
 20
10.6711304928
 30
0.0
 10
17.6822551884
 20
10.6827660835
 30
0.0
 10
17.6752636332
 20
10.6949474912
 30
0.0
 10
17.6711270424
 20
10.7033785221
 30
0.0
 10
17.6691913027
 20
10.7076673709
 30
0.0
 11
17.7388166915
 21
10.6227878217
 31
0.0
 11
17.7278426267
 21
10.6310338444
 31
0.0
 11
17.7174527633
 21
10.6400416025
 31
0.0
 11
17.7076827408
 21
10.6497669583
 31
0.0
 11
17.6985634193
 21
10.6601679175
 31
0.0
 11
17.6901255784
 21
10.671201526
 31
0.0
 11
17.6823987131
 21
10.6828245735
 31
0.0
 11
17.6754109241
 21
10.6949950342
 31
0.0
 11
17.6691913027
 21
10.7076673709
 31
0.0
  0
LINE
  5
2CF
100
AcDbEntity
  8
0
100
AcDbLine
 62
6
  6
CONTINUOUS
 10
17.6519592365
 20
10.8286153219
 11
17.6519455423
 21
10.8642645106
  0
SPLINE
  5
2D0
100
AcDbEntity
  8
0
100
AcDbSpline
 62
6
  6
CONTINUOUS
 70
0
 71
3
 72
13
 73
9
 74
7
 42
0.0000001
 43
0.0000001
 44
0.0000000001
 12
-0.1043555192
 22
0.0810010137
 32
0.0
 13
-0.0438860268
 23
0.1246003823
 33
0.0
 40
0.0
 40
0.0
 40
0.0
 40
0.0
 40
0.1227199897
 40
0.2460174182
 40
0.3699324675
 40
0.4945311016
 40
0.7457495432
 40
1.0
 40
1.0
 40
1.0
 40
1.0
 10
17.7388395275
 20
10.6598026695
 30
0.0
 10
17.7345706914
 20
10.6631161507
 30
0.0
 10
17.7262661698
 20
10.6700920619
 30
0.0
 10
17.7146051937
 20
10.681486648
 30
0.0
 10
17.7037575826
 20
10.6937701158
 30
0.0
 10
17.690406518
 20
10.711282879
 30
0.0
 10
17.6759758176
 20
10.735090013
 30
0.0
 10
17.6671398009
 20
10.7556066643
 30
0.0
 10
17.6634204535
 20
10.7661665657
 30
0.0
 11
17.7388395275
 21
10.6598026695
 31
0.0
 11
17.7264224135
 21
10.67022545
 31
0.0
 11
17.7147689809
 21
10.6816050678
 31
0.0
 11
17.703929437
 21
10.693871567
 31
0.0
 11
17.693946863
 21
10.7069587953
 31
0.0
 11
17.6767223023
 21
10.7353255803
 31
0.0
 11
17.6634204535
 21
10.7661665657
 31
0.0
  0
LINE
  5
2D1
100
AcDbEntity
  8
0
100
AcDbLine
 62
7
  6
CONTINUOUS
 10
17.7511453494
 20
10.7196924507
 11
17.7512510104
 21
10.7713985719
  0
LINE
  5
2D2
100
AcDbEntity
  8
0
100
AcDbLine
 62
6
  6
CONTINUOUS
 10
17.6519592365
 20
10.8959100233
 11
17.6519471159
 21
10.938361132
  0
SPLINE
  5
2D3
100
AcDbEntity
  8
0
100
AcDbSpline
 62
6
  6
CONTINUOUS
 70
0
 71
3
 72
18
 73
14
 74
12
 42
0.0000001
 43
0.0000001
 44
0.0000000001
 12
-0.0355027829
 22
0.0851504351
 32
0.0
 13
-0.0
 23
0.0922553207
 33
0.0
 40
0.0
 40
0.0
 40
0.0
 40
0.0
 40
0.0760822645
 40
0.1514136065
 40
0.2989505811
 40
0.4411013441
 40
0.5761231024
 40
0.7019658102
 40
0.8162486829
 40
0.8682477999
 40
0.9163989705
 40
0.9604049221
 40
1.0
 40
1.0
 40
1.0
 40
1.0
 10
17.6691913027
 20
10.8058201315
 30
0.0
 10
17.6682909253
 20
10.8079796108
 30
0.0
 10
17.6665812642
 20
10.8123120477
 30
0.0
 10
17.6635177203
 20
10.8209814758
 30
0.0
 10
17.6603188474
 20
10.8317500169
 30
0.0
 10
17.6573546886
 20
10.8444764421
 30
0.0
 10
17.6551728064
 20
10.8566812511
 30
0.0
 10
17.6536489483
 20
10.8681197869
 30
0.0
 10
17.6528016121
 20
10.8770651759
 30
0.0
 10
17.6523527315
 20
10.883644339
 30
0.0
 10
17.6521271122
 20
10.8880718918
 30
0.0
 10
17.6519925384
 20
10.8921214794
 30
0.0
 10
17.6519592365
 20
10.8946924044
 30
0.0
 10
17.6519592365
 20
10.8959100233
 30
0.0
 11
17.6691913027
 21
10.8058201315
 31
0.0
 11
17.6666126846
 21
10.8123483013
 31
0.0
 11
17.6642954477
 21
10.8189003224
 31
0.0
 11
17.6604057185
 21
10.8319437598
 31
0.0
 11
17.6574190541
 21
10.8447132993
 31
0.0
 11
17.6552175893
 21
10.8569736964
 31
0.0
 11
17.6536785886
 21
10.8684808971
 31
0.0
 11
17.6526843581
 21
10.8789771172
 31
0.0
 11
17.6523589379
 21
10.8837632622
 31
0.0
 11
17.6521343028
 21
10.8881997805
 31
0.0
 11
17.6520024659
 21
10.8922574225
 31
0.0
 11
17.6519592365
 21
10.8959100233
 31
0.0
  0
SPLINE
  5
2D4
100
AcDbEntity
  8
0
100
AcDbSpline
 62
7
  6
CONTINUOUS
 70
0
 71
3
 72
12
 73
8
 74
6
 42
0.0000001
 43
0.0000001
 44
0.0000000001
 12
0.0005290183
 22
-0.0300949093
 32
0.0
 13
0.0033101919
 23
-0.0299169861
 33
0.0
 40
0.0
 40
0.0
 40
0.0
 40
0.0
 40
0.1019707759
 40
0.2114263061
 40
0.4510223368
 40
0.7151338786
 40
1.0
 40
1.0
 40
1.0
 40
1.0
 10
17.6656721854
 20
10.9018299272
 30
0.0
 10
17.6656901669
 20
10.9008069935
 30
0.0
 10
17.6657393293
 20
10.8986862375
 30
0.0
 10
17.6658886613
 20
10.8941634568
 30
0.0
 10
17.6661863996
 20
10.8880181969
 30
0.0
 10
17.6667404831
 20
10.8801250676
 30
0.0
 10
17.6672666093
 20
10.8746413885
 30
0.0
 10
17.6675809298
 20
10.8718006099
 30
0.0
 11
17.6656721854
 21
10.9018299272
 31
0.0
 11
17.6657424366
 21
10.898761456
 31
0.0
 11
17.6658508745
 21
10.8954686779
 31
0.0
 11
17.6661992335
 21
10.8882653617
 31
0.0
 11
17.6667583946
 21
10.8803354104
 31
0.0
 11
17.6675809298
 21
10.8718006099
 31
0.0
  0
LINE
  5
2D5
100
AcDbEntity
  8
0
100
AcDbLine
 62
7
  6
CONTINUOUS
 10
17.7511599289
 20
10.8008294174
 11
17.7512534046
 21
10.8623927532
  0
SPLINE
  5
2D6
100
AcDbEntity
  8
0
100
AcDbSpline
 62
6
  6
CONTINUOUS
 70
0
 71
3
 72
20
 73
16
 74
14
 42
0.0000001
 43
0.0000001
 44
0.0000000001
 12
-0.0240674209
 22
0.0709662188
 32
0.0
 13
0.0
 23
0.0749362726
 33
0.0
 40
0.0
 40
0.0
 40
0.0
 40
0.0
 40
0.0717841929
 40
0.1433617255
 40
0.2850507079
 40
0.4235629768
 40
0.5572140709
 40
0.6216083544
 40
0.684021423
 40
0.7441563936
 40
0.801703755
 40
0.8563585546
 40
0.9078210012
 40
0.9557960759
 40
1.0
 40
1.0
 40
1.0
 40
1.0
 10
17.6634204535
 20
10.9068429996
 30
0.0
 10
17.6628445667
 20
10.9085410839
 30
0.0
 10
17.6617480963
 20
10.9119508112
 30
0.0
 10
17.6597698525
 20
10.9187915218
 30
0.0
 10
17.6576812937
 20
10.9273313264
 30
0.0
 10
17.6557160086
 20
10.9374836949
 30
0.0
 10
17.6544673716
 20
10.9457996194
 30
0.0
 10
17.6536804598
 20
10.9522580356
 30
0.0
 10
17.653194851
 20
10.9569025349
 30
0.0
 10
17.6527990696
 20
10.9613838293
 30
0.0
 10
17.6524856428
 20
10.9656773335
 30
0.0
 10
17.6522485125
 20
10.9697587377
 30
0.0
 10
17.6520825491
 20
10.9736043416
 30
0.0
 10
17.6519832186
 20
10.9771910948
 30
0.0
 10
17.6519592365
 20
10.9794936471
 30
0.0
 10
17.6519592365
 20
10.9805978062
 30
0.0
 11
17.6634204535
 21
10.9068429996
 31
0.0
 11
17.661771975
 21
10.9119634234
 31
0.0
 11
17.6602805153
 21
10.9171156462
 31
0.0
 11
17.6577475776
 21
10.9274267371
 31
0.0
 11
17.6557661478
 21
10.9376154509
 31
0.0
 11
17.6542725502
 21
10.9475187684
 31
0.0
 11
17.6536883264
 21
10.9523087392
 31
0.0
 11
17.6532016486
 21
10.9569603517
 31
0.0
 11
17.6528050272
 21
10.961449154
 31
0.0
 11
17.6524912971
 21
10.9657501116
 31
0.0
 11
17.6522543543
 21
10.9698388789
 31
0.0
 11
17.6520890609
 21
10.9736917388
 31
0.0
 11
17.6519913811
 21
10.9772854848
 31
0.0
 11
17.6519592365
 21
10.9805978062
 31
0.0
  0
SPLINE
  5
2D7
100
AcDbEntity
  8
0
100
AcDbSpline
 62
7
  6
CONTINUOUS
 70
0
 71
3
 72
12
 73
8
 74
6
 42
0.0000001
 43
0.0000001
 44
0.0000000001
 12
0.0000981273
 22
-0.0204140156
 32
0.0
 13
0.0013674951
 23
-0.0203683976
 33
0.0
 40
0.0
 40
0.0
 40
0.0
 40
0.0
 40
0.2186818209
 40
0.3366582021
 40
0.4599715718
 40
0.7212903283
 40
1.0
 40
1.0
 40
1.0
 40
1.0
 10
17.6656367309
 20
10.9887451454
 30
0.0
 10
17.6656438838
 20
10.9872570874
 30
0.0
 10
17.6656753606
 20
10.9849663018
 30
0.0
 10
17.6657523291
 20
10.9818372427
 30
0.0
 10
17.6658609155
 20
10.9784188117
 30
0.0
 10
17.6660548657
 20
10.9739089332
 30
0.0
 10
17.6662699206
 20
10.9702402768
 30
0.0
 10
17.6663969653
 20
10.968347987
 30
0.0
 11
17.6656367309
 21
10.9887451454
 31
0.0
 11
17.6656952646
 21
10.9842813035
 31
0.0
 11
17.665754246
 21
10.9818736263
 31
0.0
 11
17.665834118
 21
10.9793575436
 31
0.0
 11
17.6660631652
 21
10.9740278362
 31
0.0
 11
17.6663969653
 21
10.968347987
 31
0.0
  0
SPLINE
  5
2D8
100
AcDbEntity
  8
0
100
AcDbSpline
 62
6
  6
CONTINUOUS
 70
0
 71
3
 72
15
 73
11
 74
9
 42
0.0000001
 43
0.0000001
 44
0.0000000001
 12
-0.1039402474
 22
0.0915743323
 32
0.0
 13
-0.0444906285
 23
0.1311869557
 33
0.0
 40
0.0
 40
0.0
 40
0.0
 40
0.0
 40
0.1232148059
 40
0.2471817933
 40
0.3717139118
 40
0.4966872778
 40
0.6220837388
 40
0.7478733375
 40
0.8739145962
 40
1.0
 40
1.0
 40
1.0
 40
1.0
 10
17.7388395275
 20
10.7924657639
 30
0.0
 10
17.734570535
 20
10.7962268684
 30
0.0
 10
17.7262682084
 20
10.8040746402
 30
0.0
 10
17.7146125125
 20
10.8166906358
 30
0.0
 10
17.7037656124
 20
10.8301136173
 30
0.0
 10
17.6937794135
 20
10.8442689044
 30
0.0
 10
17.6846941978
 20
10.8590865484
 30
0.0
 10
17.676549526
 20
10.8744971354
 30
0.0
 10
17.6693855401
 20
10.8904213894
 30
0.0
 10
17.6652903264
 20
10.9013294129
 30
0.0
 10
17.6634204535
 20
10.9068429996
 30
0.0
 11
17.7388395275
 21
10.7924657639
 31
0.0
 11
17.7264305193
 21
10.8041853352
 31
0.0
 11
17.7147732909
 21
10.8167951991
 31
0.0
 11
17.7039280087
 21
10.8302106513
 31
0.0
 11
17.6939456544
 21
10.8443548988
 31
0.0
 11
17.6848640546
 21
10.8591624788
 31
0.0
 11
17.6767204805
 21
10.8745675769
 31
0.0
 11
17.6695573761
 21
10.8904905455
 31
0.0
 11
17.6634204535
 21
10.9068429996
 31
0.0
  0
LINE
  5
2D9
100
AcDbEntity
  8
0
100
AcDbLine
 62
7
  6
CONTINUOUS
 10
17.7511453494
 20
10.8869475384
 11
17.7512510104
 21
10.9654341889
  0
LINE
  5
2DA
100
AcDbEntity
  8
0
100
AcDbLine
 62
6
  6
CONTINUOUS
 10
17.6519592365
 20
11.0813430935
 11
17.6519471159
 21
11.1402115105
  0
LINE
  5
2DB
100
AcDbEntity
  8
0
100
AcDbLine
 62
7
  6
CONTINUOUS
 10
17.6656330667
 20
11.1105312709
 11
17.665633964
 21
11.089707614
  0
SPLINE
  5
2DC
100
AcDbEntity
  8
0
100
AcDbSpline
 62
6
  6
CONTINUOUS
 70
0
 71
3
 72
19
 73
15
 74
13
 42
0.0000001
 43
0.0000001
 44
0.0000000001
 12
-0.0397468053
 22
0.096605321
 32
0.0
 13
0.0
 23
0.1044624171
 33
0.0
 40
0.0
 40
0.0
 40
0.0
 40
0.0
 40
0.0683338033
 40
0.1367661279
 40
0.2732298924
 40
0.340989776
 40
0.4082083957
 40
0.5402415038
 40
0.6676185038
 40
0.7882723687
 40
0.8453484091
 40
0.8998591832
 40
0.9515085013
 40
1.0
 40
1.0
 40
1.0
 40
1.0
 10
17.6691913027
 20
10.9789315977
 30
0.0
 10
17.6682859526
 20
10.9811320674
 30
0.0
 10
17.6665673608
 20
10.9855752312
 30
0.0
 10
17.6634867811
 20
10.9945786734
 30
0.0
 10
17.6609093476
 20
11.0037254485
 30
0.0
 10
17.6587775018
 20
11.0129346474
 30
0.0
 10
17.6569430901
 20
11.0220506606
 30
0.0
 10
17.655140983
 20
11.0332854844
 30
0.0
 10
17.6536225988
 20
11.0464355614
 30
0.0
 10
17.6527900981
 20
11.0570291384
 30
0.0
 10
17.6523484752
 20
11.0651041148
 30
0.0
 10
17.6521238463
 20
11.0707839151
 30
0.0
 10
17.651990562
 20
11.0761675452
 30
0.0
 10
17.6519592365
 20
11.0796545805
 30
0.0
 10
17.6519592365
 20
11.0813430935
 30
0.0
 11
17.6691913027
 21
10.9789315977
 31
0.0
 11
17.6666126846
 21
10.9855878924
 31
0.0
 11
17.6642954477
 21
10.9923505089
 31
0.0
 11
17.6604057185
 21
11.0060649018
 31
0.0
 11
17.6588067093
 21
11.0129602892
 31
0.0
 11
17.6574190541
 21
11.0198436286
 31
0.0
 11
17.6552175893
 21
11.0334593013
 31
0.0
 11
17.6536785886
 21
11.0466761096
 31
0.0
 11
17.6526843581
 21
11.0592406286
 31
0.0
 11
17.6523589379
 21
11.0651940425
 31
0.0
 11
17.6521343028
 21
11.0708839372
 31
0.0
 11
17.6520024659
 21
11.0762777388
 31
0.0
 11
17.6519592365
 21
11.0813430935
 31
0.0
  0
LINE
  5
2DD
100
AcDbEntity
  8
0
100
AcDbLine
 62
7
  6
CONTINUOUS
 10
17.7511599289
 20
11.0075163854
 11
17.7512534046
 21
11.0916802218
  0
LINE
  5
2DE
100
AcDbEntity
  8
0
100
AcDbLine
 62
6
  6
CONTINUOUS
 10
17.6519592365
 20
11.196557072
 11
17.6519455423
 21
11.2669669783
  0
LINE
  5
2DF
100
AcDbEntity
  8
0
100
AcDbLine
 62
7
  6
CONTINUOUS
 10
17.6656331892
 20
11.2255103431
 11
17.665633964
 21
11.2038711673
  0
LINE
  5
2E0
100
AcDbEntity
  8
0
100
AcDbLine
 62
7
  6
CONTINUOUS
 10
17.7511453494
 20
11.1240637984
 11
17.7512510104
 21
11.2243993732
  0
SPLINE
  5
2E1
100
AcDbEntity
  8
0
100
AcDbSpline
 62
7
  6
CONTINUOUS
 70
0
 71
3
 72
15
 73
11
 74
9
 42
0.0000001
 43
0.0000001
 44
0.0000000001
 12
-0.106516717
 22
0.1012133294
 32
0.0
 13
-0.0423498892
 23
0.1406998078
 33
0.0
 40
0.0
 40
0.0
 40
0.0
 40
0.0
 40
0.1280536032
 40
0.2556646093
 40
0.3825648153
 40
0.508563394
 40
0.6334657444
 40
0.7570995701
 40
0.8793314279
 40
1.0
 40
1.0
 40
1.0
 40
1.0
 10
17.7512510104
 20
11.2243993732
 30
0.0
 10
17.7467043939
 20
11.228719617
 30
0.0
 10
17.7379097072
 20
11.2376482452
 30
0.0
 10
17.7256422393
 20
11.2518276414
 30
0.0
 10
17.7143623609
 20
11.2666790557
 30
0.0
 10
17.7041161923
 20
11.2821021465
 30
0.0
 10
17.6949457781
 20
11.2980037502
 30
0.0
 10
17.6868906466
 20
11.3142933116
 30
0.0
 10
17.6799919711
 20
11.3308804424
 30
0.0
 10
17.6761638902
 20
11.3421561399
 30
0.0
 10
17.6744604567
 20
11.3478154882
 30
0.0
 11
17.7512510104
 21
11.2243993732
 31
0.0
 11
17.7380441111
 21
11.2378010098
 31
0.0
 11
17.7257744314
 21
11.2519797958
 31
0.0
 11
17.7144963257
 21
11.2668284179
 31
0.0
 11
17.7042532359
 21
11.2822502664
 31
0.0
 11
17.6950879187
 21
11.2981503626
 31
0.0
 11
17.6870407382
 21
11.3144369284
 31
0.0
 11
17.6801508579
 21
11.3310229746
 31
0.0
 11
17.6744604567
 21
11.3478154882
 31
0.0
  0
LINE
  5
2E2
100
AcDbEntity
  8
0
100
AcDbLine
 62
6
  6
CONTINUOUS
 10
17.6519592365
 20
11.3244227484
 11
17.6519471159
 21
11.3960095545
  0
LINE
  5
2E3
100
AcDbEntity
  8
0
100
AcDbLine
 62
7
  6
CONTINUOUS
 10
17.6656312976
 20
11.3762838962
 11
17.6656337122
 21
11.3438065694
  0
LINE
  5
2E4
100
AcDbEntity
  8
0
100
AcDbLine
 62
7
  6
CONTINUOUS
 10
17.7511599289
 20
11.2764887416
 11
17.7512534046
 21
11.3779647554
  0
LINE
  5
2E5
100
AcDbEntity
  8
0
100
AcDbLine
 62
6
  6
CONTINUOUS
 10
17.6519592365
 20
11.4629236045
 11
17.6519455423
 21
11.5445696967
  0
LINE
  5
2E6
100
AcDbEntity
  8
0
100
AcDbLine
 62
7
  6
CONTINUOUS
 10
17.6656318456
 20
11.5109063876
 11
17.6656336507
 21
11.4836570605
  0
SPLINE
  5
2E7
100
AcDbEntity
  8
0
100
AcDbSpline
 62
6
  6
CONTINUOUS
 70
0
 71
3
 72
14
 73
10
 74
8
 42
0.0000001
 43
0.0000001
 44
0.0000000001
 12
-0.0981744169
 22
0.090467511
 32
0.0
 13
-0.0476604668
 23
0.1247039157
 33
0.0
 40
0.0
 40
0.0
 40
0.0
 40
0.0
 40
0.1297202013
 40
0.2586282818
 40
0.5125325666
 40
0.6372098572
 40
0.7601608738
 40
0.881174161
 40
1.0
 40
1.0
 40
1.0
 40
1.0
 10
17.7388395275
 20
11.2720870164
 30
0.0
 10
17.7345944591
 20
11.2759988377
 30
0.0
 10
17.7263426724
 20
11.2840322593
 30
0.0
 10
17.7108862169
 20
11.3008143863
 30
0.0
 10
17.6969574395
 20
11.3186621297
 30
0.0
 10
17.6847681616
 20
11.3373691574
 30
0.0
 10
17.6766180329
 20
11.3516177215
 30
0.0
 10
17.6694475856
 20
11.3660925612
 30
0.0
 10
17.6653082185
 20
11.3759394168
 30
0.0
 10
17.6634204535
 20
11.380878766
 30
0.0
 11
17.7388395275
 21
11.2720870164
 31
0.0
 11
17.7264305542
 21
11.2841669146
 31
0.0
 11
17.7147733928
 21
11.296826841
 31
0.0
 11
17.6939457234
 21
11.3235697608
 31
0.0
 11
17.6848640257
 21
11.3375184046
 31
0.0
 11
17.6767204244
 21
11.3517698941
 31
0.0
 11
17.6695573512
 21
11.3662505082
 31
0.0
 11
17.6634204535
 21
11.380878766
 31
0.0
  0
LINE
  5
2E8
100
AcDbEntity
  8
0
100
AcDbLine
 62
7
  6
CONTINUOUS
 10
17.7511453494
 20
11.416142344
 11
17.7512510104
 21
11.53202239
  0
LINE
  5
2E9
100
AcDbEntity
  8
0
100
AcDbLine
 62
6
  6
CONTINUOUS
 10
17.6519592365
 20
11.6098753991
 11
17.6519471159
 21
11.6896825322
  0
LINE
  5
2EA
100
AcDbEntity
  8
0
100
AcDbLine
 62
7
  6
CONTINUOUS
 10
17.665629644
 20
11.6801163592
 11
17.6656335515
 21
11.6325867378
  0
LINE
  5
2EB
100
AcDbEntity
  8
0
100
AcDbLine
 62
7
  6
CONTINUOUS
 10
17.7511599289
 20
11.5908459636
 11
17.7512534046
 21
11.7032580436
  0
SPLINE
  5
2EC
100
AcDbEntity
  8
0
100
AcDbSpline
 62
7
  6
CONTINUOUS
 70
0
 71
3
 72
15
 73
11
 74
9
 42
0.0000001
 43
0.0000001
 44
0.0000000001
 12
-0.0983233215
 22
0.0854457449
 32
0.0
 13
-0.0466379862
 23
0.1216279126
 33
0.0
 40
0.0
 40
0.0
 40
0.0
 40
0.0
 40
0.1375640526
 40
0.2721057835
 40
0.4032453736
 40
0.5307190655
 40
0.6542881584
 40
0.7737673842
 40
0.8890396203
 40
1.0
 40
1.0
 40
1.0
 40
1.0
 10
17.7512534046
 20
11.7032580436
 30
0.0
 10
17.7467448197
 20
11.7071761312
 30
0.0
 10
17.7380269762
 20
11.7151604812
 30
0.0
 10
17.7257565024
 20
11.7276622226
 30
0.0
 10
17.7144740615
 20
11.7404853443
 30
0.0
 10
17.7042250695
 20
11.7535485291
 30
0.0
 10
17.6950507975
 20
11.7667766692
 30
0.0
 10
17.6869900344
 20
11.7800971155
 30
0.0
 10
17.6800831007
 20
11.7934373644
 30
0.0
 10
17.6761986818
 20
11.8024719488
 30
0.0
 10
17.6744736922
 20
11.8069705753
 30
0.0
 11
17.7512534046
 21
11.7032580436
 31
0.0
 11
17.7380420548
 21
11.7153646109
 31
0.0
 11
17.7257709907
 21
11.7278776048
 31
0.0
 11
17.71449389
 21
11.7407089529
 31
0.0
 11
17.7042534812
 21
11.7537804328
 31
0.0
 11
17.6950917926
 21
11.7670152422
 31
0.0
 11
17.6870484583
 21
11.7803394402
 31
0.0
 11
17.6801619316
 21
11.7936828745
 31
0.0
 11
17.6744736922
 21
11.8069705753
 31
0.0
  0
LINE
  5
2ED
100
AcDbEntity
  8
0
100
AcDbLine
 62
6
  6
CONTINUOUS
 10
17.6519592365
 20
11.7629606147
 11
17.6519455423
 21
11.8507127685
  0
SPLINE
  5
2EE
100
AcDbEntity
  8
0
100
AcDbSpline
 62
6
  6
CONTINUOUS
 70
0
 71
3
 72
22
 73
18
 74
16
 42
0.0000001
 43
0.0000001
 44
0.0000000001
 12
-0.0331051216
 22
0.0726915114
 32
0.0
 13
0.0
 23
0.0798749329
 33
0.0
 40
0.0
 40
0.0
 40
0.0
 40
0.0
 40
0.0530223257
 40
0.1076686994
 40
0.163908396
 40
0.2217144197
 40
0.2810545911
 40
0.3418702825
 40
0.4040767896
 40
0.4675688159
 40
0.5322131017
 40
0.5978578581
 40
0.6643067739
 40
0.7313400515
 40
0.798713243
 40
0.8661604529
 40
1.0
 40
1.0
 40
1.0
 40
1.0
 10
17.6634204535
 20
11.6844526878
 30
0.0
 10
17.66283535
 20
11.6857374455
 30
0.0
 10
17.6617221482
 20
11.6883809529
 30
0.0
 10
17.6602348501
 20
11.6924854288
 30
0.0
 10
17.658899627
 20
11.6967753073
 30
0.0
 10
17.6577099277
 20
11.7012369623
 30
0.0
 10
17.6566580498
 20
11.7058579387
 30
0.0
 10
17.6557361178
 20
11.7106257886
 30
0.0
 10
17.6549358775
 20
11.7155274571
 30
0.0
 10
17.6542492754
 20
11.7205491119
 30
0.0
 10
17.6536680307
 20
11.725676087
 30
0.0
 10
17.6531840011
 20
11.7308921412
 30
0.0
 10
17.6527897369
 20
11.7361794695
 30
0.0
 10
17.6524778677
 20
11.7415183415
 30
0.0
 10
17.6522423454
 20
11.7468877126
 30
0.0
 10
17.6520240115
 20
11.7540375787
 30
0.0
 10
17.6519592365
 20
11.7593971398
 30
0.0
 10
17.6519592365
 20
11.7629606147
 30
0.0
 11
17.6634204535
 21
11.6844526878
 31
0.0
 11
17.661771975
 21
11.6883538484
 31
0.0
 11
17.6602805153
 21
11.6924560046
 31
0.0
 11
17.6589412443
 21
11.6967438587
 31
0.0
 11
17.6577475776
 21
11.7012041478
 31
0.0
 11
17.6566918333
 21
11.7058248657
 31
0.0
 11
17.6557661478
 21
11.7105934989
 31
0.0
 11
17.6549624291
 21
11.7154968059
 31
0.0
 11
17.6542725502
 21
11.7205210851
 31
0.0
 11
17.6536883264
 21
11.7256513853
 31
0.0
 11
17.6532016486
 21
11.7308721208
 31
0.0
 11
17.6528050272
 21
11.7361648836
 31
0.0
 11
17.6524912971
 21
11.7415099629
 31
0.0
 11
17.6522543543
 21
11.7468861732
 31
0.0
 11
17.6520890609
 21
11.7522709782
 31
0.0
 11
17.6519592365
 21
11.7629606147
 31
0.0
  0
LINE
  5
2EF
100
AcDbEntity
  8
0
100
AcDbLine
 62
7
  6
CONTINUOUS
 10
17.7511453494
 20
11.744830806
 11
17.7512510104
 21
11.8689741537
  0
SPLINE
  5
2F0
100
AcDbEntity
  8
0
100
AcDbSpline
 62
7
  6
CONTINUOUS
 70
0
 71
3
 72
19
 73
15
 74
13
 42
0.0000001
 43
0.0000001
 44
0.0000000001
 12
-0.0947451516
 22
0.0768393964
 32
0.0
 13
-0.0490948773
 23
0.1116719733
 33
0.0
 40
0.0
 40
0.0
 40
0.0
 40
0.0
 40
0.1421487712
 40
0.2800351963
 40
0.413228849
 40
0.541427978
 40
0.6035749013
 40
0.6643782523
 40
0.7238145709
 40
0.7818655598
 40
0.8385195831
 40
0.8937689109
 40
0.9476002169
 40
1.0
 40
1.0
 40
1.0
 40
1.0
 10
17.7512510104
 20
11.8689741537
 30
0.0
 10
17.7467617081
 20
11.872615029
 30
0.0
 10
17.738082035
 20
11.8799933617
 30
0.0
 10
17.7258134339
 20
11.8914841428
 30
0.0
 10
17.7145301347
 20
11.9031679355
 30
0.0
 10
17.7058988445
 20
11.9131062186
 30
0.0
 10
17.6995376692
 20
11.9210970052
 30
0.0
 10
17.6950903308
 20
11.9270332949
 30
0.0
 10
17.6909221854
 20
11.9329664417
 30
0.0
 10
17.6870380871
 20
11.9388886475
 30
0.0
 10
17.6834429726
 20
11.9447922455
 30
0.0
 10
17.6801418877
 20
11.9506692806
 30
0.0
 10
17.6771402872
 20
11.9565109403
 30
0.0
 10
17.675317977
 20
11.9604289084
 30
0.0
 10
17.6744604567
 20
11.9623794374
 30
0.0
 11
17.7512510104
 21
11.8689741537
 31
0.0
 11
17.7380441116
 21
11.8802109723
 31
0.0
 11
17.7257744333
 21
11.8917166785
 31
0.0
 11
17.714496328
 21
11.9034128457
 31
0.0
 11
17.7042532384
 21
11.9152301025
 31
0.0
 11
17.6995332966
 21
11.9211627156
 31
0.0
 11
17.6950879213
 21
11.9271002376
 31
0.0
 11
17.6909220949
 21
11.9330344956
 31
0.0
 11
17.6870407403
 21
11.9389575533
 31
0.0
 11
17.6834486965
 21
11.9448618095
 31
0.0
 11
17.6801508587
 21
11.9507395769
 31
0.0
 11
17.6771527899
 21
11.9565819825
 31
0.0
 11
17.6744604567
 21
11.9623794374
 31
0.0
  0
SPLINE
  5
2F1
100
AcDbEntity
  8
0
100
AcDbSpline
 62
7
  6
CONTINUOUS
 70
0
 71
3
 72
14
 73
10
 74
8
 42
0.0000001
 43
0.0000001
 44
0.0000000001
 12
-0.0170029903
 22
0.0386752669
 32
0.0
 13
-0.0032140425
 23
0.0421253828
 33
0.0
 40
0.0
 40
0.0
 40
0.0
 40
0.0
 40
0.2308168626
 40
0.3506603325
 40
0.4736830341
 40
0.6000309627
 40
0.7298247447
 40
0.8631400296
 40
1.0
 40
1.0
 40
1.0
 40
1.0
 10
17.6744604567
 20
11.9623794374
 30
0.0
 10
17.6731522644
 20
11.965355072
 30
0.0
 10
17.6714615295
 20
11.9700105094
 30
0.0
 10
17.6696771979
 20
11.9764392731
 30
0.0
 10
17.6685217834
 20
11.9815108363
 30
0.0
 10
17.6675518169
 20
11.9867628796
 30
0.0
 10
17.6667520507
 20
11.9921899166
 30
0.0
 10
17.6661073208
 20
11.9977862799
 30
0.0
 10
17.6657746531
 20
12.0015769438
 30
0.0
 10
17.6656280285
 20
12.0034987033
 30
0.0
 11
17.6744604567
 21
11.9623794374
 31
0.0
 11
17.6710866967
 21
11.9715287357
 31
0.0
 11
17.6697268764
 21
11.9764058375
 31
0.0
 11
17.6685668574
 21
11.9814721718
 31
0.0
 11
17.6675920824
 21
11.9867203378
 31
0.0
 11
17.6667875566
 21
11.9921445015
 31
0.0
 11
17.6661380747
 21
11.9977392086
 31
0.0
 11
17.6656280285
 21
12.0034987033
 31
0.0
  0
SPLINE
  5
2F2
100
AcDbEntity
  8
0
100
AcDbSpline
 62
6
  6
CONTINUOUS
 70
0
 71
3
 72
22
 73
18
 74
16
 42
0.0000001
 43
0.0000001
 44
0.0000000001
 12
-0.0530247183
 22
0.0874880602
 32
0.0
 13
0.0
 23
0.1023024018
 33
0.0
 40
0.0
 40
0.0
 40
0.0
 40
0.0
 40
0.1049366777
 40
0.1596249385
 40
0.2158840946
 40
0.2737664692
 40
0.3332889595
 40
0.3944365369
 40
0.4571664989
 40
0.5214087989
 40
0.5870564542
 40
0.653973302
 40
0.7219729945
 40
0.7908430233
 40
0.8603361325
 40
0.9301742994
 40
1.0
 40
1.0
 40
1.0
 40
1.0
 10
17.6691913027
 20
11.8200500101
 30
0.0
 10
17.6673365568
 20
11.8231102456
 30
0.0
 10
17.664871458
 20
11.8279883905
 30
0.0
 10
17.662163369
 20
11.8348358933
 30
0.0
 10
17.6603437087
 20
11.8403012797
 30
0.0
 10
17.6587507302
 20
11.846007125
 30
0.0
 10
17.6573690358
 20
11.8519388289
 30
0.0
 10
17.656183716
 20
11.8580809062
 30
0.0
 10
17.6551790786
 20
11.8644178399
 30
0.0
 10
17.6543395655
 20
11.8709332709
 30
0.0
 10
17.6536500929
 20
11.877609646
 30
0.0
 10
17.6530958271
 20
11.8844270185
 30
0.0
 10
17.6526637156
 20
11.8913632119
 30
0.0
 10
17.6523409605
 20
11.8983932204
 30
0.0
 10
17.6521185981
 20
11.9054897922
 30
0.0
 10
17.6519877604
 20
11.9126211911
 30
0.0
 10
17.6519592365
 20
11.9173838937
 30
0.0
 10
17.6519592365
 20
11.919765006
 30
0.0
 11
17.6691913027
 21
11.8200500101
 31
0.0
 11
17.6642954477
 21
11.8296038949
 31
0.0
 11
17.6622306834
 21
11.83480369
 31
0.0
 11
17.6604057185
 21
11.8402621395
 31
0.0
 11
17.6588067093
 21
11.8459636658
 31
0.0
 11
17.6574190541
 21
11.8518927392
 31
0.0
 11
17.6562278272
 21
11.8580338148
 31
0.0
 11
17.6552175893
 21
11.8643712254
 31
0.0
 11
17.6543728601
 21
11.8708888536
 31
0.0
 11
17.6536785886
 21
11.8775687842
 31
0.0
 11
17.6531201647
 21
11.8843917245
 31
0.0
 11
17.6526843581
 21
11.8913345919
 31
0.0
 11
17.6523589379
 21
11.898372642
 31
0.0
 11
17.6521343028
 21
11.9054784042
 31
0.0
 11
17.6520024659
 21
11.9126217999
 31
0.0
 11
17.6519592365
 21
11.919765006
 31
0.0
  0
SPLINE
  5
2F3
100
AcDbEntity
  8
0
100
AcDbSpline
 62
6
  6
CONTINUOUS
 70
0
 71
3
 72
15
 73
11
 74
9
 42
0.0000001
 43
0.0000001
 44
0.0000000001
 12
-0.0809466844
 22
0.0644711029
 32
0.0
 13
-0.0536370328
 23
0.0884983477
 33
0.0
 40
0.0
 40
0.0
 40
0.0
 40
0.0
 40
0.1375938246
 40
0.2721134904
 40
0.4032446186
 40
0.5307369673
 40
0.6543509813
 40
0.7738766574
 40
0.8891462734
 40
1.0
 40
1.0
 40
1.0
 40
1.0
 10
17.7388166915
 20
11.7441812398
 30
0.0
 10
17.7351041035
 20
11.7471381817
 30
0.0
 10
17.727866026
 20
11.7531183396
 30
0.0
 10
17.7174782453
 20
11.7623738358
 30
0.0
 10
17.7077074121
 20
11.7717832417
 30
0.0
 10
17.6985856919
 20
11.7813090872
 30
0.0
 10
17.6901433306
 20
11.7909154645
 30
0.0
 10
17.6824092315
 20
11.8005667172
 30
0.0
 10
17.6754124579
 20
11.8102267795
 30
0.0
 10
17.6711732577
 20
11.8167798862
 30
0.0
 10
17.6691913027
 20
11.8200500101
 30
0.0
 11
17.7388166915
 21
11.7441812398
 31
0.0
 11
17.7278426267
 21
11.7532537937
 31
0.0
 11
17.7174527633
 21
11.7625184507
 31
0.0
 11
17.7076827408
 21
11.7719359873
 31
0.0
 11
17.6985634193
 21
11.7814703177
 31
0.0
 11
17.6901255784
 21
11.7910848487
 31
0.0
 11
17.6823987131
 21
11.8007433624
 31
0.0
 11
17.6754109241
 21
11.8104108705
 31
0.0
 11
17.6691913027
 21
11.8200500101
 31
0.0
  0
SPLINE
  5
2F4
100
AcDbEntity
  8
0
100
AcDbSpline
 62
7
  6
CONTINUOUS
 70
0
 71
3
 72
21
 73
17
 74
15
 42
0.0000001
 43
0.0000001
 44
0.0000000001
 12
-0.0908390708
 22
0.0675585895
 32
0.0
 13
-0.0524104288
 23
0.1003446399
 33
0.0
 40
0.0
 40
0.0
 40
0.0
 40
0.0
 40
0.1476873837
 40
0.2896111884
 40
0.3582570253
 40
0.425296903
 40
0.4906889081
 40
0.5543931206
 40
0.6163728423
 40
0.6765975676
 40
0.7350409406
 40
0.7916823127
 40
0.8465083433
 40
0.8995108007
 40
0.950677908
 40
1.0
 40
1.0
 40
1.0
 40
1.0
 10
17.7512534046
 20
12.0471207129
 30
0.0
 10
17.7467814763
 20
12.0504465633
 30
0.0
 10
17.7381393247
 20
12.0571417288
 30
0.0
 10
17.7278041726
 20
12.0658636186
 30
0.0
 10
17.7200299893
 20
12.0728865353
 30
0.0
 10
17.7145177046
 20
12.078101962
 30
0.0
 10
17.709264339
 20
12.0833166494
 30
0.0
 10
17.7042751616
 20
12.0885233121
 30
0.0
 10
17.6995553391
 20
12.0937147531
 30
0.0
 10
17.6951098626
 20
12.0988839012
 30
0.0
 10
17.6909435493
 20
12.1040238376
 30
0.0
 10
17.6870611656
 20
12.1091278656
 30
0.0
 10
17.6834675243
 20
12.1141894708
 30
0.0
 10
17.6801675564
 20
12.1192018842
 30
0.0
 10
17.6771666196
 20
12.1241576031
 30
0.0
 10
17.6753353562
 20
12.1274796999
 30
0.0
 10
17.6744736922
 20
12.1291294357
 30
0.0
 11
17.7512534046
 21
12.0471207129
 31
0.0
 11
17.7380420549
 21
12.0573674222
 31
0.0
 11
17.7257709913
 21
12.0677387069
 31
0.0
 11
17.7200055173
 21
12.0729493734
 31
0.0
 11
17.7144938908
 21
12.0781667531
 31
0.0
 11
17.7092414354
 21
12.0833834537
 31
0.0
 11
17.7042534821
 21
12.0885921146
 31
0.0
 11
17.6995352817
 21
12.0937854453
 31
0.0
 11
17.6950917934
 21
12.0989564128
 31
0.0
 11
17.6909279081
 21
12.1040980471
 31
0.0
 11
17.687048459
 21
12.1092035757
 31
0.0
 11
17.6834581976
 21
12.1142665051
 31
0.0
 11
17.6801619319
 21
12.1192802695
 31
0.0
 11
17.6771651372
 21
12.124237303
 31
0.0
 11
17.6744736922
 21
12.1291294357
 31
0.0
  0
LINE
  5
2F5
100
AcDbEntity
  8
0
100
AcDbLine
 62
7
  6
CONTINUOUS
 10
17.7511453494
 20
12.0894764795
 11
17.7512510104
 21
12.2140827458
  0
SPLINE
  5
2F6
100
AcDbEntity
  8
0
100
AcDbSpline
 62
7
  6
CONTINUOUS
 70
0
 71
3
 72
21
 73
17
 74
15
 42
0.0000001
 43
0.0000001
 44
0.0000000001
 12
-0.0866021122
 22
0.0573210275
 32
0.0
 13
-0.0571566433
 23
0.0867106924
 33
0.0
 40
0.0
 40
0.0
 40
0.0
 40
0.0
 40
0.1541536228
 40
0.3008421518
 40
0.3712064575
 40
0.439511301
 40
0.5057058723
 40
0.5697412986
 40
0.6315719876
 40
0.6911586795
 40
0.7484664192
 40
0.8034659693
 40
0.8561354753
 40
0.9064589215
 40
0.9544183519
 40
1.0
 40
1.0
 40
1.0
 40
1.0
 10
17.7512510104
 20
12.2140827458
 30
0.0
 10
17.7468010006
 20
12.2170281605
 30
0.0
 10
17.7382044051
 20
12.2229106909
 30
0.0
 10
17.7278463182
 20
12.2305208948
 30
0.0
 10
17.7200502749
 20
12.2365885688
 30
0.0
 10
17.7145377026
 20
12.2410510909
 30
0.0
 10
17.709283628
 20
12.2454825423
 30
0.0
 10
17.7042934111
 20
12.2498769379
 30
0.0
 10
17.6995722944
 20
12.2542283689
 30
0.0
 10
17.6951253471
 20
12.2585310285
 30
0.0
 10
17.690957468
 20
12.2627792342
 30
0.0
 10
17.6870734884
 20
12.2669674791
 30
0.0
 10
17.6834782587
 20
12.2710904031
 30
0.0
 10
17.6801767522
 20
12.2751424436
 30
0.0
 10
17.6771743725
 20
12.2791174312
 30
0.0
 10
17.675328888
 20
12.2817797488
 30
0.0
 10
17.6744604567
 20
12.2830972209
 30
0.0
 11
17.7512510104
 21
12.2140827458
 31
0.0
 11
17.7380441117
 21
12.2231315202
 31
0.0
 11
17.7257744335
 21
12.2321611919
 31
0.0
 11
17.7200087118
 21
12.2366509079
 31
0.0
 11
17.7144963283
 21
12.2411157173
 31
0.0
 11
17.7092426966
 21
12.24554956
 31
0.0
 11
17.7042532387
 21
12.2499463948
 31
0.0
 11
17.6995332969
 21
12.2543002397
 31
0.0
 11
17.6950879216
 21
12.2586053297
 31
0.0
 11
17.6909220951
 21
12.2628559527
 31
0.0
 11
17.6870407405
 21
12.2670465459
 31
0.0
 11
17.6834486967
 21
12.2711717582
 31
0.0
 11
17.6801508587
 21
12.2752261774
 31
0.0
 11
17.67715279
 21
12.2792035732
 31
0.0
 11
17.6744604567
 21
12.2830972209
 31
0.0
  0
LINE
  5
2F7
100
AcDbEntity
  8
0
100
AcDbLine
 62
6
  6
CONTINUOUS
 10
17.6519592365
 20
12.2346200652
 11
17.6519471159
 21
12.3156226958
  0
LINE
  5
2F8
100
AcDbEntity
  8
0
100
AcDbLine
 62
7
  6
CONTINUOUS
 10
17.6656280285
 20
12.3134716241
 11
17.665631318
 21
12.2844904518
  0
SPLINE
  5
2F9
100
AcDbEntity
  8
0
100
AcDbSpline
 62
6
  6
CONTINUOUS
 70
0
 71
3
 72
23
 73
19
 74
17
 42
0.0000001
 43
0.0000001
 44
0.0000000001
 12
-0.0584046081
 22
0.0672867331
 32
0.0
 13
0.0
 23
0.0890988367
 33
0.0
 40
0.0
 40
0.0
 40
0.0
 40
0.0
 40
0.0469299415
 40
0.095144155
 40
0.1449725059
 40
0.1967127149
 40
0.2506009081
 40
0.3068126619
 40
0.3654683298
 40
0.426642083
 40
0.4903648121
 40
0.5566171454
 40
0.6253388397
 40
0.6964040823
 40
0.7696497576
 40
0.844858407
 40
0.9217672777
 40
1.0
 40
1.0
 40
1.0
 40
1.0
 10
17.6691913027
 20
12.1488356805
 30
0.0
 10
17.6682776611
 20
12.149888268
 30
0.0
 10
17.6665355096
 20
12.1521200772
 30
0.0
 10
17.6642170242
 20
12.1557547175
 30
0.0
 10
17.6621539547
 20
12.1597015376
 30
0.0
 10
17.660333217
 20
12.1639486614
 30
0.0
 10
17.6587400417
 20
12.1684868922
 30
0.0
 10
17.6573589942
 20
12.1733074055
 30
0.0
 10
17.6561746915
 20
12.1784018195
 30
0.0
 10
17.6551712564
 20
12.1837615721
 30
0.0
 10
17.6543329792
 20
12.1893774859
 30
0.0
 10
17.6536446906
 20
12.195239238
 30
0.0
 10
17.6530915413
 20
12.2013340714
 30
0.0
 10
17.6526604312
 20
12.2076467925
 30
0.0
 10
17.6523386025
 20
12.2141588194
 30
0.0
 10
17.6521170739
 20
12.2208486073
 30
0.0
 10
17.6519870208
 20
12.2276888801
 30
0.0
 10
17.6519592365
 20
12.2322965837
 30
0.0
 10
17.6519592365
 20
12.2346200652
 30
0.0
 11
17.6691913027
 21
12.1488356805
 31
0.0
 11
17.6666126846
 21
12.1521273156
 31
0.0
 11
17.6642954477
 21
12.1557445758
 31
0.0
 11
17.6622306834
 21
12.1596748714
 31
0.0
 11
17.6604057185
 21
12.1639082546
 31
0.0
 11
17.6588067093
 21
12.1684355468
 31
0.0
 11
17.6574190541
 21
12.1732478749
 31
0.0
 11
17.6562278272
 21
12.1783364544
 31
0.0
 11
17.6552175893
 21
12.183692524
 31
0.0
 11
17.6543728601
 21
12.189306953
 31
0.0
 11
17.6536785886
 21
12.1951689889
 31
0.0
 11
17.6531201647
 21
12.2012664944
 31
0.0
 11
17.6526843581
 21
12.2075833092
 31
0.0
 11
17.6523589379
 21
12.2141012952
 31
0.0
 11
17.6521343028
 21
12.2207985321
 31
0.0
 11
17.6520024659
 21
12.2276497547
 31
0.0
 11
17.6519592365
 21
12.2346200652
 31
0.0
  0
LINE
  5
2FA
100
AcDbEntity
  8
0
100
AcDbLine
 62
7
  6
CONTINUOUS
 10
17.7511599289
 20
12.2750955304
 11
17.7512534046
 21
12.3879466071
  0
SPLINE
  5
2FB
100
AcDbEntity
  8
0
100
AcDbSpline
 62
7
  6
CONTINUOUS
 70
0
 71
3
 72
21
 73
17
 74
15
 42
0.0000001
 43
0.0000001
 44
0.0000000001
 12
-0.082341877
 22
0.0470728642
 32
0.0
 13
-0.0637705097
 23
0.0702094106
 33
0.0
 40
0.0
 40
0.0
 40
0.0
 40
0.0
 40
0.1614508015
 40
0.3135090144
 40
0.3858113917
 40
0.4555461614
 40
0.5226534575
 40
0.5870747074
 40
0.6487539354
 40
0.707640808
 40
0.7636883641
 40
0.8168539919
 40
0.8671008509
 40
0.9143966985
 40
0.9587067892
 40
1.0
 40
1.0
 40
1.0
 40
1.0
 10
17.7512534046
 20
12.3879466071
 30
0.0
 10
17.7468220172
 20
12.3904799244
 30
0.0
 10
17.7382673581
 20
12.3954879321
 30
0.0
 10
17.7278836034
 20
12.4018905742
 30
0.0
 10
17.7200651624
 20
12.4069235168
 30
0.0
 10
17.7145540671
 20
12.4105776762
 30
0.0
 10
17.7093019528
 20
12.4141703617
 30
0.0
 10
17.7043140964
 20
12.4176970213
 30
0.0
 10
17.6995956438
 20
12.421153165
 30
0.0
 10
17.6951515765
 20
12.4245343903
 30
0.0
 10
17.6909867086
 20
12.4278363866
 30
0.0
 10
17.6871057741
 20
12.431054963
 30
0.0
 10
17.6835134978
 20
12.4341860322
 30
0.0
 10
17.6802147274
 20
12.4372253408
 30
0.0
 10
17.6772147252
 20
12.440168199
 30
0.0
 10
17.6753514552
 20
12.4421322208
 30
0.0
 10
17.6744736922
 20
12.4430986115
 30
0.0
 11
17.7512534046
 21
12.3879466071
 31
0.0
 11
17.738042055
 21
12.3956896202
 31
0.0
 11
17.7257709914
 21
12.4032675302
 31
0.0
 11
17.7200055174
 21
12.4069806567
 31
0.0
 11
17.7144938908
 21
12.4106370422
 31
0.0
 11
17.7092414355
 21
12.4142320914
 31
0.0
 11
17.7042534821
 21
12.4177612217
 31
0.0
 11
17.6995352818
 21
12.4212199009
 31
0.0
 11
17.6950917935
 21
12.424603782
 31
0.0
 11
17.6909279082
 21
12.4279085625
 31
0.0
 11
17.6870484591
 21
12.4311300427
 31
0.0
 11
17.6834581977
 21
12.4342641685
 31
0.0
 11
17.6801619319
 21
12.4373068396
 31
0.0
 11
17.6771651372
 21
12.4402533464
 31
0.0
 11
17.6744736922
 21
12.4430986115
 31
0.0
  0
LINE
  5
2FC
100
AcDbEntity
  8
0
100
AcDbLine
 62
6
  6
CONTINUOUS
 10
17.6519592365
 20
12.3877052808
 11
17.6519455423
 21
12.4710909715
  0
LINE
  5
2FD
100
AcDbEntity
  8
0
100
AcDbLine
 62
7
  6
CONTINUOUS
 10
17.665627291
 20
12.4675433482
 11
17.6656301402
 21
12.4454122044
  0
SPLINE
  5
2FE
100
AcDbEntity
  8
0
100
AcDbSpline
 62
6
  6
CONTINUOUS
 70
0
 71
3
 72
23
 73
19
 74
17
 42
0.0000001
 43
0.0000001
 44
0.0000000001
 12
-0.0426001069
 22
0.0415572963
 32
0.0
 13
0.0
 23
0.0595128388
 33
0.0
 40
0.0
 40
0.0
 40
0.0
 40
0.0
 40
0.0412171058
 40
0.0841327454
 40
0.1292172693
 40
0.1768707015
 40
0.227417195
 40
0.281098151
 40
0.3380858692
 40
0.3984934346
 40
0.4623759452
 40
0.5297451798
 40
0.6005373875
 40
0.67464557
 40
0.7519046305
 40
0.8320994587
 40
0.9149382333
 40
1.0
 40
1.0
 40
1.0
 40
1.0
 10
17.6634204535
 20
12.3305378103
 30
0.0
 10
17.6628351691
 20
12.3311087675
 30
0.0
 10
17.6617135045
 20
12.3323510448
 30
0.0
 10
17.6602200262
 20
12.3344400558
 30
0.0
 10
17.6588817453
 20
12.3367794387
 30
0.0
 10
17.6576914698
 20
12.3393640737
 30
0.0
 10
17.6566404478
 20
12.3421903661
 30
0.0
 10
17.6557201261
 20
12.3452551427
 30
0.0
 10
17.6549218539
 20
12.34855511
 30
0.0
 10
17.6542372958
 20
12.3520865443
 30
0.0
 10
17.6536580132
 20
12.3558450121
 30
0.0
 10
17.6531758415
 20
12.3598245616
 30
0.0
 10
17.652783241
 20
12.3640175781
 30
0.0
 10
17.6524728954
 20
12.3684140754
 30
0.0
 10
17.6522387654
 20
12.3730019924
 30
0.0
 10
17.6520758049
 20
12.3777662335
 30
0.0
 10
17.6519796469
 20
12.3826870667
 30
0.0
 10
17.6519592365
 20
12.3860178584
 30
0.0
 10
17.6519592365
 20
12.3877052808
 30
0.0
 11
17.6634204535
 21
12.3305378103
 31
0.0
 11
17.661771975
 21
12.3323542539
 31
0.0
 11
17.6602805153
 21
12.3344275665
 31
0.0
 11
17.6589412443
 21
12.3367525228
 31
0.0
 11
17.6577475776
 21
12.3393250712
 31
0.0
 11
17.6566918333
 21
12.342141889
 31
0.0
 11
17.6557661478
 21
12.3451995438
 31
0.0
 11
17.6549624291
 21
12.348494436
 31
0.0
 11
17.6542725502
 21
12.3520226476
 31
0.0
 11
17.6536883264
 21
12.3557793204
 31
0.0
 11
17.6532016486
 21
12.3597590072
 31
0.0
 11
17.6528050272
 21
12.3639533417
 31
0.0
 11
17.6524912971
 21
12.3683525573
 31
0.0
 11
17.6522543543
 21
12.3729443541
 31
0.0
 11
17.6520890609
 21
12.3777141128
 31
0.0
 11
17.6519913811
 21
12.3826431156
 31
0.0
 11
17.6519592365
 21
12.3877052808
 31
0.0
  0
SPLINE
  5
2FF
100
AcDbEntity
  8
0
100
AcDbSpline
 62
6
  6
CONTINUOUS
 70
0
 71
3
 72
20
 73
16
 74
14
 42
0.0000001
 43
0.0000001
 44
0.0000000001
 12
-0.0799871588
 22
0.0453753964
 32
0.0
 13
-0.0658271276
 23
0.0642157414
 33
0.0
 40
0.0
 40
0.0
 40
0.0
 40
0.0
 40
0.1560787976
 40
0.3043128532
 40
0.4441058125
 40
0.510682026
 40
0.5749614437
 40
0.6368841499
 40
0.6963940832
 40
0.7534374023
 40
0.8079638609
 40
0.8599278172
 40
0.9092862026
 40
0.9559922666
 40
1.0
 40
1.0
 40
1.0
 40
1.0
 10
17.7388395275
 20
12.2782901618
 30
0.0
 10
17.7346780943
 20
12.2806508742
 30
0.0
 10
17.726605538
 20
12.2853267967
 30
0.0
 10
17.7149632227
 20
12.2923843274
 30
0.0
 10
17.7057929343
 20
12.2982225711
 30
0.0
 10
17.6988793415
 20
12.3028090413
 30
0.0
 10
17.6939984439
 20
12.306140682
 30
0.0
 10
17.689342333
 20
12.3094164393
 30
0.0
 10
17.6849161629
 20
12.3126324789
 30
0.0
 10
17.6807249599
 20
12.3157850242
 30
0.0
 10
17.6767736421
 20
12.318870389
 30
0.0
 10
17.6730670432
 20
12.3218849326
 30
0.0
 10
17.6696101151
 20
12.3248249105
 30
0.0
 10
17.6664080779
 20
12.3276861953
 30
0.0
 10
17.6643860877
 20
12.3295958139
 30
0.0
 10
17.6634204535
 20
12.3305378103
 30
0.0
 11
17.7388395275
 21
12.2782901618
 31
0.0
 11
17.7264224135
 21
12.2854894454
 31
0.0
 11
17.7147689809
 21
12.2925621532
 31
0.0
 11
17.703929437
 21
12.2994736717
 31
0.0
 11
17.6988283204
 21
12.302859345
 31
0.0
 11
17.693946863
 21
12.3061930886
 31
0.0
 11
17.689290425
 21
12.3094710145
 31
0.0
 11
17.6848641454
 21
12.3126893196
 31
0.0
 11
17.6806731129
 21
12.3158442211
 31
0.0
 11
17.6767223023
 21
12.3189320222
 31
0.0
 11
17.6730165379
 21
12.3219491405
 31
0.0
 11
17.6695606837
 21
12.32489195
 31
0.0
 11
17.6663601047
 21
12.3277563159
 31
0.0
 11
17.6634204535
 21
12.3305378103
 31
0.0
  0
LINE
  5
300
100
AcDbEntity
  8
0
100
AcDbLine
 62
7
  6
CONTINUOUS
 10
17.7511453494
 20
12.4284240094
 11
17.7512510104
 21
12.5456637243
  0
LINE
  5
301
100
AcDbEntity
  8
0
100
AcDbLine
 62
6
  6
CONTINUOUS
 10
17.6519592365
 20
12.5346570754
 11
17.6519471159
 21
12.6085597592
  0
LINE
  5
302
100
AcDbEntity
  8
0
100
AcDbLine
 62
7
  6
CONTINUOUS
 10
17.6656280285
 20
12.6036719626
 11
17.6656300867
 21
12.5882584016
  0
SPLINE
  5
303
100
AcDbEntity
  8
0
100
AcDbSpline
 62
6
  6
CONTINUOUS
 70
0
 71
3
 72
26
 73
22
 74
20
 42
0.0000001
 43
0.0000001
 44
0.0000000001
 12
-0.061676049
 22
0.0358843823
 32
0.0
 13
0.0
 23
0.0713556159
 33
0.0
 40
0.0
 40
0.0
 40
0.0
 40
0.0
 40
0.0218915871
 40
0.043677297
 40
0.0654663923
 40
0.0873650185
 40
0.109476174
 40
0.1319031309
 40
0.178067064
 40
0.2265595979
 40
0.2779358481
 40
0.3326280837
 40
0.3909645654
 40
0.4531819543
 40
0.5194286007
 40
0.5897818247
 40
0.6642225202
 40
0.7426724024
 40
0.8249672263
 40
0.9108746869
 40
1.0
 40
1.0
 40
1.0
 40
1.0
 10
17.6691913027
 20
12.4681934503
 30
0.0
 10
17.6687412405
 20
12.4684553057
 30
0.0
 10
17.6678608155
 20
12.4690085888
 30
0.0
 10
17.6666016681
 20
12.4699266598
 30
0.0
 10
17.6654082155
 20
12.4709289862
 30
0.0
 10
17.6642795666
 20
12.4720148516
 30
0.0
 10
17.6632145779
 20
12.4731838019
 30
0.0
 10
17.6618646918
 20
12.4748682333
 30
0.0
 10
17.6603253234
 20
12.4771970426
 30
0.0
 10
17.6587282243
 20
12.4802876683
 30
0.0
 10
17.6573460233
 20
12.4836989837
 30
0.0
 10
17.6561623623
 20
12.4874293425
 30
0.0
 10
17.6551604118
 20
12.4914778465
 30
0.0
 10
17.6543239307
 20
12.4958432244
 30
0.0
 10
17.6536374291
 20
12.500523265
 30
0.0
 10
17.6530859472
 20
12.5055133839
 30
0.0
 10
17.6526562854
 20
12.5108064754
 30
0.0
 10
17.6523357317
 20
12.5163916462
 30
0.0
 10
17.6521152882
 20
12.5222544923
 30
0.0
 10
17.651986192
 20
12.5283739522
 30
0.0
 10
17.6519592365
 20
12.5325372116
 30
0.0
 10
17.6519592365
 20
12.5346570754
 30
0.0
 11
17.6691913027
 21
12.4681934503
 31
0.0
 11
17.6678688198
 21
12.4690248087
 31
0.0
 11
17.6666126846
 21
12.4699406125
 31
0.0
 11
17.6654218947
 21
12.4709402837
 31
0.0
 11
17.6642954477
 21
12.4720232447
 31
0.0
 11
17.6632322363
 21
12.4731889603
 31
0.0
 11
17.6622306834
 21
12.474437086
 31
0.0
 11
17.6604057185
 21
12.4771794038
 31
0.0
 11
17.6588067093
 21
12.4802479955
 31
0.0
 11
17.6574190541
 21
12.4836412021
 31
0.0
 11
17.6562278272
 21
12.4873575513
 31
0.0
 11
17.6552175893
 21
12.4913957383
 31
0.0
 11
17.6543728601
 21
12.4957541929
 31
0.0
 11
17.6536785886
 21
12.5004300009
 31
0.0
 11
17.6531201647
 21
12.5054189429
 31
0.0
 11
17.6526843581
 21
12.5107127964
 31
0.0
 11
17.6523589379
 21
12.5163011692
 31
0.0
 11
17.6521343028
 21
12.5221690689
 31
0.0
 11
17.6520024659
 21
12.5282976308
 31
0.0
 11
17.6519592365
 21
12.5346570754
 31
0.0
  0
LINE
  5
304
100
AcDbEntity
  8
0
100
AcDbLine
 62
7
  6
CONTINUOUS
 10
17.7511599289
 20
12.6019939583
 11
17.7512534046
 21
12.7043203819
  0
LINE
  5
305
100
AcDbEntity
  8
0
100
AcDbLine
 62
6
  6
CONTINUOUS
 10
17.6519592365
 20
12.6731579316
 11
17.6519455423
 21
12.7463454586
  0
LINE
  5
306
100
AcDbEntity
  8
0
100
AcDbLine
 62
7
  6
CONTINUOUS
 10
17.665627291
 20
12.7401939793
 11
17.6656282993
 21
12.7338307192
  0
SPLINE
  5
307
100
AcDbEntity
  8
0
100
AcDbSpline
 62
7
  6
CONTINUOUS
 70
0
 71
3
 72
11
 73
7
 74
5
 42
0.0000001
 43
0.0000001
 44
0.0000000001
 12
0.0022517762
 22
-0.0029940542
 32
0.0
 13
0.0032698619
 23
-0.0018283489
 33
0.0
 40
0.0
 40
0.0
 40
0.0
 40
0.0
 40
0.2594178232
 40
0.5105657141
 40
0.7563750203
 40
1.0
 40
1.0
 40
1.0
 40
1.0
 10
17.6706396065
 20
12.6302933576
 30
0.0
 10
17.6708343235
 20
12.6300344539
 30
0.0
 10
17.6712406352
 20
12.6295416508
 30
0.0
 10
17.67191212
 20
12.628875056
 30
0.0
 10
17.6726350876
 20
12.6282955491
 30
0.0
 10
17.6731524128
 20
12.6279673114
 30
0.0
 10
17.6734179528
 20
12.6278188343
 30
0.0
 11
17.6706396065
 21
12.6302933576
 31
0.0
 11
17.6712593377
 21
12.6295447285
 31
0.0
 11
17.6719280855
 21
12.6288828911
 31
0.0
 11
17.6726471914
 21
12.6283076487
 31
0.0
 11
17.6734179528
 21
12.6278188343
 31
0.0
  0
LINE
  5
308
100
AcDbEntity
  8
0
100
AcDbLine
 62
7
  6
CONTINUOUS
 10
17.7511453494
 20
12.7403760757
 11
17.7512510104
 21
12.8428826368
  0
LINE
  5
309
100
AcDbEntity
  8
0
100
AcDbLine
 62
6
  6
CONTINUOUS
 10
17.6519592365
 20
12.8010236079
 11
17.6519471159
 21
12.8631827675
  0
LINE
  5
30A
100
AcDbEntity
  8
0
100
AcDbLine
 62
7
  6
CONTINUOUS
 10
17.7511599289
 20
12.8909908845
 11
17.7512534046
 21
12.9763631093
  0
LINE
  5
30B
100
AcDbEntity
  8
0
100
AcDbLine
 62
6
  6
CONTINUOUS
 10
17.6519592365
 20
12.9162375864
 11
17.6519455423
 21
12.9746283083
  0
SPLINE
  5
30C
100
AcDbEntity
  8
0
100
AcDbSpline
 62
7
  6
CONTINUOUS
 70
0
 71
3
 72
23
 73
19
 74
17
 42
0.0000001
 43
0.0000001
 44
0.0000000001
 12
0.0670430436
 22
0.0372963377
 32
0.0
 13
0.0758364686
 23
-0.0116024364
 33
0.0
 40
0.0
 40
0.0
 40
0.0
 40
0.0
 40
0.0404444199
 40
0.0835264428
 40
0.1293951309
 40
0.1781611872
 40
0.2299088101
 40
0.2846950439
 40
0.3425531826
 40
0.4034981465
 40
0.467530454
 40
0.5346365407
 40
0.6047932899
 40
0.6779709651
 40
0.7541347745
 40
0.8332433022
 40
0.915227552
 40
1.0
 40
1.0
 40
1.0
 40
1.0
 10
17.6756399551
 20
12.887078649
 30
0.0
 10
17.6765437941
 20
12.8875814586
 30
0.0
 10
17.6784594999
 20
12.8885331882
 30
0.0
 10
17.6815325563
 20
12.889767803
 30
0.0
 10
17.6848859118
 20
12.8908522775
 30
0.0
 10
17.6885131658
 20
12.8917857517
 30
0.0
 10
17.6924086122
 20
12.8925678056
 30
0.0
 10
17.6965665522
 20
12.8931978793
 30
0.0
 10
17.7009812057
 20
12.8936753485
 30
0.0
 10
17.7056466353
 20
12.8939995014
 30
0.0
 10
17.7105567257
 20
12.8941696081
 30
0.0
 10
17.7157051982
 20
12.8941850999
 30
0.0
 10
17.7210856628
 20
12.8940453785
 30
0.0
 10
17.7266917155
 20
12.8937498622
 30
0.0
 10
17.7325169143
 20
12.8932980235
 30
0.0
 10
17.7385541712
 20
12.8926893718
 30
0.0
 10
17.7447953337
 20
12.8919238098
 30
0.0
 10
17.7490169812
 20
12.8913187402
 30
0.0
 10
17.7511599289
 20
12.8909908845
 30
0.0
 11
17.6756399551
 21
12.887078649
 31
0.0
 11
17.6784149482
 21
12.8884668475
 31
0.0
 11
17.6814788997
 21
12.8897064354
 31
0.0
 11
17.6848249141
 21
12.8907961642
 31
0.0
 11
17.6884464788
 21
12.8917350061
 31
0.0
 11
17.6923376585
 21
12.8925222651
 31
0.0
 11
17.6964925523
 21
12.8931572695
 31
0.0
 11
17.7009051122
 21
12.8936393105
 31
0.0
 11
17.7055691982
 21
12.8939676565
 31
0.0
 11
17.7104786045
 21
12.8941416037
 31
0.0
 11
17.7156268734
 21
12.8941605579
 31
0.0
 11
17.7210074868
 21
12.894023952
 31
0.0
 11
17.7266139599
 21
12.893731238
 31
0.0
 11
17.7324398594
 21
12.8932818978
 31
0.0
 11
17.7384786014
 21
12.8926754458
 31
0.0
 11
17.7447218047
 21
12.8919117452
 31
0.0
 11
17.7511599289
 21
12.8909908845
 31
0.0
  0
LINE
  5
30D
100
AcDbEntity
  8
0
100
AcDbLine
 62
7
  6
CONTINUOUS
 10
17.7511453494
 20
13.0057315829
 11
17.7512510104
 21
13.0870641259
  0
SPLINE
  5
30E
100
AcDbEntity
  8
0
100
AcDbSpline
 62
6
  6
CONTINUOUS
 70
0
 71
3
 72
23
 73
19
 74
17
 42
0.0000001
 43
0.0000001
 44
0.0000000001
 12
0.0582920239
 22
0.0576518427
 32
0.0
 13
0.0819852304
 23
0.0003420797
 33
0.0
 40
0.0
 40
0.0
 40
0.0
 40
0.0
 40
0.0475563892
 40
0.0965132799
 40
0.1470530475
 40
0.1993389225
 40
0.2535202189
 40
0.3097266799
 40
0.3680677678
 40
0.4286353498
 40
0.4915066847
 40
0.5567437608
 40
0.6243970444
 40
0.6945079916
 40
0.7671104387
 40
0.8422300276
 40
0.9198663004
 40
1.0
 40
1.0
 40
1.0
 40
1.0
 10
17.6621634005
 20
13.0726145909
 30
0.0
 10
17.6630874533
 20
13.0735284954
 30
0.0
 10
17.6650370987
 20
13.075309431
 30
0.0
 10
17.6681989365
 20
13.0777952368
 30
0.0
 10
17.6716323428
 20
13.0801284786
 30
0.0
 10
17.6753325908
 20
13.0823063215
 30
0.0
 10
17.6792955705
 20
13.0843264968
 30
0.0
 10
17.6835172829
 20
13.0861867701
 30
0.0
 10
17.6879937689
 20
13.0878847685
 30
0.0
 10
17.6927210076
 20
13.08941794
 30
0.0
 10
17.697694839
 20
13.0907836774
 30
0.0
 10
17.7029109596
 20
13.0919794008
 30
0.0
 10
17.7083649653
 20
13.0930024745
 30
0.0
 10
17.7140524323
 20
13.0938502234
 30
0.0
 10
17.7199688903
 20
13.0945199263
 30
0.0
 10
17.7261092815
 20
13.0950087924
 30
0.0
 10
17.7324674578
 20
13.0953142266
 30
0.0
 10
17.7367791024
 20
13.0953925608
 30
0.0
 10
17.738969029
 20
13.0954016981
 30
0.0
 11
17.6621634005
 21
13.0726145909
 31
0.0
 11
17.6650392832
 21
13.0752472991
 31
0.0
 11
17.6681918635
 21
13.0777315782
 31
0.0
 11
17.6716163655
 21
13.0800643442
 31
0.0
 11
17.6753083116
 21
13.0822427356
 31
0.0
 11
17.6792637637
 21
13.0842642927
 31
0.0
 11
17.6834788325
 21
13.0861265889
 31
0.0
 11
17.6879495097
 21
13.0878270482
 31
0.0
 11
17.6926716922
 21
13.0893629757
 31
0.0
 11
17.6976412212
 21
13.0907316719
 31
0.0
 11
17.7028536757
 21
13.0919304291
 31
0.0
 11
17.7083045543
 21
13.0929565372
 31
0.0
 11
17.7139893623
 21
13.0938072731
 31
0.0
 11
17.7199036175
 21
13.0944798911
 31
0.0
 11
17.7260427041
 21
13.0949716455
 31
0.0
 11
17.7324003227
 21
13.0952798157
 31
0.0
 11
17.738969029
 21
13.0954016981
 31
0.0
  0
LINE
  5
30F
100
AcDbEntity
  8
0
100
AcDbLine
 62
6
  6
CONTINUOUS
 10
17.6519592365
 20
13.0169828738
 11
17.6519471159
 21
13.0634928205
  0
LINE
  5
310
100
AcDbEntity
  8
0
100
AcDbLine
 62
7
  6
CONTINUOUS
 10
17.7511599289
 20
13.1239275692
 11
17.7512534046
 21
13.1869813444
  0
LINE
  5
311
100
AcDbEntity
  8
0
100
AcDbLine
 62
6
  6
CONTINUOUS
 10
17.6519592365
 20
13.1016706566
 11
17.6519455423
 21
13.1415956695
  0
LINE
  5
312
100
AcDbEntity
  8
0
100
AcDbLine
 62
7
  6
CONTINUOUS
 10
17.6656337274
 20
13.0988201514
 11
17.665633964
 21
13.0916155117
  0
SPLINE
  5
313
100
AcDbEntity
  8
0
100
AcDbSpline
 62
7
  6
CONTINUOUS
 70
0
 71
3
 72
22
 73
18
 74
16
 42
0.0000001
 43
0.0000001
 44
0.0000000001
 12
0.0511804824
 22
0.0674414174
 32
0.0
 13
0.0844505113
 23
0.0059914686
 33
0.0
 40
0.0
 40
0.0
 40
0.0
 40
0.0
 40
0.0516841758
 40
0.1041862036
 40
0.1576845366
 40
0.2123461459
 40
0.2683301901
 40
0.3257779886
 40
0.4454890688
 40
0.5079902285
 40
0.5723431906
 40
0.6386087311
 40
0.7068375708
 40
0.777071936
 40
0.8493442234
 40
0.923658761
 40
1.0
 40
1.0
 40
1.0
 40
1.0
 10
17.6756399551
 20
13.0913838054
 30
0.0
 10
17.6765216954
 20
13.0925456901
 30
0.0
 10
17.6783897993
 20
13.0948204264
 30
0.0
 10
17.6814620085
 20
13.0980448034
 30
0.0
 10
17.684816515
 20
13.1011006355
 30
0.0
 10
17.6884464881
 20
13.1039837194
 30
0.0
 10
17.6923457867
 20
13.1066909825
 30
0.0
 10
17.6979719727
 20
13.1101084027
 30
0.0
 10
17.704052767
 20
13.1131063812
 30
0.0
 10
17.710512125
 20
13.1156986187
 30
0.0
 10
17.7156653684
 20
13.1174795615
 30
0.0
 10
17.7210501017
 20
13.1190657106
 30
0.0
 10
17.7266602607
 20
13.1204541257
 30
0.0
 10
17.7324892812
 20
13.1216417361
 30
0.0
 10
17.7385301541
 20
13.1226253663
 30
0.0
 10
17.7447746208
 20
13.1234021245
 30
0.0
 10
17.74901091
 20
13.1237751038
 30
0.0
 10
17.7511599289
 20
13.1239275692
 30
0.0
 11
17.6756399551
 21
13.0913838054
 31
0.0
 11
17.6784149482
 21
13.0947670571
 31
0.0
 11
17.6814788997
 21
13.0979872961
 31
0.0
 11
17.6848249141
 21
13.1010399845
 31
0.0
 11
17.6884464788
 21
13.1039211019
 31
0.0
 11
17.6923376585
 21
13.1066274079
 31
0.0
 11
17.6964925523
 21
13.109155716
 31
0.0
 11
17.7055691982
 21
13.1136650622
 31
0.0
 11
17.7104786045
 21
13.1156393812
 31
0.0
 11
17.7156268734
 21
13.1174224428
 31
0.0
 11
17.7210074868
 21
13.1190110346
 31
0.0
 11
17.7266139599
 21
13.1204019898
 31
0.0
 11
17.7324398594
 21
13.121592211
 31
0.0
 11
17.7384786014
 21
13.1225786069
 31
0.0
 11
17.7447218047
 21
13.1233580887
 31
0.0
 11
17.7511599289
 21
13.1239275692
 31
0.0
  0
LINE
  5
314
100
AcDbEntity
  8
0
100
AcDbLine
 62
7
  6
CONTINUOUS
 10
17.7511453494
 20
13.2078172685
 11
17.7512510104
 21
13.2628653707
  0
SPLINE
  5
315
100
AcDbEntity
  8
0
100
AcDbSpline
 62
6
  6
CONTINUOUS
 70
0
 71
3
 72
11
 73
7
 74
5
 42
0.0000001
 43
0.0000001
 44
0.0000000001
 12
0.0078423889
 22
0.0233434161
 32
0.0
 13
0.0122840076
 23
0.0213429448
 33
0.0
 40
0.0
 40
0.0
 40
0.0
 40
0.0
 40
0.1853428109
 40
0.414736766
 40
0.6866254397
 40
1.0
 40
1.0
 40
1.0
 40
1.0
 10
17.6519471159
 20
13.196903701
 30
0.0
 10
17.6524316261
 20
13.1983458791
 30
0.0
 10
17.6535821322
 20
13.201551129
 30
0.0
 10
17.6557294783
 20
13.2067646827
 30
0.0
 10
17.6585916417
 20
13.212811661
 30
0.0
 10
17.6608802354
 20
13.2170389456
 30
0.0
 10
17.6621634005
 20
13.2192683909
 30
0.0
 11
17.6519471159
 21
13.196903701
 31
0.0
 11
17.653489197
 21
13.2011994705
 31
0.0
 11
17.6556370947
 21
13.2064241447
 31
0.0
 11
17.6584960362
 21
13.2124784799
 31
0.0
 11
17.6621634005
 21
13.2192683909
 31
0.0
  0
LINE
  5
316
100
AcDbEntity
  8
0
100
AcDbLine
 62
6
  6
CONTINUOUS
 10
17.6519592365
 20
13.1689653581
 11
17.6519471159
 21
13.196903701
  0
LINE
  5
317
100
AcDbEntity
  8
0
100
AcDbLine
 62
7
  6
CONTINUOUS
 10
17.7511599289
 20
13.2861677438
 11
17.7512534046
 21
13.3229411688
  0
LINE
  5
318
100
AcDbEntity
  8
0
100
AcDbLine
 62
6
  6
CONTINUOUS
 10
17.6519592365
 20
13.2178057004
 11
17.6519455423
 21
13.236756369
  0
LINE
  5
319
100
AcDbEntity
  8
0
100
AcDbLine
 62
7
  6
CONTINUOUS
 10
17.665627291
 20
13.225636695
 11
17.6656281777
 21
13.2243850852
  0
LINE
  5
31A
100
AcDbEntity
  8
0
100
AcDbLine
 62
7
  6
CONTINUOUS
 10
17.7511453494
 20
13.3339353457
 11
17.7512510104
 21
13.3592401323
  0
SPLINE
  5
31B
100
AcDbEntity
  8
0
100
AcDbSpline
 62
6
  6
CONTINUOUS
 70
0
 71
3
 72
15
 73
11
 74
9
 42
0.0000001
 43
0.0000001
 44
0.0000000001
 12
0.0440257458
 22
0.1046371807
 32
0.0
 13
0.1022729132
 23
0.0492692309
 33
0.0
 40
0.0
 40
0.0
 40
0.0
 40
0.0
 40
0.1238494419
 40
0.2471351034
 40
0.3702813259
 40
0.4937592914
 40
0.6180234275
 40
0.743522142
 40
0.8707150566
 40
1.0
 40
1.0
 40
1.0
 40
1.0
 10
17.6621634005
 20
13.2892350665
 30
0.0
 10
17.6639809219
 20
13.2935548186
 30
0.0
 10
17.6679953928
 20
13.3020175786
 30
0.0
 10
17.6751277491
 20
13.3140993447
 30
0.0
 10
17.6833197589
 20
13.325473549
 30
0.0
 10
17.6925372287
 20
13.3360827294
 30
0.0
 10
17.7027471393
 20
13.3458698041
 30
0.0
 10
17.7139141501
 20
13.3547766799
 30
0.0
 10
17.7259984126
 20
13.3627413337
 30
0.0
 10
17.7345615798
 20
13.3673414174
 30
0.0
 10
17.738969029
 20
13.369464674
 30
0.0
 11
17.6621634005
 21
13.2892350665
 31
0.0
 11
17.6681918635
 21
13.3019366576
 31
0.0
 11
17.6753083116
 21
13.3139879386
 31
0.0
 11
17.6834788325
 21
13.3253315255
 31
0.0
 11
17.6926716922
 21
13.3359135897
 31
0.0
 11
17.7028536757
 21
13.3456770919
 31
0.0
 11
17.7139893623
 21
13.3545635445
 31
0.0
 11
17.7260427041
 21
13.3625138056
 31
0.0
 11
17.738969029
 21
13.369464674
 31
0.0
  0
SPLINE
  5
31C
100
AcDbEntity
  8
0
100
AcDbSpline
 62
6
  6
CONTINUOUS
 70
0
 71
3
 72
9
 73
5
 74
3
 42
0.0000001
 43
0.0000001
 44
0.0000000001
 12
0.0063739805
 22
0.0351760269
 32
0.0
 13
0.0138640288
 23
0.0329510122
 33
0.0
 40
0.0
 40
0.0
 40
0.0
 40
0.0
 40
0.4524094654
 40
1.0
 40
1.0
 40
1.0
 40
1.0
 10
17.6519471159
 20
13.2550327126
 30
0.0
 10
17.6529083323
 20
13.2603373685
 30
0.0
 10
17.6556379353
 20
13.2719592615
 30
0.0
 10
17.6596327969
 20
13.2832205123
 30
0.0
 10
17.6621634005
 20
13.2892350665
 30
0.0
 11
17.6519471159
 21
13.2550327126
 31
0.0
 11
17.6556370947
 21
13.2707792631
 31
0.0
 11
17.6621634005
 21
13.2892350665
 31
0.0
  0
SPLINE
  5
31D
100
AcDbEntity
  8
0
100
AcDbSpline
 62
6
  6
CONTINUOUS
 70
0
 71
3
 72
8
 73
4
 74
2
 42
0.0000001
 43
0.0000001
 44
0.0000000001
 12
-0.0000000077
 22
-0.000042211
 32
0.0
 13
-0.0000000077
 23
-0.000042211
 33
0.0
 40
0.0
 40
0.0
 40
0.0
 40
0.0
 40
1.0
 40
1.0
 40
1.0
 40
1.0
 10
17.6519591707
 20
13.2466968106
 30
0.0
 10
17.6519591681
 20
13.2466827402
 30
0.0
 10
17.6519591656
 20
13.2466686699
 30
0.0
 10
17.651959163
 20
13.2466545996
 30
0.0
 11
17.6519591707
 21
13.2466968106
 31
0.0
 11
17.651959163
 21
13.2466545996
 31
0.0
  0
LINE
  5
31E
100
AcDbEntity
  8
0
100
AcDbLine
 62
6
  6
CONTINUOUS
 10
17.651959163
 20
13.2466545996
 11
17.6519506372
 21
13.2368513053
  0
SPLINE
  5
31F
100
AcDbEntity
  8
0
100
AcDbSpline
 62
6
  6
CONTINUOUS
 70
0
 71
3
 72
8
 73
4
 74
2
 42
0.0000001
 43
0.0000001
 44
0.0000000001
 12
-0.0000000232
 22
-0.0000180501
 32
0.0
 13
-0.0000000232
 23
-0.0000180501
 33
0.0
 40
0.0
 40
0.0
 40
0.0
 40
0.0
 40
1.0
 40
1.0
 40
1.0
 40
1.0
 10
17.6519506372
 20
13.2368513053
 30
0.0
 10
17.6519506295
 20
13.2368452886
 30
0.0
 10
17.6519506218
 20
13.2368392719
 30
0.0
 10
17.651950614
 20
13.2368332552
 30
0.0
 11
17.6519506372
 21
13.2368513053
 31
0.0
 11
17.651950614
 21
13.2368332552
 31
0.0
  0
LINE
  5
320
100
AcDbEntity
  8
0
100
AcDbLine
 62
6
  6
CONTINUOUS
 10
17.6519592365
 20
10.7797749795
 11
17.6519504972
 21
10.7643913941
  0
LINE
  5
321
100
AcDbEntity
  8
0
100
AcDbLine
 62
7
  6
CONTINUOUS
 10
17.6519592365
 20
13.2573455259
 11
17.6519495252
 21
13.2551317269
  0
SPLINE
  5
322
100
AcDbEntity
  8
0
100
AcDbSpline
 62
7
  6
CONTINUOUS
 70
0
 71
3
 72
15
 73
11
 74
9
 42
0.0000001
 43
0.0000001
 44
0.0000000001
 12
-0.1003864528
 22
-0.0532477979
 32
0.0
 13
-0.0445625501
 23
-0.1045320382
 33
0.0
 40
0.0
 40
0.0
 40
0.0
 40
0.0
 40
0.1266538418
 40
0.252228759
 40
0.3770027102
 40
0.5013026626
 40
0.6254393553
 40
0.7497243506
 40
0.874485152
 40
1.0
 40
1.0
 40
1.0
 40
1.0
 10
17.7388395275
 20
13.3778553057
 30
0.0
 10
17.7346014175
 20
13.375607293
 30
0.0
 10
17.7263459396
 20
13.3707714776
 30
0.0
 10
17.7146692611
 20
13.362522277
 30
0.0
 10
17.7038061672
 20
13.3533640107
 30
0.0
 10
17.6938028596
 20
13.3433510111
 30
0.0
 10
17.6847019235
 20
13.332535594
 30
0.0
 10
17.6765438822
 20
13.3209707559
 30
0.0
 10
17.6693703757
 20
13.3087114966
 30
0.0
 10
17.6652848741
 20
13.3001423336
 30
0.0
 10
17.6634204535
 20
13.2957688927
 30
0.0
 11
17.7388395275
 21
13.3778553057
 31
0.0
 11
17.7264224135
 21
13.3705785265
 31
0.0
 11
17.7147689809
 21
13.3623432537
 31
0.0
 11
17.703929437
 21
13.353203384
 31
0.0
 11
17.693946863
 21
13.3432105539
 31
0.0
 11
17.6848641454
 21
13.3324175496
 31
0.0
 11
17.6767223023
 21
13.3208775835
 31
0.0
 11
17.6695606837
 21
13.3086423157
 31
0.0
 11
17.6634204535
 21
13.2957688927
 31
0.0
  0
SPLINE
  5
323
100
AcDbEntity
  8
0
100
AcDbSpline
 62
7
  6
CONTINUOUS
 70
0
 71
3
 72
15
 73
11
 74
9
 42
0.0000001
 43
0.0000001
 44
0.0000000001
 12
-0.0858757689
 22
-0.0363897541
 32
0.0
 13
-0.0475712124
 23
-0.0802236975
 33
0.0
 40
0.0
 40
0.0
 40
0.0
 40
0.0
 40
0.1299358941
 40
0.2578656898
 40
0.3840432166
 40
0.5087814124
 40
0.6323991335
 40
0.7552339391
 40
0.8776515169
 40
1.0
 40
1.0
 40
1.0
 40
1.0
 10
17.7388166915
 20
13.3441987448
 30
0.0
 10
17.7350972432
 20
13.3426226331
 30
0.0
 10
17.7278280669
 20
13.3392209202
 30
0.0
 10
17.7174190875
 20
13.3333494706
 30
0.0
 10
17.7076284312
 20
13.3267806339
 30
0.0
 10
17.6984893556
 20
13.3195458022
 30
0.0
 10
17.6900326475
 20
13.3116754299
 30
0.0
 10
17.6822877687
 20
13.3032005807
 30
0.0
 10
17.675284789
 20
13.2941537147
 30
0.0
 10
17.6711313913
 20
13.287765418
 30
0.0
 10
17.6691913027
 20
13.2844936688
 30
0.0
 11
17.7388166915
 21
13.3441987448
 31
0.0
 11
17.7278426267
 21
13.3390571774
 31
0.0
 11
17.7174527633
 21
13.3331906115
 31
0.0
 11
17.7076827408
 21
13.3266301828
 31
0.0
 11
17.6985634193
 21
13.3194059915
 31
0.0
 11
17.6901255784
 21
13.3115489492
 31
0.0
 11
17.6823987131
 21
13.3030903814
 31
0.0
 11
17.6754109241
 21
13.2940608465
 31
0.0
 11
17.6691913027
 21
13.2844936688
 31
0.0
  0
LINE
  5
324
100
AcDbEntity
  8
0
100
AcDbLine
 62
7
  6
CONTINUOUS
 10
17.6519592365
 20
13.2474214424
 11
17.6519471159
 21
13.2550327126
  0
SPLINE
  5
325
100
AcDbEntity
  8
0
100
AcDbSpline
 62
7
  6
CONTINUOUS
 70
0
 71
3
 72
19
 73
15
 74
13
 42
0.0000001
 43
0.0000001
 44
0.0000000001
 12
-0.093488232
 22
-0.0301560375
 32
0.0
 13
-0.0471557785
 23
-0.0861728999
 33
0.0
 40
0.0
 40
0.0
 40
0.0
 40
0.0
 40
0.134722815
 40
0.265738
 40
0.3934041545
 40
0.518194102
 40
0.5796876385
 40
0.6406614634
 40
0.7011896399
 40
0.7613510613
 40
0.8212300101
 40
0.8809129464
 40
0.9404781112
 40
1.0
 40
1.0
 40
1.0
 40
1.0
 10
17.7388395275
 20
13.2961809994
 30
0.0
 10
17.7346411949
 20
13.294826764
 30
0.0
 10
17.7264629882
 20
13.2918209612
 30
0.0
 10
17.7147793147
 20
13.286359282
 30
0.0
 10
17.7039057137
 20
13.2800466785
 30
0.0
 10
17.6955154144
 20
13.2740783142
 30
0.0
 10
17.689271403
 20
13.2689205014
 30
0.0
 10
17.6848407171
 20
13.2648828426
 30
0.0
 10
17.6806454374
 20
13.2606624809
 30
0.0
 10
17.676690447
 20
13.2562641306
 30
0.0
 10
17.672980728
 20
13.2516925779
 30
0.0
 10
17.6695213829
 20
13.2469527946
 30
0.0
 10
17.6663177508
 20
13.2420506796
 30
0.0
 10
17.6643560538
 20
13.2386782712
 30
0.0
 10
17.6634204535
 20
13.2369685466
 30
0.0
 11
17.7388395275
 21
13.2961809994
 31
0.0
 11
17.7264224135
 21
13.2916033546
 31
0.0
 11
17.7147689809
 21
13.2861416814
 31
0.0
 11
17.703929437
 21
13.2798347771
 31
0.0
 11
17.693946863
 21
13.2727204002
 31
0.0
 11
17.689290425
 21
13.2688724795
 31
0.0
 11
17.6848641454
 21
13.2648372851
 31
0.0
 11
17.6806731129
 21
13.260619762
 31
0.0
 11
17.6767223023
 21
13.2562247384
 31
0.0
 11
17.6730165379
 21
13.2516568886
 31
0.0
 11
17.6695606837
 21
13.2469209754
 31
0.0
 11
17.6663601047
 21
13.2420227534
 31
0.0
 11
17.6634204535
 21
13.2369685466
 31
0.0
  0
SPLINE
  5
326
100
AcDbEntity
  8
0
100
AcDbSpline
 62
7
  6
CONTINUOUS
 70
0
 71
3
 72
40
 73
36
 74
34
 42
0.0000001
 43
0.0000001
 44
0.0000000001
 12
-0.0129779635
 22
-0.0237160489
 32
0.0
 13
0.0
 23
0.0270347649
 33
0.0
 40
0.0
 40
0.0
 40
0.0
 40
0.0
 40
0.1290293802
 40
0.249466538
 40
0.3608977687
 40
0.4629621102
 40
0.555325615
 40
0.6376227301
 40
0.7094509745
 40
0.7413114525
 40
0.770400776
 40
0.7966685084
 40
0.820066728
 40
0.8405523213
 40
0.8580933128
 40
0.872675354
 40
0.8788618444
 40
0.8843206027
 40
0.8890668156
 40
0.8931278398
 40
0.8965527184
 40
0.8994288344
 40
0.9019070493
 40
0.9042223176
 40
0.9066618215
 40
0.9094789625
 40
0.9128462465
 40
0.9168688297
 40
0.9216109032
 40
0.9271122311
 40
0.9333951222
 40
0.9404734339
 40
0.9570487119
 40
0.9768841915
 40
1.0
 40
1.0
 40
1.0
 40
1.0
 10
17.6634204535
 20
13.2369685466
 30
0.0
 10
17.662862274
 20
13.2359485243
 30
0.0
 10
17.6617998427
 20
13.2339671793
 30
0.0
 10
17.6603100292
 20
13.2310760723
 30
0.0
 10
17.658972436
 20
13.2283803057
 30
0.0
 10
17.657780573
 20
13.2258949686
 30
0.0
 10
17.6567270642
 20
13.223634658
 30
0.0
 10
17.6558042723
 20
13.2216141442
 30
0.0
 10
17.6551125096
 20
13.2200875353
 30
0.0
 10
17.654614853
 20
13.2189993925
 30
0.0
 10
17.6542843137
 20
13.2182863018
 30
0.0
 10
17.6539803317
 20
13.2176449722
 30
0.0
 10
17.6537019229
 20
13.2170773751
 30
0.0
 10
17.653448117
 20
13.2165853831
 30
0.0
 10
17.6532180057
 20
13.2161708022
 30
0.0
 10
17.6530367819
 20
13.2158766694
 30
0.0
 10
17.6529010975
 20
13.215683058
 30
0.0
 10
17.6528103229
 20
13.2155664273
 30
0.0
 10
17.652724725
 20
13.2154703409
 30
0.0
 10
17.6526440769
 20
13.215394893
 30
0.0
 10
17.6525679913
 20
13.2153401481
 30
0.0
 10
17.6524958117
 20
13.215306249
 30
0.0
 10
17.6524265833
 20
13.2152942478
 30
0.0
 10
17.6523610311
 20
13.2153064299
 30
0.0
 10
17.6523017712
 20
13.2153427134
 30
0.0
 10
17.6522491124
 20
13.2154008392
 30
0.0
 10
17.6522017618
 20
13.2154801618
 30
0.0
 10
17.6521590035
 20
13.2155810368
 30
0.0
 10
17.6521205293
 20
13.2157038542
 30
0.0
 10
17.6520862186
 20
13.2158488711
 30
0.0
 10
17.6520560155
 20
13.2160162113
 30
0.0
 10
17.6520192837
 20
13.2162835353
 30
0.0
 10
17.6519859588
 20
13.2166742502
 30
0.0
 10
17.6519634121
 20
13.2172102936
 30
0.0
 10
17.6519592365
 20
13.2175973903
 30
0.0
 10
17.6519592365
 20
13.2178057004
 30
0.0
 11
17.6634204535
 21
13.2369685466
 31
0.0
 11
17.661771975
 21
13.2338943624
 31
0.0
 11
17.6602805153
 21
13.2310000541
 31
0.0
 11
17.6589412443
 21
13.2283016078
 31
0.0
 11
17.6577475776
 21
13.2258138746
 31
0.0
 11
17.6566918333
 21
13.2235510134
 31
0.0
 11
17.6557661478
 21
13.2215278447
 31
0.0
 11
17.6549624291
 21
13.2197601187
 31
0.0
 11
17.6546037706
 21
13.2189770021
 31
0.0
 11
17.6542725502
 21
13.218263732
 31
0.0
 11
17.6539677437
 21
13.2176223315
 31
0.0
 11
17.6536883264
 21
13.2170548239
 31
0.0
 11
17.6534332788
 21
13.2165632236
 31
0.0
 11
17.6532016486
 21
13.2161494255
 31
0.0
 11
17.6529925322
 21
13.2158152379
 31
0.0
 11
17.6528961347
 21
13.2156785624
 31
0.0
 11
17.6528050272
 21
13.2155624669
 31
0.0
 11
17.652719097
 21
13.215467177
 31
0.0
 11
17.6526382313
 21
13.2153929185
 31
0.0
 11
17.6525623257
 21
13.2153398959
 31
0.0
 11
17.6524912971
 21
13.2153082605
 31
0.0
 11
17.6524250656
 21
13.2152981555
 31
0.0
 11
17.6523635512
 21
13.2153097241
 31
0.0
 11
17.6523066741
 21
13.2153431094
 31
0.0
 11
17.6522543543
 21
13.2153984547
 31
0.0
 11
17.6522065119
 21
13.2154759031
 31
0.0
 11
17.652163067
 21
13.2155755977
 31
0.0
 11
17.6521239397
 21
13.2156976817
 31
0.0
 11
17.6520890609
 21
13.2158422612
 31
0.0
 11
17.6520583948
 21
13.2160093265
 31
0.0
 11
17.6520319123
 21
13.2161988456
 31
0.0
 11
17.6519913811
 21
13.2166451176
 31
0.0
 11
17.6519672337
 21
13.2171808212
 31
0.0
 11
17.6519592365
 21
13.2178057004
 31
0.0
  0
SPLINE
  5
327
100
AcDbEntity
  8
0
100
AcDbSpline
 62
7
  6
CONTINUOUS
 70
0
 71
3
 72
10
 73
6
 74
4
 42
0.0000001
 43
0.0000001
 44
0.0000000001
 12
0.0068989287
 22
0.0296999617
 32
0.0
 13
0.0132144864
 23
0.0274783604
 33
0.0
 40
0.0
 40
0.0
 40
0.0
 40
0.0
 40
0.4364607723
 40
0.7030728938
 40
1.0
 40
1.0
 40
1.0
 40
1.0
 10
17.6519455423
 20
13.236756369
 30
0.0
 10
17.6529492462
 20
13.241077325
 30
0.0
 10
17.6549467598
 20
13.2479552002
 30
0.0
 10
17.6585354245
 20
13.2574678471
 30
0.0
 10
17.6608692203
 20
13.2627032358
 30
0.0
 10
17.6621771334
 20
13.2654229258
 30
0.0
 11
17.6519455423
 21
13.236756369
 31
0.0
 11
17.655631868
 21
13.2495436185
 31
0.0
 11
17.6584963433
 21
13.2571514122
 31
0.0
 11
17.6621771334
 21
13.2654229258
 31
0.0
  0
SPLINE
  5
328
100
AcDbEntity
  8
0
100
AcDbSpline
 62
7
  6
CONTINUOUS
 70
0
 71
3
 72
20
 73
16
 74
14
 42
0.0000001
 43
0.0000001
 44
0.0000000001
 12
0.0454262389
 22
0.0944598626
 32
0.0
 13
0.0982508187
 23
0.0365100731
 33
0.0
 40
0.0
 40
0.0
 40
0.0
 40
0.0
 40
0.0601525842
 40
0.1202564878
 40
0.1803833613
 40
0.2406096408
 40
0.3010208694
 40
0.3617025635
 40
0.422736349
 40
0.4842006786
 40
0.5461725751
 40
0.6087255072
 40
0.7358254398
 40
0.8660967623
 40
1.0
 40
1.0
 40
1.0
 40
1.0
 10
17.6621771334
 20
13.2654229258
 30
0.0
 10
17.6630879686
 20
13.2673169274
 30
0.0
 10
17.6650046167
 20
13.2710582251
 30
0.0
 10
17.6681583622
 20
13.2765176073
 30
0.0
 10
17.6715842922
 20
13.2818136834
 30
0.0
 10
17.6752780362
 20
13.2869397477
 30
0.0
 10
17.679235564
 20
13.2918898487
 30
0.0
 10
17.6834529053
 20
13.296658244
 30
0.0
 10
17.6879261158
 20
13.3012390257
 30
0.0
 10
17.6926511509
 20
13.3056260127
 30
0.0
 10
17.6976240016
 20
13.3098130158
 30
0.0
 10
17.7046148983
 20
13.31514819
 30
0.0
 10
17.713977254
 20
13.3212874845
 30
0.0
 10
17.7260671633
 20
13.3277058058
 30
0.0
 10
17.7345867872
 20
13.3312929988
 30
0.0
 10
17.7389721548
 20
13.3329226045
 30
0.0
 11
17.6621771334
 21
13.2654229258
 31
0.0
 11
17.6650518964
 21
13.2710342985
 31
0.0
 11
17.668203065
 21
13.2764893501
 31
0.0
 11
17.6716259396
 21
13.2817810154
 31
0.0
 11
17.6753161185
 21
13.2869027151
 31
0.0
 11
17.6792697379
 21
13.2918487483
 31
0.0
 11
17.683482983
 21
13.2966134866
 31
0.0
 11
17.6879519212
 21
13.3011909936
 31
0.0
 11
17.6926725266
 21
13.3055750882
 31
0.0
 11
17.6976407173
 21
13.3097595584
 31
0.0
 11
17.7028521486
 21
13.3137380736
 31
0.0
 11
17.7139870378
 21
13.3210517441
 31
0.0
 11
17.7260417419
 21
13.3274647665
 31
0.0
 11
17.7389721548
 21
13.3329226045
 31
0.0
  0
SPLINE
  5
329
100
AcDbEntity
  8
0
100
AcDbSpline
 62
7
  6
CONTINUOUS
 70
0
 71
3
 72
15
 73
11
 74
9
 42
0.0000001
 43
0.0000001
 44
0.0000000001
 12
-0.0791469338
 22
-0.016252171
 32
0.0
 13
-0.0518305713
 23
-0.061983563
 33
0.0
 40
0.0
 40
0.0
 40
0.0
 40
0.0
 40
0.1396920524
 40
0.2745447435
 40
0.4047642456
 40
0.5306690576
 40
0.6526391005
 40
0.7711367849
 40
0.8867194542
 40
1.0
 40
1.0
 40
1.0
 40
1.0
 10
17.7388166915
 20
13.2174357805
 30
0.0
 10
17.7351312923
 20
13.2166790141
 30
0.0
 10
17.7279336756
 20
13.2149562449
 30
0.0
 10
17.7175261513
 20
13.2116818811
 30
0.0
 10
17.7077338207
 20
13.2077817094
 30
0.0
 10
17.6985895775
 20
13.2032753659
 30
0.0
 10
17.690124147
 20
13.1981819232
 30
0.0
 10
17.6823672145
 20
13.1925209335
 30
0.0
 10
17.6753497327
 20
13.1863133962
 30
0.0
 10
17.6711484345
 20
13.1817862207
 30
0.0
 10
17.6691913027
 20
13.1794457101
 30
0.0
 11
17.7388166915
 21
13.2174357805
 31
0.0
 11
17.7278426267
 21
13.2147969045
 31
0.0
 11
17.7174527633
 21
13.2115150192
 31
0.0
 11
17.7076827408
 21
13.2076100212
 31
0.0
 11
17.6985634193
 21
13.2031016023
 31
0.0
 11
17.6901255784
 21
13.1980101007
 31
0.0
 11
17.6823987131
 21
13.1923563429
 31
0.0
 11
17.6754109241
 21
13.1861607308
 31
0.0
 11
17.6691913027
 21
13.1794457101
 31
0.0
  0
SPLINE
  5
32A
100
AcDbEntity
  8
0
100
AcDbSpline
 62
7
  6
CONTINUOUS
 70
0
 71
3
 72
19
 73
15
 74
13
 42
0.0000001
 43
0.0000001
 44
0.0000000001
 12
0.0478782221
 22
0.0831863903
 32
0.0
 13
0.0930965929
 23
0.0233521749
 33
0.0
 40
0.0
 40
0.0
 40
0.0
 40
0.0
 40
0.0572065876
 40
0.1146305485
 40
0.1723825444
 40
0.2305746341
 40
0.2893241775
 40
0.3487447692
 40
0.4089425187
 40
0.4700166979
 40
0.5951250681
 40
0.72478523
 40
0.8595950136
 40
1.0
 40
1.0
 40
1.0
 40
1.0
 10
17.6621634005
 20
13.2192683909
 30
0.0
 10
17.6630763838
 20
13.2208546608
 30
0.0
 10
17.6649988978
 20
13.2239806656
 30
0.0
 10
17.6681558582
 20
13.2285063731
 30
0.0
 10
17.6715852721
 20
13.2328696289
 30
0.0
 10
17.6752825999
 20
13.2370648429
 30
0.0
 10
17.6792436945
 20
13.241087162
 30
0.0
 10
17.6834644357
 20
13.2449318892
 30
0.0
 10
17.687940892
 20
13.2485942794
 30
0.0
 10
17.6942947715
 20
13.2532644058
 30
0.0
 10
17.7028860461
 20
13.2586183436
 30
0.0
 10
17.7140628678
 20
13.2641744717
 30
0.0
 10
17.7261513576
 20
13.2688732407
 30
0.0
 10
17.7346119538
 20
13.2713545462
 30
0.0
 10
17.738969029
 20
13.2724474668
 30
0.0
 11
17.6621634005
 21
13.2192683909
 31
0.0
 11
17.6650392832
 21
13.2239457206
 31
0.0
 11
17.6681918635
 21
13.2284666607
 31
0.0
 11
17.6716163655
 21
13.2328253882
 31
0.0
 11
17.6753083116
 21
13.2370164885
 31
0.0
 11
17.6792637637
 21
13.2410352859
 31
0.0
 11
17.6834788325
 21
13.2448771663
 31
0.0
 11
17.6879495097
 21
13.2485372608
 31
0.0
 11
17.6926716922
 21
13.2520104985
 31
0.0
 11
17.7028536757
 21
13.2583759589
 31
0.0
 11
17.7139893623
 21
13.2639321657
 31
0.0
 11
17.7260427041
 21
13.268637303
 31
0.0
 11
17.738969029
 21
13.2724474668
 31
0.0
  0
SPLINE
  5
32B
100
AcDbEntity
  8
0
100
AcDbSpline
 62
7
  6
CONTINUOUS
 70
0
 71
3
 72
37
 73
33
 74
31
 42
0.0000001
 43
0.0000001
 44
0.0000000001
 12
-0.01534006
 22
-0.0183199904
 32
0.0
 13
0.0
 23
0.0238943402
 33
0.0
 40
0.0
 40
0.0
 40
0.0
 40
0.0
 40
0.1070373514
 40
0.2028112458
 40
0.2871153387
 40
0.3249130107
 40
0.3597895843
 40
0.3917498666
 40
0.4208114126
 40
0.4470086908
 40
0.4704019364
 40
0.4910914895
 40
0.5092412329
 40
0.5251152458
 40
0.53913331
 40
0.5456479227
 40
0.5519574966
 40
0.558176155
 40
0.5644252309
 40
0.5774701807
 40
0.5919979907
 40
0.6086757804
 40
0.6279543114
 40
0.6501366906
 40
0.6754329115
 40
0.7039944241
 40
0.735935487
 40
0.7713350219
 40
0.8102041484
 40
0.8525287435
 40
0.8982878206
 40
1.0
 40
1.0
 40
1.0
 40
1.0
 10
17.6634204535
 20
13.1003689102
 30
0.0
 10
17.6628731337
 20
13.0997152691
 30
0.0
 10
17.6618339738
 20
13.0984785225
 30
0.0
 10
17.6603465008
 20
13.0967415419
 30
0.0
 10
17.6591951341
 20
13.0954429328
 30
0.0
 10
17.6583444149
 20
13.0945265984
 30
0.0
 10
17.6577656611
 20
13.0939268532
 30
0.0
 10
17.6572216534
 20
13.0933905556
 30
0.0
 10
17.6567113098
 20
13.0929190189
 30
0.0
 10
17.6562335192
 20
13.092513496
 30
0.0
 10
17.655787081
 20
13.0921751953
 30
0.0
 10
17.6553706702
 20
13.091905273
 30
0.0
 10
17.6549825842
 20
13.0917049408
 30
0.0
 10
17.6546209552
 20
13.0915756605
 30
0.0
 10
17.6543324685
 20
13.091528392
 30
0.0
 10
17.654118197
 20
13.0915319688
 30
0.0
 10
17.6539676608
 20
13.0915538219
 30
0.0
 10
17.6538234475
 20
13.0915951975
 30
0.0
 10
17.6536370775
 20
13.0916776264
 30
0.0
 10
17.6534156328
 20
13.0918365397
 30
0.0
 10
17.6531825122
 20
13.0921039365
 30
0.0
 10
17.6529744487
 20
13.0924497925
 30
0.0
 10
17.6527889842
 20
13.0928751232
 30
0.0
 10
17.6526244323
 20
13.0933813718
 30
0.0
 10
17.6524797146
 20
13.0939698873
 30
0.0
 10
17.6523539506
 20
13.0946418626
 30
0.0
 10
17.6522463685
 20
13.0953982784
 30
0.0
 10
17.6521562462
 20
13.096239536
 30
0.0
 10
17.6520832173
 20
13.0971653984
 30
0.0
 10
17.6520270027
 20
13.0981750622
 30
0.0
 10
17.6519722268
 20
13.0996858204
 30
0.0
 10
17.6519592365
 20
13.1008605415
 30
0.0
 10
17.6519592365
 20
13.1016706566
 30
0.0
 11
17.6634204535
 21
13.1003689102
 31
0.0
 11
17.6617730439
 21
13.0984125635
 31
0.0
 11
17.6602817933
 21
13.0966767083
 31
0.0
 11
17.6589415224
 21
13.0951728986
 31
0.0
 11
17.6583263857
 21
13.0945116214
 31
0.0
 11
17.6577469543
 21
13.0939126756
 31
0.0
 11
17.6572022211
 21
13.0933774584
 31
0.0
 11
17.6566911349
 21
13.0929073614
 31
0.0
 11
17.6562126446
 21
13.0925037759
 31
0.0
 11
17.6557656989
 21
13.0921680934
 31
0.0
 11
17.6553492466
 21
13.0919017055
 31
0.0
 11
17.6549622375
 21
13.0917060044
 31
0.0
 11
17.6546036413
 21
13.0915824059
 31
0.0
 11
17.6542724501
 21
13.0915323509
 31
0.0
 11
17.6541168167
 21
13.0915353529
 31
0.0
 11
17.6539676569
 21
13.0915572816
 31
0.0
 11
17.6538248449
 21
13.0915983173
 31
0.0
 11
17.6536882547
 21
13.0916586401
 31
0.0
 11
17.6534332364
 21
13.0918378687
 31
0.0
 11
17.6532015953
 21
13.0920964094
 31
0.0
 11
17.6529923718
 21
13.0924355725
 31
0.0
 11
17.6528047475
 21
13.0928562785
 31
0.0
 11
17.6526379297
 21
13.093359376
 31
0.0
 11
17.6524911256
 21
13.0939457138
 31
0.0
 11
17.6523635426
 21
13.0946161407
 31
0.0
 11
17.6522543881
 21
13.0953715054
 31
0.0
 11
17.652162939
 21
13.0962123958
 31
0.0
 11
17.6520887972
 21
13.0971381839
 31
0.0
 11
17.6520316593
 21
13.0981478868
 31
0.0
 11
17.6519912222
 21
13.0992405217
 31
0.0
 11
17.6519592365
 21
13.1016706566
 31
0.0
  0
SPLINE
  5
32C
100
AcDbEntity
  8
0
100
AcDbSpline
 62
7
  6
CONTINUOUS
 70
0
 71
3
 72
16
 73
12
 74
10
 42
0.0000001
 43
0.0000001
 44
0.0000000001
 12
0.0099556712
 22
0.0161197926
 32
0.0
 13
0.0111254997
 23
0.0153357868
 33
0.0
 40
0.0
 40
0.0
 40
0.0
 40
0.0
 40
0.0338532124
 40
0.0716237665
 40
0.1588076958
 40
0.261323114
 40
0.3789971619
 40
0.5117577916
 40
0.6595628255
 40
0.8223384198
 40
1.0
 40
1.0
 40
1.0
 40
1.0
 10
17.6519455423
 20
13.1415956695
 30
0.0
 10
17.6520578861
 20
13.1417775718
 30
0.0
 10
17.65229254
 20
13.1421642979
 30
0.0
 10
17.6528053197
 20
13.143026246
 30
0.0
 10
17.6535321868
 20
13.1442653648
 30
0.0
 10
17.6545211199
 20
13.1459357895
 30
0.0
 10
17.6556769132
 20
13.1478418367
 30
0.0
 10
17.6570124052
 20
13.1499731603
 30
0.0
 10
17.6585407901
 20
13.1523193019
 30
0.0
 10
17.6602736874
 20
13.1548699918
 30
0.0
 10
17.6615182754
 20
13.1566233777
 30
0.0
 10
17.6621771334
 20
13.1575315711
 30
0.0
 11
17.6519455423
 21
13.1415956695
 31
0.0
 11
17.6522789497
 21
13.142143598
 31
0.0
 11
17.6526453848
 21
13.1427582746
 31
0.0
 11
17.6534840744
 21
13.1441813318
 31
0.0
 11
17.6544750838
 21
13.1458517782
 31
0.0
 11
17.655631868
 21
13.1477576842
 31
0.0
 11
17.6569678551
 21
13.1498888813
 31
0.0
 11
17.6584963433
 21
13.1522353147
 31
0.0
 11
17.6602291494
 21
13.1547864774
 31
0.0
 11
17.6621771334
 21
13.1575315711
 31
0.0
  0
SPLINE
  5
32D
100
AcDbEntity
  8
0
100
AcDbSpline
 62
7
  6
CONTINUOUS
 70
0
 71
3
 72
18
 73
14
 74
12
 42
0.0000001
 43
0.0000001
 44
0.0000000001
 12
0.0518191692
 22
0.0714293963
 32
0.0
 13
0.0875067551
 23
0.0113996829
 33
0.0
 40
0.0
 40
0.0
 40
0.0
 40
0.0
 40
0.0530062404
 40
0.1067053792
 40
0.1612503518
 40
0.216783115
 40
0.3312782818
 40
0.4512069636
 40
0.5774489827
 40
0.7107362385
 40
0.7801861692
 40
0.8515368479
 40
1.0
 40
1.0
 40
1.0
 40
1.0
 10
17.6621771334
 20
13.1575315711
 30
0.0
 10
17.6630927132
 20
13.158793639
 30
0.0
 10
17.6650229589
 20
13.1612722616
 30
0.0
 10
17.6681799027
 20
13.1648165311
 30
0.0
 10
17.6716101465
 20
13.1682039202
 30
0.0
 10
17.6765910962
 20
13.1725484153
 30
0.0
 10
17.6835152782
 20
13.1775640928
 30
0.0
 10
17.6927554233
 20
13.1828153676
 30
0.0
 10
17.7029805548
 20
13.1873339184
 30
0.0
 10
17.7121656991
 20
13.1904214515
 30
0.0
 10
17.719953824
 20
13.1925134495
 30
0.0
 10
17.7282548752
 20
13.1943903073
 30
0.0
 10
17.7346416452
 20
13.1954477089
 30
0.0
 10
17.7389721548
 20
13.1960118532
 30
0.0
 11
17.6621771334
 21
13.1575315711
 31
0.0
 11
17.6650496162
 21
13.1612232859
 31
0.0
 11
17.6681997519
 21
13.1647633888
 31
0.0
 11
17.671622838
 21
13.1681473439
 31
0.0
 11
17.6753141716
 21
13.1713706151
 31
0.0
 11
17.6834828063
 21
13.1773169881
 31
0.0
 11
17.6926712093
 21
13.1825684967
 31
0.0
 11
17.7028504867
 21
13.1870951106
 31
0.0
 11
17.7139913838
 21
13.190866999
 31
0.0
 11
17.7199094911
 21
13.1924597464
 31
0.0
 11
17.7260502612
 21
13.1938511094
 31
0.0
 11
17.7389721548
 21
13.1960118532
 31
0.0
  0
SPLINE
  5
32E
100
AcDbEntity
  8
0
100
AcDbSpline
 62
7
  6
CONTINUOUS
 70
0
 71
3
 72
20
 73
16
 74
14
 42
0.0000001
 43
0.0000001
 44
0.0000000001
 12
-0.0719179704
 22
0.0018675408
 32
0.0
 13
-0.0608630415
 23
-0.0383584717
 33
0.0
 40
0.0
 40
0.0
 40
0.0
 40
0.0
 40
0.1525405477
 40
0.2971212844
 40
0.3663954628
 40
0.433654953
 40
0.498905005
 40
0.5621555457
 40
0.6234227826
 40
0.6827315023
 40
0.7401146284
 40
0.7956150306
 40
0.8492876138
 40
0.9011984281
 40
1.0
 40
1.0
 40
1.0
 40
1.0
 10
17.7388166915
 20
13.0141008413
 30
0.0
 10
17.7351598893
 20
13.0141957998
 30
0.0
 10
17.7280317613
 20
13.014223041
 30
0.0
 10
17.7192502465
 20
13.0138201048
 30
0.0
 10
17.7125340079
 20
13.0132296504
 30
0.0
 10
17.7077273037
 20
13.0126658334
 30
0.0
 10
17.703083035
 20
13.0119758085
 30
0.0
 10
17.6986050067
 20
13.0111605925
 30
0.0
 10
17.6942970072
 20
13.0102211948
 30
0.0
 10
17.6901627297
 20
13.0091587396
 30
0.0
 10
17.6862057441
 20
13.0079743131
 30
0.0
 10
17.6824296539
 20
13.0066690138
 30
0.0
 10
17.6788375689
 20
13.0052437384
 30
0.0
 10
17.6743730248
 20
13.0032187949
 30
0.0
 10
17.6711957574
 20
13.0014761247
 30
0.0
 10
17.6691913027
 20
13.0002128323
 30
0.0
 11
17.7388166915
 21
13.0141008413
 31
0.0
 11
17.7278426267
 21
13.0141304669
 31
0.0
 11
17.7174527633
 21
13.0136394752
 31
0.0
 11
17.7124883487
 21
13.0132010344
 31
0.0
 11
17.7076827408
 21
13.0126352734
 31
0.0
 11
17.703039802
 21
13.0119432149
 31
0.0
 11
17.6985634193
 21
13.0111259073
 31
0.0
 11
17.6942574449
 21
13.0101844141
 31
0.0
 11
17.6901255784
 21
13.0091198642
 31
0.0
 11
17.686171477
 21
13.0079334038
 31
0.0
 11
17.6823987131
 21
13.0066261628
 31
0.0
 11
17.6788107152
 21
13.0051992438
 31
0.0
 11
17.6754109241
 21
13.0036537666
 31
0.0
 11
17.6691913027
 21
13.0002128323
 31
0.0
  0
SPLINE
  5
32F
100
AcDbEntity
  8
0
100
AcDbSpline
 62
7
  6
CONTINUOUS
 70
0
 71
3
 72
20
 73
16
 74
14
 42
0.0000001
 43
0.0000001
 44
0.0000000001
 12
0.0133609468
 22
0.003305761
 32
0.0
 13
0.0097860845
 23
0.0096786107
 33
0.0
 40
0.0
 40
0.0
 40
0.0
 40
0.0
 40
0.0256449086
 40
0.055352781
 40
0.089549919
 40
0.1285026794
 40
0.1723811365
 40
0.2212974304
 40
0.2753359914
 40
0.3345646583
 40
0.3990372366
 40
0.4687983557
 40
0.6243307342
 40
0.8013560851
 40
1.0
 40
1.0
 40
1.0
 40
1.0
 10
17.6519471159
 20
13.0634928205
 30
0.0
 10
17.6520613294
 20
13.0635210792
 30
0.0
 10
17.6523021423
 20
13.0636053926
 30
0.0
 10
17.6526702976
 20
13.0637891785
 30
0.0
 10
17.6530722733
 20
13.0640373144
 30
0.0
 10
17.6535100278
 20
13.0643486496
 30
0.0
 10
17.6539855376
 20
13.0647220823
 30
0.0
 10
17.6545005957
 20
13.0651564415
 30
0.0
 10
17.6550568799
 20
13.0656507147
 30
0.0
 10
17.6556560149
 20
13.066203951
 30
0.0
 10
17.6562996638
 20
13.0668151594
 30
0.0
 10
17.6572544975
 20
13.067740209
 30
0.0
 10
17.6585671425
 20
13.06903794
 30
0.0
 10
17.6602931273
 20
13.0707585521
 30
0.0
 10
17.6615154185
 20
13.0719737252
 30
0.0
 10
17.6621634005
 20
13.0726145909
 30
0.0
 11
17.6519471159
 21
13.0634928205
 31
0.0
 11
17.6522816227
 21
13.0636054906
 31
0.0
 11
17.6526490365
 21
13.063784938
 31
0.0
 11
17.6530510104
 21
13.0640298054
 31
0.0
 11
17.653489197
 21
13.0643387351
 31
0.0
 11
17.6539652493
 21
13.0647103698
 31
0.0
 11
17.6544808196
 21
13.0651433676
 31
0.0
 11
17.655037554
 21
13.0656365731
 31
0.0
 11
17.6556370947
 21
13.0661889529
 31
0.0
 11
17.6562810838
 21
13.0667994758
 31
0.0
 11
17.6569711632
 21
13.0674671105
 31
0.0
 11
17.6584960362
 21
13.0689695912
 31
0.0
 11
17.6602232535
 21
13.0706881601
 31
0.0
 11
17.6621634005
 21
13.0726145909
 31
0.0
  0
SPLINE
  5
330
100
AcDbEntity
  8
0
100
AcDbSpline
 62
7
  6
CONTINUOUS
 70
0
 71
3
 72
23
 73
19
 74
17
 42
0.0000001
 43
0.0000001
 44
0.0000000001
 12
0.0073140143
 22
-0.008545948
 32
0.0
 13
0.009684366
 23
0.0057219828
 33
0.0
 40
0.0
 40
0.0
 40
0.0
 40
0.0
 40
0.0421153751
 40
0.0825029608
 40
0.122417864
 40
0.1631490365
 40
0.2059045617
 40
0.2517281464
 40
0.3014700299
 40
0.3558026971
 40
0.4152509881
 40
0.4802244599
 40
0.5510457851
 40
0.6279652966
 40
0.7111746254
 40
0.8008312382
 40
0.8970681202
 40
1.0
 40
1.0
 40
1.0
 40
1.0
 10
17.6519455423
 20
12.9746283083
 30
0.0
 10
17.6520482198
 20
12.9745083364
 30
0.0
 10
17.6522659265
 20
12.9742866506
 30
0.0
 10
17.652637155
 20
12.974013259
 30
0.0
 10
17.6530446822
 20
12.9738086327
 30
0.0
 10
17.6534889025
 20
12.9736721829
 30
0.0
 10
17.6539703948
 20
12.973602358
 30
0.0
 10
17.6544903074
 20
12.9735971765
 30
0.0
 10
17.655050353
 20
12.9736549736
 30
0.0
 10
17.6556524544
 20
12.9737744625
 30
0.0
 10
17.6562985797
 20
12.9739545611
 30
0.0
 10
17.6569906512
 20
12.974194348
 30
0.0
 10
17.6577305061
 20
12.9744929447
 30
0.0
 10
17.658519826
 20
12.9748495562
 30
0.0
 10
17.6593600935
 20
12.9752635313
 30
0.0
 10
17.6602527239
 20
12.9757341664
 30
0.0
 10
17.6611991036
 20
12.9762607579
 30
0.0
 10
17.6618448567
 20
12.9766359184
 30
0.0
 10
17.6621771334
 20
12.9768322433
 30
0.0
 11
17.6519455423
 21
12.9746283083
 31
0.0
 11
17.6522789497
 21
12.9742917628
 31
0.0
 11
17.6526453848
 21
12.9740232252
 31
0.0
 11
17.6530465316
 21
12.9738215681
 31
0.0
 11
17.6534840744
 21
12.9736856639
 31
0.0
 11
17.6539596971
 21
12.9736143853
 31
0.0
 11
17.6544750838
 21
12.9736066184
 31
0.0
 11
17.6550319146
 21
12.9736614088
 31
0.0
 11
17.655631868
 21
12.973777906
 31
0.0
 11
17.6562766221
 21
12.973955261
 31
0.0
 11
17.6569678551
 21
12.974192625
 31
0.0
 11
17.6577072432
 21
12.9744891495
 31
0.0
 11
17.6584963433
 21
12.9748440273
 31
0.0
 11
17.6593365268
 21
12.9752565142
 31
0.0
 11
17.6602291494
 21
12.9757258716
 31
0.0
 11
17.6611755664
 21
12.9762513608
 31
0.0
 11
17.6621771334
 21
12.9768322433
 31
0.0
  0
SPLINE
  5
331
100
AcDbEntity
  8
0
100
AcDbSpline
 62
7
  6
CONTINUOUS
 70
0
 71
3
 72
23
 73
19
 74
17
 42
0.0000001
 43
0.0000001
 44
0.0000000001
 12
0.0673748273
 22
0.0398082437
 32
0.0
 13
0.0777059089
 23
-0.0092658162
 33
0.0
 40
0.0
 40
0.0
 40
0.0
 40
0.0
 40
0.0417114938
 40
0.0858026261
 40
0.1324253797
 40
0.1817020517
 40
0.2337345653
 40
0.2886027593
 40
0.3463662572
 40
0.4070684033
 40
0.4707397226
 40
0.5373975169
 40
0.607049946
 40
0.6796986016
 40
0.7553397776
 40
0.8339635849
 40
0.915534718
 40
1.0
 40
1.0
 40
1.0
 40
1.0
 10
17.6621771334
 20
12.9768322433
 30
0.0
 10
17.6631139016
 20
12.9773857304
 30
0.0
 10
17.6650897922
 20
12.978442916
 30
0.0
 10
17.668249717
 20
12.9798448621
 30
0.0
 10
17.6716800294
 20
12.9811040536
 30
0.0
 10
17.6753763464
 20
12.9822191137
 30
0.0
 10
17.6793349304
 20
12.9831889492
 30
0.0
 10
17.6835520766
 20
12.984012409
 30
0.0
 10
17.6880240496
 20
12.9846882017
 30
0.0
 10
17.6927469905
 20
12.9852148989
 30
0.0
 10
17.6977168729
 20
12.9855910518
 30
0.0
 10
17.7029295121
 20
12.985815246
 30
0.0
 10
17.7083805966
 20
12.9858860441
 30
0.0
 10
17.714065779
 20
12.9858019876
 30
0.0
 10
17.7199806566
 20
12.9855615924
 30
0.0
 10
17.7261202174
 20
12.9851634052
 30
0.0
 10
17.7324784195
 20
12.9846062423
 30
0.0
 10
17.7367843376
 20
12.9841361511
 30
0.0
 10
17.7389721548
 20
12.9838752711
 30
0.0
 11
17.6621771334
 21
12.9768322433
 31
0.0
 11
17.6650518964
 21
12.9783784262
 31
0.0
 11
17.668203065
 21
12.9797839466
 31
0.0
 11
17.6716259396
 21
12.9810471533
 31
0.0
 11
17.6753161185
 21
12.9821665157
 31
0.0
 11
17.6792697379
 21
12.983140721
 31
0.0
 11
17.683482983
 21
12.9839684735
 31
0.0
 11
17.6879519212
 21
12.9846483812
 31
0.0
 11
17.6926725266
 21
12.9851789764
 31
0.0
 11
17.6976407173
 21
12.9855587935
 31
0.0
 11
17.7028521486
 21
12.9857863897
 31
0.0
 11
17.7083023952
 21
12.9858603288
 31
0.0
 11
17.7139870378
 21
12.9857791628
 31
0.0
 11
17.7199016676
 21
12.9855414233
 31
0.0
 11
17.7260417419
 21
12.9851456572
 31
0.0
 11
17.7324010302
 21
12.9845906333
 31
0.0
 11
17.7389721548
 21
12.9838752711
 31
0.0
  0
SPLINE
  5
332
100
AcDbEntity
  8
0
100
AcDbSpline
 62
7
  6
CONTINUOUS
 70
0
 71
3
 72
20
 73
16
 74
14
 42
0.0000001
 43
0.0000001
 44
0.0000000001
 12
-0.0684841628
 22
0.0175076628
 32
0.0
 13
-0.0706645512
 23
-0.0017663548
 33
0.0
 40
0.0
 40
0.0
 40
0.0
 40
0.0
 40
0.1598667399
 40
0.3105046165
 40
0.4514736351
 40
0.5182218842
 40
0.5824203531
 40
0.6440275902
 40
0.7030060953
 40
0.759321038
 40
0.812941323
 40
0.8638410547
 40
0.9119981181
 40
0.9573906717
 40
1.0
 40
1.0
 40
1.0
 40
1.0
 10
17.7388166915
 20
12.7469702092
 30
0.0
 10
17.7351672449
 20
12.7479031735
 30
0.0
 10
17.7280627268
 20
12.7496524604
 30
0.0
 10
17.7176837305
 20
12.7519876108
 30
0.0
 10
17.7094054383
 20
12.7536551094
 30
0.0
 10
17.7031008359
 20
12.7547965976
 30
0.0
 10
17.6986254676
 20
12.7555428379
 30
0.0
 10
17.6943204052
 20
12.7561944691
 30
0.0
 10
17.690189363
 20
12.7567510776
 30
0.0
 10
17.686235965
 20
12.7572122905
 30
0.0
 10
17.6824637324
 20
12.7575777434
 30
0.0
 10
17.6788761123
 20
12.757847102
 30
0.0
 10
17.6754765836
 20
12.7580200278
 30
0.0
 10
17.6722688776
 20
12.7580962498
 30
0.0
 10
17.6701949591
 20
12.7580819841
 30
0.0
 10
17.6691913027
 20
12.7580568964
 30
0.0
 11
17.7388166915
 21
12.7469702092
 31
0.0
 11
17.7278426267
 21
12.7496664751
 31
0.0
 11
17.7174527633
 21
12.7519972277
 31
0.0
 11
17.7076827408
 21
12.7539569197
 31
0.0
 11
17.703039802
 21
12.7547963301
 31
0.0
 11
17.6985634193
 21
12.7555414454
 31
0.0
 11
17.6942574449
 21
12.7561917787
 31
0.0
 11
17.6901255784
 21
12.7567469079
 31
0.0
 11
17.686171477
 21
12.757206429
 31
0.0
 11
17.6823987131
 21
12.7575699515
 31
0.0
 11
17.6788107152
 21
12.7578371085
 31
0.0
 11
17.6754109241
 21
12.7580075377
 31
0.0
 11
17.6722031166
 21
12.7580809051
 31
0.0
 11
17.6691913027
 21
12.7580568964
 31
0.0
  0
SPLINE
  5
333
100
AcDbEntity
  8
0
100
AcDbSpline
 62
7
  6
CONTINUOUS
 70
0
 71
3
 72
22
 73
18
 74
16
 42
0.0000001
 43
0.0000001
 44
0.0000000001
 12
0.0046258704
 22
-0.0115520777
 32
0.0
 13
0.0122503514
 23
0.0021858787
 33
0.0
 40
0.0
 40
0.0
 40
0.0
 40
0.0
 40
0.0669042566
 40
0.1301810783
 40
0.190323942
 40
0.2479081764
 40
0.3035909291
 40
0.3581013046
 40
0.4122150183
 40
0.4667303334
 40
0.5224396933
 40
0.5800984806
 40
0.7038475393
 40
0.7711798709
 40
0.8427350144
 40
0.9188981234
 40
1.0
 40
1.0
 40
1.0
 40
1.0
 10
17.6519471159
 20
12.8631827675
 30
0.0
 10
17.6520502794
 20
12.8629251398
 30
0.0
 10
17.6522663484
 20
12.8624297543
 30
0.0
 10
17.6526334607
 20
12.8617300095
 30
0.0
 10
17.6530357713
 20
12.8610949912
 30
0.0
 10
17.6534751142
 20
12.8605240805
 30
0.0
 10
17.6539532863
 20
12.8600167295
 30
0.0
 10
17.654471913
 20
12.8595724762
 30
0.0
 10
17.6550325052
 20
12.8591909612
 30
0.0
 10
17.6556364098
 20
12.8588718256
 30
0.0
 10
17.6562849276
 20
12.8586145246
 30
0.0
 10
17.6572328205
 20
12.8583467479
 30
0.0
 10
17.6582616964
 20
12.8582113644
 30
0.0
 10
17.6593512658
 20
12.8581888385
 30
0.0
 10
17.6602430395
 20
12.8582297706
 30
0.0
 10
17.6611874395
 20
12.8583285516
 30
0.0
 10
17.661832225
 20
12.8584293709
 30
0.0
 10
17.6621634005
 20
12.8584884639
 30
0.0
 11
17.6519471159
 21
12.8631827675
 31
0.0
 11
17.6522816227
 21
12.8624203779
 31
0.0
 11
17.6526490365
 21
12.8617239467
 31
0.0
 11
17.6530510104
 21
12.8610926529
 31
0.0
 11
17.653489197
 21
12.8605256752
 31
0.0
 11
17.6539652493
 21
12.8600221926
 31
0.0
 11
17.6544808196
 21
12.8595813942
 31
0.0
 11
17.655037554
 21
12.8592025925
 31
0.0
 11
17.6556370947
 21
12.8588851807
 31
0.0
 11
17.6562810838
 21
12.8586285534
 31
0.0
 11
17.6569711632
 21
12.8584321051
 31
0.0
 11
17.6584960362
 21
12.8582174043
 31
0.0
 11
17.6593336892
 21
12.8581982134
 31
0.0
 11
17.6602232535
 21
12.8582372594
 31
0.0
 11
17.6611660502
 21
12.8583341428
 31
0.0
 11
17.6621634005
 21
12.8584884639
 31
0.0
  0
SPLINE
  5
334
100
AcDbEntity
  8
0
100
AcDbSpline
 62
7
  6
CONTINUOUS
 70
0
 71
3
 72
22
 73
18
 74
16
 42
0.0000001
 43
0.0000001
 44
0.0000000001
 12
0.076538893
 22
0.0136571377
 32
0.0
 13
0.0755534701
 23
-0.0183410118
 33
0.0
 40
0.0
 40
0.0
 40
0.0
 40
0.0
 40
0.0373872456
 40
0.0781090463
 40
0.1222035238
 40
0.1696911545
 40
0.2205837267
 40
0.2748820625
 40
0.3325767612
 40
0.393650621
 40
0.4580806187
 40
0.5258363012
 40
0.5968830003
 40
0.6711836415
 40
0.7486993287
 40
0.829387787
 40
1.0
 40
1.0
 40
1.0
 40
1.0
 10
17.6621634005
 20
12.8584884639
 30
0.0
 10
17.66311726
 20
12.8586586648
 30
0.0
 10
17.6651221546
 20
12.8589479847
 30
0.0
 10
17.6682774331
 20
12.8592332928
 30
0.0
 10
17.6717037369
 20
12.8593881039
 30
0.0
 10
17.6753968028
 20
12.8594121722
 30
0.0
 10
17.6793528149
 20
12.8593053282
 30
0.0
 10
17.6835679719
 20
12.8590674194
 30
0.0
 10
17.6880383946
 20
12.8586982537
 30
0.0
 10
17.6927600715
 20
12.8581976109
 30
0.0
 10
17.6977288327
 20
12.8575653072
 30
0.0
 10
17.7029403625
 20
12.8568012229
 30
0.0
 10
17.7083902232
 20
12.8559052581
 30
0.0
 10
17.7140739417
 20
12.8548773096
 30
0.0
 10
17.7199870246
 20
12.8537172953
 30
0.0
 10
17.7283259905
 20
12.8519616396
 30
0.0
 10
17.7346722475
 20
12.8504948717
 30
0.0
 10
17.738969029
 20
12.8494518048
 30
0.0
 11
17.6621634005
 21
12.8584884639
 31
0.0
 11
17.6650392832
 21
12.8589111279
 31
0.0
 11
17.6681918635
 21
12.8592026496
 31
0.0
 11
17.6716163655
 21
12.859362878
 31
0.0
 11
17.6753083116
 21
12.859391684
 31
0.0
 11
17.6792637637
 21
12.859288979
 31
0.0
 11
17.6834788325
 21
12.8590546762
 31
0.0
 11
17.6879495097
 21
12.858688654
 31
0.0
 11
17.6926716922
 21
12.8581907633
 31
0.0
 11
17.6976412212
 21
12.8575608667
 31
0.0
 11
17.7028536757
 21
12.8567988872
 31
0.0
 11
17.7083045543
 21
12.8559047666
 31
0.0
 11
17.7139893623
 21
12.8548784393
 31
0.0
 11
17.7199036175
 21
12.8537198274
 31
0.0
 11
17.7260427041
 21
12.8524288852
 31
0.0
 11
17.738969029
 21
12.8494518048
 31
0.0
  0
SPLINE
  5
335
100
AcDbEntity
  8
0
100
AcDbSpline
 62
7
  6
CONTINUOUS
 70
0
 71
3
 72
18
 73
14
 74
12
 42
0.0000001
 43
0.0000001
 44
0.0000000001
 12
-0.0746406754
 22
0.0272380053
 32
0.0
 13
-0.0770343889
 23
0.0194638712
 33
0.0
 40
0.0
 40
0.0
 40
0.0
 40
0.0
 40
0.1661751097
 40
0.3217614561
 40
0.4661012163
 40
0.5986340821
 40
0.7188051857
 40
0.7740901286
 40
0.8260897132
 40
0.8747433396
 40
0.9199906027
 40
0.9617655848
 40
1.0
 40
1.0
 40
1.0
 40
1.0
 10
17.7388395275
 20
12.6075333595
 30
0.0
 10
17.7347050534
 20
12.609042119
 30
0.0
 10
17.7266911658
 20
12.6119405933
 30
0.0
 10
17.7150550157
 20
12.616063064
 30
0.0
 10
17.7042305264
 20
12.6198075109
 30
0.0
 10
17.6942631379
 20
12.62315936
 30
0.0
 10
17.6865050394
 20
12.6256800208
 30
0.0
 10
17.6807577356
 20
12.6274855091
 30
0.0
 10
17.6768087145
 20
12.6286949574
 30
0.0
 10
17.6731047762
 20
12.6297963901
 30
0.0
 10
17.6696509254
 20
12.6307882587
 30
0.0
 10
17.6664524679
 20
12.6316689973
 30
0.0
 10
17.6644022418
 20
12.6322050434
 30
0.0
 10
17.6634204535
 20
12.6324531066
 30
0.0
 11
17.7388395275
 21
12.6075333595
 31
0.0
 11
17.7264224135
 21
12.6120219411
 31
0.0
 11
17.7147689809
 21
12.6161475168
 31
0.0
 11
17.703929437
 21
12.6198934508
 31
0.0
 11
17.693946863
 21
12.623245802
 31
0.0
 11
17.6848641454
 21
12.6261907777
 31
0.0
 11
17.6806731129
 21
12.6275064079
 31
0.0
 11
17.6767223023
 21
12.6287153545
 31
0.0
 11
17.6730165379
 21
12.6298160897
 31
0.0
 11
17.6695606837
 21
12.6308070768
 31
0.0
 11
17.6663601047
 21
12.6316866581
 31
0.0
 11
17.6634204535
 21
12.6324531066
 31
0.0
  0
SPLINE
  5
336
100
AcDbEntity
  8
0
100
AcDbSpline
 62
7
  6
CONTINUOUS
 70
0
 71
3
 72
19
 73
15
 74
13
 42
0.0000001
 43
0.0000001
 44
0.0000000001
 12
0.0040993888
 22
-0.0159163242
 32
0.0
 13
0.0160039366
 23
-0.003742777
 33
0.0
 40
0.0
 40
0.0
 40
0.0
 40
0.0
 40
0.1482976264
 40
0.2845803776
 40
0.410857081
 40
0.4710648151
 40
0.5297894191
 40
0.5874470049
 40
0.6444869791
 40
0.7013837608
 40
0.7586164687
 40
0.8166524287
 40
0.8759507443
 40
1.0
 40
1.0
 40
1.0
 40
1.0
 10
17.6519455423
 20
12.7463454586
 30
0.0
 10
17.6521481855
 20
12.7455586743
 30
0.0
 10
17.6525898985
 20
12.7440613167
 30
0.0
 10
17.6534234588
 20
12.7419665684
 30
0.0
 10
17.6542622503
 20
12.7404039188
 30
0.0
 10
17.6550174548
 20
12.7392916502
 30
0.0
 10
17.6556186357
 20
12.7385324492
 30
0.0
 10
17.6562652163
 20
12.7378349261
 30
0.0
 10
17.6569588754
 20
12.737198833
 30
0.0
 10
17.6577011733
 20
12.7366239787
 30
0.0
 10
17.6584934753
 20
12.7361102046
 30
0.0
 10
17.6593371553
 20
12.7356574238
 30
0.0
 10
17.6605497763
 20
12.7351271152
 30
0.0
 10
17.6615153746
 20
12.7348337086
 30
0.0
 10
17.6621771334
 20
12.7346789457
 30
0.0
 11
17.6519455423
 21
12.7463454586
 31
0.0
 11
17.6526453848
 21
12.7440107069
 31
0.0
 11
17.6534840744
 21
12.7419337374
 31
0.0
 11
17.6544750838
 21
12.7401101666
 31
0.0
 11
17.6550319146
 21
12.7392921393
 31
0.0
 11
17.655631868
 21
12.7385360734
 31
0.0
 11
17.6562766221
 21
12.7378415763
 31
0.0
 11
17.6569678551
 21
12.7372082558
 31
0.0
 11
17.6577072432
 21
12.736635721
 31
0.0
 11
17.6584963433
 21
12.7361236971
 31
0.0
 11
17.6593365268
 21
12.735672088
 31
0.0
 11
17.6602291494
 21
12.7352808133
 31
0.0
 11
17.6621771334
 21
12.7346789457
 31
0.0
  0
SPLINE
  5
337
100
AcDbEntity
  8
0
100
AcDbSpline
 62
7
  6
CONTINUOUS
 70
0
 71
3
 72
19
 73
15
 74
13
 42
0.0000001
 43
0.0000001
 44
0.0000000001
 12
0.0786232451
 22
-0.0183873056
 32
0.0
 13
0.0759410434
 23
-0.0274347518
 33
0.0
 40
0.0
 40
0.0
 40
0.0
 40
0.0
 40
0.0366423566
 40
0.0769646975
 40
0.12091469
 40
0.1684419537
 40
0.2195017025
 40
0.2740488445
 40
0.3320361213
 40
0.3934145878
 40
0.5261405831
 40
0.6717952355
 40
0.8299349007
 40
1.0
 40
1.0
 40
1.0
 40
1.0
 10
17.6621771334
 20
12.7346789457
 30
0.0
 10
17.663137447
 20
12.7344543609
 30
0.0
 10
17.6651498859
 20
12.7339627372
 30
0.0
 10
17.6682992633
 20
12.7331422532
 30
0.0
 10
17.6717204601
 20
12.7322042417
 30
0.0
 10
17.6754091463
 20
12.7311498178
 30
0.0
 10
17.6793613046
 20
12.7299800372
 30
0.0
 10
17.683573066
 20
12.7286959358
 30
0.0
 10
17.6880405119
 20
12.7272985767
 30
0.0
 10
17.6945029737
 20
12.72523129
 30
0.0
 10
17.7031878278
 20
12.7223676836
 30
0.0
 10
17.7143102058
 20
12.7185818192
 30
0.0
 10
17.7263496739
 20
12.7143728023
 30
0.0
 10
17.7346671811
 20
12.7113974112
 30
0.0
 10
17.7389721548
 20
12.70984218
 30
0.0
 11
17.6621771334
 21
12.7346789457
 31
0.0
 11
17.6650518964
 21
12.7339793006
 31
0.0
 11
17.668203065
 21
12.7331604771
 31
0.0
 11
17.6716259396
 21
12.7322237761
 31
0.0
 11
17.6753161185
 21
12.7311704189
 31
0.0
 11
17.6792697379
 21
12.7300014834
 31
0.0
 11
17.683482983
 21
12.7287180336
 31
0.0
 11
17.6879519212
 21
12.7273211562
 31
0.0
 11
17.6926725266
 21
12.7258119563
 31
0.0
 11
17.7028521486
 21
12.7224611797
 31
0.0
 11
17.7139870378
 21
12.7186754629
 31
0.0
 11
17.7260417419
 21
12.7144647668
 31
0.0
 11
17.7389721548
 21
12.70984218
 31
0.0
  0
SPLINE
  5
338
100
AcDbEntity
  8
0
100
AcDbSpline
 62
7
  6
CONTINUOUS
 70
0
 71
3
 72
15
 73
11
 74
9
 42
0.0000001
 43
0.0000001
 44
0.0000000001
 12
-0.0707144934
 22
0.0331834869
 32
0.0
 13
-0.067517013
 23
0.0392827741
 33
0.0
 40
0.0
 40
0.0
 40
0.0
 40
0.0
 40
0.1554273679
 40
0.3030717542
 40
0.4424291659
 40
0.5730639463
 40
0.6945429114
 40
0.8064530845
 40
0.9084050662
 40
1.0
 40
1.0
 40
1.0
 40
1.0
 10
17.7388166915
 20
12.4328286843
 30
0.0
 10
17.7351530356
 20
12.4345478917
 30
0.0
 10
17.7280196117
 20
12.4379225165
 30
0.0
 10
17.7176405552
 20
12.4429209851
 30
0.0
 10
17.7078794834
 20
12.4477141979
 30
0.0
 10
17.6987687272
 20
12.4522852904
 30
0.0
 10
17.6903385751
 20
12.4566183235
 30
0.0
 10
17.6826182745
 20
12.4606976117
 30
0.0
 10
17.6756365585
 20
12.4645076664
 30
0.0
 10
17.6712527082
 20
12.4669940826
 30
0.0
 10
17.6691913027
 20
12.4681934503
 30
0.0
 11
17.7388166915
 21
12.4328286843
 31
0.0
 11
17.7278426267
 21
12.4380221741
 31
0.0
 11
17.7174527633
 21
12.4430282214
 31
0.0
 11
17.7076827408
 21
12.4478286725
 31
0.0
 11
17.6985634193
 21
12.4524075285
 31
0.0
 11
17.6901255784
 21
12.456748753
 31
0.0
 11
17.6823987131
 21
12.4608368265
 31
0.0
 11
17.6754109241
 21
12.4646569
 31
0.0
 11
17.6691913027
 21
12.4681934503
 31
0.0
  0
SPLINE
  5
339
100
AcDbEntity
  8
0
100
AcDbSpline
 62
7
  6
CONTINUOUS
 70
0
 71
3
 72
15
 73
11
 74
9
 42
0.0000001
 43
0.0000001
 44
0.0000000001
 12
0.0041439925
 22
-0.0210724489
 32
0.0
 13
0.0180610479
 23
-0.0116197817
 33
0.0
 40
0.0
 40
0.0
 40
0.0
 40
0.0
 40
0.1488227534
 40
0.2882939997
 40
0.4193397857
 40
0.5431451469
 40
0.6611942774
 40
0.7753030086
 40
0.8875010936
 40
1.0
 40
1.0
 40
1.0
 40
1.0
 10
17.6519471159
 20
12.6085597592
 30
0.0
 10
17.6521526894
 20
12.607514406
 30
0.0
 10
17.6526011425
 20
12.605498612
 30
0.0
 10
17.6534354651
 20
12.6026125859
 30
0.0
 10
17.6544227388
 20
12.599964628
 30
0.0
 10
17.6555774733
 20
12.5975531958
 30
0.0
 10
17.6569145179
 20
12.5953777473
 30
0.0
 10
17.658448016
 20
12.5934394883
 30
0.0
 10
17.6601894648
 20
12.5917416333
 30
0.0
 10
17.6614861178
 20
12.5907800796
 30
0.0
 10
17.6621634005
 20
12.590344342
 30
0.0
 11
17.6519471159
 21
12.6085597592
 31
0.0
 11
17.6526490365
 21
12.6054416632
 31
0.0
 11
17.653489197
 21
12.602566615
 31
0.0
 11
17.6544808196
 21
12.5999327531
 31
0.0
 11
17.6556370947
 21
12.5975384865
 31
0.0
 11
17.6569711632
 21
12.595382646
 31
0.0
 11
17.6584960362
 21
12.5934642542
 31
0.0
 11
17.6602232535
 21
12.591784148
 31
0.0
 11
17.6621634005
 21
12.590344342
 31
0.0
  0
SPLINE
  5
33A
100
AcDbEntity
  8
0
100
AcDbSpline
 62
7
  6
CONTINUOUS
 70
0
 71
3
 72
21
 73
17
 74
15
 42
0.0000001
 43
0.0000001
 44
0.0000000001
 12
0.0729798877
 22
-0.0469524451
 32
0.0
 13
0.0784028361
 23
-0.0371966586
 33
0.0
 40
0.0
 40
0.0
 40
0.0
 40
0.0
 40
0.0391817976
 40
0.0817150716
 40
0.1275451332
 40
0.1766194542
 40
0.2288914138
 40
0.2843140477
 40
0.3428379755
 40
0.40441192
 40
0.4689834385
 40
0.5364963853
 40
0.6068933021
 40
0.6801165803
 40
0.8348093349
 40
1.0
 40
1.0
 40
1.0
 40
1.0
 10
17.6621634005
 20
12.590344342
 30
0.0
 10
17.6631165616
 20
12.5897311149
 30
0.0
 10
17.6651168722
 20
12.5884715201
 30
0.0
 10
17.6682692858
 20
12.5865545149
 30
0.0
 10
17.6716934672
 20
12.584534377
 30
0.0
 10
17.6753850678
 20
12.5824137285
 30
0.0
 10
17.6793400355
 20
12.5801949857
 30
0.0
 10
17.6835544508
 20
12.5778804624
 30
0.0
 10
17.688024339
 20
12.5754725147
 30
0.0
 10
17.6927456318
 20
12.5729735591
 30
0.0
 10
17.6977141171
 20
12.5703860778
 30
0.0
 10
17.7029254435
 20
12.5677126081
 30
0.0
 10
17.7083751442
 20
12.5649557343
 30
0.0
 10
17.7160955328
 20
12.5611011832
 30
0.0
 10
17.7263071829
 20
12.5560982878
 30
0.0
 10
17.7346518902
 20
12.5520999034
 30
0.0
 10
17.738969029
 20
12.5500517231
 30
0.0
 11
17.6621634005
 21
12.590344342
 31
0.0
 11
17.6650392832
 21
12.5885304044
 31
0.0
 11
17.6681918635
 21
12.5866108513
 31
0.0
 11
17.6716163655
 21
12.5845884742
 31
0.0
 11
17.6753083116
 21
12.5824658849
 31
0.0
 11
17.6792637637
 21
12.5802453711
 31
0.0
 11
17.6834788325
 21
12.5779291913
 31
0.0
 11
17.6879495097
 21
12.5755196862
 31
0.0
 11
17.6926716922
 21
12.5730192617
 31
0.0
 11
17.6976412212
 21
12.570430351
 31
0.0
 11
17.7028536757
 21
12.5677555127
 31
0.0
 11
17.7083045543
 21
12.5649973443
 31
0.0
 11
17.7139893623
 21
12.5621584419
 31
0.0
 11
17.7260427041
 21
12.5562488755
 31
0.0
 11
17.738969029
 21
12.5500517231
 31
0.0
  0
SPLINE
  5
33B
100
AcDbEntity
  8
0
100
AcDbSpline
 62
7
  6
CONTINUOUS
 70
0
 71
3
 72
15
 73
11
 74
9
 42
0.0000001
 43
0.0000001
 44
0.0000000001
 12
0.0042360083
 22
-0.0269106191
 32
0.0
 13
0.0188450407
 23
-0.0196720519
 33
0.0
 40
0.0
 40
0.0
 40
0.0
 40
0.0
 40
0.1460884082
 40
0.2848481111
 40
0.4167361419
 40
0.5423517859
 40
0.6624638251
 40
0.7780320383
 40
0.8901334425
 40
1.0
 40
1.0
 40
1.0
 40
1.0
 10
17.6519455423
 20
12.4710909715
 30
0.0
 10
17.6521518195
 20
12.4697805284
 30
0.0
 10
17.6526026009
 20
12.4672325813
 30
0.0
 10
17.6534355602
 20
12.4635395329
 30
0.0
 10
17.6544213225
 20
12.4600765983
 30
0.0
 10
17.6555740033
 20
12.4568441522
 30
0.0
 10
17.6569079142
 20
12.453842864
 30
0.0
 10
17.6584371687
 20
12.4510745962
 30
0.0
 10
17.6601741355
 20
12.4485432259
 30
0.0
 10
17.6614869868
 20
12.4470074941
 30
0.0
 10
17.6621771334
 20
12.4462870605
 30
0.0
 11
17.6519455423
 21
12.4710909715
 31
0.0
 11
17.6526453848
 21
12.4671732522
 31
0.0
 11
17.6534840744
 21
12.4634873782
 31
0.0
 11
17.6544750838
 21
12.4600338637
 31
0.0
 11
17.655631868
 21
12.4568132957
 31
0.0
 11
17.6569678551
 21
12.4538263732
 31
0.0
 11
17.6584963433
 21
12.4510740003
 31
0.0
 11
17.6602291494
 21
12.44855935
 31
0.0
 11
17.6621771334
 21
12.4462870605
 31
0.0
  0
SPLINE
  5
33C
100
AcDbEntity
  8
0
100
AcDbSpline
 62
7
  6
CONTINUOUS
 70
0
 71
3
 72
17
 73
13
 74
11
 42
0.0000001
 43
0.0000001
 44
0.0000000001
 12
-0.075772232
 22
0.0495087693
 32
0.0
 13
-0.0593314025
 23
0.0683544736
 33
0.0
 40
0.0
 40
0.0
 40
0.0
 40
0.0
 40
0.1460133425
 40
0.2867286044
 40
0.4217347369
 40
0.5506912171
 40
0.6732700966
 40
0.7891764348
 40
0.8445504311
 40
0.8981662427
 40
0.9499933024
 40
1.0
 40
1.0
 40
1.0
 40
1.0
 10
17.7388166915
 20
12.091414934
 30
0.0
 10
17.7351287725
 20
12.093824581
 30
0.0
 10
17.7279427637
 20
12.0986429648
 30
0.0
 10
17.7175583746
 20
12.1059985005
 30
0.0
 10
17.7077910054
 20
12.1133272575
 30
0.0
 10
17.6986727071
 20
12.1206011815
 30
0.0
 10
17.6902336997
 20
12.1277934663
 30
0.0
 10
17.683695131
 20
12.1337847784
 30
0.0
 10
17.6788357457
 20
12.1385211156
 30
0.0
 10
17.675435013
 20
12.1419824631
 30
0.0
 10
17.6722261082
 20
12.145403494
 30
0.0
 10
17.6701802919
 20
12.1476962867
 30
0.0
 10
17.6691913027
 20
12.1488356805
 30
0.0
 11
17.7388166915
 21
12.091414934
 31
0.0
 11
17.7278426267
 21
12.0987793216
 31
0.0
 11
17.7174527633
 21
12.1061461151
 31
0.0
 11
17.7076827408
 21
12.1134856954
 31
0.0
 11
17.6985634193
 21
12.1207711754
 31
0.0
 11
17.6901255784
 21
12.1279753866
 31
0.0
 11
17.6823987131
 21
12.1350716215
 31
0.0
 11
17.6788107152
 21
12.1385711811
 31
0.0
 11
17.6754109241
 21
12.1420341531
 31
0.0
 11
17.6722031166
 21
12.1454569473
 31
0.0
 11
17.6691913027
 21
12.1488356805
 31
0.0
  0
SPLINE
  5
33D
100
AcDbEntity
  8
0
100
AcDbSpline
 62
7
  6
CONTINUOUS
 70
0
 71
3
 72
15
 73
11
 74
9
 42
0.0000001
 43
0.0000001
 44
0.0000000001
 12
0.0043863922
 22
-0.0322545885
 32
0.0
 13
0.0187007648
 23
-0.0266435792
 33
0.0
 40
0.0
 40
0.0
 40
0.0
 40
0.0
 40
0.1423870189
 40
0.2791299303
 40
0.4104467684
 40
0.5366458159
 40
0.658143835
 40
0.7754708412
 40
0.889201818
 40
1.0
 40
1.0
 40
1.0
 40
1.0
 10
17.6519471159
 20
12.3156226958
 30
0.0
 10
17.6521553044
 20
12.3140918176
 30
0.0
 10
17.6526105269
 20
12.3110968126
 30
0.0
 10
17.6534455101
 20
12.3067210235
 30
0.0
 10
17.6544320918
 20
12.3025567851
 30
0.0
 10
17.6555838401
 20
12.2986067328
 30
0.0
 10
17.6569143095
 20
12.2948734745
 30
0.0
 10
17.6584369053
 20
12.2913606057
 30
0.0
 10
17.660163476
 20
12.2880735887
 30
0.0
 10
17.6614727303
 20
12.2860147267
 30
0.0
 10
17.6621634005
 20
12.2850307066
 30
0.0
 11
17.6519471159
 21
12.3156226958
 31
0.0
 11
17.6526490365
 21
12.3110412459
 31
0.0
 11
17.653489197
 21
12.3066700708
 31
0.0
 11
17.6544808196
 21
12.3025121234
 31
0.0
 11
17.6556370947
 21
12.2985702442
 31
0.0
 11
17.6569711632
 21
12.2948470983
 31
0.0
 11
17.6584960362
 21
12.291345555
 31
0.0
 11
17.6602232535
 21
12.2880710548
 31
0.0
 11
17.6621634005
 21
12.2850307066
 31
0.0
  0
LINE
  5
33E
100
AcDbEntity
  8
0
100
AcDbLine
 62
7
  6
CONTINUOUS
 10
17.7389721548
 20
12.0477677813
 11
17.7388395275
 21
11.9314849623
  0
SPLINE
  5
33F
100
AcDbEntity
  8
0
100
AcDbSpline
 62
7
  6
CONTINUOUS
 70
0
 71
3
 72
19
 73
15
 74
13
 42
0.0000001
 43
0.0000001
 44
0.0000000001
 12
-0.0869861336
 22
0.0638478893
 32
0.0
 13
-0.056248251
 23
0.0920829771
 33
0.0
 40
0.0
 40
0.0
 40
0.0
 40
0.0
 40
0.1445617217
 40
0.284384654
 40
0.4188993468
 40
0.5476602025
 40
0.6097999087
 40
0.670402827
 40
0.7294416557
 40
0.7868851408
 40
0.8426951093
 40
0.896836618
 40
0.9492796273
 40
1.0
 40
1.0
 40
1.0
 40
1.0
 10
17.7388395275
 20
11.9314849623
 30
0.0
 10
17.7346479057
 20
11.9345616159
 30
0.0
 10
17.7265060402
 20
11.9407574798
 30
0.0
 10
17.714856277
 20
11.9503177357
 30
0.0
 10
17.7040126151
 20
11.9599476081
 30
0.0
 10
17.6955922953
 20
11.9680833624
 30
0.0
 10
17.6893086651
 20
11.9745917972
 30
0.0
 10
17.6848813826
 20
11.9794039876
 30
0.0
 10
17.6806884297
 20
11.9841995074
 30
0.0
 10
17.6767348765
 20
11.9889725109
 30
0.0
 10
17.6730260863
 20
11.9937164956
 30
0.0
 10
17.6695676943
 20
11.9984247429
 30
0.0
 10
17.6663654164
 20
12.0030903978
 30
0.0
 10
17.6643714309
 20
12.0062207727
 30
0.0
 10
17.6634204535
 20
12.0077776004
 30
0.0
 11
17.7388395275
 21
11.9314849623
 31
0.0
 11
17.7264305801
 21
11.9409368107
 31
0.0
 11
17.7147734771
 21
11.9505149427
 31
0.0
 11
17.7039282889
 21
11.9601614567
 31
0.0
 11
17.6939458439
 21
11.9698251302
 31
0.0
 11
17.6892900664
 21
11.9746502619
 31
0.0
 11
17.684864083
 21
11.9794640538
 31
0.0
 11
17.6806725245
 21
11.9842613418
 31
0.0
 11
17.6767204349
 21
11.9890363273
 31
0.0
 11
17.6730134736
 21
11.9937822666
 31
0.0
 11
17.6695573499
 21
11.9984923389
 31
0.0
 11
17.6663577734
 21
12.0031597237
 31
0.0
 11
17.6634204535
 21
12.0077776004
 31
0.0
  0
SPLINE
  5
340
100
AcDbEntity
  8
0
100
AcDbSpline
 62
7
  6
CONTINUOUS
 70
0
 71
3
 72
22
 73
18
 74
16
 42
0.0000001
 43
0.0000001
 44
0.0000000001
 12
-0.0373845616
 22
0.0612015781
 32
0.0
 13
0.0
 23
0.0717163761
 33
0.0
 40
0.0
 40
0.0
 40
0.0
 40
0.0
 40
0.047139608
 40
0.0962152672
 40
0.1473468117
 40
0.2006355511
 40
0.2561583978
 40
0.3139522151
 40
0.3740179855
 40
0.436326268
 40
0.5008117512
 40
0.5673836182
 40
0.6358957789
 40
0.7061719724
 40
0.7779981957
 40
0.8511275647
 40
1.0
 40
1.0
 40
1.0
 40
1.0
 10
17.6634204535
 20
12.0077776004
 30
0.0
 10
17.6628330223
 20
12.0087392732
 30
0.0
 10
17.6617141063
 20
12.0107518778
 30
0.0
 10
17.6602261194
 20
12.0139472823
 30
0.0
 10
17.658890842
 20
12.0173674945
 30
0.0
 10
17.6577015781
 20
12.0210031764
 30
0.0
 10
17.656650388
 20
12.0248461809
 30
0.0
 10
17.655729258
 20
12.0288884495
 30
0.0
 10
17.6549298667
 20
12.0331214961
 30
0.0
 10
17.654244103
 20
12.0375361958
 30
0.0
 10
17.6536636522
 20
12.0421226338
 30
0.0
 10
17.65318038
 20
12.0468693061
 30
0.0
 10
17.6527868049
 20
12.0517630539
 30
0.0
 10
17.6524755839
 20
12.0567885091
 30
0.0
 10
17.6522406654
 20
12.061928568
 30
0.0
 10
17.6520212324
 20
12.0689493959
 30
0.0
 10
17.6519592365
 20
12.0742568101
 30
0.0
 10
17.6519592365
 20
12.0778156739
 30
0.0
 11
17.6634204535
 21
12.0077776004
 31
0.0
 11
17.661771975
 21
12.0107291302
 31
0.0
 11
17.6602805153
 21
12.013917018
 31
0.0
 11
17.6589412443
 21
12.0173306693
 31
0.0
 11
17.6577475776
 21
12.0209611461
 31
0.0
 11
17.6566918333
 21
12.0248005355
 31
0.0
 11
17.6557661478
 21
12.0288406057
 31
0.0
 11
17.6549624291
 21
12.0330726632
 31
0.0
 11
17.6542725502
 21
12.0374876123
 31
0.0
 11
17.6536883264
 21
12.0420752272
 31
0.0
 11
17.6532016486
 21
12.0468246502
 31
0.0
 11
17.6528050272
 21
12.0517220599
 31
0.0
 11
17.6524912971
 21
12.0567522398
 31
0.0
 11
17.6522543543
 21
12.0618979038
 31
0.0
 11
17.6520890609
 21
12.0671398717
 31
0.0
 11
17.6519592365
 21
12.0778156739
 31
0.0
  0
LINE
  5
341
100
AcDbEntity
  8
0
100
AcDbLine
 62
7
  6
CONTINUOUS
 10
17.6519592365
 20
12.0778156739
 11
17.6519455423
 21
12.1661600988
  0
SPLINE
  5
342
100
AcDbEntity
  8
0
100
AcDbSpline
 62
7
  6
CONTINUOUS
 70
0
 71
3
 72
14
 73
10
 74
8
 42
0.0000001
 43
0.0000001
 44
0.0000000001
 12
0.0044823728
 22
-0.037758923
 32
0.0
 13
0.0185581168
 23
-0.0331877121
 33
0.0
 40
0.0
 40
0.0
 40
0.0
 40
0.0
 40
0.1394097602
 40
0.2743815638
 40
0.4049921035
 40
0.5313852092
 40
0.6537871345
 40
0.7724990859
 40
1.0
 40
1.0
 40
1.0
 40
1.0
 10
17.6519455423
 20
12.1661600988
 30
0.0
 10
17.6521538378
 20
12.1644054446
 30
0.0
 10
17.6526099051
 20
12.1609571963
 30
0.0
 10
17.653443751
 20
12.1558912685
 30
0.0
 10
17.6544299087
 20
12.1510206214
 30
0.0
 10
17.6555820106
 20
12.1463502818
 30
0.0
 10
17.6569139728
 20
12.1418842127
 30
0.0
 10
17.6589178802
 20
12.1362915017
 30
0.0
 10
17.6607698039
 20
12.1322940556
 30
0.0
 10
17.6621771334
 20
12.1297773107
 30
0.0
 11
17.6519455423
 21
12.1661600988
 31
0.0
 11
17.6526453848
 21
12.1609055765
 31
0.0
 11
17.6534840744
 21
12.155842395
 31
0.0
 11
17.6544750838
 21
12.150975934
 31
0.0
 11
17.655631868
 21
12.1463112512
 31
0.0
 11
17.6569678551
 21
12.1418529032
 31
0.0
 11
17.6584963433
 21
12.1376056577
 31
0.0
 11
17.6621771334
 21
12.1297773107
 31
0.0
  0
LINE
  5
343
100
AcDbEntity
  8
0
100
AcDbLine
 62
7
  6
CONTINUOUS
 10
17.6519592365
 20
11.919765006
 11
17.6519471159
 21
12.0027778902
  0
SPLINE
  5
344
100
AcDbEntity
  8
0
100
AcDbSpline
 62
7
  6
CONTINUOUS
 70
0
 71
3
 72
15
 73
11
 74
9
 42
0.0000001
 43
0.0000001
 44
0.0000000001
 12
-0.093236324
 22
0.0796795821
 32
0.0
 13
-0.0508317753
 23
0.111615315
 33
0.0
 40
0.0
 40
0.0
 40
0.0
 40
0.0
 40
0.1359176675
 40
0.2692764271
 40
0.3997307685
 40
0.5270150354
 40
0.6508767534
 40
0.7711009982
 40
0.8875275422
 40
1.0
 40
1.0
 40
1.0
 40
1.0
 10
17.7388395275
 20
11.5889088073
 30
0.0
 10
17.7346153729
 20
11.5925187616
 30
0.0
 10
17.7264095959
 20
11.5998642537
 30
0.0
 10
17.7147574599
 20
11.6113304245
 30
0.0
 10
17.7039149999
 20
11.623090163
 30
0.0
 10
17.69392717
 20
11.6350832263
 30
0.0
 10
17.6848361656
 20
11.6472519954
 30
0.0
 10
17.6766821715
 20
11.6595392252
 30
0.0
 10
17.6695061616
 20
11.6718865779
 30
0.0
 10
17.6653261784
 20
11.6802681382
 30
0.0
 10
17.6634204535
 20
11.6844526878
 30
0.0
 11
17.7388395275
 21
11.5889088073
 31
0.0
 11
17.7264224135
 21
11.6000305224
 31
0.0
 11
17.7147689809
 21
11.6115070261
 31
0.0
 11
17.703929437
 21
11.6232752672
 31
0.0
 11
17.693946863
 21
11.6352771618
 31
0.0
 11
17.6848641454
 21
11.6474538666
 31
0.0
 11
17.6767223023
 21
11.6597470879
 31
0.0
 11
17.6695606837
 21
11.6721004509
 31
0.0
 11
17.6634204535
 21
11.6844526878
 31
0.0
  0
SPLINE
  5
345
100
AcDbEntity
  8
0
100
AcDbSpline
 62
7
  6
CONTINUOUS
 70
0
 71
3
 72
15
 73
11
 74
9
 42
0.0000001
 43
0.0000001
 44
0.0000000001
 12
-0.0852719524
 22
0.0758488455
 32
0.0
 13
-0.0501504421
 23
0.1025148106
 33
0.0
 40
0.0
 40
0.0
 40
0.0
 40
0.0
 40
0.131344384
 40
0.2612800812
 40
0.3895659443
 40
0.5160135066
 40
0.6404362728
 40
0.7626666877
 40
0.8825689676
 40
1.0
 40
1.0
 40
1.0
 40
1.0
 10
17.7388166915
 20
11.4129455717
 30
0.0
 10
17.7350833608
 20
11.416266345
 30
0.0
 10
17.7278028369
 20
11.4230387463
 30
0.0
 10
17.7174140147
 20
11.4336140667
 30
0.0
 10
17.7076426003
 20
11.444513968
 30
0.0
 10
17.6985208536
 20
11.455693792
 30
0.0
 10
17.6900791346
 20
11.4671105891
 30
0.0
 10
17.682346444
 20
11.4787215258
 30
0.0
 10
17.6753520383
 20
11.4904830806
 30
0.0
 10
17.6711543754
 20
11.4984824453
 30
0.0
 10
17.6691913027
 20
11.502495252
 30
0.0
 11
17.7388166915
 21
11.4129455717
 31
0.0
 11
17.7278426267
 21
11.42315623
 31
0.0
 11
17.7174527633
 21
11.433736618
 31
0.0
 11
17.7076827408
 21
11.4446403725
 31
0.0
 11
17.6985634193
 21
11.4558244763
 31
0.0
 11
17.6901255784
 21
11.4672452107
 31
0.0
 11
17.6823987131
 21
11.4788591232
 31
0.0
 11
17.6754109241
 21
11.4906241628
 31
0.0
 11
17.6691913027
 21
11.502495252
 31
0.0
  0
SPLINE
  5
346
100
AcDbEntity
  8
0
100
AcDbSpline
 62
7
  6
CONTINUOUS
 70
0
 71
3
 72
22
 73
18
 74
16
 42
0.0000001
 43
0.0000001
 44
0.0000000001
 12
-0.0481690931
 22
0.0984646444
 32
0.0
 13
-0.0
 23
0.1096154538
 33
0.0
 40
0.0
 40
0.0
 40
0.0
 40
0.0
 40
0.056874554
 40
0.1148928127
 40
0.1740114129
 40
0.2342032115
 40
0.2954244814
 40
0.3576056988
 40
0.4206546676
 40
0.4844585876
 40
0.5488838509
 40
0.6137658399
 40
0.6789166056
 40
0.7441079213
 40
0.8736002073
 40
0.9373500399
 40
1.0
 40
1.0
 40
1.0
 40
1.0
 10
17.6691913027
 20
11.502495252
 30
0.0
 10
17.6682781042
 20
11.5043619629
 30
0.0
 10
17.6665447364
 20
11.5081882901
 30
0.0
 10
17.6642327746
 20
11.5141139208
 30
0.0
 10
17.6621732695
 20
11.520259701
 30
0.0
 10
17.6603535839
 20
11.5266020702
 30
0.0
 10
17.6587599434
 20
11.5331199027
 30
0.0
 10
17.6573774377
 20
11.5397921069
 30
0.0
 10
17.6561911859
 20
11.5465975431
 30
0.0
 10
17.6551855905
 20
11.5535146619
 30
0.0
 10
17.6543451295
 20
11.5605210708
 30
0.0
 10
17.6536547594
 20
11.5675931573
 30
0.0
 10
17.6530996126
 20
11.5747051237
 30
0.0
 10
17.6525238001
 20
11.5841819485
 30
0.0
 10
17.6521649228
 20
11.5936193616
 30
0.0
 10
17.6519885012
 20
11.6029677413
 30
0.0
 10
17.6519592365
 20
11.6075862645
 30
0.0
 10
17.6519592365
 20
11.6098753991
 30
0.0
 11
17.6691913027
 21
11.502495252
 31
0.0
 11
17.6666126846
 21
11.508171307
 31
0.0
 11
17.6642954477
 21
11.5140938207
 31
0.0
 11
17.6622306834
 21
11.520236393
 31
0.0
 11
17.6604057185
 21
11.5265769343
 31
0.0
 11
17.6588067093
 21
11.5330944469
 31
0.0
 11
17.6574190541
 21
11.53976772
 31
0.0
 11
17.6562278272
 21
11.5465754254
 31
0.0
 11
17.6552175893
 21
11.5534959742
 31
0.0
 11
17.6543728601
 21
11.5605072751
 31
0.0
 11
17.6536785886
 21
11.5675853756
 31
0.0
 11
17.6531201647
 21
11.5747050402
 31
0.0
 11
17.6526843581
 21
11.5818377144
 31
0.0
 11
17.6521343028
 21
11.5960214083
 31
0.0
 11
17.6520024659
 21
11.6030081314
 31
0.0
 11
17.6519592365
 21
11.6098753991
 31
0.0
  0
SPLINE
  5
347
100
AcDbEntity
  8
0
100
AcDbSpline
 62
7
  6
CONTINUOUS
 70
0
 71
3
 72
14
 73
10
 74
8
 42
0.0000001
 43
0.0000001
 44
0.0000000001
 12
0.0048010093
 22
-0.0498837707
 32
0.0
 13
0.0175456862
 23
-0.0469424026
 33
0.0
 40
0.0
 40
0.0
 40
0.0
 40
0.0
 40
0.1318601368
 40
0.2619047392
 40
0.3900127018
 40
0.5161058453
 40
0.7621501155
 40
0.8821205446
 40
1.0
 40
1.0
 40
1.0
 40
1.0
 10
17.6519471159
 20
11.6896825322
 30
0.0
 10
17.6521581365
 20
11.6874899719
 30
0.0
 10
17.6526207079
 20
11.6831390407
 30
0.0
 10
17.6534571291
 20
11.6766773035
 30
0.0
 10
17.6544449139
 20
11.6703340895
 30
0.0
 10
17.6559689772
 20
11.6621170914
 30
0.0
 10
17.6578548465
 20
11.6541070559
 30
0.0
 10
17.6601716263
 20
11.6463609091
 30
0.0
 10
17.6614739752
 20
11.6426054218
 30
0.0
 10
17.6621634005
 20
11.6407609068
 30
0.0
 11
17.6519471159
 21
11.6896825322
 31
0.0
 11
17.6526490365
 21
11.6831118427
 31
0.0
 11
17.653489197
 21
11.6766491343
 31
0.0
 11
17.6544808196
 21
11.670306141
 31
0.0
 11
17.6556370947
 21
11.6640937643
 31
0.0
 11
17.6584960362
 21
11.652099454
 31
0.0
 11
17.6602232535
 21
11.6463406661
 31
0.0
 11
17.6621634005
 21
11.6407609068
 31
0.0
  0
SPLINE
  5
348
100
AcDbEntity
  8
0
100
AcDbSpline
 62
7
  6
CONTINUOUS
 70
0
 71
3
 72
15
 73
11
 74
9
 42
0.0000001
 43
0.0000001
 44
0.0000000001
 12
0.0479246103
 22
-0.1282193427
 32
0.0
 13
0.0996110509
 23
-0.0938861366
 33
0.0
 40
0.0
 40
0.0
 40
0.0
 40
0.0
 40
0.1156752327
 40
0.2342851224
 40
0.3557148452
 40
0.4798571808
 40
0.6065577721
 40
0.7356282603
 40
0.8668693658
 40
1.0
 40
1.0
 40
1.0
 40
1.0
 10
17.6621634005
 20
11.6407609068
 30
0.0
 10
17.6640112974
 20
11.6358169727
 30
0.0
 10
17.66809347
 20
11.625927564
 30
0.0
 10
17.6752227183
 20
11.6113360252
 30
0.0
 10
17.6834047032
 20
11.5968620665
 30
0.0
 10
17.6926059089
 20
11.5825733691
 30
0.0
 10
17.7027937462
 20
11.5685377801
 30
0.0
 10
17.7139333573
 20
11.554825163
 30
0.0
 10
17.725986461
 20
11.5415104774
 30
0.0
 10
17.7345486016
 20
11.5330040944
 30
0.0
 10
17.738969029
 20
11.5288377208
 30
0.0
 11
17.6621634005
 21
11.6407609068
 31
0.0
 11
17.6681918635
 21
11.6261194418
 31
0.0
 11
17.6753083116
 21
11.6115265132
 31
0.0
 11
17.6834788325
 21
11.5970516208
 31
0.0
 11
17.6926716922
 21
11.5827599192
 31
0.0
 11
17.7028536757
 21
11.5687202431
 31
0.0
 11
17.7139893623
 21
11.5550038582
 31
0.0
 11
17.7260427041
 21
11.5416829439
 31
0.0
 11
17.738969029
 21
11.5288377208
 31
0.0
  0
SPLINE
  5
349
100
AcDbEntity
  8
0
100
AcDbSpline
 62
7
  6
CONTINUOUS
 70
0
 71
3
 72
19
 73
15
 74
13
 42
0.0000001
 43
0.0000001
 44
0.0000000001
 12
-0.0297238951
 22
0.0777727613
 32
0.0
 13
-0.0
 23
0.0832593078
 33
0.0
 40
0.0
 40
0.0
 40
0.0
 40
0.0
 40
0.0587537218
 40
0.118650006
 40
0.1795756289
 40
0.2414316085
 40
0.3675191644
 40
0.4959041239
 40
0.5605507169
 40
0.6252406964
 40
0.6897406134
 40
0.7537978736
 40
0.8795012604
 40
1.0
 40
1.0
 40
1.0
 40
1.0
 10
17.6634204535
 20
11.380878766
 30
0.0
 10
17.6628383237
 20
11.3824019124
 30
0.0
 10
17.661730735
 20
11.38550418
 30
0.0
 10
17.6602431227
 20
11.3902619379
 30
0.0
 10
17.6589073982
 20
11.3951538009
 30
0.0
 10
17.6573103099
 20
11.4018745821
 30
0.0
 10
17.6556698411
 20
11.4105040409
 30
0.0
 10
17.6544459751
 20
11.4192785441
 30
0.0
 10
17.653671933
 20
11.4263894375
 30
0.0
 10
17.6531873227
 20
11.431747421
 30
0.0
 10
17.6527924855
 20
11.437096296
 30
0.0
 10
17.6523786337
 20
11.4441408892
 30
0.0
 10
17.6520504605
 20
11.4527463056
 30
0.0
 10
17.6519592365
 20
11.4595793906
 30
0.0
 10
17.6519592365
 20
11.4629236045
 30
0.0
 11
17.6634204535
 21
11.380878766
 31
0.0
 11
17.661771975
 21
11.385484433
 31
0.0
 11
17.6602805153
 21
11.3902431041
 31
0.0
 11
17.6589412443
 21
11.3951357394
 31
0.0
 11
17.6577475776
 21
11.4001455843
 31
0.0
 11
17.6557661478
 21
11.4104548595
 31
0.0
 11
17.6542725502
 21
11.4210392385
 31
0.0
 11
17.6536883264
 21
11.4263898685
 31
0.0
 11
17.6532016486
 21
11.4317538785
 31
0.0
 11
17.6528050272
 21
11.4371094305
 31
0.0
 11
17.6524912971
 21
11.4424335582
 31
0.0
 11
17.6520890609
 21
11.4528918028
 31
0.0
 11
17.6519592365
 21
11.4629236045
 31
0.0
  0
SPLINE
  5
34A
100
AcDbEntity
  8
0
100
AcDbSpline
 62
7
  6
CONTINUOUS
 70
0
 71
3
 72
12
 73
8
 74
6
 42
0.0000001
 43
0.0000001
 44
0.0000000001
 12
0.0048700262
 22
-0.0529916163
 32
0.0
 13
0.0173456766
 23
-0.0503086081
 33
0.0
 40
0.0
 40
0.0
 40
0.0
 40
0.0
 40
0.2585275255
 40
0.511820459
 40
0.75913222
 40
0.8804199899
 40
1.0
 40
1.0
 40
1.0
 40
1.0
 10
17.6519455423
 20
11.5445696967
 30
0.0
 10
17.6523652209
 20
11.5400030995
 30
0.0
 10
17.6533643418
 20
11.5309761995
 30
0.0
 10
17.6554828749
 20
11.5176723413
 30
0.0
 10
17.6578603985
 20
11.5068910797
 30
0.0
 10
17.6601802407
 20
11.4985463477
 30
0.0
 10
17.6614857347
 20
11.4944765505
 30
0.0
 10
17.6621771334
 20
11.4924712492
 30
0.0
 11
17.6519455423
 21
11.5445696967
 31
0.0
 11
17.6534840744
 21
11.5308984723
 31
0.0
 11
17.655631868
 21
11.5175917265
 31
0.0
 11
17.6584963433
 21
11.5047465634
 31
0.0
 11
17.6602291494
 21
11.4985291983
 31
0.0
 11
17.6621771334
 21
11.4924712492
 31
0.0
  0
SPLINE
  5
34B
100
AcDbEntity
  8
0
100
AcDbSpline
 62
7
  6
CONTINUOUS
 70
0
 71
3
 72
15
 73
11
 74
9
 42
0.0000001
 43
0.0000001
 44
0.0000000001
 12
0.046538742
 22
-0.1349788421
 32
0.0
 13
0.1021396646
 23
-0.0997628751
 33
0.0
 40
0.0
 40
0.0
 40
0.0
 40
0.0
 40
0.1186232604
 40
0.2393418878
 40
0.3620283261
 40
0.4865725981
 40
0.6128254644
 40
0.7406118977
 40
0.8697535242
 40
1.0
 40
1.0
 40
1.0
 40
1.0
 10
17.6621771334
 20
11.4924712492
 30
0.0
 10
17.6640173258
 20
11.4871340391
 30
0.0
 10
17.6680798799
 20
11.4764827936
 30
0.0
 10
17.6752024467
 20
11.4607833082
 30
0.0
 10
17.6833780214
 20
11.4452858674
 30
0.0
 10
17.6925736836
 20
11.4300631057
 30
0.0
 10
17.7027574586
 20
11.4151879439
 30
0.0
 10
17.7138950909
 20
11.4007354831
 30
0.0
 10
17.7259488889
 20
11.386786313
 30
0.0
 10
17.734537711
 20
11.3779082722
 30
0.0
 10
17.7389721548
 20
11.3735770179
 30
0.0
 11
17.6621771334
 21
11.4924712492
 31
0.0
 11
17.668203065
 21
11.4766428813
 31
0.0
 11
17.6753161185
 21
11.4609432991
 31
0.0
 11
17.683482983
 21
11.4454468893
 31
0.0
 11
17.6926725266
 21
11.4302234912
 31
0.0
 11
17.7028521486
 21
11.4153469961
 31
0.0
 11
17.7139870378
 21
11.4008939402
 31
0.0
 11
17.7260417419
 21
11.3869419318
 31
0.0
 11
17.7389721548
 21
11.3735770179
 31
0.0
  0
SPLINE
  5
34C
100
AcDbEntity
  8
0
100
AcDbSpline
 62
7
  6
CONTINUOUS
 70
0
 71
3
 72
13
 73
9
 74
7
 42
0.0000001
 43
0.0000001
 44
0.0000000001
 12
-0.0885417372
 22
0.0820456974
 32
0.0
 13
-0.0479569186
 23
0.1107757629
 33
0.0
 40
0.0
 40
0.0
 40
0.0
 40
0.0
 40
0.2536815119
 40
0.3799876519
 40
0.5057137108
 40
0.6307155031
 40
0.7548574206
 40
1.0
 40
1.0
 40
1.0
 40
1.0
 10
17.7388166915
 20
11.118520685
 30
0.0
 10
17.7313295576
 20
11.1254585105
 30
0.0
 10
17.720639799
 20
11.1364395161
 30
0.0
 10
17.7075964139
 20
11.1520652818
 30
0.0
 10
17.6984752599
 20
11.1641965214
 30
0.0
 10
17.6900348512
 20
11.1767061767
 30
0.0
 10
17.6797733416
 20
11.1937496673
 30
0.0
 10
17.6731100636
 20
11.2070725874
 30
0.0
 10
17.6691913027
 20
11.2161245395
 30
0.0
 11
17.7388166915
 21
11.118520685
 31
0.0
 11
17.7174527633
 21
11.1404591888
 31
0.0
 11
17.7076827408
 21
11.1521640382
 31
0.0
 11
17.6985634193
 21
11.164295177
 31
0.0
 11
17.6901255784
 21
11.1768045081
 31
0.0
 11
17.6823987131
 21
11.1896440746
 31
0.0
 11
17.6691913027
 21
11.2161245395
 31
0.0
  0
SPLINE
  5
34D
100
AcDbEntity
  8
0
100
AcDbSpline
 62
7
  6
CONTINUOUS
 70
0
 71
3
 72
20
 73
16
 74
14
 42
0.0000001
 43
0.0000001
 44
0.0000000001
 12
-0.0438493297
 22
0.1012876368
 32
0.0
 13
0.0
 23
0.1103718672
 33
0.0
 40
0.0
 40
0.0
 40
0.0
 40
0.0
 40
0.0622313417
 40
0.1251658682
 40
0.1886816388
 40
0.2526838184
 40
0.3170681345
 40
0.3817079589
 40
0.4464578048
 40
0.5111542481
 40
0.6396264844
 40
0.7653741071
 40
0.8862717983
 40
0.9441888086
 40
1.0
 40
1.0
 40
1.0
 40
1.0
 10
17.6691913027
 20
11.2161245395
 30
0.0
 10
17.6682817018
 20
11.218225628
 30
0.0
 10
17.6665553957
 20
11.2224968846
 30
0.0
 10
17.6642432838
 20
11.2290443384
 30
0.0
 10
17.6621833388
 20
11.2357434909
 30
0.0
 10
17.6603629834
 20
11.242566544
 30
0.0
 10
17.6587685774
 20
11.2494881067
 30
0.0
 10
17.6573852495
 20
11.2564827327
 30
0.0
 10
17.6561981475
 20
11.2635248006
 30
0.0
 10
17.6548595735
 20
11.2729197353
 30
0.0
 10
17.6536021861
 20
11.2845890582
 30
0.0
 10
17.6526267152
 20
11.2983576146
 30
0.0
 10
17.6521684726
 20
11.3095548715
 30
0.0
 10
17.6519893754
 20
11.3181852294
 30
0.0
 10
17.6519592365
 20
11.3223694199
 30
0.0
 10
17.6519592365
 20
11.3244227484
 30
0.0
 11
17.6691913027
 21
11.2161245395
 31
0.0
 11
17.6666126846
 21
11.2224907196
 31
0.0
 11
17.6642954477
 21
11.2290390113
 31
0.0
 11
17.6622306834
 21
11.2357384004
 31
0.0
 11
17.6604057185
 21
11.2425626341
 31
0.0
 11
17.6588067093
 21
11.2494866136
 31
0.0
 11
17.6574190541
 21
11.2564847801
 31
0.0
 11
17.6562278272
 21
11.2635313622
 31
0.0
 11
17.6552175893
 21
11.2706002056
 31
0.0
 11
17.6536785886
 21
11.2846961609
 31
0.0
 11
17.6526843581
 21
11.2985395038
 31
0.0
 11
17.6521343028
 21
11.3118718657
 31
0.0
 11
17.6520024659
 21
11.3182629146
 31
0.0
 11
17.6519592365
 21
11.3244227484
 31
0.0
  0
SPLINE
  5
34E
100
AcDbEntity
  8
0
100
AcDbSpline
 62
7
  6
CONTINUOUS
 70
0
 71
3
 72
12
 73
8
 74
6
 42
0.0000001
 43
0.0000001
 44
0.0000000001
 12
0.0049751925
 22
-0.0545684737
 32
0.0
 13
0.0169899177
 23
-0.0520942757
 33
0.0
 40
0.0
 40
0.0
 40
0.0
 40
0.0
 40
0.2551989139
 40
0.5075429557
 40
0.7560567076
 40
0.8786665377
 40
1.0
 40
1.0
 40
1.0
 40
1.0
 10
17.6519471159
 20
11.3960095545
 30
0.0
 10
17.6523703372
 20
11.3913676161
 30
0.0
 10
17.6533783275
 20
11.3821493444
 30
0.0
 10
17.6554997212
 20
11.368498598
 30
0.0
 10
17.6578700988
 20
11.3573522596
 30
0.0
 10
17.6601781815
 20
11.3486571876
 30
0.0
 10
17.661476252
 20
11.3443935097
 30
0.0
 10
17.6621634005
 20
11.3422865834
 30
0.0
 11
17.6519471159
 21
11.3960095545
 31
0.0
 11
17.6534891977
 21
11.3821112683
 31
0.0
 11
17.6556371044
 21
11.3684519718
 31
0.0
 11
17.6584960409
 21
11.3551382069
 31
0.0
 11
17.6602232545
 21
11.3486456428
 31
0.0
 11
17.6621634005
 21
11.3422865834
 31
0.0
  0
SPLINE
  5
34F
100
AcDbEntity
  8
0
100
AcDbSpline
 62
7
  6
CONTINUOUS
 70
0
 71
3
 72
13
 73
9
 74
7
 42
0.0000001
 43
0.0000001
 44
0.0000000001
 12
-0.1017508113
 22
0.0946787713
 32
0.0
 13
-0.0456907595
 23
0.1312617683
 33
0.0
 40
0.0
 40
0.0
 40
0.0
 40
0.0
 40
0.2514318244
 40
0.3772012735
 40
0.502768554
 40
0.6279820247
 40
0.7526970269
 40
1.0
 40
1.0
 40
1.0
 40
1.0
 10
17.7388395275
 20
11.000926668
 30
0.0
 10
17.7303117301
 20
11.0088617534
 30
0.0
 10
17.7182435049
 20
11.0215803145
 30
0.0
 10
17.7037955887
 20
11.0398622862
 30
0.0
 10
17.6938103653
 20
11.0541806881
 30
0.0
 10
17.6847243509
 20
11.0690287397
 30
0.0
 10
17.6738963136
 20
11.0893715016
 30
0.0
 10
17.6671869404
 20
11.1053100257
 30
0.0
 10
17.6634204535
 20
11.1161305009
 30
0.0
 11
17.7388395275
 21
11.000926668
 31
0.0
 11
17.7147689809
 21
11.0262606167
 31
0.0
 11
17.703929437
 21
11.0399742747
 31
0.0
 11
17.693946863
 21
11.0542895388
 31
0.0
 11
17.6848641454
 21
11.0691343632
 31
0.0
 11
17.6767223023
 21
11.0844369246
 31
0.0
 11
17.6634204535
 21
11.1161305009
 31
0.0
  0
SPLINE
  5
350
100
AcDbEntity
  8
0
100
AcDbSpline
 62
7
  6
CONTINUOUS
 70
0
 71
3
 72
21
 73
17
 74
15
 42
0.0000001
 43
0.0000001
 44
0.0000000001
 12
-0.0268208466
 22
0.0770517232
 32
0.0
 13
0.0
 23
0.0815863093
 33
0.0
 40
0.0
 40
0.0
 40
0.0
 40
0.0
 40
0.0647716632
 40
0.1300907435
 40
0.261701495
 40
0.3936519169
 40
0.4593408462
 40
0.5245761518
 40
0.5891367407
 40
0.6527883401
 40
0.7152655664
 40
0.776287282
 40
0.8355671893
 40
0.8928151314
 40
0.9477311108
 40
1.0
 40
1.0
 40
1.0
 40
1.0
 10
17.6634204535
 20
11.1161305009
 30
0.0
 10
17.6628413765
 20
11.1177940903
 30
0.0
 10
17.6617392332
 20
11.1211568359
 30
0.0
 10
17.6597501295
 20
11.1279913884
 30
0.0
 10
17.6576530767
 20
11.1366917658
 30
0.0
 10
17.6560162504
 20
11.1454985799
 30
0.0
 10
17.6549460581
 20
11.1525674361
 30
0.0
 10
17.6542582723
 20
11.1578394238
 30
0.0
 10
17.653675902
 20
11.1630682582
 30
0.0
 10
17.6531907644
 20
11.1682316377
 30
0.0
 10
17.652795451
 20
11.173306102
 30
0.0
 10
17.6524825294
 20
11.1782671632
 30
0.0
 10
17.6522459591
 20
11.1830900536
 30
0.0
 10
17.6520806433
 20
11.1877497536
 30
0.0
 10
17.6519821127
 20
11.1922206211
 30
0.0
 10
17.6519592365
 20
11.1951355968
 30
0.0
 10
17.6519592365
 20
11.196557072
 30
0.0
 11
17.6634204535
 21
11.1161305009
 31
0.0
 11
17.661771975
 21
11.1211512834
 31
0.0
 11
17.6602805153
 21
11.1262674646
 31
0.0
 11
17.6577475776
 21
11.1367020725
 31
0.0
 11
17.6557661478
 21
11.1472835021
 31
0.0
 11
17.6549624291
 21
11.1525822112
 31
0.0
 11
17.6542725502
 21
11.1578596185
 31
0.0
 11
17.6536883264
 21
11.1630943785
 31
0.0
 11
17.6532016486
 21
11.1682646225
 31
0.0
 11
17.6528050272
 21
11.1733464547
 31
0.0
 11
17.6524912971
 21
11.1783150964
 31
0.0
 11
17.6522543543
 21
11.1831457177
 31
0.0
 11
17.6520890609
 21
11.1878134402
 31
0.0
 11
17.6519913811
 21
11.1922927674
 31
0.0
 11
17.6519592365
 21
11.196557072
 31
0.0
  0
SPLINE
  5
351
100
AcDbEntity
  8
0
100
AcDbSpline
 62
7
  6
CONTINUOUS
 70
0
 71
3
 72
12
 73
8
 74
6
 42
0.0000001
 43
0.0000001
 44
0.0000000001
 12
0.0050447217
 22
-0.0560621854
 32
0.0
 13
0.0167986232
 23
-0.0537235899
 33
0.0
 40
0.0
 40
0.0
 40
0.0
 40
0.0
 40
0.2519797281
 40
0.5033975476
 40
0.7530632486
 40
0.8769553704
 40
1.0
 40
1.0
 40
1.0
 40
1.0
 10
17.6519455423
 20
11.2669669783
 30
0.0
 10
17.6523692648
 20
11.2622581336
 30
0.0
 10
17.6533808176
 20
11.2528644171
 30
0.0
 10
17.6555038153
 20
11.2388901519
 30
0.0
 10
17.657875653
 20
11.2273986139
 30
0.0
 10
17.6601869834
 20
11.2183707176
 30
0.0
 10
17.6614881399
 20
11.2139226876
 30
0.0
 10
17.6621771334
 20
11.2117192212
 30
0.0
 11
17.6519455423
 21
11.2669669783
 31
0.0
 11
17.6534840744
 21
11.2528670579
 31
0.0
 11
17.655631868
 21
11.2388790062
 31
0.0
 11
17.6584963433
 21
11.225120676
 31
0.0
 11
17.6602291494
 21
11.2183656596
 31
0.0
 11
17.6621771334
 21
11.2117192212
 31
0.0
  0
SPLINE
  5
352
100
AcDbEntity
  8
0
100
AcDbSpline
 62
7
  6
CONTINUOUS
 70
0
 71
3
 72
14
 73
10
 74
8
 42
0.0000001
 43
0.0000001
 44
0.0000000001
 12
0.0446091937
 22
-0.1426644317
 32
0.0
 13
0.1060244116
 23
-0.1053657648
 33
0.0
 40
0.0
 40
0.0
 40
0.0
 40
0.0
 40
0.1230753169
 40
0.2469647934
 40
0.3715303097
 40
0.4966660034
 40
0.6222389245
 40
0.7481043251
 40
1.0
 40
1.0
 40
1.0
 40
1.0
 10
17.6621771334
 20
11.2117192212
 30
0.0
 10
17.6640072303
 20
11.2058663978
 30
0.0
 10
17.6680438994
 20
11.1942326492
 30
0.0
 10
17.6751613482
 20
11.1771325775
 30
0.0
 10
17.68333256
 20
11.1603951442
 30
0.0
 10
17.6925243283
 20
11.1440999788
 30
0.0
 10
17.7027060151
 20
11.1283251994
 30
0.0
 10
17.7175513248
 20
11.1081003759
 30
0.0
 10
17.7300697912
 20
11.0939585053
 30
0.0
 10
17.7389721548
 20
11.0851114451
 30
0.0
 11
17.6621771334
 21
11.2117192212
 31
0.0
 11
17.668203065
 21
11.1943372963
 31
0.0
 11
17.6753161185
 21
11.1772393392
 31
0.0
 11
17.683482983
 21
11.1605064116
 31
0.0
 11
17.6926725266
 21
11.1442146373
 31
0.0
 11
17.7028521486
 21
11.1284445995
 31
0.0
 11
17.7139870378
 21
11.1132796344
 31
0.0
 11
17.7389721548
 21
11.0851114451
 31
0.0
  0
SPLINE
  5
353
100
AcDbEntity
  8
0
100
AcDbSpline
 62
7
  6
CONTINUOUS
 70
0
 71
3
 72
14
 73
10
 74
8
 42
0.0000001
 43
0.0000001
 44
0.0000000001
 12
-0.0907506596
 22
0.0821791513
 32
0.0
 13
-0.0465832586
 23
0.113221443
 33
0.0
 40
0.0
 40
0.0
 40
0.0
 40
0.0
 40
0.1242307722
 40
0.2488725605
 40
0.3738173237
 40
0.4989878748
 40
0.6242911556
 40
0.749634051
 40
1.0
 40
1.0
 40
1.0
 40
1.0
 10
17.7388166915
 20
10.8794063781
 30
0.0
 10
17.7350586833
 20
10.8828094379
 30
0.0
 10
17.7277273557
 20
10.8898479917
 30
0.0
 10
17.7173372604
 20
10.9010287918
 30
0.0
 10
17.7075657471
 20
10.9128044406
 30
0.0
 10
17.6984452672
 20
10.9251241743
 30
0.0
 10
17.6900056065
 20
10.9379403764
 30
0.0
 10
17.6797068779
 20
10.9556112656
 30
0.0
 10
17.6730789233
 20
10.9694826664
 30
0.0
 10
17.6691913027
 20
10.9789315977
 30
0.0
 11
17.7388166915
 21
10.8794063781
 31
0.0
 11
17.7278426267
 21
10.8899373266
 31
0.0
 11
17.7174527633
 21
10.9011138625
 31
0.0
 11
17.7076827408
 21
10.9128843481
 31
0.0
 11
17.6985634193
 21
10.9252002778
 31
0.0
 11
17.6901255784
 21
10.9380121983
 31
0.0
 11
17.6823987131
 21
10.9512706616
 31
0.0
 11
17.6691913027
 21
10.9789315977
 31
0.0
  0
SPLINE
  5
354
100
AcDbEntity
  8
0
100
AcDbSpline
 62
7
  6
CONTINUOUS
 70
0
 71
3
 72
11
 73
7
 74
5
 42
0.0000001
 43
0.0000001
 44
0.0000000001
 12
0.0051527679
 22
-0.0559425284
 32
0.0
 13
0.0164554985
 23
-0.0537153057
 33
0.0
 40
0.0
 40
0.0
 40
0.0
 40
0.0
 40
0.2487609164
 40
0.4992052943
 40
0.7500057032
 40
1.0
 40
1.0
 40
1.0
 40
1.0
 10
17.6519471159
 20
11.1402115105
 30
0.0
 10
17.652374385
 20
11.135572739
 30
0.0
 10
17.6533946251
 20
11.1262776019
 30
0.0
 10
17.6555204416
 20
11.1123893154
 30
0.0
 10
17.658356141
 20
11.098603288
 30
0.0
 10
17.6607921403
 20
11.0895389789
 30
0.0
 10
17.6621634005
 20
11.0850628055
 30
0.0
 11
17.6519471159
 21
11.1402115105
 31
0.0
 11
17.653489197
 21
11.1263216283
 31
0.0
 11
17.6556370947
 21
11.1124167458
 31
0.0
 11
17.6584960362
 21
11.0986200465
 31
0.0
 11
17.6621634005
 21
11.0850628055
 31
0.0
  0
SPLINE
  5
355
100
AcDbEntity
  8
0
100
AcDbSpline
 62
7
  6
CONTINUOUS
 70
0
 71
3
 72
15
 73
11
 74
9
 42
0.0000001
 43
0.0000001
 44
0.0000000001
 12
0.0439474254
 22
-0.1434565711
 32
0.0
 13
0.107394905
 23
-0.1047735576
 33
0.0
 40
0.0
 40
0.0
 40
0.0
 40
0.0
 40
0.249631034
 40
0.3748484379
 40
0.5001580361
 40
0.6254446988
 40
0.6880489193
 40
0.7506033342
 40
0.8754994534
 40
1.0
 40
1.0
 40
1.0
 40
1.0
 10
17.6621634005
 20
11.0850628055
 30
0.0
 10
17.665820281
 20
11.0731257348
 30
0.0
 10
17.6724283847
 20
11.0555160658
 30
0.0
 10
17.683311466
 20
11.0329822518
 30
0.0
 10
17.6925059491
 20
11.0165750638
 30
0.0
 10
17.7009942074
 20
11.00339776
 30
0.0
 10
17.7082633556
 20
10.9931953207
 30
0.0
 10
17.7158386067
 20
10.9832425455
 30
0.0
 10
17.7258771244
 20
10.9712851356
 30
0.0
 10
17.7345121209
 20
10.9622697013
 30
0.0
 10
17.738969029
 20
10.9579215796
 30
0.0
 11
17.6621634005
 21
11.0850628055
 31
0.0
 11
17.6753083116
 21
11.0499913185
 31
0.0
 11
17.6834788325
 21
11.0330737509
 31
0.0
 11
17.6926716922
 21
11.0166733613
 31
0.0
 11
17.7028536757
 21
11.0008721184
 31
0.0
 11
17.7083045543
 21
10.993222565
 31
0.0
 11
17.7139893623
 21
10.9857546084
 31
0.0
 11
17.7260427041
 21
10.9714064547
 31
0.0
 11
17.738969029
 21
10.9579215796
 31
0.0
  0
LINE
  5
356
100
AcDbEntity
  8
0
100
AcDbLine
 62
7
  6
CONTINUOUS
 10
17.6519592365
 20
10.9805978062
 11
17.6519455423
 21
11.0353474133
  0
SPLINE
  5
357
100
AcDbEntity
  8
0
100
AcDbSpline
 62
7
  6
CONTINUOUS
 70
0
 71
3
 72
11
 73
7
 74
5
 42
0.0000001
 43
0.0000001
 44
0.0000000001
 12
0.0052329731
 22
-0.055713511
 32
0.0
 13
0.0162515047
 23
-0.0535468758
 33
0.0
 40
0.0
 40
0.0
 40
0.0
 40
0.0
 40
0.2453441264
 40
0.4947545255
 40
0.7467441708
 40
1.0
 40
1.0
 40
1.0
 40
1.0
 10
17.6519455423
 20
11.0353474133
 30
0.0
 10
17.652373502
 20
11.0307910857
 30
0.0
 10
17.6533977255
 20
11.0216169119
 30
0.0
 10
17.655525265
 20
11.0078464433
 30
0.0
 10
17.6583684907
 20
10.99405358
 30
0.0
 10
17.660805204
 20
10.9849421191
 30
0.0
 10
17.6621771334
 20
10.9804217663
 30
0.0
 11
17.6519455423
 21
11.0353474133
 31
0.0
 11
17.6534840744
 21
11.0217047466
 31
0.0
 11
17.655631868
 21
11.0079143099
 31
0.0
 11
17.6584963433
 21
10.9941072989
 31
0.0
 11
17.6621771334
 21
10.9804217663
 31
0.0
  0
SPLINE
  5
358
100
AcDbEntity
  8
0
100
AcDbSpline
 62
7
  6
CONTINUOUS
 70
0
 71
3
 72
14
 73
10
 74
8
 42
0.0000001
 43
0.0000001
 44
0.0000000001
 12
0.0434072678
 22
-0.1430220538
 32
0.0
 13
0.1084478291
 23
-0.1028521616
 33
0.0
 40
0.0
 40
0.0
 40
0.0
 40
0.0
 40
0.2517892314
 40
0.3774791174
 40
0.5028855501
 40
0.627921944
 40
0.7525017075
 40
0.8765614592
 40
1.0
 40
1.0
 40
1.0
 40
1.0
 10
17.6621771334
 20
10.9804217663
 30
0.0
 10
17.6658202942
 20
10.9684179619
 30
0.0
 10
17.6724080424
 20
10.9507350051
 30
0.0
 10
17.6833024973
 20
10.9281611654
 30
0.0
 10
17.6924932871
 20
10.9118148647
 30
0.0
 10
17.7026733867
 20
10.8961327376
 30
0.0
 10
17.7138094997
 20
10.8811965148
 30
0.0
 10
17.7258638983
 20
10.867096053
 30
0.0
 10
17.7345099408
 20
10.8582876511
 30
0.0
 10
17.7389721548
 20
10.8540556776
 30
0.0
 11
17.6621771334
 21
10.9804217663
 31
0.0
 11
17.6753161185
 21
10.9451564501
 31
0.0
 11
17.683482983
 21
10.928238396
 31
0.0
 11
17.6926725266
 21
10.9119019178
 31
0.0
 11
17.7028521486
 21
10.8962292266
 31
0.0
 11
17.7139870378
 21
10.8813052229
 31
0.0
 11
17.7260417419
 21
10.8672159589
 31
0.0
 11
17.7389721548
 21
10.8540556776
 31
0.0
  0
SPLINE
  5
359
100
AcDbEntity
  8
0
100
AcDbSpline
 62
7
  6
CONTINUOUS
 70
0
 71
3
 72
13
 73
9
 74
7
 42
0.0000001
 43
0.0000001
 44
0.0000000001
 12
-0.0917136325
 22
0.0758990496
 32
0.0
 13
-0.0458128601
 23
0.1098782871
 33
0.0
 40
0.0
 40
0.0
 40
0.0
 40
0.0
 40
0.1229929695
 40
0.2465955943
 40
0.37078806
 40
0.4955742234
 40
0.7467366955
 40
1.0
 40
1.0
 40
1.0
 40
1.0
 10
17.7388166915
 20
10.7106270824
 30
0.0
 10
17.7350566475
 20
10.7137387656
 30
0.0
 10
17.7277184399
 20
10.7202242333
 30
0.0
 10
17.7173254773
 20
10.7306522827
 30
0.0
 10
17.7075515424
 20
10.7417585935
 30
0.0
 10
17.695364821
 20
10.7574361857
 30
0.0
 10
17.6818445111
 20
10.7785001418
 30
0.0
 10
17.6730588748
 20
10.7965440854
 30
0.0
 10
17.6691913027
 20
10.8058201315
 30
0.0
 11
17.7388166915
 21
10.7106270824
 31
0.0
 11
17.7278426267
 21
10.7203200917
 31
0.0
 11
17.7174527633
 21
10.7307395863
 31
0.0
 11
17.7076827408
 21
10.7418361252
 31
0.0
 11
17.6985634193
 21
10.7535629907
 31
0.0
 11
17.6823987131
 21
10.7787167626
 31
0.0
 11
17.6691913027
 21
10.8058201315
 31
0.0
  0
SPLINE
  5
35A
100
AcDbEntity
  8
0
100
AcDbSpline
 62
7
  6
CONTINUOUS
 70
0
 71
3
 72
9
 73
5
 74
3
 42
0.0000001
 43
0.0000001
 44
0.0000000001
 12
0.0053545182
 22
-0.0538841147
 32
0.0
 13
0.0158921696
 23
-0.0517649266
 33
0.0
 40
0.0
 40
0.0
 40
0.0
 40
0.0
 40
0.4901851486
 40
1.0
 40
1.0
 40
1.0
 40
1.0
 10
17.6519471159
 20
10.938361132
 30
0.0
 10
17.6528220177
 20
10.9295567344
 30
0.0
 10
17.6552618399
 20
10.9116513706
 30
0.0
 10
17.6594627125
 20
10.8940487318
 30
0.0
 10
17.6621634005
 20
10.885251889
 30
0.0
 11
17.6519471159
 21
10.938361132
 31
0.0
 11
17.6556370947
 21
10.9120755868
 31
0.0
 11
17.6621634005
 21
10.885251889
 31
0.0
  0
SPLINE
  5
35B
100
AcDbEntity
  8
0
100
AcDbSpline
 62
7
  6
CONTINUOUS
 70
0
 71
3
 72
15
 73
11
 74
9
 42
0.0000001
 43
0.0000001
 44
0.0000000001
 12
0.0430368097
 22
-0.1401820736
 32
0.0
 13
0.1090117881
 23
-0.0980796147
 33
0.0
 40
0.0
 40
0.0
 40
0.0
 40
0.0
 40
0.1268725772
 40
0.2534029605
 40
0.3794240187
 40
0.5048275582
 40
0.6296100172
 40
0.7537963303
 40
0.8773085669
 40
1.0
 40
1.0
 40
1.0
 40
1.0
 10
17.6621634005
 20
10.885251889
 30
0.0
 10
17.6639834642
 20
10.8793234687
 30
0.0
 10
17.6679978155
 20
10.8675952088
 30
0.0
 10
17.6751152186
 20
10.8504560565
 30
0.0
 10
17.6832874653
 20
10.8338729245
 30
0.0
 10
17.692481591
 20
10.8179320825
 30
0.0
 10
17.702666759
 20
10.8027126477
 30
0.0
 10
17.7138099223
 20
10.7882955086
 30
0.0
 10
17.7258657284
 20
10.7747693788
 30
0.0
 10
17.7345107582
 20
10.7663787014
 30
0.0
 10
17.738969029
 20
10.7623675253
 30
0.0
 11
17.6621634005
 21
10.885251889
 31
0.0
 11
17.6681885091
 21
10.8676499783
 31
0.0
 11
17.6753063191
 21
10.8505151784
 31
0.0
 11
17.6834787369
 21
10.8339407944
 31
0.0
 11
17.6926706949
 21
10.8180138376
 31
0.0
 11
17.7028524672
 21
10.8028102106
 31
0.0
 11
17.7139940177
 21
10.7884055906
 31
0.0
 11
17.7260513384
 21
10.7748904916
 31
0.0
 11
17.738969029
 21
10.7623675253
 31
0.0
  0
SPLINE
  5
35C
100
AcDbEntity
  8
0
100
AcDbSpline
 62
7
  6
CONTINUOUS
 70
0
 71
3
 72
19
 73
15
 74
13
 42
0.0000001
 43
0.0000001
 44
0.0000000001
 12
-0.02117425
 22
0.0601175324
 32
0.0
 13
0.0
 23
0.0637374816
 33
0.0
 40
0.0
 40
0.0
 40
0.0
 40
0.0
 40
0.160900189
 40
0.3157577512
 40
0.4627317654
 40
0.5998076416
 40
0.6639173358
 40
0.7246573457
 40
0.7816948147
 40
0.8346876581
 40
0.8833101034
 40
0.9272526878
 40
0.9662294035
 40
1.0
 40
1.0
 40
1.0
 40
1.0
 10
17.6634204535
 20
10.7661665657
 30
0.0
 10
17.6622848066
 20
10.7693908731
 30
0.0
 10
17.6602334519
 20
10.7757822364
 30
0.0
 10
17.6577144357
 20
10.7852889673
 30
0.0
 10
17.655745279
 20
10.7944066846
 30
0.0
 10
17.6544821103
 20
10.8016969922
 30
0.0
 10
17.6536865356
 20
10.8072048912
 30
0.0
 10
17.6532005149
 20
10.811038748
 30
0.0
 10
17.6528043158
 20
10.8146453674
 30
0.0
 10
17.6524904
 20
10.818001575
 30
0.0
 10
17.6522526649
 20
10.8210850622
 30
0.0
 10
17.6520858894
 20
10.8238749527
 30
0.0
 10
17.6519853849
 20
10.8263522425
 30
0.0
 10
17.6519592365
 20
10.8278978376
 30
0.0
 10
17.6519592365
 20
10.8286153219
 30
0.0
 11
17.6634204535
 21
10.7661665657
 31
0.0
 11
17.6602805153
 21
10.775929427
 31
0.0
 11
17.6577475776
 21
10.7854691171
 31
0.0
 11
17.6557661478
 21
10.7946249208
 31
0.0
 11
17.6542725502
 21
10.8032331775
 31
0.0
 11
17.6536883264
 21
10.8072773876
 31
0.0
 11
17.6532016486
 21
10.8111180907
 31
0.0
 11
17.6528050272
 21
10.8147318151
 31
0.0
 11
17.6524912971
 21
10.8180948436
 31
0.0
 11
17.6522543543
 21
10.8211848446
 31
0.0
 11
17.6520890609
 21
10.8239807525
 31
0.0
 11
17.6519913811
 21
10.8264631091
 31
0.0
 11
17.6519592365
 21
10.8286153219
 31
0.0
  0
SPLINE
  5
35D
100
AcDbEntity
  8
0
100
AcDbSpline
 62
7
  6
CONTINUOUS
 70
0
 71
3
 72
9
 73
5
 74
3
 42
0.0000001
 43
0.0000001
 44
0.0000000001
 12
0.0054613268
 22
-0.0519440351
 32
0.0
 13
0.0156473724
 23
-0.0498314018
 33
0.0
 40
0.0
 40
0.0
 40
0.0
 40
0.0
 40
0.4848570096
 40
1.0
 40
1.0
 40
1.0
 40
1.0
 10
17.6519455423
 20
10.8642645106
 30
0.0
 10
17.6528281965
 20
10.8558693674
 30
0.0
 10
17.655305494
 20
10.8386149181
 30
0.0
 10
17.6594902553
 20
10.8216689199
 30
0.0
 10
17.6621771334
 20
10.8131121541
 30
0.0
 11
17.6519455423
 21
10.8642645106
 31
0.0
 11
17.655631868
 21
10.8392099987
 31
0.0
 11
17.6621771334
 21
10.8131121541
 31
0.0
  0
SPLINE
  5
35E
100
AcDbEntity
  8
0
100
AcDbSpline
 62
7
  6
CONTINUOUS
 70
0
 71
3
 72
16
 73
12
 74
10
 42
0.0000001
 43
0.0000001
 44
0.0000000001
 12
0.0427791287
 22
-0.1362365445
 32
0.0
 13
0.1091545836
 23
-0.0920637105
 33
0.0
 40
0.0
 40
0.0
 40
0.0
 40
0.0
 40
0.1275218394
 40
0.2543258773
 40
0.3174531931
 40
0.3803956115
 40
0.5057117881
 40
0.6303008628
 40
0.7541813256
 40
0.8774055595
 40
1.0
 40
1.0
 40
1.0
 40
1.0
 10
17.6621771334
 20
10.8131121541
 30
0.0
 10
17.6639955578
 20
10.8073211092
 30
0.0
 10
17.6680034304
 20
10.795887547
 30
0.0
 10
17.6739410982
 20
10.7819801254
 30
0.0
 10
17.6792204932
 20
10.7711610517
 30
0.0
 10
17.6848297567
 20
10.760589531
 30
0.0
 10
17.6924793323
 20
10.7477985418
 30
0.0
 10
17.7026623339
 20
10.7331916611
 30
0.0
 10
17.7138028371
 20
10.7194272268
 30
0.0
 10
17.7258629888
 20
10.706591398
 30
0.0
 10
17.734511573
 20
10.6986899652
 30
0.0
 10
17.7389721548
 20
10.6949277989
 30
0.0
 11
17.6621771334
 21
10.8131121541
 31
0.0
 11
17.668203065
 21
10.7959286165
 31
0.0
 11
17.6753161185
 21
10.7792772533
 31
0.0
 11
17.6792697379
 21
10.7711762645
 31
0.0
 11
17.683482983
 21
10.7632370963
 31
0.0
 11
17.6926725266
 21
10.7478823951
 31
0.0
 11
17.7028521486
 21
10.7332918234
 31
0.0
 11
17.7139870378
 21
10.7195465111
 31
0.0
 11
17.7260417419
 21
10.7067286712
 31
0.0
 11
17.7389721548
 21
10.6949277989
 31
0.0
  0
SPLINE
  5
35F
100
AcDbEntity
  8
0
100
AcDbSpline
 62
7
  6
CONTINUOUS
 70
0
 71
3
 72
17
 73
13
 74
11
 42
0.0000001
 43
0.0000001
 44
0.0000000001
 12
0.0427086894
 22
-0.1300726076
 32
0.0
 13
0.1086148823
 23
-0.0833410027
 33
0.0
 40
0.0
 40
0.0
 40
0.0
 40
0.0
 40
0.127660825
 40
0.1911641325
 40
0.2544393727
 40
0.3803286815
 40
0.5054366879
 40
0.5677342375
 40
0.6298683609
 40
0.7536765896
 40
0.8770171129
 40
1.0
 40
1.0
 40
1.0
 40
1.0
 10
17.6621634005
 20
10.7554086887
 30
0.0
 10
17.6639808094
 20
10.7498736299
 30
0.0
 10
17.6669916265
 20
10.7416758883
 30
0.0
 10
17.6715653727
 20
10.7310014299
 30
0.0
 10
17.6764797623
 20
10.7205682515
 30
0.0
 10
17.6832812228
 20
10.7079270064
 30
0.0
 10
17.6909581369
 20
10.6958494757
 30
0.0
 10
17.6975940605
 20
10.6865921093
 30
0.0
 10
17.7045361842
 20
10.6776372068
 30
0.0
 10
17.713814484
 20
10.6669810262
 30
0.0
 10
17.7258781183
 20
10.6551351587
 30
0.0
 10
17.7345164384
 20
10.6479189694
 30
0.0
 10
17.738969029
 20
10.6445024637
 30
0.0
 11
17.6621634005
 21
10.7554086887
 31
0.0
 11
17.6681918635
 21
10.7390039244
 31
0.0
 11
17.6716163655
 21
10.7310128807
 31
0.0
 11
17.6753083116
 21
10.7231763257
 31
0.0
 11
17.6834788325
 21
10.7080012631
 31
0.0
 11
17.6926716922
 21
10.6935494227
 31
0.0
 11
17.6976412212
 21
10.6866179907
 31
0.0
 11
17.7028536757
 21
10.6798956295
 31
0.0
 11
17.7139893623
 21
10.6671168642
 31
0.0
 11
17.7260427041
 21
10.6552910128
 31
0.0
 11
17.738969029
 21
10.6445024637
 31
0.0
  0
LINE
  5
360
100
AcDbEntity
  8
0
100
AcDbLine
 62
7
  6
CONTINUOUS
 10
17.7389721548
 20
10.6177263989
 11
17.7388395275
 21
10.6112730949
  0
SPLINE
  5
361
100
AcDbEntity
  8
0
100
AcDbSpline
 62
7
  6
CONTINUOUS
 70
0
 71
3
 72
14
 73
10
 74
8
 42
0.0000001
 43
0.0000001
 44
0.0000000001
 12
-0.0157589098
 22
0.0402060809
 32
0.0
 13
-0.0057098512
 23
0.0428050205
 33
0.0
 40
0.0
 40
0.0
 40
0.0
 40
0.0
 40
0.3138011108
 40
0.5914327571
 40
0.7139166082
 40
0.8237871526
 40
0.9196344861
 40
0.9618447678
 40
1.0
 40
1.0
 40
1.0
 40
1.0
 10
17.6634204535
 20
10.7029404168
 30
0.0
 10
17.6617720657
 20
10.7071459877
 30
0.0
 10
17.6589566994
 20
10.7151901225
 30
0.0
 10
17.6562340127
 20
10.7251068986
 30
0.0
 10
17.6546200173
 20
10.7322692607
 30
0.0
 10
17.6537076861
 20
10.736905262
 30
0.0
 10
17.6531060609
 20
10.7404234323
 30
0.0
 10
17.6527250203
 20
10.7429312321
 30
0.0
 10
17.6525646729
 20
10.7440769387
 30
0.0
 10
17.6524920527
 20
10.7446213505
 30
0.0
 11
17.6634204535
 21
10.7029404168
 31
0.0
 11
17.6589421147
 21
10.7157302786
 31
0.0
 11
17.6557673358
 21
10.7272915882
 31
0.0
 11
17.6546049567
 21
10.7324516497
 31
0.0
 11
17.653689429
 21
10.7371071499
 31
0.0
 11
17.6529934867
 21
10.74118731
 31
0.0
 11
17.6527199577
 21
10.7429894863
 31
0.0
 11
17.6524920527
 21
10.7446213505
 31
0.0
  0
LINE
  5
362
100
AcDbEntity
  8
0
100
AcDbLine
 62
7
  6
CONTINUOUS
 10
17.6524920527
 20
10.7446213505
 11
17.6519592365
 21
10.7501592376
  0
SPLINE
  5
363
100
AcDbEntity
  8
0
100
AcDbSpline
 62
7
  6
CONTINUOUS
 70
0
 71
3
 72
11
 73
7
 74
5
 42
0.0000001
 43
0.0000001
 44
0.0000000001
 12
0.005790532
 22
-0.0450401658
 32
0.0
 13
0.014921605
 23
-0.0428893052
 33
0.0
 40
0.0
 40
0.0
 40
0.0
 40
0.0
 40
0.2280079942
 40
0.4718451795
 40
0.7296904208
 40
1.0
 40
1.0
 40
1.0
 40
1.0
 10
17.6519455423
 20
10.7644680383
 30
0.0
 10
17.6523856382
 20
10.7610448656
 30
0.0
 10
17.6534438521
 20
10.7539788391
 30
0.0
 10
17.6555818308
 20
10.743137972
 30
0.0
 10
17.6584370427
 20
10.731800858
 30
0.0
 10
17.6608326491
 20
10.7241675263
 30
0.0
 10
17.6621771334
 20
10.720303063
 30
0.0
 11
17.6519455423
 21
10.7644680383
 31
0.0
 11
17.6534840744
 21
10.7542289428
 31
0.0
 11
17.655631868
 21
10.7433663849
 31
0.0
 11
17.6584963433
 21
10.7320131961
 31
0.0
 11
17.6621771334
 21
10.720303063
 31
0.0
  0
SPLINE
  5
364
100
AcDbEntity
  8
0
100
AcDbSpline
 62
7
  6
CONTINUOUS
 70
0
 71
3
 72
18
 73
14
 74
12
 42
0.0000001
 43
0.0000001
 44
0.0000000001
 12
0.0428126198
 22
-0.1230567031
 32
0.0
 13
0.1074682771
 23
-0.0736643876
 33
0.0
 40
0.0
 40
0.0
 40
0.0
 40
0.0
 40
0.1272379451
 40
0.2535059327
 40
0.3163227023
 40
0.3789516898
 40
0.4414151044
 40
0.5037344425
 40
0.6280082275
 40
0.7519901351
 40
0.8139553089
 40
0.8759373088
 40
1.0
 40
1.0
 40
1.0
 40
1.0
 10
17.6621771334
 20
10.720303063
 30
0.0
 10
17.66399293
 20
10.7150839023
 30
0.0
 10
17.6679966501
 20
10.7048151829
 30
0.0
 10
17.6739389953
 20
10.6924136221
 30
0.0
 10
17.6792203217
 20
10.6828392984
 30
0.0
 10
17.6834346012
 20
10.6758482044
 30
0.0
 10
17.687904704
 20
10.6690436082
 30
0.0
 10
17.6941938703
 20
10.6602404258
 30
0.0
 10
17.7026800347
 20
10.6497364745
 30
0.0
 10
17.7119750282
 20
10.6399613028
 30
0.0
 10
17.7198649746
 20
10.632629616
 30
0.0
 10
17.7280555394
 20
10.625631049
 30
0.0
 10
17.7345278869
 20
10.620772733
 30
0.0
 10
17.7389721548
 20
10.6177263989
 30
0.0
 11
17.6621771334
 21
10.720303063
 31
0.0
 11
17.668203065
 21
10.7048590043
 31
0.0
 11
17.6753161185
 21
10.6900245488
 31
0.0
 11
17.6792697379
 21
10.6828583239
 31
0.0
 11
17.683482983
 21
10.675870151
 31
0.0
 11
17.6879519212
 21
10.6690684613
 31
0.0
 11
17.6926725266
 21
10.6624620191
 31
0.0
 11
17.7028521486
 21
10.6498703462
 31
0.0
 11
17.7139870378
 21
10.6381673938
 31
0.0
 11
17.7199016676
 21
10.6326720212
 31
0.0
 11
17.7260417419
 21
10.62742637
 31
0.0
 11
17.7389721548
 21
10.6177263989
 31
0.0
  0
LINE
  5
365
100
AcDbEntity
  8
0
100
AcDbLine
 62
7
  6
CONTINUOUS
 10
17.6519592365
 20
10.740235154
 11
17.6519419145
 21
10.744399891
  0
LINE
  5
366
100
AcDbEntity
  8
0
100
AcDbLine
 62
7
  6
CONTINUOUS
 10
17.7388601455
 20
13.3860609869
 11
17.7388166915
 21
13.386424751
  0
LINE
  5
367
100
AcDbEntity
  8
0
100
AcDbLine
 62
7
  6
CONTINUOUS
 10
17.7388166915
 20
13.386424751
 11
17.7387237885
 21
13.3863675276
  0
LINE
  5
368
100
AcDbEntity
  8
0
100
AcDbLine
 62
7
  6
CONTINUOUS
 10
17.6519592288
 20
13.2173255356
 11
17.6519592204
 21
13.2171071744
  0
LINE
  5
369
100
AcDbEntity
  8
0
100
AcDbLine
 62
7
  6
CONTINUOUS
 10
17.6519592365
 20
10.7501592376
 11
17.6519533413
 21
10.7443801766
  0
SPLINE
  5
36A
100
AcDbEntity
  8
0
100
AcDbSpline
 62
6
  6
CONTINUOUS
 70
0
 71
3
 72
26
 73
22
 74
20
 42
0.0000001
 43
0.0000001
 44
0.0000000001
 12
-0.0391689409
 22
0.0176891777
 32
0.0
 13
0.0
 23
0.0429780519
 33
0.0
 40
0.0
 40
0.0
 40
0.0
 40
0.0
 40
0.0185993826
 40
0.0371623217
 40
0.0558278226
 40
0.0747314097
 40
0.0940024136
 40
0.1137631567
 40
0.1551908408
 40
0.1998500969
 40
0.2483751639
 40
0.3012448731
 40
0.3587984695
 40
0.4212799424
 40
0.4888640231
 40
0.5616187256
 40
0.6395268462
 40
0.7225449509
 40
0.8105304257
 40
0.9031407918
 40
1.0
 40
1.0
 40
1.0
 40
1.0
 10
17.6617224336
 20
12.6330427493
 30
0.0
 10
17.6614795942
 20
12.6331524185
 30
0.0
 10
17.6610031739
 20
12.633391652
 30
0.0
 10
17.6603200994
 20
12.6338093664
 30
0.0
 10
17.6596704012
 20
12.6342847829
 30
0.0
 10
17.6590536846
 20
12.6348178149
 30
0.0
 10
17.6584694019
 20
12.6354084492
 30
0.0
 10
17.6577211554
 20
12.636286428
 30
0.0
 10
17.6568626106
 20
12.6375420827
 30
0.0
 10
17.6559686327
 20
12.6392548023
 30
0.0
 10
17.6551856833
 20
12.6411981566
 30
0.0
 10
17.6545058544
 20
12.6433734332
 30
0.0
 10
17.6539214453
 20
12.6457819794
 30
0.0
 10
17.6534254778
 20
12.6484246643
 30
0.0
 10
17.6530112062
 20
12.6513012957
 30
0.0
 10
17.6526726112
 20
12.6544100236
 30
0.0
 10
17.6524045245
 20
12.6577473551
 30
0.0
 10
17.6522017563
 20
12.6613077608
 30
0.0
 10
17.6520597012
 20
12.6650818265
 30
0.0
 10
17.6519764654
 20
12.6690559359
 30
0.0
 10
17.6519592365
 20
12.6717703249
 30
0.0
 10
17.6519592365
 20
12.6731579316
 30
0.0
 11
17.6617224336
 21
12.6330427493
 31
0.0
 11
17.6610081487
 21
12.6334016111
 31
0.0
 11
17.6603274716
 21
12.6338177385
 31
0.0
 11
17.6596798751
 21
12.6342911881
 31
0.0
 11
17.6590648316
 21
12.6348220169
 31
0.0
 11
17.6584818138
 21
12.6354102818
 31
0.0
 11
17.6579302358
 21
12.6360560644
 31
0.0
 11
17.6569181284
 21
12.6375209029
 31
0.0
 11
17.6560217122
 21
12.6392180802
 31
0.0
 11
17.6552341388
 21
12.6411491659
 31
0.0
 11
17.6545485962
 21
12.6433155206
 31
0.0
 11
17.6539584244
 21
12.6457176248
 31
0.0
 11
17.6534570033
 21
12.6483557273
 31
0.0
 11
17.6530377521
 21
12.6512299431
 31
0.0
 11
17.652694807
 21
12.6543379349
 31
0.0
 11
17.6524229321
 21
12.6576752182
 31
0.0
 11
17.6522169162
 21
12.6612372219
 31
0.0
 11
17.6520724332
 21
12.6650159049
 31
0.0
 11
17.6519872038
 21
12.6689952054
 31
0.0
 11
17.6519592365
 21
12.6731579316
 31
0.0
  0
SPLINE
  5
36B
100
AcDbEntity
  8
0
100
AcDbSpline
 62
7
  6
CONTINUOUS
 70
0
 71
3
 72
12
 73
8
 74
6
 42
0.0000001
 43
0.0000001
 44
0.0000000001
 12
0.0064473075
 22
-0.00345232
 32
0.0
 13
0.0073055588
 23
0.00033926
 33
0.0
 40
0.0
 40
0.0
 40
0.0
 40
0.0
 40
0.1115762845
 40
0.2254281048
 40
0.4632689419
 40
0.7198481431
 40
1.0
 40
1.0
 40
1.0
 40
1.0
 10
17.6740317122
 20
12.7529831181
 30
0.0
 10
17.6742715011
 20
12.7528547191
 30
0.0
 10
17.6747672351
 20
12.752615763
 30
0.0
 10
17.6758221826
 20
12.7522097345
 30
0.0
 10
17.6772653486
 20
12.7518437145
 30
0.0
 10
17.6791462574
 20
12.7516321104
 30
0.0
 10
17.6804574448
 20
12.7516344862
 30
0.0
 10
17.6811396668
 20
12.7516661677
 30
0.0
 11
17.6740317122
 21
12.7529831181
 31
0.0
 11
17.6747665442
 21
12.7526283127
 31
0.0
 11
17.6755433527
 21
12.7523285285
 31
0.0
 11
17.6772272695
 21
12.7518925805
 31
0.0
 11
17.6790908053
 21
12.7516726011
 31
0.0
 11
17.6811396668
 21
12.7516661677
 31
0.0
  0
SPLINE
  5
36C
100
AcDbEntity
  8
0
100
AcDbSpline
 62
6
  6
CONTINUOUS
 70
0
 71
3
 72
26
 73
22
 74
20
 42
0.0000001
 43
0.0000001
 44
0.0000000001
 12
-0.0389354886
 22
0.0208439122
 32
0.0
 13
-0.0
 23
0.0441637968
 33
0.0
 40
0.0
 40
0.0
 40
0.0
 40
0.0
 40
0.0190859261
 40
0.0381237616
 40
0.057245102
 40
0.0765801859
 40
0.1163620023
 40
0.1584052961
 40
0.1805283185
 40
0.2034916599
 40
0.2522117015
 40
0.3050644619
 40
0.3624145655
 40
0.424539755
 40
0.4916232497
 40
0.5637725515
 40
0.6410457136
 40
0.7234174857
 40
0.810828331
 40
0.9031116431
 40
1.0
 40
1.0
 40
1.0
 40
1.0
 10
17.6616990949
 20
12.7595793782
 30
0.0
 10
17.6614513883
 20
12.7597119866
 30
0.0
 10
17.6609664254
 20
12.7599957427
 30
0.0
 10
17.660273231
 20
12.7604763457
 30
0.0
 10
17.6596158524
 20
12.761010809
 30
0.0
 10
17.658778281
 20
12.7618027476
 30
0.0
 10
17.6578113951
 20
12.7629422048
 30
0.0
 10
17.6569792668
 20
12.7642309451
 30
0.0
 10
17.6563742788
 20
12.7653624767
 30
0.0
 10
17.6557862628
 20
12.7666125944
 30
0.0
 10
17.6551254709
 20
12.7683253585
 30
0.0
 10
17.6544526554
 20
12.7705678945
 30
0.0
 10
17.6538765693
 20
12.773039902
 30
0.0
 10
17.6533893823
 20
12.7757436733
 30
0.0
 10
17.652983842
 20
12.778680725
 30
0.0
 10
17.6526534463
 20
12.7818512719
 30
0.0
 10
17.6523918341
 20
12.7852538758
 30
0.0
 10
17.652194535
 20
12.7888857452
 30
0.0
 10
17.6520569136
 20
12.7927414184
 30
0.0
 10
17.6519759448
 20
12.7968124002
 30
0.0
 10
17.6519592365
 20
12.7995972887
 30
0.0
 10
17.6519592365
 20
12.8010236079
 30
0.0
 11
17.6616990949
 21
12.7595793782
 31
0.0
 11
17.6609716567
 21
12.7600052018
 31
0.0
 11
17.6602806574
 21
12.7604841968
 31
0.0
 11
17.6596252217
 21
12.7610166772
 31
0.0
 11
17.6590044275
 21
12.7616030031
 31
0.0
 11
17.6578630421
 21
12.7629386652
 31
0.0
 11
17.6568490477
 21
12.7644941362
 31
0.0
 11
17.6563874425
 21
12.7653552525
 31
0.0
 11
17.6559547955
 21
12.7662724839
 31
0.0
 11
17.6551724607
 21
12.7682768795
 31
0.0
 11
17.6544942711
 21
12.770510363
 31
0.0
 11
17.6539126703
 21
12.7729754812
 31
0.0
 11
17.6534201757
 21
12.7756746018
 31
0.0
 11
17.6530098172
 21
12.7786087066
 31
0.0
 11
17.6526751098
 21
12.7817774657
 31
0.0
 11
17.6524099329
 21
12.7851798237
 31
0.0
 11
17.6522094877
 21
12.7888121474
 31
0.0
 11
17.6520693538
 21
12.792669998
 31
0.0
 11
17.6519864958
 21
12.796744737
 31
0.0
 11
17.6519592365
 21
12.8010236079
 31
0.0
  0
SPLINE
  5
36D
100
AcDbEntity
  8
0
100
AcDbSpline
 62
7
  6
CONTINUOUS
 70
0
 71
3
 72
17
 73
13
 74
11
 42
0.0000001
 43
0.0000001
 44
0.0000000001
 12
0.0059046026
 22
-0.0036094948
 32
0.0
 13
0.0060476481
 23
0.0033643331
 33
0.0
 40
0.0
 40
0.0
 40
0.0
 40
0.0
 40
0.0465071763
 40
0.0930045324
 40
0.1401056506
 40
0.188393022
 40
0.2905107267
 40
0.4030708392
 40
0.5287368043
 40
0.6693559002
 40
0.8261590373
 40
1.0
 40
1.0
 40
1.0
 40
1.0
 10
17.6691241572
 20
12.8858806032
 30
0.0
 10
17.6692156926
 20
12.8858246474
 30
0.0
 10
17.669404937
 20
12.8857225118
 30
0.0
 10
17.6697049956
 20
12.8856007953
 30
0.0
 10
17.6700203533
 20
12.8855108658
 30
0.0
 10
17.6704696923
 20
12.8854314172
 30
0.0
 10
17.67107961
 20
12.8854144469
 30
0.0
 10
17.6718603768
 20
12.8855175702
 30
0.0
 10
17.6727075623
 20
12.8857391867
 30
0.0
 10
17.6736246445
 20
12.8860764662
 30
0.0
 10
17.6746146923
 20
12.8865273517
 30
0.0
 10
17.6752895121
 20
12.8868836961
 30
0.0
 10
17.6756399551
 20
12.887078649
 30
0.0
 11
17.6691241572
 21
12.8858806032
 31
0.0
 11
17.6694074424
 21
12.8857278367
 31
0.0
 11
17.6697055725
 21
12.8856067465
 31
0.0
 11
17.6700189365
 21
12.8855170032
 31
0.0
 11
17.670347912
 21
12.8854583065
 31
0.0
 11
17.6710541595
 21
12.8854329737
 31
0.0
 11
17.671827236
 21
12.885528596
 31
0.0
 11
17.6726700529
 21
12.8857430242
 31
0.0
 11
17.6735851262
 21
12.8860741737
 31
0.0
 11
17.6745744433
 21
12.886520046
 31
0.0
 11
17.6756399551
 21
12.887078649
 31
0.0
  0
SPLINE
  5
36E
100
AcDbEntity
  8
0
100
AcDbSpline
 62
6
  6
CONTINUOUS
 70
0
 71
3
 72
22
 73
18
 74
16
 42
0.0000001
 43
0.0000001
 44
0.0000000001
 12
-0.0200630615
 22
0.012274917
 32
0.0
 13
0.0
 23
0.0235202046
 33
0.0
 40
0.0
 40
0.0
 40
0.0
 40
0.0
 40
0.0312285935
 40
0.0642371518
 40
0.0999814524
 40
0.1392322346
 40
0.182587331
 40
0.2305053433
 40
0.2833237345
 40
0.3412769574
 40
0.4045425492
 40
0.4732508352
 40
0.5474559301
 40
0.6271750929
 40
0.7124092626
 40
0.8030764403
 40
1.0
 40
1.0
 40
1.0
 40
1.0
 10
17.6562756712
 20
12.8937397518
 30
0.0
 10
17.6560668241
 20
12.8938675279
 30
0.0
 10
17.6556611161
 20
12.8941712348
 30
0.0
 10
17.6551204155
 20
12.8947430517
 30
0.0
 10
17.654633572
 20
12.8954390091
 30
0.0
 10
17.6541971606
 20
12.8962599168
 30
0.0
 10
17.6538076008
 20
12.897207614
 30
0.0
 10
17.6534619019
 20
12.8982840906
 30
0.0
 10
17.6531573972
 20
12.8994910773
 30
0.0
 10
17.6528917647
 20
12.9008299227
 30
0.0
 10
17.6526628899
 20
12.9023016188
 30
0.0
 10
17.6524687207
 20
12.9039066259
 30
0.0
 10
17.6523076613
 20
12.905644823
 30
0.0
 10
17.6521782958
 20
12.9075155141
 30
0.0
 10
17.6520791266
 20
12.9095172519
 30
0.0
 10
17.6519831692
 20
12.9124387474
 30
0.0
 10
17.6519592365
 20
12.9146936923
 30
0.0
 10
17.6519592365
 20
12.9162375864
 30
0.0
 11
17.6562756712
 21
12.8937397518
 31
0.0
 11
17.6556861395
 21
12.8941778693
 31
0.0
 11
17.6551494788
 21
12.8947388886
 31
0.0
 11
17.6546633513
 21
12.8954248032
 31
0.0
 11
17.6542254039
 21
12.8962374994
 31
0.0
 11
17.6538332754
 21
12.89717881
 31
0.0
 11
17.6534846062
 21
12.898250562
 31
0.0
 11
17.6531771372
 21
12.8994542108
 31
0.0
 11
17.6529087732
 21
12.9007906034
 31
0.0
 11
17.6526774346
 21
12.9022605303
 31
0.0
 11
17.652481109
 21
12.9038645935
 31
0.0
 11
17.6523181794
 21
12.9056022909
 31
0.0
 11
17.6521871722
 21
12.9074727196
 31
0.0
 11
17.6520866272
 21
12.9094749218
 31
0.0
 11
17.6520154957
 21
12.9116062457
 31
0.0
 11
17.6519592365
 21
12.9162375864
 31
0.0
  0
SPLINE
  5
36F
100
AcDbEntity
  8
0
100
AcDbSpline
 62
7
  6
CONTINUOUS
 70
0
 71
3
 72
22
 73
18
 74
16
 42
0.0000001
 43
0.0000001
 44
0.0000000001
 12
0.0114860697
 22
-0.007789446
 32
0.0
 13
0.0114742494
 23
0.0078068474
 33
0.0
 40
0.0
 40
0.0
 40
0.0
 40
0.0
 40
0.0352878235
 40
0.0708084659
 40
0.1077977147
 40
0.1473344581
 40
0.1902876688
 40
0.2373268712
 40
0.2889559682
 40
0.345551248
 40
0.4073935845
 40
0.4746965183
 40
0.5476261877
 40
0.6263141104
 40
0.7108515973
 40
0.8012896515
 40
1.0
 40
1.0
 40
1.0
 40
1.0
 10
17.6687240803
 20
12.987295856
 30
0.0
 10
17.6688591864
 20
12.9872042318
 30
0.0
 10
17.6691471526
 20
12.987043786
 30
0.0
 10
17.6696217581
 20
12.9868827708
 30
0.0
 10
17.670135937
 20
12.9868013692
 30
0.0
 10
17.6706903503
 20
12.98679701
 30
0.0
 10
17.6712867191
 20
12.9868671629
 30
0.0
 10
17.6719270954
 20
12.9870097463
 30
0.0
 10
17.6726136252
 20
12.9872230435
 30
0.0
 10
17.6733483818
 20
12.9875055399
 30
0.0
 10
17.6741332582
 20
12.9878560095
 30
0.0
 10
17.6749700037
 20
12.9882733323
 30
0.0
 10
17.6758603085
 20
12.9887563757
 30
0.0
 10
17.6768057657
 20
12.9893039618
 30
0.0
 10
17.6778077712
 20
12.9899148631
 30
0.0
 10
17.6792670329
 20
12.9908417944
 30
0.0
 10
17.6803796494
 20
12.9915846344
 30
0.0
 10
17.6811396668
 20
12.9921017348
 30
0.0
 11
17.6687240803
 21
12.987295856
 31
0.0
 11
17.669152113
 21
12.987057894
 31
0.0
 11
17.6696185327
 21
12.9868983138
 31
0.0
 11
17.6701251634
 21
12.9868155567
 31
0.0
 11
17.6706738126
 21
12.9868080892
 31
0.0
 11
17.6712662177
 21
12.9868744871
 31
0.0
 11
17.6719040976
 21
12.987013355
 31
0.0
 11
17.6725891711
 21
12.9872232977
 31
0.0
 11
17.6733231502
 21
12.9875029302
 31
0.0
 11
17.6741076696
 21
12.9878509865
 31
0.0
 11
17.6749443152
 21
12.9882662759
 31
0.0
 11
17.675834672
 21
12.9887476089
 31
0.0
 11
17.6767803208
 21
12.9892937953
 31
0.0
 11
17.6777826216
 21
12.9899036013
 31
0.0
 11
17.678842608
 21
12.9905757288
 31
0.0
 11
17.6811396668
 21
12.9921017348
 31
0.0
  0
SPLINE
  5
370
100
AcDbEntity
  8
0
100
AcDbSpline
 62
6
  6
CONTINUOUS
 70
0
 71
3
 72
22
 73
18
 74
16
 42
0.0000001
 43
0.0000001
 44
0.0000000001
 12
-0.0180317756
 22
0.0122371178
 32
0.0
 13
0.0
 23
0.0217920165
 33
0.0
 40
0.0
 40
0.0
 40
0.0
 40
0.0
 40
0.0312751293
 40
0.0644502149
 40
0.1004182872
 40
0.1398999542
 40
0.1834596489
 40
0.2315272496
 40
0.2844133567
 40
0.3423555798
 40
0.4055414715
 40
0.4740976789
 40
0.5480939658
 40
0.6275805337
 40
0.7125874259
 40
0.8030620048
 40
1.0
 40
1.0
 40
1.0
 40
1.0
 10
17.6558134888
 20
12.9960601708
 30
0.0
 10
17.6556255067
 20
12.9961877432
 30
0.0
 10
17.6552613448
 20
12.9964862595
 30
0.0
 10
17.6547779461
 20
12.9970360065
 30
0.0
 10
17.6543431151
 20
12.997697019
 30
0.0
 10
17.6539536253
 20
12.9984705033
 30
0.0
 10
17.6536061876
 20
12.9993584339
 30
0.0
 10
17.6532980071
 20
13.000362746
 30
0.0
 10
17.6530266859
 20
13.0014852043
 30
0.0
 10
17.6527901011
 20
13.0027273188
 30
0.0
 10
17.6525861966
 20
13.0040903115
 30
0.0
 10
17.652413203
 20
13.0055749671
 30
0.0
 10
17.6522697593
 20
13.0071816312
 30
0.0
 10
17.6521545156
 20
13.0089103047
 30
0.0
 10
17.6520660509
 20
13.0107603751
 30
0.0
 10
17.6519804425
 20
13.013464363
 30
0.0
 10
17.6519592365
 20
13.0155523151
 30
0.0
 10
17.6519592365
 20
13.0169828738
 30
0.0
 11
17.6558134888
 21
12.9960601708
 31
0.0
 11
17.6552847742
 21
12.9964902508
 31
0.0
 11
17.654804297
 21
12.997030437
 31
0.0
 11
17.6543697022
 21
12.9976827377
 31
0.0
 11
17.653978662
 21
12.9984491255
 31
0.0
 11
17.6536288491
 21
12.9993315728
 31
0.0
 11
17.6533180095
 21
13.0003318797
 31
0.0
 11
17.653044101
 21
13.0014513522
 31
0.0
 11
17.6528051186
 21
13.0026912082
 31
0.0
 11
17.6525990647
 21
13.0040526514
 31
0.0
 11
17.6524242003
 21
13.0055363605
 31
0.0
 11
17.6522791142
 21
13.0071423485
 31
0.0
 11
17.6521624168
 21
13.0088705857
 31
0.0
 11
17.6520727697
 21
13.0107208868
 31
0.0
 11
17.6520093608
 21
13.0126914904
 31
0.0
 11
17.6519592365
 21
13.0169828738
 31
0.0
  0
SPLINE
  5
371
100
AcDbEntity
  8
0
100
AcDbSpline
 62
6
  6
CONTINUOUS
 70
0
 71
3
 72
19
 73
15
 74
13
 42
0.0000001
 43
0.0000001
 44
0.0000000001
 12
-0.0060446806
 22
0.0047047951
 32
0.0
 13
0.0
 23
0.0076598473
 33
0.0
 40
0.0
 40
0.0
 40
0.0
 40
0.0
 40
0.0557373962
 40
0.0891770303
 40
0.1270620894
 40
0.1697643947
 40
0.2175456656
 40
0.2706000439
 40
0.3290761396
 40
0.3930912817
 40
0.4627400423
 40
0.6190931781
 40
0.798206065
 40
1.0
 40
1.0
 40
1.0
 40
1.0
 10
17.6531031108
 20
13.1615213124
 30
0.0
 10
17.6529908059
 20
13.1616087234
 30
0.0
 10
17.6528432474
 20
13.1617895769
 30
0.0
 10
17.6526884096
 20
13.1620744246
 30
0.0
 10
17.6525757932
 20
13.1623435783
 30
0.0
 10
17.6524737091
 20
13.1626552405
 30
0.0
 10
17.6523815499
 20
13.1630101746
 30
0.0
 10
17.6522991019
 20
13.1634086299
 30
0.0
 10
17.6522260755
 20
13.1638509604
 30
0.0
 10
17.6521622124
 20
13.1643374476
 30
0.0
 10
17.6520860156
 20
13.1650740866
 30
0.0
 10
17.6520159772
 20
13.1661063944
 30
0.0
 10
17.6519683495
 20
13.1674775016
 30
0.0
 10
17.6519592365
 20
13.1684501212
 30
0.0
 10
17.6519592365
 20
13.1689653581
 30
0.0
 11
17.6531031108
 21
13.1615213124
 31
0.0
 11
17.6528215433
 21
13.1618422445
 31
0.0
 11
17.6526974479
 21
13.1620663188
 31
0.0
 11
17.6525839773
 21
13.1623334084
 31
0.0
 11
17.6524808352
 21
13.162643814
 31
0.0
 11
17.652387755
 21
13.1629977774
 31
0.0
 11
17.6523044701
 21
13.1633955401
 31
0.0
 11
17.652230714
 21
13.1638373438
 31
0.0
 11
17.6521662202
 21
13.1643234302
 31
0.0
 11
17.6521107241
 21
13.1648540348
 31
0.0
 11
17.6520260505
 21
13.166048679
 31
0.0
 11
17.6519758115
 21
13.1674197362
 31
0.0
 11
17.6519592365
 21
13.1689653581
 31
0.0
  0
SPLINE
  5
372
100
AcDbEntity
  8
0
100
AcDbSpline
 62
7
  6
CONTINUOUS
 70
0
 71
3
 72
30
 73
26
 74
24
 42
0.0000001
 43
0.0000001
 44
0.0000000001
 12
0.0075853478
 22
-0.0063355525
 32
0.0
 13
0.0028178804
 23
0.0094729234
 33
0.0
 40
0.0
 40
0.0
 40
0.0
 40
0.0
 40
0.0012637984
 40
0.0024403521
 40
0.0037696906
 40
0.0054263938
 40
0.0075035701
 40
0.0100474155
 40
0.016617058
 40
0.0252289912
 40
0.0359102174
 40
0.0486666829
 40
0.0634951008
 40
0.0803875521
 40
0.0993335637
 40
0.1203211541
 40
0.1433373339
 40
0.1953884038
 40
0.2553348255
 40
0.3230178336
 40
0.3982778521
 40
0.4809556727
 40
0.5708909248
 40
0.7718873376
 40
1.0
 40
1.0
 40
1.0
 40
1.0
 10
17.6657147628
 20
13.2352443619
 30
0.0
 10
17.6657179583
 20
13.2352416929
 30
0.0
 10
17.6657250672
 20
13.2352373654
 30
0.0
 10
17.6657379383
 20
13.2352366035
 30
0.0
 10
17.665750905
 20
13.2352419758
 30
0.0
 10
17.6657640065
 20
13.2352524834
 30
0.0
 10
17.6657776978
 20
13.235268076
 30
0.0
 10
17.6657987248
 20
13.2352984182
 30
0.0
 10
17.665826049
 20
13.2353502016
 30
0.0
 10
17.6658599979
 20
13.2354283674
 30
0.0
 10
17.665897298
 20
13.2355271834
 30
0.0
 10
17.6659380465
 20
13.2356464898
 30
0.0
 10
17.6659822943
 20
13.2357861851
 30
0.0
 10
17.6660301286
 20
13.2359461053
 30
0.0
 10
17.6660816354
 20
13.2361260907
 30
0.0
 10
17.6661369116
 20
13.236325971
 30
0.0
 10
17.6662191815
 20
13.236631533
 30
0.0
 10
17.6663315473
 20
13.2370618973
 30
0.0
 10
17.666478562
 20
13.2376352867
 30
0.0
 10
17.6666438029
 20
13.2382829353
 30
0.0
 10
17.6668283935
 20
13.2390029316
 30
0.0
 10
17.6670334372
 20
13.2397933608
 30
0.0
 10
17.6673474945
 20
13.2409834358
 30
0.0
 10
17.6677978642
 20
13.2426330377
 30
0.0
 10
17.6681899612
 20
13.2439912979
 30
0.0
 10
17.668404226
 20
13.2447115959
 30
0.0
 11
17.6657147628
 21
13.2352443619
 31
0.0
 11
17.6657256495
 21
13.235238239
 31
0.0
 11
17.6657372513
 21
13.235237459
 31
0.0
 11
17.6657495731
 21
13.2352420177
 31
0.0
 11
17.6657626196
 21
13.2352519111
 31
0.0
 11
17.6657763981
 21
13.2352671294
 31
0.0
 11
17.6657909208
 21
13.2352876518
 31
0.0
 11
17.6658222501
 21
13.2353445221
 31
0.0
 11
17.6658567095
 21
13.2354223474
 31
0.0
 11
17.6658944011
 21
13.2355209534
 31
0.0
 11
17.665935427
 21
13.2356401656
 31
0.0
 11
17.6659798892
 21
13.2357798097
 31
0.0
 11
17.6660278897
 21
13.2359397112
 31
0.0
 11
17.6660795306
 21
13.2361196957
 31
0.0
 11
17.6661349139
 21
13.2363195887
 31
0.0
 11
17.6661941424
 21
13.236539215
 31
0.0
 11
17.6663246364
 21
13.2370368175
 31
0.0
 11
17.666472126
 21
13.2376106252
 31
0.0
 11
17.6666377507
 21
13.2382587182
 31
0.0
 11
17.6668226499
 21
13.2389791765
 31
0.0
 11
17.6670279641
 21
13.2397700793
 31
0.0
 11
17.6672548892
 21
13.2406294677
 31
0.0
 11
17.6677786718
 21
13.2425456484
 31
0.0
 11
17.668404226
 21
13.2447115959
 31
0.0
  0
SPLINE
  5
373
100
AcDbEntity
  8
0
100
AcDbSpline
 62
6
  6
CONTINUOUS
 70
0
 71
3
 72
15
 73
11
 74
9
 42
0.0000001
 43
0.0000001
 44
0.0000000001
 12
0.0454825895
 22
-0.1394581537
 32
0.0
 13
0.1042349614
 23
-0.1032100547
 33
0.0
 40
0.0
 40
0.0
 40
0.0
 40
0.0
 40
0.1210547695
 40
0.2435126466
 40
0.3672353058
 40
0.492110321
 40
0.6179924437
 40
0.7447181399
 40
0.8721279205
 40
1.0
 40
1.0
 40
1.0
 40
1.0
 10
17.6621634005
 20
11.3422865834
 30
0.0
 10
17.6639986953
 20
11.3366592252
 30
0.0
 10
17.6680488184
 20
11.3254529081
 30
0.0
 10
17.6751720382
 20
11.3089587854
 30
0.0
 10
17.6833488988
 20
11.2927508025
 30
0.0
 10
17.6925458806
 20
11.2769056028
 30
0.0
 10
17.7027304487
 20
11.2615000431
 30
0.0
 10
17.7138677796
 20
11.2466131078
 30
0.0
 10
17.725919616
 20
11.2323293735
 30
0.0
 10
17.7345261153
 20
11.2232764743
 30
0.0
 10
17.738969029
 20
11.2188772462
 30
0.0
 11
17.6621634005
 21
11.3422865834
 31
0.0
 11
17.6681918635
 21
11.3255839836
 31
0.0
 11
17.6753083116
 21
11.3090907345
 31
0.0
 11
17.6834788325
 21
11.2928853836
 31
0.0
 11
17.6926716922
 21
11.2770415756
 31
0.0
 11
17.7028536757
 21
11.261637158
 31
0.0
 11
17.7139893623
 21
11.2467525843
 31
0.0
 11
17.7260427041
 21
11.2324693152
 31
0.0
 11
17.738969029
 21
11.2188772462
 31
0.0
  0
SPLINE
  5
374
100
AcDbEntity
  8
0
100
AcDbSpline
 62
6
  6
CONTINUOUS
 70
0
 71
3
 72
17
 73
13
 74
11
 42
0.0000001
 43
0.0000001
 44
0.0000000001
 12
-0.0838259444
 22
-0.0079160236
 32
0.0
 13
-0.05405531
 23
-0.06455599
 33
0.0
 40
0.0
 40
0.0
 40
0.0
 40
0.0
 40
0.1486790566
 40
0.2898568278
 40
0.4236827396
 40
0.5504947756
 40
0.6707643802
 40
0.7851445354
 40
0.8404131373
 40
0.8945543509
 40
0.9477023212
 40
1.0
 40
1.0
 40
1.0
 40
1.0
 10
17.7388395275
 20
13.1329868664
 30
0.0
 10
17.73468514
 20
13.1325945508
 30
0.0
 10
17.7266070515
 20
13.1315722798
 30
0.0
 10
17.7149349867
 20
13.1292456032
 30
0.0
 10
17.7040678709
 20
13.1261844381
 30
0.0
 10
17.6940503532
 20
13.122409099
 30
0.0
 10
17.6849250561
 20
13.1179394677
 30
0.0
 10
17.67801871
 20
13.1136019724
 30
0.0
 10
17.6730118879
 20
13.1098042211
 30
0.0
 10
17.6695489393
 20
13.1068290819
 30
0.0
 10
17.6663414728
 20
13.1036985818
 30
0.0
 10
17.6643627759
 20
13.1014942863
 30
0.0
 10
17.6634204535
 20
13.1003689102
 30
0.0
 11
17.7388395275
 21
13.1329868664
 31
0.0
 11
17.7264224135
 21
13.1313959864
 31
0.0
 11
17.7147689809
 21
13.1290510898
 31
0.0
 11
17.703929437
 21
13.1259734369
 31
0.0
 11
17.693946863
 21
13.1221845357
 31
0.0
 11
17.6848641454
 21
13.1177066349
 31
0.0
 11
17.6767223023
 21
13.1125626656
 31
0.0
 11
17.6730165379
 21
13.1097479043
 31
0.0
 11
17.6695606837
 21
13.106774997
 31
0.0
 11
17.6663601047
 21
13.1036473912
 31
0.0
 11
17.6634204535
 21
13.1003689102
 31
0.0
  0
LINE
  5
375
100
AcDbEntity
  8
0
100
AcDbLine
 62
6
  6
CONTINUOUS
 10
17.738969029
 20
13.2724474668
 11
17.7388166915
 21
13.2174357805
  0
LINE
  5
376
100
AcDbEntity
  8
0
100
AcDbLine
 62
6
  6
CONTINUOUS
 10
17.738969029
 20
12.5500517231
 11
17.7388166915
 21
12.4328286843
  0
SPLINE
  5
377
100
AcDbEntity
  8
0
100
AcDbSpline
 62
6
  6
CONTINUOUS
 70
0
 71
3
 72
11
 73
7
 74
5
 42
0.0000001
 43
0.0000001
 44
0.0000000001
 12
0.005622877
 22
-0.0485675488
 32
0.0
 13
0.0152522917
 23
-0.0464520306
 33
0.0
 40
0.0
 40
0.0
 40
0.0
 40
0.0
 40
0.2334706718
 40
0.4790769397
 40
0.7350872304
 40
1.0
 40
1.0
 40
1.0
 40
1.0
 10
17.6519471159
 20
10.8031414205
 30
0.0
 10
17.6523847082
 20
10.7993617211
 30
0.0
 10
17.6534346031
 20
10.791622422
 30
0.0
 10
17.6555700811
 20
10.7798297996
 30
0.0
 10
17.6584167095
 20
10.7676602917
 30
0.0
 10
17.6608165583
 20
10.7595106007
 30
0.0
 10
17.6621634005
 20
10.7554086887
 30
0.0
 11
17.6519471159
 21
10.8031414205
 31
0.0
 11
17.653489197
 21
10.7918312252
 31
0.0
 11
17.6556370947
 21
10.7800167124
 31
0.0
 11
17.6584960362
 21
10.7678307431
 31
0.0
 11
17.6621634005
 21
10.7554086887
 31
0.0
  0
LINE
  5
378
100
AcDbEntity
  8
0
100
AcDbLine
 62
6
  6
CONTINUOUS
 10
17.738969029
 20
11.8683270468
 11
17.7388166915
 21
11.7441812398
  0
SPLINE
  5
379
100
AcDbEntity
  8
0
100
AcDbSpline
 62
6
  6
CONTINUOUS
 70
0
 71
3
 72
29
 73
25
 74
23
 42
0.0000001
 43
0.0000001
 44
0.0000000001
 12
-0.015768128
 22
-0.0188569164
 32
0.0
 13
-0.0193976792
 23
0.0150979204
 33
0.0
 40
0.0
 40
0.0
 40
0.0
 40
0.0
 40
0.2237742342
 40
0.3253663991
 40
0.4199214436
 40
0.5073607038
 40
0.5876128006
 40
0.660603501
 40
0.7262567169
 40
0.7845042546
 40
0.8352969838
 40
0.8578939048
 40
0.8786295261
 40
0.8975164892
 40
0.91457806
 40
0.9298531093
 40
0.9434047391
 40
0.9553342354
 40
0.9607412621
 40
0.9658103645
 40
0.9750712978
 40
0.9835038188
 40
0.9916189297
 40
1.0
 40
1.0
 40
1.0
 40
1.0
 10
17.6691913027
 20
13.1794457101
 30
0.0
 10
17.6680151358
 20
13.1780391461
 30
0.0
 10
17.6663253714
 20
13.1759768746
 30
0.0
 10
17.6641787417
 20
13.1732879519
 30
0.0
 10
17.6627411919
 20
13.1714624042
 30
0.0
 10
17.6614194038
 20
13.1697682998
 30
0.0
 10
17.6602089993
 20
13.1682114049
 30
0.0
 10
17.6591055378
 20
13.1667974764
 30
0.0
 10
17.6581041878
 20
13.1655325715
 30
0.0
 10
17.6572001507
 20
13.164422757
 30
0.0
 10
17.6564991473
 20
13.1636027542
 30
0.0
 10
17.6559800142
 20
13.1630323227
 30
0.0
 10
17.6556271619
 20
13.1626642649
 30
0.0
 10
17.6552947681
 20
13.1623397245
 30
0.0
 10
17.654982149
 20
13.1620594486
 30
0.0
 10
17.6546885865
 20
13.1618241132
 30
0.0
 10
17.6544133369
 20
13.1616344253
 30
0.0
 10
17.6541916241
 20
13.1615111285
 30
0.0
 10
17.6540229218
 20
13.1614383081
 30
0.0
 10
17.6538699445
 20
13.1613855506
 30
0.0
 10
17.653686192
 20
13.1613469903
 30
0.0
 10
17.6534726136
 20
13.1613504507
 30
0.0
 10
17.6532739993
 20
13.1614076549
 30
0.0
 10
17.653157302
 20
13.1614791334
 30
0.0
 10
17.6531031108
 20
13.1615213124
 30
0.0
 11
17.6691913027
 21
13.1794457101
 31
0.0
 11
17.6657033626
 21
13.1751924299
 31
0.0
 11
17.6641450203
 21
13.1732411033
 31
0.0
 11
17.6627065417
 21
13.1714154864
 31
0.0
 11
17.661383689
 21
13.169721474
 31
0.0
 11
17.6601719782
 21
13.1681648248
 31
0.0
 11
17.6590668291
 21
13.1667514253
 31
0.0
 11
17.6580634211
 21
13.1654874804
 31
0.0
 11
17.6571568963
 21
13.1643792449
 31
0.0
 11
17.6563423153
 21
13.1634330532
 31
0.0
 11
17.6559679133
 21
13.1630227497
 31
0.0
 11
17.655614585
 21
13.1626553916
 31
0.0
 11
17.6552816918
 21
13.1623317918
 31
0.0
 11
17.6549685964
 21
13.1620527627
 31
0.0
 11
17.6546746778
 21
13.1618191133
 31
0.0
 11
17.6543993233
 21
13.1616316503
 31
0.0
 11
17.6541419206
 21
13.1614911805
 31
0.0
 11
17.6540197598
 21
13.1614388203
 31
0.0
 11
17.6539018573
 21
13.1613985109
 31
0.0
 11
17.653678521
 21
13.1613544483
 31
0.0
 11
17.6534713112
 21
13.1613597778
 31
0.0
 11
17.6532796836
 21
13.1614151818
 31
0.0
 11
17.6531031108
 21
13.1615213124
 31
0.0
  0
LINE
  5
37A
100
AcDbEntity
  8
0
100
AcDbLine
 62
6
  6
CONTINUOUS
 10
17.738969029
 20
10.9579215796
 11
17.7388166915
 21
10.8794063781
  0
SPLINE
  5
37B
100
AcDbEntity
  8
0
100
AcDbSpline
 62
6
  6
CONTINUOUS
 70
0
 71
3
 72
15
 73
11
 74
9
 42
0.0000001
 43
0.0000001
 44
0.0000000001
 12
0.0520384958
 22
-0.1101437191
 32
0.0
 13
0.0934759673
 23
-0.0781145789
 33
0.0
 40
0.0
 40
0.0
 40
0.0
 40
0.0
 40
0.1077553178
 40
0.2207025524
 40
0.3387583954
 40
0.4618194854
 40
0.5897166505
 40
0.7222282659
 40
0.8591062404
 40
1.0
 40
1.0
 40
1.0
 40
1.0
 10
17.6621634005
 20
11.9617315363
 30
0.0
 10
17.6640325421
 20
11.9577753458
 30
0.0
 10
17.6681662224
 20
11.9498139762
 30
0.0
 10
17.6753022986
 20
11.938044211
 30
0.0
 10
17.6834893031
 20
11.9262158133
 30
0.0
 10
17.692694013
 20
11.9143830779
 30
0.0
 10
17.702884037
 20
11.9026004755
 30
0.0
 10
17.7140247306
 20
11.8909243108
 30
0.0
 10
17.726077949
 20
11.8794152547
 30
0.0
 10
17.7345789689
 20
11.8719956657
 30
0.0
 10
17.738969029
 20
11.8683270468
 30
0.0
 11
17.6621634005
 21
11.9617315363
 31
0.0
 11
17.6681918635
 21
11.9500711832
 31
0.0
 11
17.6753083116
 21
11.9382955024
 31
0.0
 11
17.6834788325
 21
11.9264605792
 31
0.0
 11
17.6926716922
 21
11.9146189842
 31
0.0
 11
17.7028536757
 21
11.902826214
 31
0.0
 11
17.7139893623
 21
11.8911398689
 31
0.0
 11
17.7260427041
 21
11.8796183115
 31
0.0
 11
17.738969029
 21
11.8683270468
 31
0.0
  0
LINE
  5
37C
100
AcDbEntity
  8
0
100
AcDbLine
 62
6
  6
CONTINUOUS
 10
17.7389721548
 20
11.3735770179
 11
17.7388395275
 21
11.2720870164
  0
LINE
  5
37D
100
AcDbEntity
  8
0
100
AcDbLine
 62
6
  6
CONTINUOUS
 10
17.7389721548
 20
12.70984218
 11
17.7388395275
 21
12.6075333595
  0
SPLINE
  5
37E
100
AcDbEntity
  8
0
100
AcDbSpline
 62
6
  6
CONTINUOUS
 70
0
 71
3
 72
14
 73
10
 74
8
 42
0.0000001
 43
0.0000001
 44
0.0000000001
 12
0.0046108565
 22
-0.0422334311
 32
0.0
 13
0.0181485653
 23
-0.0384129181
 33
0.0
 40
0.0
 40
0.0
 40
0.0
 40
0.0
 40
0.1365103033
 40
0.2696269505
 40
0.3993385329
 40
0.5256870388
 40
0.6487807258
 40
0.7687797473
 40
1.0
 40
1.0
 40
1.0
 40
1.0
 10
17.6519471159
 20
12.0027778902
 30
0.0
 10
17.6521569257
 20
12.000856124
 30
0.0
 10
17.6526163726
 20
11.9970650587
 30
0.0
 10
17.6534521513
 20
11.9914711403
 30
0.0
 10
17.6544393252
 20
11.9860478593
 30
0.0
 10
17.655591236
 20
11.9808022513
 30
0.0
 10
17.6569212498
 20
11.9757402909
 30
0.0
 10
17.658923844
 20
11.969327656
 30
0.0
 10
17.6607646286
 20
11.9646921511
 30
0.0
 10
17.6621634005
 20
11.9617315363
 30
0.0
 11
17.6519471159
 21
12.0027778902
 31
0.0
 11
17.6526490339
 21
11.9970209675
 31
0.0
 11
17.6534891898
 21
11.9914283434
 31
0.0
 11
17.6544808109
 21
11.9860075794
 31
0.0
 11
17.655637089
 21
11.9807657565
 31
0.0
 11
17.6569711619
 21
11.9757092222
 31
0.0
 11
17.6584960371
 21
11.9708445312
 31
0.0
 11
17.6621634005
 21
11.9617315363
 31
0.0
  0
LINE
  5
37F
100
AcDbEntity
  8
0
100
AcDbLine
 62
6
  6
CONTINUOUS
 10
17.738969029
 20
12.8494518048
 11
17.7388166915
 21
12.7469702092
  0
SPLINE
  5
380
100
AcDbEntity
  8
0
100
AcDbSpline
 62
6
  6
CONTINUOUS
 70
0
 71
3
 72
38
 73
34
 74
32
 42
0.0000001
 43
0.0000001
 44
0.0000000001
 12
-0.0212836667
 22
-0.0358925989
 32
0.0
 13
-0.0320548996
 23
0.0267162223
 33
0.0
 40
0.0
 40
0.0
 40
0.0
 40
0.0
 40
0.1118860664
 40
0.2183452792
 40
0.3191041711
 40
0.4139451447
 40
0.5026697079
 40
0.5850546216
 40
0.6608518934
 40
0.729794225
 40
0.7915940323
 40
0.819721399
 40
0.8459472029
 40
0.870230435
 40
0.8925296134
 40
0.9128031648
 40
0.931011615
 40
0.9471170496
 40
0.9610824393
 40
0.9672516052
 40
0.9728729474
 40
0.9779435363
 40
0.9824616173
 40
0.9864262752
 40
0.9898379602
 40
0.9926995681
 40
0.9950187862
 40
0.996813864
 40
0.9975283077
 40
0.9981336035
 40
0.9990937501
 40
0.9995313925
 40
1.0
 40
1.0
 40
1.0
 40
1.0
 10
17.6691913027
 20
13.2844936688
 30
0.0
 10
17.6683975208
 20
13.2831550415
 30
0.0
 10
17.6668818288
 20
13.2805227501
 30
0.0
 10
17.6647652882
 20
13.276620796
 30
0.0
 10
17.6628541598
 20
13.27287864
 30
0.0
 10
17.6611399609
 20
13.269314241
 30
0.0
 10
17.6596130681
 20
13.2659444844
 30
0.0
 10
17.6582631691
 20
13.2627862796
 30
0.0
 10
17.6570794423
 20
13.2598570309
 30
0.0
 10
17.6560510958
 20
13.2571743779
 30
0.0
 10
17.6552921587
 20
13.2550989122
 30
0.0
 10
17.6547517043
 20
13.2535763497
 30
0.0
 10
17.6543910672
 20
13.2525437138
 30
0.0
 10
17.6540608965
 20
13.2515863177
 30
0.0
 10
17.6537598585
 20
13.250706457
 30
0.0
 10
17.6534865795
 20
13.2499064057
 30
0.0
 10
17.6532398776
 20
13.2491883147
 30
0.0
 10
17.6530186339
 20
13.2485542618
 30
0.0
 10
17.6528482372
 20
13.2480798371
 30
0.0
 10
17.6527228915
 20
13.2477442229
 30
0.0
 10
17.6526384502
 20
13.2475254157
 30
0.0
 10
17.6525595159
 20
13.2473291186
 30
0.0
 10
17.6524860044
 20
13.2471555077
 30
0.0
 10
17.6524178322
 20
13.2470047346
 30
0.0
 10
17.652354914
 20
13.246876951
 30
0.0
 10
17.6522971961
 20
13.2467722069
 30
0.0
 10
17.6522445382
 20
13.2466906212
 30
0.0
 10
17.6522021613
 20
13.246638148
 30
0.0
 10
17.6521697528
 20
13.2466091317
 30
0.0
 10
17.6521434916
 20
13.2465914821
 30
0.0
 10
17.6521151725
 20
13.2465827817
 30
0.0
 10
17.6520894425
 20
13.2465891565
 30
0.0
 10
17.6520786869
 20
13.2465961238
 30
0.0
 10
17.6520736798
 20
13.246600297
 30
0.0
 11
17.6691913027
 21
13.2844936688
 31
0.0
 11
17.6668618711
 21
13.2804474531
 31
0.0
 11
17.6647442023
 21
13.2765422886
 31
0.0
 11
17.6628321833
 21
13.2727976651
 31
0.0
 11
17.6611171852
 21
13.2692309856
 31
0.0
 11
17.6595892773
 21
13.265858615
 31
0.0
 11
17.6582381135
 21
13.2626974674
 31
0.0
 11
17.6570529588
 21
13.2597649912
 31
0.0
 11
17.6560228709
 21
13.257078866
 31
0.0
 11
17.6551365747
 21
13.2546571357
 31
0.0
 11
17.6547438291
 21
13.2535510811
 31
0.0
 11
17.6543828573
 21
13.2525179622
 31
0.0
 11
17.6540523045
 21
13.2515600892
 31
0.0
 11
17.6537508155
 21
13.2506797721
 31
0.0
 11
17.6534770459
 21
13.2498793079
 31
0.0
 11
17.6532297627
 21
13.249160861
 31
0.0
 11
17.6530077978
 21
13.2485265174
 31
0.0
 11
17.652809984
 21
13.2479783624
 31
0.0
 11
17.6527197691
 21
13.2477372573
 31
0.0
 11
17.6526351554
 21
13.2475184792
 31
0.0
 11
17.6525560205
 21
13.2473222463
 31
0.0
 11
17.6524822626
 21
13.2471487399
 31
0.0
 11
17.6524137804
 21
13.2469981398
 31
0.0
 11
17.6523504728
 21
13.2468706256
 31
0.0
 11
17.6522922387
 21
13.2467663772
 31
0.0
 11
17.652238977
 21
13.2466855743
 31
0.0
 11
17.6521905865
 21
13.2466283968
 31
0.0
 11
17.6521681863
 21
13.2466087237
 31
0.0
 11
17.652146966
 21
13.2465950244
 31
0.0
 11
17.6521080175
 21
13.2465856295
 31
0.0
 11
17.6520902747
 21
13.2465899537
 31
0.0
 11
17.6520736798
 21
13.246600297
 31
0.0
  0
SPLINE
  5
381
100
AcDbEntity
  8
0
100
AcDbSpline
 62
6
  6
CONTINUOUS
 70
0
 71
3
 72
19
 73
15
 74
13
 42
0.0000001
 43
0.0000001
 44
0.0000000001
 12
0.055188138
 22
-0.0986936363
 32
0.0
 13
0.0898781438
 23
-0.0686154771
 33
0.0
 40
0.0
 40
0.0
 40
0.0
 40
0.0
 40
0.0504017445
 40
0.1024941109
 40
0.1562665581
 40
0.2117074849
 40
0.2688089981
 40
0.3275597501
 40
0.3879424661
 40
0.449935028
 40
0.5786349493
 40
0.7134191357
 40
0.8540053842
 40
1.0
 40
1.0
 40
1.0
 40
1.0
 10
17.6621771334
 20
12.1297773107
 30
0.0
 10
17.6631043262
 20
12.1281192002
 30
0.0
 10
17.6650556409
 20
12.1247838054
 30
0.0
 10
17.6682100151
 20
12.1198083782
 30
0.0
 10
17.6716357906
 20
12.1147841594
 30
0.0
 10
17.6753286626
 20
12.1097174231
 30
0.0
 10
17.6792846532
 20
12.1046138486
 30
0.0
 10
17.683499883
 20
12.0994789326
 30
0.0
 10
17.6879704679
 20
12.0943182666
 30
0.0
 10
17.6943460997
 20
12.087323595
 30
0.0
 10
17.7029396521
 20
12.0785617454
 30
0.0
 10
17.7140784277
 20
12.0681682824
 30
0.0
 10
17.7261318005
 20
12.0578199551
 30
0.0
 10
17.7345982464
 20
12.0511069447
 30
0.0
 10
17.7389721548
 20
12.0477677813
 30
0.0
 11
17.6621771334
 21
12.1297773107
 31
0.0
 11
17.6650518964
 21
12.1248562448
 31
0.0
 11
17.668203065
 21
12.1198796135
 31
0.0
 11
17.6716259396
 21
12.1148541963
 31
0.0
 11
17.6753161185
 21
12.1097863203
 31
0.0
 11
17.6792697379
 21
12.104681495
 31
0.0
 11
17.683482983
 21
12.0995451596
 31
0.0
 11
17.6879519212
 21
12.0943830019
 31
0.0
 11
17.6926725266
 21
12.0892009069
 31
0.0
 11
17.7028521486
 21
12.078800854
 31
0.0
 11
17.7139870378
 21
12.0683942389
 31
0.0
 11
17.7260417419
 21
12.0580310265
 31
0.0
 11
17.7389721548
 21
12.0477677813
 31
0.0
  0
SPLINE
  5
382
100
AcDbEntity
  8
0
100
AcDbSpline
 62
6
  6
CONTINUOUS
 70
0
 71
3
 72
11
 73
7
 74
5
 42
0.0000001
 43
0.0000001
 44
0.0000000001
 12
-0.0157550282
 22
-0.036957158
 32
0.0
 13
-0.0069362731
 23
-0.0395712902
 33
0.0
 40
0.0
 40
0.0
 40
0.0
 40
0.0
 40
0.4027351843
 40
0.7195484986
 40
0.9269283942
 40
1.0
 40
1.0
 40
1.0
 40
1.0
 10
17.6634204535
 20
13.2957688927
 30
0.0
 10
17.6613054188
 20
13.2908075767
 30
0.0
 10
17.6579162835
 20
13.2817701542
 30
0.0
 10
17.6545208078
 20
13.2698196315
 30
0.0
 10
17.6528089788
 20
13.2620030892
 30
0.0
 10
17.6521281847
 20
13.2583093718
 30
0.0
 10
17.6519592365
 20
13.2573455259
 30
0.0
 11
17.6634204535
 21
13.2957688927
 31
0.0
 11
17.6577475776
 21
13.2806159811
 31
0.0
 11
17.6542725502
 21
13.2683714835
 31
0.0
 11
17.6524912971
 21
13.2602325797
 31
0.0
 11
17.6519592365
 21
13.2573455259
 31
0.0
  0
SPLINE
  5
383
100
AcDbEntity
  8
0
100
AcDbSpline
 62
6
  6
CONTINUOUS
 70
0
 71
3
 72
12
 73
8
 74
6
 42
0.0000001
 43
0.0000001
 44
0.0000000001
 12
-0.0077255002
 22
-0.0001931092
 32
0.0
 13
-0.0068130483
 23
0.0036473301
 33
0.0
 40
0.0
 40
0.0
 40
0.0
 40
0.0
 40
0.2760950506
 40
0.5316530932
 40
0.7710756658
 40
0.8864860979
 40
1.0
 40
1.0
 40
1.0
 40
1.0
 10
17.6691913027
 20
12.7580568964
 30
0.0
 10
17.6684803119
 20
12.7580391242
 30
0.0
 10
17.6671082222
 20
12.7580667544
 30
0.0
 10
17.6651348211
 20
12.7583293454
 30
0.0
 10
17.6636112205
 20
12.7587405285
 30
0.0
 10
17.6624879943
 20
12.7591834493
 30
0.0
 10
17.6619568868
 20
12.7594413706
 30
0.0
 10
17.6616990949
 20
12.7595793782
 30
0.0
 11
17.6691913027
 21
12.7580568964
 31
0.0
 11
17.6670583052
 21
12.7581091985
 31
0.0
 11
17.6651018618
 21
12.7583787894
 31
0.0
 11
17.6633174771
 21
12.7588680211
 31
0.0
 11
17.6624879996
 21
12.7591957714
 31
0.0
 11
17.6616990949
 21
12.7595793782
 31
0.0
  0
LINE
  5
384
100
AcDbEntity
  8
0
100
AcDbLine
 62
6
  6
CONTINUOUS
 10
17.738969029
 20
12.2160138613
 11
17.7388166915
 21
12.091414934
  0
LINE
  5
385
100
AcDbEntity
  8
0
100
AcDbLine
 62
6
  6
CONTINUOUS
 10
17.738969029
 20
11.5288377208
 11
17.7388166915
 21
11.4129455717
  0
LINE
  5
386
100
AcDbEntity
  8
0
100
AcDbLine
 62
6
  6
CONTINUOUS
 10
17.7389721548
 20
12.9838752711
 11
17.7388395275
 21
12.8985269945
  0
LINE
  5
387
100
AcDbEntity
  8
0
100
AcDbLine
 62
6
  6
CONTINUOUS
 10
17.7389721548
 20
11.0851114451
 11
17.7388395275
 21
11.000926668
  0
SPLINE
  5
388
100
AcDbEntity
  8
0
100
AcDbSpline
 62
6
  6
CONTINUOUS
 70
0
 71
3
 72
21
 73
17
 74
15
 42
0.0000001
 43
0.0000001
 44
0.0000000001
 12
0.0596134395
 22
-0.0849331784
 32
0.0
 13
0.0859547787
 23
-0.0581307405
 33
0.0
 40
0.0
 40
0.0
 40
0.0
 40
0.0
 40
0.0469822395
 40
0.0961397195
 40
0.1474578923
 40
0.2009198128
 40
0.2565111161
 40
0.3142134769
 40
0.3740025674
 40
0.4358492017
 40
0.4997209179
 40
0.5655800235
 40
0.6333860734
 40
0.7030971481
 40
0.8480545411
 40
1.0
 40
1.0
 40
1.0
 40
1.0
 10
17.6621634005
 20
12.2850307066
 30
0.0
 10
17.6630969915
 20
12.2837005896
 30
0.0
 10
17.6650615174
 20
12.2810164482
 30
0.0
 10
17.6682173569
 20
12.2770085002
 30
0.0
 10
17.6716446792
 20
12.2729326032
 30
0.0
 10
17.6753391291
 20
12.2687938973
 30
0.0
 10
17.6792966827
 20
12.2645970352
 30
0.0
 10
17.6835134202
 20
12.2603465129
 30
0.0
 10
17.6879853917
 20
12.2560469451
 30
0.0
 10
17.6927085665
 20
12.2517031061
 30
0.0
 10
17.6976787615
 20
12.2473198914
 30
0.0
 10
17.7028916309
 20
12.2429022726
 30
0.0
 10
17.7083427272
 20
12.238455289
 30
0.0
 10
17.7160227813
 20
12.232414867
 30
0.0
 10
17.7261915067
 20
12.2248347139
 30
0.0
 10
17.7346155496
 20
12.2189580953
 30
0.0
 10
17.738969029
 20
12.2160138613
 30
0.0
 11
17.6621634005
 21
12.2850307066
 31
0.0
 11
17.6650392832
 21
12.2810941436
 31
0.0
 11
17.6681918635
 21
12.2770841283
 31
0.0
 11
17.6716163655
 21
12.2730062192
 31
0.0
 11
17.6753083116
 21
12.2688656047
 31
0.0
 11
17.6792637637
 21
12.2646668052
 31
0.0
 11
17.6834788325
 21
12.2604142825
 31
0.0
 11
17.6879495097
 21
12.2561126926
 31
0.0
 11
17.6926716922
 21
12.2517668451
 31
0.0
 11
17.6976412212
 21
12.247381591
 31
0.0
 11
17.7028536757
 21
12.242961964
 31
0.0
 11
17.7083045543
 21
12.2385130536
 31
0.0
 11
17.7139893623
 21
12.2340399546
 31
0.0
 11
17.7260427041
 21
12.2250416959
 31
0.0
 11
17.738969029
 21
12.2160138613
 31
0.0
  0
SPLINE
  5
389
100
AcDbEntity
  8
0
100
AcDbSpline
 62
6
  6
CONTINUOUS
 70
0
 71
3
 72
15
 73
11
 74
9
 42
0.0000001
 43
0.0000001
 44
0.0000000001
 12
-0.0067363237
 22
-0.0032743072
 32
0.0
 13
-0.0063890198
 23
0.0039089093
 33
0.0
 40
0.0
 40
0.0
 40
0.0
 40
0.0
 40
0.1665846537
 40
0.3183224518
 40
0.4561064745
 40
0.5811837656
 40
0.6953428072
 40
0.8010301812
 40
0.9013573802
 40
1.0
 40
1.0
 40
1.0
 40
1.0
 10
17.6634204535
 20
12.8945530408
 30
0.0
 10
17.6630463974
 20
12.8943712244
 30
0.0
 10
17.662322801
 20
12.8940413436
 30
0.0
 10
17.6612576384
 20
12.8936360331
 30
0.0
 10
17.6602626264
 20
12.8933458417
 30
0.0
 10
17.6593354019
 20
12.8931729887
 30
0.0
 10
17.658473211
 20
12.8931204104
 30
0.0
 10
17.6576734614
 20
12.8931919221
 30
0.0
 10
17.6569352262
 20
12.893391459
 30
0.0
 10
17.6564857477
 20
12.8936112234
 30
0.0
 10
17.6562756712
 20
12.8937397518
 30
0.0
 11
17.6634204535
 21
12.8945530408
 31
0.0
 11
17.662283631
 21
12.8940388319
 31
0.0
 11
17.6612199143
 21
12.8936386397
 31
0.0
 11
17.6602278402
 21
12.8933543867
 31
0.0
 11
17.6593059143
 21
12.8931879956
 31
0.0
 11
17.6584521412
 21
12.8931413954
 31
0.0
 11
17.6576641223
 21
12.8932165202
 31
0.0
 11
17.6569394477
 21
12.8934153046
 31
0.0
 11
17.6562756712
 21
12.8937397518
 31
0.0
  0
SPLINE
  5
38A
100
AcDbEntity
  8
0
100
AcDbSpline
 62
6
  6
CONTINUOUS
 70
0
 71
3
 72
23
 73
19
 74
17
 42
0.0000001
 43
0.0000001
 44
0.0000000001
 12
-0.0757007781
 22
0.0105701448
 32
0.0
 13
-0.0687445201
 23
-0.0334144688
 33
0.0
 40
0.0
 40
0.0
 40
0.0
 40
0.0
 40
0.0831208425
 40
0.1636350953
 40
0.2414728028
 40
0.316579487
 40
0.3889228839
 40
0.458476069
 40
0.52521611
 40
0.58912534
 40
0.6501938442
 40
0.7084229596
 40
0.7638249653
 40
0.8164264065
 40
0.8662716758
 40
0.9134242887
 40
0.9579648741
 40
1.0
 40
1.0
 40
1.0
 40
1.0
 10
17.7388395275
 20
12.8985269945
 30
0.0
 10
17.73674209
 20
12.8988198609
 30
0.0
 10
17.7326076591
 20
12.8993591054
 30
0.0
 10
17.7264923483
 20
12.9000366264
 30
0.0
 10
17.7205677289
 20
12.9005702133
 30
0.0
 10
17.714840522
 20
12.900960018
 30
0.0
 10
17.7093165848
 20
12.9012064977
 30
0.0
 10
17.7040012691
 20
12.9013101289
 30
0.0
 10
17.6988999054
 20
12.9012714427
 30
0.0
 10
17.6940178159
 20
12.9010909816
 30
0.0
 10
17.6893602272
 20
12.9007692714
 30
0.0
 10
17.6849322276
 20
12.9003069802
 30
0.0
 10
17.6807387521
 20
12.8997047541
 30
0.0
 10
17.6767845959
 20
12.8989631821
 30
0.0
 10
17.6730744741
 20
12.8980828279
 30
0.0
 10
17.6696131274
 20
12.8970641797
 30
0.0
 10
17.6664058376
 20
12.8959080888
 30
0.0
 10
17.6643836817
 20
12.8950212346
 30
0.0
 10
17.6634204535
 20
12.8945530408
 30
0.0
 11
17.7388395275
 21
12.8985269945
 31
0.0
 11
17.7325393142
 21
12.8993470221
 31
0.0
 11
17.7264224135
 21
12.90002284
 31
0.0
 11
17.7204966735
 21
12.9005544569
 31
0.0
 11
17.7147689809
 21
12.9009420585
 31
0.0
 11
17.7092447884
 21
12.901186094
 31
0.0
 11
17.703929437
 21
12.9012870372
 31
0.0
 11
17.6988283204
 21
12.9012453924
 31
0.0
 11
17.693946863
 21
12.9010616822
 31
0.0
 11
17.689290425
 21
12.9007364565
 31
0.0
 11
17.6848641454
 21
12.9002703588
 31
0.0
 11
17.6806731129
 21
12.8996640518
 31
0.0
 11
17.6767223023
 21
12.8989181814
 31
0.0
 11
17.6730165379
 21
12.8980333704
 31
0.0
 11
17.6695606837
 21
12.8970102676
 31
0.0
 11
17.6663601047
 21
12.8958497971
 31
0.0
 11
17.6634204535
 21
12.8945530408
 31
0.0
  0
LINE
  5
38B
100
AcDbEntity
  8
0
100
AcDbLine
 62
6
  6
CONTINUOUS
 10
17.738969029
 20
13.0954016981
 11
17.7388166915
 21
13.0141008413
  0
SPLINE
  5
38C
100
AcDbEntity
  8
0
100
AcDbSpline
 62
6
  6
CONTINUOUS
 70
0
 71
3
 72
16
 73
12
 74
10
 42
0.0000001
 43
0.0000001
 44
0.0000000001
 12
0.0065589712
 22
-0.0550900881
 32
0.0
 13
0.0233121239
 23
-0.050343647
 33
0.0
 40
0.0
 40
0.0
 40
0.0
 40
0.0
 40
0.0332301009
 40
0.0712391433
 40
0.1607537332
 40
0.2669122604
 40
0.3881797922
 40
0.5231973019
 40
0.6708040732
 40
0.8300317418
 40
1.0
 40
1.0
 40
1.0
 40
1.0
 10
17.6519419145
 20
10.744399891
 30
0.0
 10
17.6520145663
 20
10.7437896746
 30
0.0
 10
17.6521807249
 20
10.7424827076
 30
0.0
 10
17.6525978171
 20
10.7395392048
 30
0.0
 10
17.653299395
 20
10.7352743388
 30
0.0
 10
17.6544292607
 20
10.7295220235
 30
0.0
 10
17.6559499812
 20
10.722992543
 30
0.0
 10
17.6579271221
 20
10.7157876186
 30
0.0
 10
17.660427024
 20
10.7080052868
 30
0.0
 10
17.663514392
 20
10.6997424324
 30
0.0
 10
17.6659298813
 20
10.6941507527
 30
0.0
 10
17.667250655
 20
10.6912984787
 30
0.0
 11
17.6519419145
 21
10.744399891
 31
0.0
 11
17.6521736427
 21
10.7425709341
 31
0.0
 11
17.652468799
 21
10.7404829829
 31
0.0
 11
17.6532724655
 21
10.7355822471
 31
0.0
 11
17.654406658
 21
10.7298029013
 31
0.0
 11
17.6559324265
 21
10.723250374
 31
0.0
 11
17.6579146811
 21
10.7160267573
 31
0.0
 11
17.6604193152
 21
10.70823008
 31
0.0
 11
17.6635112636
 21
10.6999550452
 31
0.0
 11
17.667250655
 21
10.6912984787
 31
0.0
  0
LINE
  5
38D
100
AcDbEntity
  8
0
100
AcDbLine
 62
6
  6
CONTINUOUS
 10
17.7389721548
 20
11.7013270431
 11
17.7388395275
 21
11.5889088073
  0
LINE
  5
38E
100
AcDbEntity
  8
0
100
AcDbLine
 62
6
  6
CONTINUOUS
 10
17.7389721548
 20
12.3911310866
 11
17.7388395275
 21
12.2782901618
  0
LINE
  5
38F
100
AcDbEntity
  8
0
100
AcDbLine
 62
6
  6
CONTINUOUS
 10
17.738969029
 20
11.2188772462
 11
17.7388166915
 21
11.118520685
  0
SPLINE
  5
390
100
AcDbEntity
  8
0
100
AcDbSpline
 62
6
  6
CONTINUOUS
 70
0
 71
3
 72
15
 73
11
 74
9
 42
0.0000001
 43
0.0000001
 44
0.0000000001
 12
0.049669509
 22
-0.1202187834
 32
0.0
 13
0.0967660223
 23
-0.0869249846
 33
0.0
 40
0.0
 40
0.0
 40
0.0
 40
0.0
 40
0.112115348
 40
0.2281682252
 40
0.3480643057
 40
0.4717042959
 40
0.5989330408
 40
0.7295522257
 40
0.8633444965
 40
1.0
 40
1.0
 40
1.0
 40
1.0
 10
17.6621771334
 20
11.8050371678
 30
0.0
 10
17.6640333715
 20
11.8005443775
 30
0.0
 10
17.6681360354
 20
11.7915324301
 30
0.0
 10
17.6752653539
 20
11.7782206551
 30
0.0
 10
17.6834464255
 20
11.764937612
 30
0.0
 10
17.6926464244
 20
11.751744627
 30
0.0
 10
17.7028334117
 20
11.7387032559
 30
0.0
 10
17.7139731977
 20
11.7258770617
 30
0.0
 10
17.7260281318
 20
11.7133344615
 30
0.0
 10
17.7345642849
 20
11.7052866357
 30
0.0
 10
17.7389721548
 20
11.7013270431
 30
0.0
 11
17.6621771334
 21
11.8050371678
 31
0.0
 11
17.668203065
 21
11.7917569115
 31
0.0
 11
17.6753161185
 21
11.7784421666
 31
0.0
 11
17.683482983
 21
11.7651559711
 31
0.0
 11
17.6926725266
 21
11.7519574912
 31
0.0
 11
17.7028521486
 21
11.7389092838
 31
0.0
 11
17.7139870378
 21
11.7260762757
 31
0.0
 11
17.7260417419
 21
11.7135243227
 31
0.0
 11
17.7389721548
 21
11.7013270431
 31
0.0
  0
SPLINE
  5
391
100
AcDbEntity
  8
0
100
AcDbSpline
 62
6
  6
CONTINUOUS
 70
0
 71
3
 72
21
 73
17
 74
15
 42
0.0000001
 43
0.0000001
 44
0.0000000001
 12
0.0655856285
 22
-0.0684638417
 32
0.0
 13
0.0819919989
 23
-0.0476034074
 33
0.0
 40
0.0
 40
0.0
 40
0.0
 40
0.0
 40
0.0430811529
 40
0.0889115423
 40
0.1374628857
 40
0.1887050215
 40
0.2426107444
 40
0.2991497931
 40
0.3582870499
 40
0.4199835464
 40
0.4841977307
 40
0.5508832911
 40
0.6199916713
 40
0.691473325
 40
0.8413504366
 40
1.0
 40
1.0
 40
1.0
 40
1.0
 10
17.6621771334
 20
12.4462870605
 30
0.0
 10
17.6631189682
 20
12.4453038935
 30
0.0
 10
17.6650991564
 20
12.4433094999
 30
0.0
 10
17.6682526448
 20
12.4403207369
 30
0.0
 10
17.6716773747
 20
12.4372457143
 30
0.0
 10
17.6753690975
 20
12.4340883071
 30
0.0
 10
17.6793238874
 20
12.4308520424
 30
0.0
 10
17.6835379219
 20
12.4275403212
 30
0.0
 10
17.6880073336
 20
12.4241566314
 30
0.0
 10
17.692728164
 20
12.4207045751
 30
0.0
 10
17.6976963016
 20
12.4171878476
 30
0.0
 10
17.7029074837
 20
12.4136102122
 30
0.0
 10
17.7083573322
 20
12.4099754898
 30
0.0
 10
17.7160583284
 20
12.4049790501
 30
0.0
 10
17.7262512396
 20
12.3986262953
 30
0.0
 10
17.7346361565
 20
12.3936485066
 30
0.0
 10
17.7389721548
 20
12.3911310866
 30
0.0
 11
17.6621771334
 21
12.4462870605
 31
0.0
 11
17.6650518964
 21
12.4433855488
 31
0.0
 11
17.668203065
 21
12.440393831
 31
0.0
 11
17.6716259396
 21
12.4373160786
 31
0.0
 11
17.6753161185
 21
12.4341561883
 31
0.0
 11
17.6792697379
 21
12.4309175605
 31
0.0
 11
17.683482983
 21
12.4276035522
 31
0.0
 11
17.6879519212
 21
12.4242176606
 31
0.0
 11
17.6926725266
 21
12.4207634942
 31
0.0
 11
17.6976407173
 21
12.4172446965
 31
0.0
 11
17.7028521486
 21
12.4136650694
 31
0.0
 11
17.7083023952
 21
12.4100284635
 31
0.0
 11
17.7139870378
 21
12.4063387331
 31
0.0
 11
17.7260417419
 21
12.3988154202
 31
0.0
 11
17.7389721548
 21
12.3911310866
 31
0.0
  0
SPLINE
  5
392
100
AcDbEntity
  8
0
100
AcDbSpline
 62
6
  6
CONTINUOUS
 70
0
 71
3
 72
22
 73
18
 74
16
 42
0.0000001
 43
0.0000001
 44
0.0000000001
 12
-0.0123848191
 22
-0.0078054386
 32
0.0
 13
-0.0121132559
 23
0.0082205625
 33
0.0
 40
0.0
 40
0.0
 40
0.0
 40
0.0
 40
0.1913024462
 40
0.2787789662
 40
0.3608568136
 40
0.4375962821
 40
0.5090998013
 40
0.575513266
 40
0.6370206329
 40
0.6938558406
 40
0.7463205307
 40
0.7948067359
 40
0.8398182513
 40
0.8819926338
 40
0.9221145971
 40
0.9611097655
 40
1.0
 40
1.0
 40
1.0
 40
1.0
 10
17.6691913027
 20
13.0002128323
 30
0.0
 10
17.668401554
 20
12.9997150991
 30
0.0
 10
17.6672415822
 20
12.9990037807
 30
0.0
 10
17.6657140389
 20
12.9981275611
 30
0.0
 10
17.664657966
 20
12.9975535648
 30
0.0
 10
17.6636560177
 20
12.9970440069
 30
0.0
 10
17.6627070192
 20
12.9966000766
 30
0.0
 10
17.6618096077
 20
12.9962229102
 30
0.0
 10
17.6609623184
 20
12.9959136151
 30
0.0
 10
17.6601636323
 20
12.9956733133
 30
0.0
 10
17.6594119291
 20
12.9955032258
 30
0.0
 10
17.6587054891
 20
12.9954048202
 30
0.0
 10
17.6580426017
 20
12.995379737
 30
0.0
 10
17.6574217276
 20
12.9954298432
 30
0.0
 10
17.6568416271
 20
12.995557192
 30
0.0
 10
17.6563017388
 20
12.9957636139
 30
0.0
 10
17.6559705179
 20
12.9959536042
 30
0.0
 10
17.6558134888
 20
12.9960601708
 30
0.0
 11
17.6691913027
 21
13.0002128323
 31
0.0
 11
17.6668000948
 21
12.9987550611
 31
0.0
 11
17.6656887146
 21
12.9981188583
 31
0.0
 11
17.6646324301
 21
12.9975461353
 31
0.0
 11
17.6636304283
 21
12.9970381548
 31
0.0
 11
17.6626815875
 21
12.9965961049
 31
0.0
 11
17.6617845656
 21
12.9962211206
 31
0.0
 11
17.6609380161
 21
12.9959143358
 31
0.0
 11
17.6601405919
 21
12.9956768848
 31
0.0
 11
17.6593909083
 21
12.9955099466
 31
0.0
 11
17.6586875135
 21
12.9954147807
 31
0.0
 11
17.6580289488
 21
12.9953926549
 31
0.0
 11
17.6574137552
 21
12.9954448369
 31
0.0
 11
17.6568404631
 21
12.9955726032
 31
0.0
 11
17.6563075526
 21
12.9957772714
 31
0.0
 11
17.6558134888
 21
12.9960601708
 31
0.0
  0
LINE
  5
393
100
AcDbEntity
  8
0
100
AcDbLine
 62
6
  6
CONTINUOUS
 10
17.7389721548
 20
13.1960118532
 11
17.7388395275
 21
13.1329868664
  0
SPLINE
  5
394
100
AcDbEntity
  8
0
100
AcDbSpline
 62
6
  6
CONTINUOUS
 70
0
 71
3
 72
15
 73
11
 74
9
 42
0.0000001
 43
0.0000001
 44
0.0000000001
 12
0.0046895795
 22
-0.046734526
 32
0.0
 13
0.0179352736
 23
-0.0434100683
 33
0.0
 40
0.0
 40
0.0
 40
0.0
 40
0.0
 40
0.1341336858
 40
0.2656991766
 40
0.3946192286
 40
0.5208642057
 40
0.6444654148
 40
0.7654934836
 40
0.8839896345
 40
1.0
 40
1.0
 40
1.0
 40
1.0
 10
17.6519455423
 20
11.8507127685
 30
0.0
 10
17.6521552192
 20
11.8486232104
 30
0.0
 10
17.6526148775
 20
11.8444883557
 30
0.0
 10
17.6534494603
 20
11.8383659636
 30
0.0
 10
17.6544362454
 20
11.8323911801
 30
0.0
 10
17.655588863
 20
11.826573005
 30
0.0
 10
17.656920719
 20
11.8209198417
 30
0.0
 10
17.6584450955
 20
11.815440998
 30
0.0
 10
17.660173756
 20
11.8101478568
 30
0.0
 10
17.6614835742
 20
11.8067158404
 30
0.0
 10
17.6621771334
 20
11.8050371678
 30
0.0
 11
17.6519455423
 21
11.8507127685
 31
0.0
 11
17.6526453848
 21
11.8444516044
 31
0.0
 11
17.6534840744
 21
11.8383292535
 31
0.0
 11
17.6544750838
 21
11.8323556236
 31
0.0
 11
17.655631868
 21
11.8265399253
 31
0.0
 11
17.6569678551
 21
11.8208902861
 31
0.0
 11
17.6584963433
 21
11.8154150383
 31
0.0
 11
17.6602291494
 21
11.8101259843
 31
0.0
 11
17.6621771334
 21
11.8050371678
 31
0.0
  0
ENDSEC
  0
SECTION
  2
OBJECTS
  0
DICTIONARY
  5
C
100
AcDbDictionary
280
0
281
1
  3
ACAD_GROUP
350
D
  3
ACAD_MLINESTYLE
350
17
  3
ACAD_LAYOUT
350
1A
  3
ACAD_PLOTSETTINGS
350
19
  3
ACAD_PLOTSTYLENAME
350
E
  0
DICTIONARY
  5
D
102
{ACAD_REACTORS
330
C
102
}
100
AcDbDictionary
280
0
281
1
  0
ACDBDICTIONARYWDFLT
  5
E
102
{ACAD_REACTORS
330
C
102
}
100
AcDbDictionary
281
1
  3
Normal
350
F
100
AcDbDictionaryWithDefault
340
F
  0
DICTIONARY
  5
17
102
{ACAD_REACTORS
330
C
102
}
100
AcDbDictionary
280
0
281
1
  3
Standard
350
18
  0
DICTIONARY
  5
19
102
{ACAD_REACTORS
330
C
102
}
100
AcDbDictionary
281
1
  0
DICTIONARY
  5
1A
102
{ACAD_REACTORS
330
C
102
}
100
AcDbDictionary
281
1
  3
Model
350
395
  3
Layout1
350
396
  0
ACDBPLACEHOLDER
  5
F
102
{ACAD_REACTORS
330
E
102
}
  0
MLINESTYLE
  5
18
102
{ACAD_REACTORS
330
17
102
}
100
AcDbMlineStyle
  2
STANDARD
 70
0
  3

 62
256
 51
90.0
 52
90.0
 71
2
 49
0.5
 62
256
  6
BYLAYER
 49
-0.5
 62
256
  6
BYLAYER
  0
LAYOUT
  5
395
102
{ACAD_REACTORS
330
1A
102
}
100
AcDbPlotSettings
  1

  2
none_device
  4
ISO_A1_(594.00_x_841.00_MM)
  6

 40
0.0
 41
0.0
 42
0.0
 43
0.0
 44
841.0
 45
594.0
 46
0.0
 47
0.0
 48
0.0
 49
0.0
140
0.0
141
0.0
142
1.0
143
1.0
 70
1024
 72
0
 73
0
 74
0
  7

 75
0
147
1.0
148
0.0
149
0.0
100
AcDbLayout
  1
Model
 70
0
 71
0
 10
0.0
 20
0.0
 11
33.1102362205
 21
23.3858267717
 12
0.0
 22
0.0
 32
0.0
 14
0.0
 24
0.0
 34
0.0
 15
0.0
 25
0.0
 35
0.0
146
0.0
 13
0.0
 23
0.0
 33
0.0
 16
1.0
 26
0.0
 36
0.0
 17
0.0
 27
1.0
 37
0.0
 76
0
330
203
345
0
346
0
  0
LAYOUT
  5
396
102
{ACAD_REACTORS
330
1A
102
}
100
AcDbPlotSettings
  1

  2
none_device
  4
ISO_A1_(594.00_x_841.00_MM)
  6

 40
0.0
 41
0.0
 42
0.0
 43
0.0
 44
841.0
 45
594.0
 46
0.0
 47
0.0
 48
0.0
 49
0.0
140
0.0
141
0.0
142
1.0
143
1.0
 70
0
 72
0
 73
0
 74
0
  7

 75
0
147
1.0
148
0.0
149
0.0
100
AcDbLayout
  1
Layout1
 70
0
 71
1
 10
0.0
 20
0.0
 11
33.1102362205
 21
23.3858267717
 12
0.0
 22
0.0
 32
0.0
 14
0.0
 24
0.0
 34
0.0
 15
0.0
 25
0.0
 35
0.0
146
0.0
 13
0.0
 23
0.0
 33
0.0
 16
1.0
 26
0.0
 36
0.0
 17
0.0
 27
1.0
 37
0.0
 76
0
330
204
345
0
346
0
  0
ENDSEC
  0
EOF
