  0
SECTION
  2
HEADER
  9
$ACADVER
  1
AC1015
  9
$DWGCODEPAGE
  3
ANSI_1252
  9
$EXTMAX
 10
16.5354330709
 20
11.6929133858
 30
0.0
  9
$EXTMIN
 10
0.0
 20
0.0
 30
0.0
  9
$LIMMIN
 10
0.0
 20
0.0
  9
$LIMMAX
 10
16.5354330709
 20
11.6929133858
  9
$VIEWCTR
 10
8.2677165354
 20
5.8464566929
  9
$VIEWSIZE
 40
11.6929133858
  9
$CLAYER
  8
0
  9
$LTSCALE
 40
0.9094488189
  9
$CELTYPE
  6
BYLAYER
  9
$DIMSCALE
 40
1.0
  9
$DIMASZ
 40
0.1
  9
$DIMEXO
 40
0.1033464567
  9
$DIMDLI
 40
0.6283464567
  9
$DIMEXE
 40
0.2976377953
  9
$DIMCEN
 40
0.1488188976
  9
$DIMLFAC
 40
1.0
  9
$DIMBLK
  1
_FILLED
  9
$DIMTXT
 40
0.08
  9
$DIMTOL
 70
1
  9
$DIMLIM
 70
0
  9
$DIMTFAC
 40
1.0
  9
$DIMTP
 40
0.01
  9
$DIMTM
 40
0.01
  9
$PDMODE
 70
3
  9
$PDSIZE
 40
0.06
  9
$HANDSEED
  5
3B1
  9
$TILEMODE
 70
1
  9
$MEASUREMENT
 70
0
  9
$INSUNITS
 70
1
  0
ENDSEC
  0
SECTION
  2
CLASSES
  0
CLASS
  1
ACDBDICTIONARYWDFLT
  2
AcDbDictionaryWithDefault
  3
AutoCAD 2000
 90
0
280
0
281
0
  0
CLASS
  1
ACDBPLACEHOLDER
  2
AcDbPlaceHolder
  3
AutoCAD 2000
 90
0
280
0
281
0
  0
CLASS
  1
LAYOUT
  2
AcDbLayout
  3
AutoCAD 2000
 90
0
280
0
281
0
  0
ENDSEC
  0
SECTION
  2
TABLES
  0
TABLE
  2
VPORT
  5
8
100
AcDbSymbolTable
 70
2
  0
VPORT
  5
1F4
100
AcDbSymbolTableRecord
100
AcDbViewportTableRecord
  2
*ACTIVE
 70
0
 10
0.0
 20
0.0
 11
1.0
 21
1.0
 12
8.2677165354
 22
5.8464566929
 13
0.0
 23
0.0
 14
1.0
 24
1.0
 15
0.0
 25
0.0
 16
0.0
 26
0.0
 36
1.0
 17
0.0
 27
0.0
 37
0.0
 40
11.6929133858
 41
1.4141414141
 42
50.0
 43
0.0
 44
0.0
 50
0.0
 51
0.0
 71
0
 72
100
 73
1
 74
1
 75
0
 76
0
 77
0
 78
0
  0
ENDTAB
  0
TABLE
  2
LTYPE
  5
5
100
AcDbSymbolTable
 70
6
  0
LTYPE
  5
14
100
AcDbSymbolTableRecord
100
AcDbLinetypeTableRecord
  2
BYBLOCK
 70
0
  3

 72
65
 73
0
 40
0.0
  0
LTYPE
  5
15
100
AcDbSymbolTableRecord
100
AcDbLinetypeTableRecord
  2
BYLAYER
 70
0
  3

 72
65
 73
0
 40
0.0
  0
LTYPE
  5
16
100
AcDbSymbolTableRecord
100
AcDbLinetypeTableRecord
  2
CONTINUOUS
 70
64
  3
Solid line
 72
65
 73
0
 40
0.0
  0
LTYPE
  5
1F5
100
AcDbSymbolTableRecord
100
AcDbLinetypeTableRecord
  2
CENTER
 70
64
  3
____ _ ____ _ ____ _ ____ _ ____ _ ____ _ ____
 72
65
 73
4
 40
0.6
 49
0.375
 74
0
 49
-0.075
 74
0
 49
0.075
 74
0
 49
-0.075
 74
0
  0
LTYPE
  5
1F6
100
AcDbSymbolTableRecord
100
AcDbLinetypeTableRecord
  2
HIDDEN
 70
64
  3
- - - - - - - - - - - - - - - - - - - -
 72
65
 73
2
 40
0.2
 49
0.1
 74
0
 49
-0.1
 74
0
  0
LTYPE
  5
1F7
100
AcDbSymbolTableRecord
100
AcDbLinetypeTableRecord
  2
PHANTOM
 70
64
  3
_____ _ _ _____ _ _ _____ _ _ _____
 72
65
 73
6
 40
0.8
 49
0.45
 74
0
 49
-0.05
 74
0
 49
0.1
 74
0
 49
-0.05
 74
0
 49
0.1
 74
0
 49
-0.05
 74
0
  0
LTYPE
  5
1F8
100
AcDbSymbolTableRecord
100
AcDbLinetypeTableRecord
  2
DOT
 70
64
  3
. . . . . . . . . . . . . . . . . . . .
 72
65
 73
2
 40
0.2
 49
0.1
 74
0
 49
-0.1
 74
0
  0
LTYPE
  5
1F9
100
AcDbSymbolTableRecord
100
AcDbLinetypeTableRecord
  2
DASHED
 70
64
  3
- - - - - - - - - - - - - - - - - - - -
 72
65
 73
2
 40
0.2
 49
0.1
 74
0
 49
-0.1
 74
0
  0
ENDTAB
  0
TABLE
  2
LAYER
  5
2
100
AcDbSymbolTable
 70
36
  0
LAYER
  5
10
100
AcDbSymbolTableRecord
100
AcDbLayerTableRecord
  2
0
 70
0
 62
7
  6
CONTINUOUS
370
-3
390
F
  0
LAYER
  5
1FA
100
AcDbSymbolTableRecord
100
AcDbLayerTableRecord
  2
DEFAULT_1
 70
0
 62
7
  6
CENTER
370
-3
390
F
  0
LAYER
  5
1FB
100
AcDbSymbolTableRecord
100
AcDbLayerTableRecord
  2
DEFAULT_2
 70
0
 62
8
  6
HIDDEN
370
-3
390
F
  0
LAYER
  5
1FC
100
AcDbSymbolTableRecord
100
AcDbLayerTableRecord
  2
DEFAULT_3
 70
0
 62
7
  6
PHANTOM
370
-3
390
F
  0
LAYER
  5
1FD
100
AcDbSymbolTableRecord
100
AcDbLayerTableRecord
  2
DEFAULT_COORDINATE_SYSTEM
 70
0
 62
7
  6
CONTINUOUS
370
-3
390
F
  0
LAYER
  5
1FE
100
AcDbSymbolTableRecord
100
AcDbLayerTableRecord
  2
DEFAULT_DATUM_AXES
 70
0
 62
7
  6
CONTINUOUS
370
-3
390
F
  0
LAYER
  5
1FF
100
AcDbSymbolTableRecord
100
AcDbLayerTableRecord
  2
DEFAULT_DATUM_CURVES
 70
0
 62
7
  6
CONTINUOUS
370
-3
390
F
  0
LAYER
  5
200
100
AcDbSymbolTableRecord
100
AcDbLayerTableRecord
  2
DEFAULT_DATUM_PLANES
 70
0
 62
7
  6
CONTINUOUS
370
-3
390
F
  0
ENDTAB
  0
TABLE
  2
STYLE
  5
3
100
AcDbSymbolTable
 70
1
  0
STYLE
  5
11
100
AcDbSymbolTableRecord
100
AcDbTextStyleTableRecord
  2
STANDARD
 70
0
 40
0.0
 41
0.8
 50
0.0
 71
0
 42
0.2
  3
txt
  4

  0
STYLE
  5
201
100
AcDbSymbolTableRecord
100
AcDbTextStyleTableRecord
  2
TEXTSTYLE_1
 70
0
 40
0.0
 41
0.8
 50
0.0
 71
0
 42
0.2
  3
gdt
  4

  0
ENDTAB
  0
TABLE
  2
VIEW
  5
6
100
AcDbSymbolTable
 70
0
  0
ENDTAB
  0
TABLE
  2
UCS
  5
7
100
AcDbSymbolTable
 70
0
  0
ENDTAB
  0
TABLE
  2
APPID
  5
9
100
AcDbSymbolTable
 70
1
  0
APPID
  5
202
100
AcDbSymbolTableRecord
100
AcDbRegAppTableRecord
  2
ACAD
 70
0
  0
ENDTAB
  0
TABLE
  2
BLOCK_RECORD
  5
1
100
AcDbSymbolTable
 70
0
  0
BLOCK_RECORD
  5
203
100
AcDbSymbolTableRecord
100
AcDbBlockTableRecord
  2
*Model_Space
  0
BLOCK_RECORD
  5
204
100
AcDbSymbolTableRecord
100
AcDbBlockTableRecord
  2
*Paper_Space
  0
ENDTAB
  0
TABLE
  2
DIMSTYLE
  5
A
100
AcDbSymbolTable
 70
1
100
AcDbDimStyleTable
 71
0
  0
DIMSTYLE
105
205
100
AcDbSymbolTableRecord
100
AcDbDimStyleTableRecord
  2
STANDARD
 70
0
  3

  4

 40
1.0
 41
0.1
 42
0.0625
 43
0.38
 44
0.18
 45
0.0
 46
0.0
 47
0.01
 48
0.01
140
0.08
141
0.09
142
0.0
143
25.4
144
1.0
145
0.0
146
1.0
147
0.09
 71
1.0
 72
0.0
 73
1
 74
1
 75
0
 76
0
 77
0
 78
4
170
0
171
2
172
0
173
0
174
0
175
0
176
0
177
0
178
0
270
2
271
2
272
2
273
2
274
2
275
0
280
0
281
0
282
0
283
1
284
4
285
0
286
0
287
3
288
0
340
11
  0
ENDTAB
  0
ENDSEC
  0
SECTION
  2
BLOCKS
  0
BLOCK
  5
20
100
AcDbEntity
  8
0
100
AcDbBlockBegin
  2
*Model_Space
 70
0
 10
0.0
 20
0.0
 30
0.0
  3
*Model_Space
  1

  0
ENDBLK
  5
21
100
AcDbEntity
  8
0
100
AcDbBlockEnd
  0
BLOCK
  5
1C
100
AcDbEntity
  8
0
100
AcDbBlockBegin
  2
*Paper_Space
 70
0
 10
0.0
 20
0.0
 30
0.0
  3
*Paper_Space
  1

  0
ENDBLK
  5
1D
100
AcDbEntity
  8
0
100
AcDbBlockEnd
  0
ENDSEC
  0
SECTION
  2
ENTITIES
  0
LINE
  5
206
100
AcDbEntity
  8
0
100
AcDbLine
 62
6
  6
CONTINUOUS
 10
6.8429368101
 20
7.5938637619
 11
6.833611838
 21
7.5815817805
  0
LINE
  5
207
100
AcDbEntity
  8
0
100
AcDbLine
 62
6
  6
CONTINUOUS
 10
6.9049493775
 20
7.5937581009
 11
6.8955889667
 21
7.581429443
  0
LINE
  5
208
100
AcDbEntity
  8
0
100
AcDbLine
 62
6
  6
CONTINUOUS
 10
6.7724436498
 20
7.593866156
 11
6.7626428296
 21
7.5815849062
  0
LINE
  5
209
100
AcDbEntity
  8
0
100
AcDbLine
 62
6
  6
CONTINUOUS
 10
6.8160716081
 20
7.5937726803
 11
6.8062395437
 21
7.581452279
  0
LINE
  5
20A
100
AcDbEntity
  8
0
100
AcDbLine
 62
9
  6
CONTINUOUS
 10
6.8664785937
 20
7.5152915731
 11
6.8590901273
 21
7.506033205
  0
LINE
  5
20B
100
AcDbEntity
  8
0
100
AcDbLine
 62
6
  6
CONTINUOUS
 10
6.7259337371
 20
7.5938637619
 11
6.7158104753
 21
7.5815817805
  0
LINE
  5
20C
100
AcDbEntity
  8
0
100
AcDbLine
 62
6
  6
CONTINUOUS
 10
6.7588990628
 20
7.5937581009
 11
6.7487373284
 21
7.581429443
  0
LINE
  5
20D
100
AcDbEntity
  8
0
100
AcDbLine
 62
9
  6
CONTINUOUS
 10
6.8065701407
 20
7.515752762
 11
6.8033154701
 21
7.5118040542
  0
LINE
  5
20E
100
AcDbEntity
  8
0
100
AcDbLine
 62
6
  6
CONTINUOUS
 10
6.8383934819
 20
7.4980475352
 11
6.8356968621
 21
7.4947758788
  0
LINE
  5
20F
100
AcDbEntity
  8
0
100
AcDbLine
 62
6
  6
CONTINUOUS
 10
6.6927355506
 20
7.5938369839
 11
6.682442386
 21
7.5815458142
  0
LINE
  5
210
100
AcDbEntity
  8
0
100
AcDbLine
 62
6
  6
CONTINUOUS
 10
6.6952399236
 20
7.5937581009
 11
6.6849153647
 21
7.581429443
  0
LINE
  5
211
100
AcDbEntity
  8
0
100
AcDbLine
 62
6
  6
CONTINUOUS
 10
6.6983636131
 20
7.593866156
 11
6.6880787559
 21
7.5815849062
  0
LINE
  5
212
100
AcDbEntity
  8
0
100
AcDbLine
 62
6
  6
CONTINUOUS
 10
6.7138136325
 20
7.5937726803
 11
6.703495988
 21
7.581452279
  0
LINE
  5
213
100
AcDbEntity
  8
0
100
AcDbLine
 62
9
  6
CONTINUOUS
 10
6.7588083356
 20
7.5121587915
 11
6.7585112631
 21
7.5118040542
  0
LINE
  5
214
100
AcDbEntity
  8
0
100
AcDbLine
 62
9
  6
CONTINUOUS
 10
6.782448969
 20
7.5086038256
 11
6.7802962185
 21
7.506033205
  0
LINE
  5
215
100
AcDbEntity
  8
0
100
AcDbLine
 62
6
  6
CONTINUOUS
 10
6.8153610366
 20
7.495932535
 11
6.8141694253
 21
7.4945096202
  0
LINE
  5
216
100
AcDbEntity
  8
0
100
AcDbLine
 62
6
  6
CONTINUOUS
 10
6.6824423882
 20
7.5815458106
 11
6.682442111
 21
7.5815434858
  0
LINE
  5
217
100
AcDbEntity
  8
0
100
AcDbLine
 62
6
  6
CONTINUOUS
 10
7.037050658
 20
7.5938637619
 11
7.0291098979
 21
7.5815817805
  0
LINE
  5
218
100
AcDbEntity
  8
0
100
AcDbLine
 62
6
  6
CONTINUOUS
 10
7.1242139894
 20
7.5937581009
 11
7.1162430513
 21
7.581429443
  0
LINE
  5
219
100
AcDbEntity
  8
0
100
AcDbLine
 62
9
  6
CONTINUOUS
 10
7.1316331415
 20
7.5237524182
 11
7.1239080776
 21
7.5118040542
  0
LINE
  5
21A
100
AcDbEntity
  8
0
100
AcDbLine
 62
6
  6
CONTINUOUS
 10
7.1340669986
 20
7.5122769201
 11
7.1258113743
 21
7.4995079378
  0
LINE
  5
21B
100
AcDbEntity
  8
0
100
AcDbLine
 62
6
  6
CONTINUOUS
 10
6.9280638058
 20
7.593866156
 11
6.9193628443
 21
7.5815849062
  0
LINE
  5
21C
100
AcDbEntity
  8
0
100
AcDbLine
 62
6
  6
CONTINUOUS
 10
6.997128398
 20
7.5937726803
 11
6.9883996985
 21
7.581452279
  0
LINE
  5
21D
100
AcDbEntity
  8
0
100
AcDbLine
 62
9
  6
CONTINUOUS
 10
7.022637053
 20
7.5182527065
 11
7.0139798385
 21
7.506033205
  0
LINE
  5
21E
100
AcDbEntity
  8
0
100
AcDbLine
 62
6
  6
CONTINUOUS
 10
7.0294158975
 20
7.5098032758
 11
7.0200717274
 21
7.4966141487
  0
LINE
  5
21F
100
AcDbEntity
  8
0
100
AcDbLine
 62
9
  6
CONTINUOUS
 10
6.9357806925
 20
7.5224208362
 11
6.9277200064
 21
7.5118040542
  0
LINE
  5
220
100
AcDbEntity
  8
0
100
AcDbLine
 62
6
  6
CONTINUOUS
 10
6.9490654663
 20
7.5061035475
 11
6.9415285363
 21
7.4961766079
  0
LINE
  5
221
100
AcDbEntity
  8
0
100
AcDbLine
 62
6
  6
CONTINUOUS
 10
6.8830362038
 20
7.5026253934
 11
6.8770126817
 21
7.4950774149
  0
LINE
  5
222
100
AcDbEntity
  8
0
100
AcDbLine
 62
6
  6
CONTINUOUS
 10
7.146142311
 20
7.4945582938
 11
7.1481779127
 21
7.4964263071
  0
LINE
  5
223
100
AcDbEntity
  8
0
100
AcDbLine
 62
6
  6
CONTINUOUS
 10
7.9001619026
 20
4.537326564
 11
8.2401526352
 21
4.537326564
  0
LINE
  5
224
100
AcDbEntity
  8
0
100
AcDbLine
 62
6
  6
CONTINUOUS
 10
7.8901572689
 20
4.547326564
 11
8.2501572689
 21
4.547326564
  0
LINE
  5
225
100
AcDbEntity
  8
0
100
AcDbLine
 62
6
  6
CONTINUOUS
 10
7.7976620318
 20
4.603326564
 11
8.3426525059
 21
4.603326564
  0
LINE
  5
226
100
AcDbEntity
  8
0
100
AcDbLine
 62
9
  6
CONTINUOUS
 10
8.3656572678
 20
4.627326564
 11
7.7746572699
 21
4.627326564
  0
LINE
  5
227
100
AcDbEntity
  8
0
100
AcDbLine
 62
6
  6
CONTINUOUS
 10
7.2960783936
 20
7.5938637619
 11
7.2900207928
 21
7.5815817805
  0
LINE
  5
228
100
AcDbEntity
  8
0
100
AcDbLine
 62
6
  6
CONTINUOUS
 10
7.2716500263
 20
7.5082407799
 11
7.2649024581
 21
7.4945598674
  0
LINE
  5
229
100
AcDbEntity
  8
0
100
AcDbLine
 62
6
  6
CONTINUOUS
 10
7.1554458944
 20
7.593866156
 11
7.1483915049
 21
7.5815849062
  0
LINE
  5
22A
100
AcDbEntity
  8
0
100
AcDbLine
 62
6
  6
CONTINUOUS
 10
7.1485841182
 20
7.498809327
 11
7.146142311
 21
7.4945582938
  0
LINE
  5
22B
100
AcDbEntity
  8
0
100
AcDbLine
 62
6
  6
CONTINUOUS
 10
7.2456075381
 20
7.5937726803
 11
7.2385306599
 21
7.581452279
  0
LINE
  5
22C
100
AcDbEntity
  8
0
100
AcDbLine
 62
9
  6
CONTINUOUS
 10
7.2422519832
 20
7.5182527065
 11
7.2352330621
 21
7.506033205
  0
LINE
  5
22D
100
AcDbEntity
  8
0
100
AcDbLine
 62
6
  6
CONTINUOUS
 10
7.2423710545
 20
7.5126578207
 11
7.2350637537
 21
7.4999362681
  0
LINE
  5
22E
100
AcDbEntity
  8
0
100
AcDbLine
 62
9
  6
CONTINUOUS
 10
8.4006572689
 20
4.662326564
 11
7.7396572689
 21
4.662326564
  0
LINE
  5
22F
100
AcDbEntity
  8
0
100
AcDbLine
 62
6
  6
CONTINUOUS
 10
7.7396572689
 20
4.7453296447
 11
8.4006572689
 21
4.7453296447
  0
LINE
  5
230
100
AcDbEntity
  8
0
100
AcDbLine
 62
6
  6
CONTINUOUS
 10
7.9001572689
 20
4.537326564
 11
7.8901572689
 21
4.547326564
  0
LINE
  5
231
100
AcDbEntity
  8
0
100
AcDbLine
 62
6
  6
CONTINUOUS
 10
6.8951572689
 20
7.4893402289
 11
6.8951572689
 21
7.4789780779
  0
LINE
  5
232
100
AcDbEntity
  8
0
100
AcDbLine
 62
6
  6
CONTINUOUS
 10
7.2719446268
 20
7.4998476069
 11
7.2730386164
 21
7.504776152
  0
LINE
  5
233
100
AcDbEntity
  8
0
100
AcDbLine
 62
2
  6
CONTINUOUS
 10
7.3840438378
 20
7.5187421004
 11
7.3854455227
 21
7.5237524182
  0
LINE
  5
234
100
AcDbEntity
  8
0
100
AcDbLine
 62
6
  6
CONTINUOUS
 10
7.3795524655
 20
7.5118040542
 11
7.3780315055
 21
7.5065519023
  0
LINE
  5
235
100
AcDbEntity
  8
0
100
AcDbLine
 62
2
  6
CONTINUOUS
 10
7.3931758466
 20
7.5082400424
 11
7.3876451457
 21
7.4945582938
  0
LINE
  5
236
100
AcDbEntity
  8
0
100
AcDbLine
 62
2
  6
CONTINUOUS
 10
7.4076689311
 20
7.5170864437
 11
7.4026981784
 21
7.5047898848
  0
LINE
  5
237
100
AcDbEntity
  8
0
100
AcDbLine
 62
6
  6
CONTINUOUS
 10
7.4403026627
 20
7.593866156
 11
7.4353380985
 21
7.5815849062
  0
LINE
  5
238
100
AcDbEntity
  8
0
100
AcDbLine
 62
6
  6
CONTINUOUS
 10
7.5458961704
 20
7.5937726803
 11
7.5409157795
 21
7.581452279
  0
LINE
  5
239
100
AcDbEntity
  8
0
100
AcDbLine
 62
6
  6
CONTINUOUS
 10
7.4029156965
 20
7.5937581009
 11
7.3968350743
 21
7.581429443
  0
LINE
  5
23A
100
AcDbEntity
  8
0
100
AcDbLine
 62
9
  6
CONTINUOUS
 10
7.3854455227
 20
7.5237524182
 11
7.3795524655
 21
7.5118040542
  0
LINE
  5
23B
100
AcDbEntity
  8
0
100
AcDbLine
 62
6
  6
CONTINUOUS
 10
7.3840498032
 20
7.5187541952
 11
7.3780364619
 21
7.5065619514
  0
LINE
  5
23C
100
AcDbEntity
  8
0
100
AcDbLine
 62
6
  6
CONTINUOUS
 10
4.7577053861
 20
4.9263330368
 11
7.61211853
 21
4.9263330368
  0
LINE
  5
23D
100
AcDbEntity
  8
0
100
AcDbLine
 62
6
  6
CONTINUOUS
 10
8.5281960077
 20
4.9263330368
 11
11.3826091517
 21
4.9263330368
  0
LINE
  5
23E
100
AcDbEntity
  8
0
100
AcDbLine
 62
6
  6
CONTINUOUS
 10
7.5349424419
 20
7.5082407799
 11
7.5307165013
 21
7.4945598674
  0
LINE
  5
23F
100
AcDbEntity
  8
0
100
AcDbLine
 62
9
  6
CONTINUOUS
 10
7.5559638427
 20
7.5170732081
 11
7.552165366
 21
7.504776152
  0
LINE
  5
240
100
AcDbEntity
  8
0
100
AcDbLine
 62
6
  6
CONTINUOUS
 10
7.6037443519
 20
7.5938637619
 11
7.5999505317
 21
7.5815817805
  0
LINE
  5
241
100
AcDbEntity
  8
0
100
AcDbLine
 62
6
  6
CONTINUOUS
 10
7.7235426455
 20
7.5937581009
 11
7.7197344072
 21
7.581429443
  0
LINE
  5
242
100
AcDbEntity
  8
0
100
AcDbLine
 62
6
  6
CONTINUOUS
 10
4.7577053861
 20
5.3013330368
 11
7.612132809
 21
5.3013330368
  0
LINE
  5
243
100
AcDbEntity
  8
0
100
AcDbLine
 62
6
  6
CONTINUOUS
 10
8.5281817287
 20
5.3013330368
 11
11.3826091517
 21
5.3013330368
  0
LINE
  5
244
100
AcDbEntity
  8
0
100
AcDbLine
 62
6
  6
CONTINUOUS
 10
7.6747963616
 20
7.5078019813
 11
7.6720327272
 21
7.4945582938
  0
LINE
  5
245
100
AcDbEntity
  8
0
100
AcDbLine
 62
9
  6
CONTINUOUS
 10
7.7024739321
 20
7.5170864437
 11
7.6999079404
 21
7.5047898848
  0
LINE
  5
246
100
AcDbEntity
  8
0
100
AcDbLine
 62
6
  6
CONTINUOUS
 10
7.7647355124
 20
7.593866156
 11
7.7621727153
 21
7.5815849062
  0
LINE
  5
247
100
AcDbEntity
  8
0
100
AcDbLine
 62
6
  6
CONTINUOUS
 10
7.8791260555
 20
7.5937726803
 11
7.8765550884
 21
7.581452279
  0
LINE
  5
248
100
AcDbEntity
  8
0
100
AcDbLine
 62
6
  6
CONTINUOUS
 10
9.3822695543
 20
7.5119953843
 11
9.3691347421
 21
7.506033205
  0
LINE
  5
249
100
AcDbEntity
  8
0
100
AcDbLine
 62
9
  6
CONTINUOUS
 10
7.6918229205
 20
5.4330322236
 11
8.4484916172
 21
5.4330322236
  0
LINE
  5
24A
100
AcDbEntity
  8
0
100
AcDbLine
 62
6
  6
CONTINUOUS
 10
7.7176572689
 20
5.818326564
 11
7.7176572689
 21
5.862326564
  0
LINE
  5
24B
100
AcDbEntity
  8
0
100
AcDbLine
 62
6
  6
CONTINUOUS
 10
7.7396572689
 20
4.662326564
 11
7.7396572689
 21
4.7453296447
  0
LINE
  5
24C
100
AcDbEntity
  8
0
100
AcDbLine
 62
6
  6
CONTINUOUS
 10
7.7976572689
 20
4.603326564
 11
7.7976572689
 21
4.627326564
  0
LINE
  5
24D
100
AcDbEntity
  8
0
100
AcDbLine
 62
6
  6
CONTINUOUS
 10
7.8318643734
 20
7.5082407799
 11
7.8304255919
 21
7.4945598674
  0
LINE
  5
24E
100
AcDbEntity
  8
0
100
AcDbLine
 62
9
  6
CONTINUOUS
 10
7.8651326971
 20
7.5170732081
 11
7.8638394518
 21
7.504776152
  0
LINE
  5
24F
100
AcDbEntity
  8
0
100
AcDbLine
 62
6
  6
CONTINUOUS
 10
7.9407167491
 20
7.5938637619
 11
7.9394250891
 21
7.5815817805
  0
LINE
  5
250
100
AcDbEntity
  8
0
100
AcDbLine
 62
6
  6
CONTINUOUS
 10
7.7176572689
 20
5.818326564
 11
8.4226572689
 21
5.818326564
  0
LINE
  5
251
100
AcDbEntity
  8
0
100
AcDbLine
 62
6
  6
CONTINUOUS
 10
7.7176572689
 20
5.862326564
 11
8.4226572689
 21
5.862326564
  0
LINE
  5
252
100
AcDbEntity
  8
0
100
AcDbLine
 62
6
  6
CONTINUOUS
 10
7.9814359379
 20
7.5017190362
 11
7.9814359379
 21
7.4945582938
  0
LINE
  5
253
100
AcDbEntity
  8
0
100
AcDbLine
 62
9
  6
CONTINUOUS
 10
8.0203818294
 20
7.5170864437
 11
8.0203818294
 21
7.5047898848
  0
LINE
  5
254
100
AcDbEntity
  8
0
100
AcDbLine
 62
6
  6
CONTINUOUS
 10
8.065948666
 20
7.5937581009
 11
8.0646520972
 21
7.581429443
  0
LINE
  5
255
100
AcDbEntity
  8
0
100
AcDbLine
 62
6
  6
CONTINUOUS
 10
7.6951572689
 20
6.002326564
 11
8.4451572689
 21
6.002326564
  0
LINE
  5
256
100
AcDbEntity
  8
0
100
AcDbLine
 62
6
  6
CONTINUOUS
 10
8.1439149909
 20
7.5067586902
 11
8.1451979054
 21
7.4945598674
  0
LINE
  5
257
100
AcDbEntity
  8
0
100
AcDbLine
 62
9
  6
CONTINUOUS
 10
8.1871839994
 20
7.5170732081
 11
8.1884772448
 21
7.504776152
  0
LINE
  5
258
100
AcDbEntity
  8
0
100
AcDbLine
 62
6
  6
CONTINUOUS
 10
8.1083591343
 20
7.593866156
 11
8.1083591343
 21
7.5815849062
  0
LINE
  5
259
100
AcDbEntity
  8
0
100
AcDbLine
 62
6
  6
CONTINUOUS
 10
8.2243591343
 20
7.5937726803
 11
8.2243591343
 21
7.581452279
  0
LINE
  5
25A
100
AcDbEntity
  8
0
100
AcDbLine
 62
6
  6
CONTINUOUS
 10
8.3426572689
 20
4.603326564
 11
8.3426572689
 21
4.627326564
  0
LINE
  5
25B
100
AcDbEntity
  8
0
100
AcDbLine
 62
9
  6
CONTINUOUS
 10
7.5251572689
 20
6.2309620565
 11
8.6151572689
 21
6.2309620565
  0
LINE
  5
25C
100
AcDbEntity
  8
0
100
AcDbLine
 62
6
  6
CONTINUOUS
 10
8.2858223702
 20
7.5938637619
 11
8.2871140302
 21
7.5815817805
  0
LINE
  5
25D
100
AcDbEntity
  8
0
100
AcDbLine
 62
6
  6
CONTINUOUS
 10
8.4086191286
 20
7.5937581009
 11
8.4099156974
 21
7.581429443
  0
LINE
  5
25E
100
AcDbEntity
  8
0
100
AcDbLine
 62
6
  6
CONTINUOUS
 10
8.4006572689
 20
4.662326564
 11
8.4006572689
 21
4.7453296447
  0
LINE
  5
25F
100
AcDbEntity
  8
0
100
AcDbLine
 62
6
  6
CONTINUOUS
 10
8.4226572689
 20
5.818326564
 11
8.4226572689
 21
5.862326564
  0
LINE
  5
260
100
AcDbEntity
  8
0
100
AcDbLine
 62
6
  6
CONTINUOUS
 10
8.2953231995
 20
7.4997847629
 11
8.2964138361
 21
7.4945582938
  0
LINE
  5
261
100
AcDbEntity
  8
0
100
AcDbLine
 62
9
  6
CONTINUOUS
 10
8.3414173006
 20
7.5170864437
 11
8.3439832923
 21
7.5047898848
  0
LINE
  5
262
100
AcDbEntity
  8
0
100
AcDbLine
 62
6
  6
CONTINUOUS
 10
8.4528475549
 20
7.5023540986
 11
8.4552551397
 21
7.4945598674
  0
LINE
  5
263
100
AcDbEntity
  8
0
100
AcDbLine
 62
6
  6
CONTINUOUS
 10
8.4495823925
 20
7.593866156
 11
8.4521451896
 21
7.5815849062
  0
LINE
  5
264
100
AcDbEntity
  8
0
100
AcDbLine
 62
6
  6
CONTINUOUS
 10
8.5599031428
 20
7.5937726803
 11
8.5624741099
 21
7.581452279
  0
LINE
  5
265
100
AcDbEntity
  8
0
100
AcDbLine
 62
6
  6
CONTINUOUS
 10
8.5954723562
 20
7.4987707633
 11
8.597175202
 21
7.4945582938
  0
LINE
  5
266
100
AcDbEntity
  8
0
100
AcDbLine
 62
9
  6
CONTINUOUS
 10
8.6465379088
 20
7.5142925483
 11
8.6503792591
 21
7.5047898848
  0
LINE
  5
267
100
AcDbEntity
  8
0
100
AcDbLine
 62
9
  6
CONTINUOUS
 10
8.5018820819
 20
7.5170732081
 11
8.5056805586
 21
7.504776152
  0
LINE
  5
268
100
AcDbEntity
  8
0
100
AcDbLine
 62
6
  6
CONTINUOUS
 10
8.6173769598
 20
7.5938637619
 11
8.62117078
 21
7.5815817805
  0
LINE
  5
269
100
AcDbEntity
  8
0
100
AcDbLine
 62
6
  6
CONTINUOUS
 10
8.7300227877
 20
7.5937581009
 11
8.733831026
 21
7.581429443
  0
LINE
  5
26A
100
AcDbEntity
  8
0
100
AcDbLine
 62
6
  6
CONTINUOUS
 10
9.2451572689
 20
7.4893402289
 11
9.2451572689
 21
7.4789780779
  0
LINE
  5
26B
100
AcDbEntity
  8
0
100
AcDbLine
 62
6
  6
CONTINUOUS
 10
8.2401572689
 20
4.537326564
 11
8.2501572689
 21
4.547326564
  0
LINE
  5
26C
100
AcDbEntity
  8
0
100
AcDbLine
 62
6
  6
CONTINUOUS
 10
9.3286325747
 20
7.4945598674
 11
9.331474398
 21
7.49502723
  0
LINE
  5
26D
100
AcDbEntity
  8
0
100
AcDbLine
 62
9
  6
CONTINUOUS
 10
7.0373928313
 20
7.247326564
 11
9.1029217064
 21
7.247326564
  0
LINE
  5
26E
100
AcDbEntity
  8
0
100
AcDbLine
 62
6
  6
CONTINUOUS
 10
6.9551572689
 20
7.387326564
 11
9.1851572689
 21
7.387326564
  0
LINE
  5
26F
100
AcDbEntity
  8
0
100
AcDbLine
 62
9
  6
CONTINUOUS
 10
6.8951572689
 20
7.4789780779
 11
9.2451572689
 21
7.4789780779
  0
LINE
  5
270
100
AcDbEntity
  8
0
100
AcDbLine
 62
6
  6
CONTINUOUS
 10
6.804478148
 20
7.4958893591
 11
6.811670772
 21
7.4945606695
  0
LINE
  5
271
100
AcDbEntity
  8
0
100
AcDbLine
 62
6
  6
CONTINUOUS
 10
8.7382562833
 20
7.5003565321
 11
8.7411152585
 21
7.4945598674
  0
LINE
  5
272
100
AcDbEntity
  8
0
100
AcDbLine
 62
9
  6
CONTINUOUS
 10
8.7894533066
 20
7.5170732081
 11
8.7955183424
 21
7.504776152
  0
LINE
  5
273
100
AcDbEntity
  8
0
100
AcDbLine
 62
6
  6
CONTINUOUS
 10
8.7669649748
 20
7.593866156
 11
8.771929539
 21
7.5815849062
  0
LINE
  5
274
100
AcDbEntity
  8
0
100
AcDbLine
 62
6
  6
CONTINUOUS
 10
8.8646746169
 20
7.5937726803
 11
8.8696550077
 21
7.581452279
  0
LINE
  5
275
100
AcDbEntity
  8
0
100
AcDbLine
 62
6
  6
CONTINUOUS
 10
9.4578721964
 20
7.5815458873
 11
9.4578724513
 21
7.5815435259
  0
LINE
  5
276
100
AcDbEntity
  8
0
100
AcDbLine
 62
6
  6
CONTINUOUS
 10
6.8142354258
 20
7.4945884327
 11
6.8140855541
 21
7.4945719879
  0
LINE
  5
277
100
AcDbEntity
  8
0
100
AcDbLine
 62
2
  6
CONTINUOUS
 10
6.8526572689
 20
7.4893402289
 11
9.2876572689
 21
7.4893402289
  0
LINE
  5
278
100
AcDbEntity
  8
0
100
AcDbLine
 62
9
  6
CONTINUOUS
 10
7.0276612085
 20
7.507326564
 11
7.0423880916
 21
7.507326564
  0
LINE
  5
279
100
AcDbEntity
  8
0
100
AcDbLine
 62
9
  6
CONTINUOUS
 10
7.1308664084
 20
7.507326564
 11
7.1467174263
 21
7.507326564
  0
LINE
  5
27A
100
AcDbEntity
  8
0
100
AcDbLine
 62
9
  6
CONTINUOUS
 10
7.2393087635
 20
7.507326564
 11
7.2711991255
 21
7.507326564
  0
LINE
  5
27B
100
AcDbEntity
  8
0
100
AcDbLine
 62
9
  6
CONTINUOUS
 10
7.3784135768
 20
7.507326564
 11
7.3928065827
 21
7.507326564
  0
LINE
  5
27C
100
AcDbEntity
  8
0
100
AcDbLine
 62
9
  6
CONTINUOUS
 10
7.5095081168
 20
7.507326564
 11
7.5346600468
 21
7.507326564
  0
LINE
  5
27D
100
AcDbEntity
  8
0
100
AcDbLine
 62
9
  6
CONTINUOUS
 10
7.8192854274
 20
7.507326564
 11
7.831768228
 21
7.507326564
  0
LINE
  5
27E
100
AcDbEntity
  8
0
100
AcDbLine
 62
9
  6
CONTINUOUS
 10
6.6876572689
 20
7.6034067662
 11
9.4526572689
 21
7.6034067662
  0
LINE
  5
27F
100
AcDbEntity
  8
0
100
AcDbLine
 62
6
  6
CONTINUOUS
 10
6.6735127219
 20
7.617326564
 11
9.4668018158
 21
7.617326564
  0
LINE
  5
280
100
AcDbEntity
  8
0
100
AcDbLine
 62
6
  6
CONTINUOUS
 10
8.9820393239
 20
7.4988555127
 11
8.9848166192
 21
7.4945598674
  0
LINE
  5
281
100
AcDbEntity
  8
0
100
AcDbLine
 62
9
  6
CONTINUOUS
 10
9.0332698045
 20
7.5148439654
 11
9.0397790222
 21
7.504776152
  0
LINE
  5
282
100
AcDbEntity
  8
0
100
AcDbLine
 62
2
  6
CONTINUOUS
 10
8.8629090246
 20
7.4978888259
 11
8.864822093
 21
7.4945582938
  0
LINE
  5
283
100
AcDbEntity
  8
0
100
AcDbLine
 62
2
  6
CONTINUOUS
 10
8.9164802797
 20
7.5114706701
 11
8.9203177443
 21
7.5047898848
  0
LINE
  5
284
100
AcDbEntity
  8
0
100
AcDbLine
 62
6
  6
CONTINUOUS
 10
9.0405645662
 20
7.593866156
 11
9.0476189557
 21
7.5815849062
  0
LINE
  5
285
100
AcDbEntity
  8
0
100
AcDbLine
 62
6
  6
CONTINUOUS
 10
8.9145477237
 20
7.5938637619
 11
8.9206053245
 21
7.5815817805
  0
LINE
  5
286
100
AcDbEntity
  8
0
100
AcDbLine
 62
6
  6
CONTINUOUS
 10
9.0099646695
 20
7.5937581009
 11
9.0160452916
 21
7.581429443
  0
LINE
  5
287
100
AcDbEntity
  8
0
100
AcDbLine
 62
6
  6
CONTINUOUS
 10
6.6476594316
 20
7.782326564
 11
9.4926551061
 21
7.782326564
  0
LINE
  5
288
100
AcDbEntity
  8
0
100
AcDbLine
 62
6
  6
CONTINUOUS
 10
9.3166831389
 20
7.4954740723
 11
9.3174500521
 21
7.4945582938
  0
LINE
  5
289
100
AcDbEntity
  8
0
100
AcDbLine
 62
6
  6
CONTINUOUS
 10
9.3260476328
 20
7.4945718484
 11
9.3260979152
 21
7.4945118058
  0
LINE
  5
28A
100
AcDbEntity
  8
0
100
AcDbLine
 62
6
  6
CONTINUOUS
 10
9.3284208628
 20
7.4948126747
 11
9.3286325747
 21
7.4945598674
  0
LINE
  5
28B
100
AcDbEntity
  8
0
100
AcDbLine
 62
6
  6
CONTINUOUS
 10
9.2866369289
 20
7.4963392909
 11
9.2881035954
 21
7.4945598674
  0
LINE
  5
28C
100
AcDbEntity
  8
0
100
AcDbLine
 62
9
  6
CONTINUOUS
 10
9.3312194417
 20
7.5081569478
 11
9.3340060182
 21
7.504776152
  0
LINE
  5
28D
100
AcDbEntity
  8
0
100
AcDbLine
 62
2
  6
CONTINUOUS
 10
9.235156283
 20
7.4964186299
 11
9.2366408892
 21
7.4945582938
  0
LINE
  5
28E
100
AcDbEntity
  8
0
100
AcDbLine
 62
9
  6
CONTINUOUS
 10
9.2618309427
 20
7.5011925775
 11
9.2636251193
 21
7.4989443237
  0
LINE
  5
28F
100
AcDbEntity
  8
0
100
AcDbLine
 62
2
  6
CONTINUOUS
 10
9.2840608236
 20
7.5076381813
 11
9.286333853
 21
7.5047898848
  0
LINE
  5
290
100
AcDbEntity
  8
0
100
AcDbLine
 62
6
  6
CONTINUOUS
 10
9.1687386862
 20
7.4975995949
 11
9.1710465691
 21
7.4945598674
  0
LINE
  5
291
100
AcDbEntity
  8
0
100
AcDbLine
 62
9
  6
CONTINUOUS
 10
9.2180408254
 20
7.5114591185
 11
9.2231148012
 21
7.504776152
  0
LINE
  5
292
100
AcDbEntity
  8
0
100
AcDbLine
 62
2
  6
CONTINUOUS
 10
9.0806559728
 20
7.4972137115
 11
9.0825372705
 21
7.4945582938
  0
LINE
  5
293
100
AcDbEntity
  8
0
100
AcDbLine
 62
9
  6
CONTINUOUS
 10
9.1244457506
 20
7.5063505328
 11
9.1273051544
 21
7.5023145361
  0
LINE
  5
294
100
AcDbEntity
  8
0
100
AcDbLine
 62
2
  6
CONTINUOUS
 10
9.1334967116
 20
7.5095053757
 11
9.1368375202
 21
7.5047898848
  0
LINE
  5
295
100
AcDbEntity
  8
0
100
AcDbLine
 62
6
  6
CONTINUOUS
 10
9.2531898982
 20
7.593866156
 11
9.2618908597
 21
7.5815849062
  0
LINE
  5
296
100
AcDbEntity
  8
0
100
AcDbLine
 62
6
  6
CONTINUOUS
 10
9.1586623299
 20
7.5938637619
 11
9.1666030899
 21
7.5815817805
  0
LINE
  5
297
100
AcDbEntity
  8
0
100
AcDbLine
 62
6
  6
CONTINUOUS
 10
9.2308549959
 20
7.5937581009
 11
9.238825934
 21
7.581429443
  0
LINE
  5
298
100
AcDbEntity
  8
0
100
AcDbLine
 62
6
  6
CONTINUOUS
 10
9.119523644
 20
7.5937726803
 11
9.1266005223
 21
7.581452279
  0
LINE
  5
299
100
AcDbEntity
  8
0
100
AcDbLine
 62
9
  6
CONTINUOUS
 10
9.3585785822
 20
7.5057866752
 11
9.3594133381
 21
7.5047898848
  0
LINE
  5
29A
100
AcDbEntity
  8
0
100
AcDbLine
 62
6
  6
CONTINUOUS
 10
9.4467483545
 20
7.593866156
 11
9.4570332118
 21
7.5815849062
  0
LINE
  5
29B
100
AcDbEntity
  8
0
100
AcDbLine
 62
6
  6
CONTINUOUS
 10
9.4578721517
 20
7.5815458142
 11
9.4475789871
 21
7.5938369839
  0
LINE
  5
29C
100
AcDbEntity
  8
0
100
AcDbLine
 62
6
  6
CONTINUOUS
 10
9.4306660904
 20
7.5938637619
 11
9.4407893522
 21
7.5815817805
  0
LINE
  5
29D
100
AcDbEntity
  8
0
100
AcDbLine
 62
6
  6
CONTINUOUS
 10
9.4445460934
 20
7.5937581009
 11
9.4547078278
 21
7.581429443
  0
LINE
  5
29E
100
AcDbEntity
  8
0
100
AcDbLine
 62
6
  6
CONTINUOUS
 10
9.3914809392
 20
7.593866156
 11
9.4012817594
 21
7.5815849062
  0
LINE
  5
29F
100
AcDbEntity
  8
0
100
AcDbLine
 62
6
  6
CONTINUOUS
 10
9.4195449236
 20
7.5937726803
 11
9.4293769879
 21
7.581452279
  0
LINE
  5
2A0
100
AcDbEntity
  8
0
100
AcDbLine
 62
6
  6
CONTINUOUS
 10
9.3343821598
 20
7.5938637619
 11
9.3437071319
 21
7.5815817805
  0
LINE
  5
2A1
100
AcDbEntity
  8
0
100
AcDbLine
 62
6
  6
CONTINUOUS
 10
9.3788144153
 20
7.5937581009
 11
9.3881748261
 21
7.581429443
  0
LINE
  5
2A2
100
AcDbEntity
  8
0
100
AcDbLine
 62
6
  6
CONTINUOUS
 10
9.3084371224
 20
7.5937726803
 11
9.3171658219
 21
7.581452279
  0
ARC
  5
2A3
100
AcDbEntity
  8
0
100
AcDbCircle
 62
6
  6
CONTINUOUS
 10
6.7182734181
 20
-14.0927568766
 40
21.6743877236
100
AcDbArc
 50
89.7674627928
 51
89.8827103267
  0
ARC
  5
2A4
100
AcDbEntity
  8
0
100
AcDbCircle
 62
6
  6
CONTINUOUS
 10
6.1259225538
 20
6.1846780175
 40
1.4
100
AcDbArc
 50
1.8945452827
 51
49.3791708116
  0
ARC
  5
2A5
100
AcDbEntity
  8
0
100
AcDbCircle
 62
6
  6
CONTINUOUS
 10
4.7576572689
 20
5.1138330368
 40
0.1875
100
AcDbArc
 50
90.0
 51
270.0
  0
ARC
  5
2A6
100
AcDbEntity
  8
0
100
AcDbCircle
 62
6
  6
CONTINUOUS
 10
6.6628375237
 20
-7.3006742956
 40
14.8823509799
100
AcDbArc
 50
89.6692912709
 51
89.7960582239
  0
ARC
  5
2A7
100
AcDbEntity
  8
0
100
AcDbCircle
 62
6
  6
CONTINUOUS
 10
7.2001553808
 20
7.4370852331
 40
0.25
100
AcDbArc
 50
191.4805151999
 51
229.3791708116
  0
ARC
  5
2A8
100
AcDbEntity
  8
0
100
AcDbCircle
 62
6
  6
CONTINUOUS
 10
6.842059321
 20
7.6791959889
 40
0.1871193873
100
AcDbArc
 50
211.4580852571
 51
248.8679094288
  0
ARC
  5
2A9
100
AcDbEntity
  8
0
100
AcDbCircle
 62
6
  6
CONTINUOUS
 10
6.8401319582
 20
7.6739308829
 40
0.181513213
100
AcDbArc
 50
243.2776106878
 51
248.8619870221
  0
ARC
  5
2AA
100
AcDbEntity
  8
0
100
AcDbCircle
 62
6
  6
CONTINUOUS
 10
6.8390465185
 20
7.6712000604
 40
0.1785747108
100
AcDbArc
 50
248.8708514326
 51
249.2363137541
  0
ARC
  5
2AB
100
AcDbEntity
  8
0
100
AcDbCircle
 62
6
  6
CONTINUOUS
 10
6.8389515967
 20
7.6709538243
 40
0.1783108165
100
AcDbArc
 50
249.2367836811
 51
252.1836255756
  0
ARC
  5
2AC
100
AcDbEntity
  8
0
100
AcDbCircle
 62
2
  6
CONTINUOUS
 10
6.8403766151
 20
7.6705204224
 40
0.1782878382
100
AcDbArc
 50
248.3674592038
 51
248.7721762758
  0
ARC
  5
2AD
100
AcDbEntity
  8
0
100
AcDbCircle
 62
2
  6
CONTINUOUS
 10
6.8401523821
 20
7.6698701031
 40
0.1776004566
100
AcDbArc
 50
248.7636440585
 51
258.4767455458
  0
ARC
  5
2AE
100
AcDbEntity
  8
0
100
AcDbCircle
 62
6
  6
CONTINUOUS
 10
6.8387278999
 20
7.6702565903
 40
0.1775785765
100
AcDbArc
 50
252.1835087357
 51
253.9594554482
  0
ARC
  5
2AF
100
AcDbEntity
  8
0
100
AcDbCircle
 62
6
  6
CONTINUOUS
 10
6.8385720961
 20
7.666048561
 40
0.1734657041
100
AcDbArc
 50
242.5591560451
 51
248.3769912173
  0
ARC
  5
2B0
100
AcDbEntity
  8
0
100
AcDbCircle
 62
6
  6
CONTINUOUS
 10
6.842059321
 20
7.6791959889
 40
0.172
100
AcDbArc
 50
206.1444046812
 51
209.7538550189
  0
ARC
  5
2B1
100
AcDbEntity
  8
0
100
AcDbCircle
 62
2
  6
CONTINUOUS
 10
6.8376594109
 20
7.6693515924
 40
0.1612379804
100
AcDbArc
 50
207.9584924062
 51
208.8328436255
  0
ARC
  5
2B2
100
AcDbEntity
  8
0
100
AcDbCircle
 62
2
  6
CONTINUOUS
 10
6.8542995871
 20
7.6560908939
 40
0.1536875505
100
AcDbArc
 50
203.9216118805
 51
207.7080134838
  0
ARC
  5
2B3
100
AcDbEntity
  8
0
100
AcDbCircle
 62
2
  6
CONTINUOUS
 10
6.9003452542
 20
7.6413668088
 40
0.1492434727
100
AcDbArc
 50
198.6024761564
 51
203.2601301854
  0
ARC
  5
2B4
100
AcDbEntity
  8
0
100
AcDbCircle
 62
6
  6
CONTINUOUS
 10
6.9951572689
 20
7.4789780779
 40
0.1
100
AcDbArc
 50
180.0
 51
246.4218215218
  0
ARC
  5
2B5
100
AcDbEntity
  8
0
100
AcDbCircle
 62
6
  6
CONTINUOUS
 10
6.6607266784
 20
7.5901877157
 40
0.03
100
AcDbArc
 50
26.1444046812
 51
64.7732649341
  0
ARC
  5
2B6
100
AcDbEntity
  8
0
100
AcDbCircle
 62
6
  6
CONTINUOUS
 10
6.8346572689
 20
7.4893402289
 40
0.018
100
AcDbArc
 50
0.0
 51
16.873774725
  0
ARC
  5
2B7
100
AcDbEntity
  8
0
100
AcDbCircle
 62
6
  6
CONTINUOUS
 10
7.4426572689
 20
5.6432522941
 40
0.326
100
AcDbArc
 50
319.8458068178
 51
32.4822048034
  0
ARC
  5
2B8
100
AcDbEntity
  8
0
100
AcDbCircle
 62
6
  6
CONTINUOUS
 10
7.9425248747
 20
6.0385103669
 40
0.25
100
AcDbArc
 50
188.3219461858
 51
224.8081561684
  0
ARC
  5
2B9
100
AcDbEntity
  8
0
100
AcDbCircle
 62
6
  6
CONTINUOUS
 10
7.8341572689
 20
4.547326564
 40
0.056
100
AcDbArc
 50
0.0
 51
90.0
  0
ARC
  5
2BA
100
AcDbEntity
  8
0
100
AcDbCircle
 62
6
  6
CONTINUOUS
 10
7.7746572689
 20
4.662326564
 40
0.035
100
AcDbArc
 50
180.0
 51
270.0000017894
  0
ARC
  5
2BB
100
AcDbEntity
  8
0
100
AcDbCircle
 62
6
  6
CONTINUOUS
 10
7.3730719649
 20
7.8114730694
 40
0.726
100
AcDbArc
 50
182.3008549133
 51
195.5107653603
  0
ARC
  5
2BC
100
AcDbEntity
  8
0
100
AcDbCircle
 62
6
  6
CONTINUOUS
 10
7.7750206108
 20
6.2392270634
 40
0.25
100
AcDbArc
 50
181.8945452827
 51
251.37012988
  0
ARC
  5
2BD
100
AcDbEntity
  8
0
100
AcDbCircle
 62
6
  6
CONTINUOUS
 10
7.9782689913
 20
7.6220983724
 40
0.11353255
100
AcDbArc
 50
281.6840379121
 51
282.3254975553
  0
ARC
  5
2BE
100
AcDbEntity
  8
0
100
AcDbCircle
 62
6
  6
CONTINUOUS
 10
9.1292473287
 20
-27.2490982499
 40
34.8307000623
100
AcDbArc
 50
89.8197451686
 51
89.9385505355
  0
ARC
  5
2BF
100
AcDbEntity
  8
0
100
AcDbCircle
 62
6
  6
CONTINUOUS
 10
9.2371924317
 20
-14.230478166
 40
21.8120770556
100
AcDbArc
 50
89.7899261045
 51
89.9351223644
  0
ARC
  5
2C0
100
AcDbEntity
  8
0
100
AcDbCircle
 62
2
  6
CONTINUOUS
 10
9.3056428453
 20
-13.8338252789
 40
21.4277083137
100
AcDbArc
 50
89.8043453724
 51
89.923153615
  0
ARC
  5
2C1
100
AcDbEntity
  8
0
100
AcDbCircle
 62
6
  6
CONTINUOUS
 10
9.3241441298
 20
-4.6190942163
 40
12.2006916808
100
AcDbArc
 50
89.6993034825
 51
89.908129968
  0
ARC
  5
2C2
100
AcDbEntity
  8
0
100
AcDbCircle
 62
2
  6
CONTINUOUS
 10
9.3787082136
 20
-0.4536993795
 40
8.0475756716
100
AcDbArc
 50
89.7092563941
 51
89.9090628527
  0
ARC
  5
2C3
100
AcDbEntity
  8
0
100
AcDbCircle
 62
6
  6
CONTINUOUS
 10
8.3061572689
 20
4.547326564
 40
0.056
100
AcDbArc
 50
90.0
 51
180.0
  0
ARC
  5
2C4
100
AcDbEntity
  8
0
100
AcDbCircle
 62
6
  6
CONTINUOUS
 10
8.3656572689
 20
4.662326564
 40
0.035
100
AcDbArc
 50
269.9999982106
 51
360.0
  0
ARC
  5
2C5
100
AcDbEntity
  8
0
100
AcDbCircle
 62
6
  6
CONTINUOUS
 10
8.7672425728
 20
7.8114730694
 40
0.726
100
AcDbArc
 50
344.4892346397
 51
357.6991450867
  0
ARC
  5
2C6
100
AcDbEntity
  8
0
100
AcDbCircle
 62
6
  6
CONTINUOUS
 10
8.6976572689
 20
5.6432522941
 40
0.326
100
AcDbArc
 50
147.5177951966
 51
220.1541931822
  0
ARC
  5
2C7
100
AcDbEntity
  8
0
100
AcDbCircle
 62
6
  6
CONTINUOUS
 10
8.3652939269
 20
6.2392270634
 40
0.25
100
AcDbArc
 50
288.62987012
 51
358.1054547173
  0
ARC
  5
2C8
100
AcDbEntity
  8
0
100
AcDbCircle
 62
6
  6
CONTINUOUS
 10
8.197789663
 20
6.0385103669
 40
0.25
100
AcDbArc
 50
315.1918438316
 51
351.6780538142
  0
ARC
  5
2C9
100
AcDbEntity
  8
0
100
AcDbCircle
 62
2
  6
CONTINUOUS
 10
8.3030169655
 20
7.6230328941
 40
0.1126908874
100
AcDbArc
 50
287.2273717262
 51
289.9230696233
  0
ARC
  5
2CA
100
AcDbEntity
  8
0
100
AcDbCircle
 62
6
  6
CONTINUOUS
 10
9.3922260824
 20
2.6874097764
 40
4.8941835077
100
AcDbArc
 50
89.5650734115
 51
89.8939859186
  0
ARC
  5
2CB
100
AcDbEntity
  8
0
100
AcDbCircle
 62
2
  6
CONTINUOUS
 10
9.1209790022
 20
7.8242971292
 40
0.3160739909
100
AcDbArc
 50
271.6780646852
 51
272.3752781633
  0
ARC
  5
2CC
100
AcDbEntity
  8
0
100
AcDbCircle
 62
6
  6
CONTINUOUS
 10
8.9401591569
 20
7.4370852331
 40
0.25
100
AcDbArc
 50
310.6208291884
 51
348.5194848001
  0
ARC
  5
2CD
100
AcDbEntity
  8
0
100
AcDbCircle
 62
2
  6
CONTINUOUS
 10
9.0753917997
 20
7.7511342383
 40
0.2373718887
100
AcDbArc
 50
309.3136173058
 51
318.5062165472
  0
ARC
  5
2CE
100
AcDbEntity
  8
0
100
AcDbCircle
 62
2
  6
CONTINUOUS
 10
9.2362940541
 20
7.7124452201
 40
0.195304797
100
AcDbArc
 50
319.5731106364
 51
322.6163764099
  0
ARC
  5
2CF
100
AcDbEntity
  8
0
100
AcDbCircle
 62
6
  6
CONTINUOUS
 10
9.2982552167
 20
7.6791959889
 40
0.1871193873
100
AcDbArc
 50
296.6553623302
 51
328.5415763231
  0
ARC
  5
2D0
100
AcDbEntity
  8
0
100
AcDbCircle
 62
2
  6
CONTINUOUS
 10
9.2818781971
 20
7.6955455963
 40
0.1802138525
100
AcDbArc
 50
322.7882689841
 51
325.6512494243
  0
ARC
  5
2D1
100
AcDbEntity
  8
0
100
AcDbCircle
 62
6
  6
CONTINUOUS
 10
9.2999807577
 20
7.6696065839
 40
0.177375925
100
AcDbArc
 50
280.2235737115
 51
283.9950836794
  0
ARC
  5
2D2
100
AcDbEntity
  8
0
100
AcDbCircle
 62
6
  6
CONTINUOUS
 10
9.3001489243
 20
7.6688696435
 40
0.1766201911
100
AcDbArc
 50
283.9999645819
 51
286.9551623393
  0
ARC
  5
2D3
100
AcDbEntity
  8
0
100
AcDbCircle
 62
6
  6
CONTINUOUS
 10
9.2982552167
 20
7.6791959889
 40
0.172
100
AcDbArc
 50
330.246153675
 51
333.8555953188
  0
ARC
  5
2D4
100
AcDbEntity
  8
0
100
AcDbCircle
 62
2
  6
CONTINUOUS
 10
9.3035111081
 20
7.6794989166
 40
0.1668828285
100
AcDbArc
 50
328.4937755281
 51
329.1273867866
  0
ARC
  5
2D5
100
AcDbEntity
  8
0
100
AcDbCircle
 62
6
  6
CONTINUOUS
 10
9.1451572689
 20
7.4789780779
 40
0.1
100
AcDbArc
 50
293.5781784782
 51
360.0
  0
ARC
  5
2D6
100
AcDbEntity
  8
0
100
AcDbCircle
 62
6
  6
CONTINUOUS
 10
9.4795878593
 20
7.5901877157
 40
0.03
100
AcDbArc
 50
115.2267350659
 51
153.8555953188
  0
ARC
  5
2D7
100
AcDbEntity
  8
0
100
AcDbCircle
 62
6
  6
CONTINUOUS
 10
9.3056572689
 20
7.4893402289
 40
0.018
100
AcDbArc
 50
163.1296971664
 51
180.0
  0
ARC
  5
2D8
100
AcDbEntity
  8
0
100
AcDbCircle
 62
6
  6
CONTINUOUS
 10
10.0143919839
 20
6.1846780175
 40
1.4
100
AcDbArc
 50
130.6208291884
 51
178.1054547173
  0
ARC
  5
2D9
100
AcDbEntity
  8
0
100
AcDbCircle
 62
6
  6
CONTINUOUS
 10
11.3826572689
 20
5.1138330368
 40
0.1875
100
AcDbArc
 50
270.0
 51
90.0
  0
LINE
  5
2DA
100
AcDbEntity
  8
0
100
AcDbLine
 62
6
  6
CONTINUOUS
 10
9.3064199824
 20
7.4945719879
 11
9.317527511
 21
7.4945632211
  0
LINE
  5
2DB
100
AcDbEntity
  8
0
100
AcDbLine
 62
6
  6
CONTINUOUS
 10
9.3262289836
 20
7.4945719879
 11
9.3286450836
 21
7.4945619229
  0
LINE
  5
2DC
100
AcDbEntity
  8
0
100
AcDbLine
 62
6
  6
CONTINUOUS
 10
9.3262289836
 20
7.4945719879
 11
9.3174500521
 21
7.4945582938
  0
SPLINE
  5
2DD
100
AcDbEntity
  8
0
100
AcDbSpline
 62
6
  6
CONTINUOUS
 70
0
 71
3
 72
29
 73
25
 74
23
 42
0.0000001
 43
0.0000001
 44
0.0000000001
 12
-0.0412454034
 22
-0.016811722
 32
0.0
 13
-0.044540064
 23
-0.0
 33
0.0
 40
0.0
 40
0.0
 40
0.0
 40
0.0
 40
0.1011206691
 40
0.1986324215
 40
0.3815165885
 40
0.4663243475
 40
0.5463052895
 40
0.6211178693
 40
0.6904037585
 40
0.7537814307
 40
0.810857974
 40
0.8612342505
 40
0.8837836242
 40
0.9045078651
 40
0.9233649037
 40
0.9403138969
 40
0.955313857
 40
0.9683242743
 40
0.979315867
 40
0.988269855
 40
0.9919773492
 40
0.9951691766
 40
0.9978437224
 40
1.0
 40
1.0
 40
1.0
 40
1.0
 10
9.3691347421
 20
7.506033205
 30
0.0
 10
9.3677444879
 20
7.5054665341
 30
0.0
 10
9.3649997104
 20
7.5043870815
 30
0.0
 10
9.3596796157
 20
7.5024416552
 30
0.0
 10
9.3545243249
 20
7.5007547512
 30
0.0
 10
9.3495680133
 20
7.499311886
 30
0.0
 10
9.3461326937
 20
7.4983874107
 30
0.0
 10
9.3429039286
 20
7.4975848021
 30
0.0
 10
9.3399014289
 20
7.4968960097
 30
0.0
 10
9.3371453204
 20
7.4963127997
 30
0.0
 10
9.3346559382
 20
7.4958268831
 30
0.0
 10
9.3327562279
 20
7.4954852954
 30
0.0
 10
9.3313851511
 20
7.4952542956
 30
0.0
 10
9.3304744916
 20
7.4951073297
 30
0.0
 10
9.3296449845
 20
7.4949795275
 30
0.0
 10
9.3288986355
 20
7.4948702371
 30
0.0
 10
9.3282374186
 20
7.4947788304
 30
0.0
 10
9.3276631428
 20
7.4947045516
 30
0.0
 10
9.3271772483
 20
7.4946469538
 30
0.0
 10
9.3268279443
 20
7.4946105784
 30
0.0
 10
9.3265934482
 20
7.4945902604
 30
0.0
 10
9.3264516685
 20
7.4945800372
 30
0.0
 10
9.3263327164
 20
7.4945737817
 30
0.0
 10
9.3262609972
 20
7.4945719879
 30
0.0
 10
9.3262289836
 20
7.4945719879
 30
0.0
 11
9.3691347421
 21
7.506033205
 31
0.0
 11
9.3649433434
 21
7.5043847264
 31
0.0
 11
9.36086428
 21
7.5028932667
 31
0.0
 11
9.3531224322
 21
7.5003603291
 31
0.0
 11
9.3494956259
 21
7.4993045848
 31
0.0
 11
9.3460556421
 21
7.4983788992
 31
0.0
 11
9.3428218661
 21
7.4975751806
 31
0.0
 11
9.3398139681
 21
7.4968853017
 31
0.0
 11
9.3370522404
 21
7.4963010778
 31
0.0
 11
9.3345570672
 21
7.4958144
 31
0.0
 11
9.3323486374
 21
7.4954177787
 31
0.0
 11
9.3313582339
 21
7.4952509828
 31
0.0
 11
9.3304469445
 21
7.4951040486
 31
0.0
 11
9.3296168226
 21
7.4949763027
 31
0.0
 11
9.3288698527
 21
7.4948671058
 31
0.0
 11
9.3282080195
 21
7.4947758185
 31
0.0
 11
9.3276332798
 21
7.4947018124
 31
0.0
 11
9.3271470606
 21
7.4946446638
 31
0.0
 11
9.3267503143
 21
7.4946041325
 31
0.0
 11
9.326585786
 21
7.4945900255
 31
0.0
 11
9.3264439768
 21
7.4945799851
 31
0.0
 11
9.3263250037
 21
7.4945739824
 31
0.0
 11
9.3262289836
 21
7.4945719879
 31
0.0
  0
LINE
  5
2DE
100
AcDbEntity
  8
0
100
AcDbLine
 62
2
  6
CONTINUOUS
 10
9.4445460934
 20
7.5937581009
 11
9.4306660904
 21
7.5938637619
  0
LINE
  5
2DF
100
AcDbEntity
  8
0
100
AcDbLine
 62
6
  6
CONTINUOUS
 10
9.3064199824
 20
7.4945719879
 11
9.2881035954
 21
7.4945598674
  0
SPLINE
  5
2E0
100
AcDbEntity
  8
0
100
AcDbSpline
 62
6
  6
CONTINUOUS
 70
0
 71
3
 72
24
 73
20
 74
18
 42
0.0000001
 43
0.0000001
 44
0.0000000001
 12
-0.0629449316
 22
-0.029310653
 32
0.0
 13
-0.0694347089
 23
0.0
 33
0.0
 40
0.0
 40
0.0
 40
0.0
 40
0.0
 40
0.0913441637
 40
0.1801452579
 40
0.3490244965
 40
0.5047496284
 40
0.5770251647
 40
0.6451722527
 40
0.7088654757
 40
0.7677515279
 40
0.8214619142
 40
0.8696211513
 40
0.9118585147
 40
0.930654037
 40
0.9478480731
 40
0.9634037712
 40
0.9772954662
 40
0.9895011052
 40
1.0
 40
1.0
 40
1.0
 40
1.0
 10
9.3732730642
 20
7.5118040542
 30
0.0
 10
9.3713565135
 20
7.5109116018
 30
0.0
 10
9.3675461403
 20
7.5092164136
 30
0.0
 10
9.3600589981
 20
7.5061803722
 30
0.0
 10
9.3510255557
 20
7.5030065291
 30
0.0
 10
9.3421920046
 20
7.5004696714
 30
0.0
 10
9.3355329615
 20
7.4988427247
 30
0.0
 10
9.3309171822
 20
7.4978340453
 30
0.0
 10
9.3265837918
 20
7.4969906473
 30
0.0
 10
9.3225625938
 20
7.4962974968
 30
0.0
 10
9.3188837475
 20
7.4957395129
 30
0.0
 10
9.3155767923
 20
7.4953037982
 30
0.0
 10
9.3130651931
 20
7.4950213858
 30
0.0
 10
9.3112628963
 20
7.494848321
 30
0.0
 10
9.3100741099
 20
7.4947476923
 30
0.0
 10
9.3089973771
 20
7.4946698663
 30
0.0
 10
9.3080348744
 20
7.494614398
 30
0.0
 10
9.3071884766
 20
7.4945808306
 30
0.0
 10
9.3066629783
 20
7.4945719879
 30
0.0
 10
9.3064199824
 20
7.4945719879
 30
0.0
 11
9.3732730642
 21
7.5118040542
 31
0.0
 11
9.3674784573
 21
7.5092254361
 31
0.0
 11
9.3617645736
 21
7.5069081992
 31
0.0
 11
9.350702432
 21
7.50301847
 31
0.0
 11
9.3403103702
 21
7.5000318055
 31
0.0
 11
9.3354353701
 21
7.4988405787
 31
0.0
 11
9.330812698
 21
7.4978303407
 31
0.0
 11
9.3264716015
 21
7.4969856115
 31
0.0
 11
9.3224422407
 21
7.4962913401
 31
0.0
 11
9.318754921
 21
7.4957329161
 31
0.0
 11
9.3154395189
 21
7.4952971096
 31
0.0
 11
9.3125248903
 21
7.4949716894
 31
0.0
 11
9.3112257672
 21
7.4948473311
 31
0.0
 11
9.3100361231
 21
7.4947470543
 31
0.0
 11
9.3089587799
 21
7.4946698584
 31
0.0
 11
9.307995763
 21
7.4946152173
 31
0.0
 11
9.3071488909
 21
7.4945827281
 31
0.0
 11
9.3064199824
 21
7.4945719879
 31
0.0
  0
SPLINE
  5
2E1
100
AcDbEntity
  8
0
100
AcDbSpline
 62
6
  6
CONTINUOUS
 70
0
 71
3
 72
18
 73
14
 74
12
 42
0.0000001
 43
0.0000001
 44
0.0000000001
 12
-0.0596333128
 22
-0.0906481209
 32
0.0
 13
-0.0983629767
 23
-0.0458032601
 33
0.0
 40
0.0
 40
0.0
 40
0.0
 40
0.0
 40
0.1240785912
 40
0.1861229127
 40
0.2481781503
 40
0.3723831686
 40
0.4968622995
 40
0.5592538343
 40
0.6217606093
 40
0.6843971183
 40
0.7471784208
 40
0.8732230523
 40
1.0
 40
1.0
 40
1.0
 40
1.0
 10
9.4547078278
 20
7.581429443
 30
0.0
 10
9.452241422
 20
7.5776802792
 30
0.0
 10
9.4483366111
 20
7.5721874491
 30
0.0
 10
9.4427508986
 20
7.5651593117
 30
0.0
 10
9.4369160625
 20
7.5583300271
 30
0.0
 10
9.4291667754
 20
7.5501764606
 30
0.0
 10
9.4208590612
 20
7.5425748983
 30
0.0
 10
9.4138978508
 20
7.5368373105
 30
0.0
 10
9.4085178239
 20
7.5327044994
 30
0.0
 10
9.4029884398
 20
7.5287495209
 30
0.0
 10
9.3954143449
 20
7.5237118546
 30
0.0
 10
9.385593399
 20
7.5178764735
 30
0.0
 10
9.3774297835
 20
7.5137396533
 30
0.0
 10
9.3732730642
 20
7.5118040542
 30
0.0
 11
9.4547078278
 21
7.581429443
 31
0.0
 11
9.4469088292
 21
7.5704553782
 31
0.0
 11
9.442720378
 21
7.5651849098
 31
0.0
 11
9.4383467406
 21
7.5600655148
 31
0.0
 11
9.4290639234
 21
7.5502954923
 31
0.0
 11
9.4191007632
 21
7.5411761708
 31
0.0
 11
9.4138769508
 21
7.5368701963
 31
0.0
 11
9.4084985899
 21
7.5327383298
 31
0.0
 11
9.4029709039
 21
7.5287842284
 31
0.0
 11
9.3972990189
 21
7.5250114646
 31
0.0
 11
9.3855425404
 21
7.5180236755
 31
0.0
 11
9.3732730642
 21
7.5118040542
 31
0.0
  0
LINE
  5
2E2
100
AcDbEntity
  8
0
100
AcDbLine
 62
6
  6
CONTINUOUS
 10
9.2671143796
 20
7.4945719879
 11
9.2366408892
 21
7.4945582938
  0
SPLINE
  5
2E3
100
AcDbEntity
  8
0
100
AcDbSpline
 62
6
  6
CONTINUOUS
 70
0
 71
3
 72
23
 73
19
 74
17
 42
0.0000001
 43
0.0000001
 44
0.0000000001
 12
-0.0567583039
 22
-0.0203915688
 32
0.0
 13
-0.0603102076
 23
0.0
 33
0.0
 40
0.0
 40
0.0
 40
0.0
 40
0.0
 40
0.084053051
 40
0.1665042095
 40
0.3255310554
 40
0.475166164
 40
0.6133017304
 40
0.6773094831
 40
0.7375096184
 40
0.7935587207
 40
0.8451051114
 40
0.8918169551
 40
0.9132625182
 40
0.9333825973
 40
0.9521440273
 40
0.9695188739
 40
0.9854797833
 40
1.0
 40
1.0
 40
1.0
 40
1.0
 10
9.3260899354
 20
7.506033205
 30
0.0
 10
9.3244996992
 20
7.5054618804
 30
0.0
 10
9.321333682
 20
7.5043736757
 30
0.0
 10
9.3150899606
 20
7.502411238
 30
0.0
 10
9.3075022787
 20
7.5003368324
 30
0.0
 10
9.2987360955
 20
7.4983668553
 30
0.0
 10
9.2917766686
 20
7.497099514
 30
0.0
 10
9.2865632121
 20
7.4963012456
 30
0.0
 10
9.2829719958
 20
7.4958151513
 30
0.0
 10
9.2796219367
 20
7.4954188682
 30
0.0
 10
9.2765356318
 20
7.4951048832
 30
0.0
 10
9.274137682
 20
7.4949011619
 30
0.0
 10
9.2723674297
 20
7.494775587
 30
0.0
 10
9.2711569065
 20
7.4947013139
 30
0.0
 10
9.2700274041
 20
7.4946437841
 30
0.0
 10
9.2689808473
 20
7.4946027963
 30
0.0
 10
9.2680190666
 20
7.4945780854
 30
0.0
 10
9.2674062853
 20
7.4945719879
 30
0.0
 10
9.2671143796
 20
7.4945719879
 30
0.0
 11
9.3260899354
 21
7.506033205
 31
0.0
 11
9.3212962015
 21
7.5043847264
 31
0.0
 11
9.316552494
 21
7.5028932667
 31
0.0
 11
9.3073020671
 21
7.5003603291
 31
0.0
 11
9.2984977513
 21
7.4983788992
 31
0.0
 11
9.2903017478
 21
7.4968853017
 31
0.0
 11
9.2864858915
 21
7.4963010778
 31
0.0
 11
9.2828879753
 21
7.4958144
 31
0.0
 11
9.2795309911
 21
7.4954177787
 31
0.0
 11
9.2764380885
 21
7.4951040486
 31
0.0
 11
9.2736308694
 21
7.4948671058
 31
0.0
 11
9.2723407086
 21
7.4947758185
 31
0.0
 11
9.2711295213
 21
7.4947018124
 31
0.0
 11
9.2699994596
 21
7.4946446638
 31
0.0
 11
9.2689523632
 21
7.4946041325
 31
0.0
 11
9.2679900603
 21
7.4945799851
 31
0.0
 11
9.2671143796
 21
7.4945719879
 31
0.0
  0
SPLINE
  5
2E4
100
AcDbEntity
  8
0
100
AcDbSpline
 62
6
  6
CONTINUOUS
 70
0
 71
3
 72
19
 73
15
 74
13
 42
0.0000001
 43
0.0000001
 44
0.0000000001
 12
-0.077301656
 22
-0.1041735699
 32
0.0
 13
-0.1220817346
 23
-0.0438603325
 33
0.0
 40
0.0
 40
0.0
 40
0.0
 40
0.0
 40
0.1228568624
 40
0.1844637543
 40
0.2461870295
 40
0.3080424753
 40
0.3700446853
 40
0.4322051816
 40
0.4945331338
 40
0.6197025177
 40
0.7456321609
 40
0.808912536
 40
0.8724078119
 40
1.0
 40
1.0
 40
1.0
 40
1.0
 10
9.4293769879
 20
7.581452279
 30
0.0
 10
9.4262113083
 20
7.577186133
 30
0.0
 10
9.421202441
 20
7.5709649641
 30
0.0
 10
9.4140580152
 20
7.5630710121
 30
0.0
 10
9.4084607146
 20
7.557341756
 30
0.0
 10
9.4026389113
 20
7.5518163024
 30
0.0
 10
9.3966004346
 20
7.546499839
 30
0.0
 10
9.3903533382
 20
7.541397706
 30
0.0
 10
9.3817455361
 20
7.5348793672
 30
0.0
 10
9.3704991952
 20
7.5272938293
 30
0.0
 10
9.3587020562
 20
7.520514923
 30
0.0
 10
9.3489496748
 20
7.5155815449
 30
0.0
 10
9.3389639571
 20
7.5109664134
 30
0.0
 10
9.3312821606
 20
7.5078986169
 30
0.0
 10
9.3260899354
 20
7.506033205
 30
0.0
 11
9.4293769879
 21
7.581452279
 31
0.0
 11
9.4193865404
 21
7.569035165
 31
0.0
 11
9.4140243085
 21
7.563109425
 31
0.0
 11
9.4084294001
 21
7.5573817324
 31
0.0
 11
9.4026098113
 21
7.5518575399
 31
0.0
 11
9.3965734839
 21
7.5465421885
 31
0.0
 11
9.390328523
 21
7.5414410719
 31
0.0
 11
9.3838831297
 21
7.5365596144
 31
0.0
 11
9.3704239399
 21
7.5274768969
 31
0.0
 11
9.3562617244
 21
7.5193350538
 31
0.0
 11
9.3489369605
 21
7.5156292894
 31
0.0
 11
9.3414603046
 21
7.5121734352
 31
0.0
 11
9.3260899354
 21
7.506033205
 31
0.0
  0
SPLINE
  5
2E5
100
AcDbEntity
  8
0
100
AcDbSpline
 62
2
  6
CONTINUOUS
 70
0
 71
3
 72
11
 73
7
 74
5
 42
0.0000001
 43
0.0000001
 44
0.0000000001
 12
-0.0467757079
 22
-0.0566027487
 32
0.0
 13
-0.0623060022
 23
-0.0388561462
 33
0.0
 40
0.0
 40
0.0
 40
0.0
 40
0.0
 40
0.2476899494
 40
0.4969179765
 40
0.7476724331
 40
1.0
 40
1.0
 40
1.0
 40
1.0
 10
9.3343821598
 20
7.5938637619
 30
0.0
 10
9.3305202023
 20
7.5891904512
 30
0.0
 10
9.3223596403
 20
7.5801482484
 30
0.0
 10
9.3089964077
 20
7.5676167391
 30
0.0
 10
9.2945832071
 20
7.556127065
 30
0.0
 10
9.284376187
 20
7.5492140158
 30
0.0
 10
9.2791356797
 20
7.5459458569
 30
0.0
 11
9.3343821598
 21
7.5938637619
 31
0.0
 11
9.322205786
 21
7.5803535117
 31
0.0
 11
9.30886399
 21
7.5678272038
 31
0.0
 11
9.294472064
 21
7.5563424588
 31
0.0
 11
9.2791356797
 21
7.5459458569
 31
0.0
  0
LINE
  5
2E6
100
AcDbEntity
  8
0
100
AcDbLine
 62
6
  6
CONTINUOUS
 10
9.2089320481
 20
7.4945719879
 11
9.1710465691
 21
7.4945598674
  0
SPLINE
  5
2E7
100
AcDbEntity
  8
0
100
AcDbSpline
 62
6
  6
CONTINUOUS
 70
0
 71
3
 72
21
 73
17
 74
15
 42
0.0000001
 43
0.0000001
 44
0.0000000001
 12
-0.0813425361
 22
-0.0343717389
 32
0.0
 13
-0.0883064245
 23
0.0
 33
0.0
 40
0.0
 40
0.0
 40
0.0
 40
0.0
 40
0.078463766
 40
0.1559044909
 40
0.3068016478
 40
0.451108088
 40
0.5870033003
 40
0.7123517702
 40
0.7703137723
 40
0.8246924592
 40
0.8751521645
 40
0.9213809447
 40
0.9428143085
 40
0.9630822978
 40
0.9821543055
 40
1.0
 40
1.0
 40
1.0
 40
1.0
 10
9.2950185264
 20
7.5118040542
 30
0.0
 10
9.2928910458
 20
7.5109050755
 30
0.0
 10
9.2886299026
 20
7.5091979355
 30
0.0
 10
9.2801312801
 20
7.5061391758
 30
0.0
 10
9.2696292675
 20
7.5029443407
 30
0.0
 10
9.2572846432
 20
7.4999784694
 30
0.0
 10
9.2455437286
 20
7.4977951922
 30
0.0
 10
9.2362356705
 20
7.4964918479
 30
0.0
 10
9.2292806377
 20
7.4957283149
 30
0.0
 10
9.2245080635
 20
7.4952930594
 30
0.0
 10
9.2200730837
 20
7.4949669829
 30
0.0
 10
9.2166012475
 20
7.4947740935
 30
0.0
 10
9.2140151238
 20
7.4946679527
 30
0.0
 10
9.2122270437
 20
7.4946128666
 30
0.0
 10
9.2105440442
 20
7.4945798429
 30
0.0
 10
9.2094573446
 20
7.4945719879
 30
0.0
 10
9.2089320481
 20
7.4945719879
 30
0.0
 11
9.2950185264
 21
7.5118040542
 31
0.0
 11
9.2885873714
 21
7.5092254361
 31
0.0
 11
9.2821534239
 21
7.5069081992
 31
0.0
 11
9.2694085954
 21
7.50301847
 31
0.0
 11
9.2570203502
 21
7.5000318055
 31
0.0
 11
9.2452235862
 21
7.4978303407
 31
0.0
 11
9.2342620215
 21
7.4962913401
 31
0.0
 11
9.2291741578
 21
7.4957329161
 31
0.0
 11
9.2243919872
 21
7.4952971096
 31
0.0
 11
9.2199479698
 21
7.4949716894
 31
0.0
 11
9.2158718566
 21
7.4947470543
 31
0.0
 11
9.2139807278
 21
7.4946698584
 31
0.0
 11
9.2121917684
 21
7.4946152173
 31
0.0
 11
9.210507901
 21
7.4945827281
 31
0.0
 11
9.2089320481
 21
7.4945719879
 31
0.0
  0
SPLINE
  5
2E8
100
AcDbEntity
  8
0
100
AcDbSpline
 62
6
  6
CONTINUOUS
 70
0
 71
3
 72
13
 73
9
 74
7
 42
0.0000001
 43
0.0000001
 44
0.0000000001
 12
-0.0733524274
 22
-0.0917273942
 32
0.0
 13
-0.1081877993
 23
-0.0457153534
 33
0.0
 40
0.0
 40
0.0
 40
0.0
 40
0.0
 40
0.1229467839
 40
0.2464675319
 40
0.3705683409
 40
0.4952780096
 40
0.7464218848
 40
1.0
 40
1.0
 40
1.0
 40
1.0
 10
9.3881748261
 20
7.581429443
 30
0.0
 10
9.3851686778
 20
7.5776702469
 30
0.0
 10
9.3788896204
 20
7.5703326913
 30
0.0
 10
9.3687550366
 20
7.5599385963
 30
0.0
 10
9.3579278134
 20
7.5501636794
 30
0.0
 10
9.3426000687
 20
7.5379737811
 30
0.0
 10
9.3219261098
 20
7.5244472733
 30
0.0
 10
9.3041632125
 20
7.5156681919
 30
0.0
 10
9.2950185264
 20
7.5118040542
 30
0.0
 11
9.3881748261
 21
7.581429443
 31
0.0
 11
9.3787893987
 21
7.5704553782
 31
0.0
 11
9.3686642568
 21
7.5600655148
 31
0.0
 11
9.3578477969
 21
7.5502954923
 31
0.0
 11
9.3463858226
 21
7.5411761708
 31
0.0
 11
9.3217126438
 21
7.5250114646
 31
0.0
 11
9.2950185264
 21
7.5118040542
 31
0.0
  0
LINE
  5
2E9
100
AcDbEntity
  8
0
100
AcDbLine
 62
2
  6
CONTINUOUS
 10
9.3084371224
 20
7.5937726803
 11
9.2531898982
 21
7.593866156
  0
LINE
  5
2EA
100
AcDbEntity
  8
0
100
AcDbLine
 62
6
  6
CONTINUOUS
 10
9.1327905582
 20
7.4945719879
 11
9.0825372705
 21
7.4945582938
  0
SPLINE
  5
2EB
100
AcDbEntity
  8
0
100
AcDbSpline
 62
6
  6
CONTINUOUS
 70
0
 71
3
 72
22
 73
18
 74
16
 42
0.0000001
 43
0.0000001
 44
0.0000000001
 12
-0.0686732072
 22
-0.023369552
 32
0.0
 13
-0.0725406462
 23
0.0
 33
0.0
 40
0.0
 40
0.0
 40
0.0
 40
0.0
 40
0.0737789348
 40
0.1471598935
 40
0.2199171524
 40
0.2918162765
 40
0.3626437087
 40
0.4321971646
 40
0.566600888
 40
0.6309378318
 40
0.6929809907
 40
0.752433214
 40
0.8089847832
 40
0.8623212554
 40
0.9121302591
 40
0.9581187589
 40
1.0
 40
1.0
 40
1.0
 40
1.0
 10
9.2041302602
 20
7.506033205
 30
0.0
 10
9.2024413815
 20
7.5054584781
 30
0.0
 10
9.1990548467
 20
7.5043640359
 30
0.0
 10
9.1939491101
 20
7.5028755071
 30
0.0
 10
9.18884885
 20
7.5015376265
 30
0.0
 10
9.1837761112
 20
7.5003453211
 30
0.0
 10
9.1787519815
 20
7.4992914998
 30
0.0
 10
9.1722197316
 20
7.4980738253
 30
0.0
 10
9.1658063336
 20
7.4970834699
 30
0.0
 10
9.1595498407
 20
7.4962946472
 30
0.0
 10
9.1550824748
 20
7.4958089391
 30
0.0
 10
9.1507953745
 20
7.4954125463
 30
0.0
 10
9.1467125376
 20
7.4950991329
 30
0.0
 10
9.1428581531
 20
7.4948623188
 30
0.0
 10
9.1392557695
 20
7.4946955453
 30
0.0
 10
9.1359279987
 20
7.4945962008
 30
0.0
 10
9.1338032556
 20
7.4945719879
 30
0.0
 10
9.1327905582
 20
7.4945719879
 30
0.0
 11
9.2041302602
 21
7.506033205
 31
0.0
 11
9.1990381418
 21
7.5043858037
 31
0.0
 11
9.19392818
 21
7.502894594
 31
0.0
 11
9.1888233067
 21
7.5015544223
 31
0.0
 11
9.1837463076
 21
7.500359995
 31
0.0
 11
9.178718085
 21
7.4993042193
 31
0.0
 11
9.1737582354
 21
7.4983787552
 31
0.0
 11
9.1641235471
 21
7.4968854121
 31
0.0
 11
9.1594932165
 21
7.4963011742
 31
0.0
 11
9.1550189627
 21
7.4958144397
 31
0.0
 11
9.1507245631
 21
7.4954175312
 31
0.0
 11
9.1466342831
 21
7.4951038893
 31
0.0
 11
9.1427724708
 21
7.4948671441
 31
0.0
 11
9.1391630903
 21
7.4947015468
 31
0.0
 11
9.1358284821
 21
7.4946039722
 31
0.0
 11
9.1327905582
 21
7.4945719879
 31
0.0
  0
SPLINE
  5
2EC
100
AcDbEntity
  8
0
100
AcDbSpline
 62
6
  6
CONTINUOUS
 70
0
 71
3
 72
16
 73
12
 74
10
 42
0.0000001
 43
0.0000001
 44
0.0000000001
 12
-0.0896209245
 22
-0.1042332078
 32
0.0
 13
-0.1301356457
 23
-0.0442852732
 33
0.0
 40
0.0
 40
0.0
 40
0.0
 40
0.0
 40
0.122955109
 40
0.2465944059
 40
0.3708594434
 40
0.495722159
 40
0.6211271475
 40
0.684021718
 40
0.7470292728
 40
0.873347202
 40
1.0
 40
1.0
 40
1.0
 40
1.0
 10
9.3171658219
 20
7.581452279
 30
0.0
 10
9.313492705
 20
7.5771802771
 30
0.0
 10
9.305816042
 20
7.5688739468
 30
0.0
 10
9.2934331758
 20
7.5572176825
 30
0.0
 10
9.2802187096
 20
7.5463742785
 30
0.0
 10
9.2662460323
 20
7.536389049
 30
0.0
 10
9.2540390785
 20
7.5288247423
 30
0.0
 10
9.2439655597
 20
7.5232421874
 30
0.0
 10
9.233679125
 20
7.5179698259
 30
0.0
 10
9.2204795859
 20
7.5119945459
 30
0.0
 10
9.2096242747
 20
7.5079028229
 30
0.0
 10
9.2041302602
 20
7.506033205
 30
0.0
 11
9.3171658219
 21
7.581452279
 31
0.0
 11
9.3056988536
 21
7.569035165
 31
0.0
 11
9.2933270411
 21
7.5573817324
 31
0.0
 11
9.2801247755
 21
7.5465421885
 31
0.0
 11
9.2661620611
 21
7.5365596144
 31
0.0
 11
9.2515101696
 21
7.5274768969
 31
0.0
 11
9.2439481243
 21
7.5232858644
 31
0.0
 11
9.2362403891
 21
7.5193350538
 31
0.0
 11
9.2204218094
 21
7.5121734352
 31
0.0
 11
9.2041302602
 21
7.506033205
 31
0.0
  0
LINE
  5
2ED
100
AcDbEntity
  8
0
100
AcDbLine
 62
2
  6
CONTINUOUS
 10
9.2308549959
 20
7.5937581009
 11
9.1586623299
 21
7.5938637619
  0
SPLINE
  5
2EE
100
AcDbEntity
  8
0
100
AcDbSpline
 62
2
  6
CONTINUOUS
 70
0
 71
3
 72
16
 73
12
 74
10
 42
0.0000001
 43
0.0000001
 44
0.0000000001
 12
-0.0885556095
 22
-0.0965077797
 32
0.0
 13
-0.1233969798
 23
-0.0439207569
 33
0.0
 40
0.0
 40
0.0
 40
0.0
 40
0.0
 40
0.1237860165
 40
0.2481211369
 40
0.3104555211
 40
0.372885357
 40
0.4979791581
 40
0.6233288596
 40
0.7488389036
 40
0.8744194042
 40
1.0
 40
1.0
 40
1.0
 40
1.0
 10
9.1586623299
 20
7.5938637619
 30
0.0
 10
9.1550083478
 20
7.5898816573
 30
0.0
 10
9.1474149067
 20
7.5821428403
 30
0.0
 10
9.1373117006
 20
7.5730928147
 30
0.0
 10
9.1288782861
 20
7.5662231633
 30
0.0
 10
9.1202105077
 20
7.5595971059
 30
0.0
 10
9.1089823794
 20
7.5518012811
 30
0.0
 10
9.0949558735
 20
7.543257881
 30
0.0
 10
9.0804310844
 20
7.5355462025
 30
0.0
 10
9.0654719894
 20
7.5286926195
 30
0.0
 10
9.0552463649
 20
7.524711928
 30
0.0
 10
9.0500809428
 20
7.5228733964
 30
0.0
 11
9.1586623299
 21
7.5938637619
 31
0.0
 11
9.1473119416
 21
7.5822858796
 31
0.0
 11
9.1351853076
 21
7.5714157
 31
0.0
 11
9.1288555071
 21
7.5662587661
 31
0.0
 11
9.1223595074
 21
7.5612922144
 31
0.0
 11
9.1089027115
 21
7.551944636
 31
0.0
 11
9.0948819691
 21
7.5434017527
 31
0.0
 11
9.0803629498
 21
7.5356913559
 31
0.0
 11
9.0654092363
 21
7.5288399259
 31
0.0
 11
9.0500809428
 21
7.5228733964
 31
0.0
  0
LINE
  5
2EF
100
AcDbEntity
  8
0
100
AcDbLine
 62
6
  6
CONTINUOUS
 10
9.0398907064
 20
7.4945719879
 11
8.9848166192
 21
7.4945598674
  0
SPLINE
  5
2F0
100
AcDbEntity
  8
0
100
AcDbSpline
 62
6
  6
CONTINUOUS
 70
0
 71
3
 72
21
 73
17
 74
15
 42
0.0000001
 43
0.0000001
 44
0.0000000001
 12
-0.0943449499
 22
-0.0387152128
 32
0.0
 13
-0.1019795924
 23
-0.0
 33
0.0
 40
0.0
 40
0.0
 40
0.0
 40
0.0
 40
0.070064372
 40
0.1400433603
 40
0.2097469195
 40
0.2790219517
 40
0.3477103263
 40
0.415631632
 40
0.5483528673
 40
0.675394466
 40
0.736131546
 40
0.7946177653
 40
0.8505452633
 40
0.9036147617
 40
0.9535295561
 40
1.0
 40
1.0
 40
1.0
 40
1.0
 10
9.1398014511
 20
7.5118040542
 30
0.0
 10
9.1375980445
 20
7.5108998685
 30
0.0
 10
9.1331561284
 20
7.5091833943
 30
0.0
 10
9.126410125
 20
7.506870406
 30
0.0
 10
9.1196110228
 20
7.5048094824
 30
0.0
 10
9.1127895361
 20
7.5029880813
 30
0.0
 10
9.1059740459
 20
7.5013926318
 30
0.0
 10
9.0970026552
 20
7.4995610983
 30
0.0
 10
9.0860051813
 20
7.4977609748
 30
0.0
 10
9.0751834548
 20
7.49647563
 30
0.0
 10
9.066845782
 20
7.4957218593
 30
0.0
 10
9.0609074365
 20
7.4952873429
 30
0.0
 10
9.0552232163
 20
7.4949621211
 30
0.0
 10
9.0498257616
 20
7.4947372606
 30
0.0
 10
9.0447468781
 20
7.4946036998
 30
0.0
 10
9.0414703854
 20
7.4945719879
 30
0.0
 10
9.0398907064
 20
7.4945719879
 30
0.0
 11
9.1398014511
 21
7.5118040542
 31
0.0
 11
9.1331378411
 21
7.5092254361
 31
0.0
 11
9.1263880983
 21
7.5069081992
 31
0.0
 11
9.1195862416
 21
7.5048434349
 31
0.0
 11
9.1127613874
 21
7.50301847
 31
0.0
 11
9.1059415218
 21
7.5014194608
 31
0.0
 11
9.0991553578
 21
7.5000318055
 31
0.0
 11
9.0858007362
 21
7.4978303407
 31
0.0
 11
9.0729368193
 21
7.4962913401
 31
0.0
 11
9.0667681008
 21
7.4957329161
 31
0.0
 11
9.0608196431
 21
7.4952971096
 31
0.0
 11
9.0551254709
 21
7.4949716894
 31
0.0
 11
9.049718129
 21
7.4947470543
 31
0.0
 11
9.0446295462
 21
7.4946152173
 31
0.0
 11
9.0398907064
 21
7.4945719879
 31
0.0
  0
SPLINE
  5
2F1
100
AcDbEntity
  8
0
100
AcDbSpline
 62
6
  6
CONTINUOUS
 70
0
 71
3
 72
16
 73
12
 74
10
 42
0.0000001
 43
0.0000001
 44
0.0000000001
 12
-0.0812191828
 22
-0.0911289673
 32
0.0
 13
-0.1129311471
 23
-0.046342209
 33
0.0
 40
0.0
 40
0.0
 40
0.0
 40
0.0
 40
0.1237563195
 40
0.2480205263
 40
0.3727045149
 40
0.4977488699
 40
0.6230764559
 40
0.6858275585
 40
0.7486203405
 40
0.8742897835
 40
1.0
 40
1.0
 40
1.0
 40
1.0
 10
9.238825934
 20
7.581429443
 30
0.0
 10
9.2354754716
 20
7.5776701811
 30
0.0
 10
9.2285331477
 20
7.5703358401
 30
0.0
 10
9.2174757294
 20
7.5599452368
 30
0.0
 10
9.2057989753
 20
7.5501733744
 30
0.0
 10
9.1935534897
 20
7.5410527347
 30
0.0
 10
9.1829190173
 20
7.5340225419
 30
0.0
 10
9.1741752151
 20
7.5287527312
 30
0.0
 10
9.1652762174
 20
7.5237209985
 30
0.0
 10
9.1538898259
 20
7.5178946914
 30
0.0
 10
9.1445336507
 20
7.5137459506
 30
0.0
 10
9.1398014511
 20
7.5118040542
 30
0.0
 11
9.238825934
 21
7.581429443
 31
0.0
 11
9.2284437987
 21
7.5704553782
 31
0.0
 11
9.2173918034
 21
7.5600655148
 31
0.0
 11
9.2057213389
 21
7.5502954923
 31
0.0
 11
9.1934807484
 21
7.5411761708
 31
0.0
 11
9.1807193378
 21
7.5327383298
 31
0.0
 11
9.1741587785
 21
7.5287842284
 31
0.0
 11
9.1674864417
 21
7.5250114646
 31
0.0
 11
9.1538299359
 21
7.5180236755
 31
0.0
 11
9.1398014511
 21
7.5118040542
 31
0.0
  0
LINE
  5
2F2
100
AcDbEntity
  8
0
100
AcDbLine
 62
2
  6
CONTINUOUS
 10
9.119523644
 20
7.5937726803
 11
9.0405645662
 21
7.593866156
  0
SPLINE
  5
2F3
100
AcDbEntity
  8
0
100
AcDbSpline
 62
2
  6
CONTINUOUS
 70
0
 71
3
 72
13
 73
9
 74
7
 42
0.0000001
 43
0.0000001
 44
0.0000000001
 12
-0.0662294485
 22
-0.0700904161
 32
0.0
 13
-0.0860776432
 23
-0.0434700542
 33
0.0
 40
0.0
 40
0.0
 40
0.0
 40
0.0
 40
0.1247253202
 40
0.2497055186
 40
0.4999254302
 40
0.6251034584
 40
0.7502277061
 40
1.0
 40
1.0
 40
1.0
 40
1.0
 10
9.0405645662
 20
7.593866156
 30
0.0
 10
9.0378110698
 20
7.5909521395
 30
0.0
 10
9.032162293
 20
7.5852449393
 30
0.0
 10
9.0203514364
 20
7.574342801
 30
0.0
 10
9.0078160952
 20
7.5642261876
 30
0.0
 10
8.9946700047
 20
7.5549444486
 30
0.0
 10
8.981155024
 20
7.5462356996
 30
0.0
 10
8.9706183749
 20
7.5403499644
 30
0.0
 10
8.9634517714
 20
7.5367307593
 30
0.0
 11
9.0405645662
 21
7.593866156
 31
0.0
 11
9.0321055428
 21
7.5853160662
 31
0.0
 11
9.0232508673
 21
7.5771401464
 31
0.0
 11
9.0044812687
 21
7.5619772644
 31
0.0
 11
8.9946209404
 21
7.5550141427
 31
0.0
 11
8.9844786701
 21
7.5484780647
 31
0.0
 11
8.9634517714
 21
7.5367307593
 31
0.0
  0
LINE
  5
2F4
100
AcDbEntity
  8
0
100
AcDbLine
 62
6
  6
CONTINUOUS
 10
8.9316975791
 20
7.4945719879
 11
8.864822093
 21
7.4945582938
  0
LINE
  5
2F5
100
AcDbEntity
  8
0
100
AcDbLine
 62
2
  6
CONTINUOUS
 10
8.9078756021
 20
7.5082462356
 11
8.9183781199
 21
7.5082466566
  0
SPLINE
  5
2F6
100
AcDbEntity
  8
0
100
AcDbSpline
 62
6
  6
CONTINUOUS
 70
0
 71
3
 72
20
 73
16
 74
14
 42
0.0000001
 43
0.0000001
 44
0.0000000001
 12
-0.0760133261
 22
-0.0261295846
 32
0.0
 13
-0.0803789832
 23
0.0
 33
0.0
 40
0.0
 40
0.0
 40
0.0
 40
0.0
 40
0.066395927
 40
0.1331690972
 40
0.2671314419
 40
0.4006223907
 40
0.5321900317
 40
0.5967175928
 40
0.6600850432
 40
0.7220192498
 40
0.7822321108
 40
0.8404327008
 40
0.8963283872
 40
0.9496201446
 40
1.0
 40
1.0
 40
1.0
 40
1.0
 10
9.0109188915
 20
7.506033205
 30
0.0
 10
9.0092365664
 20
7.5054549056
 30
0.0
 10
9.0058417419
 20
7.5043541422
 30
0.0
 10
8.9989646783
 20
7.5023676946
 30
0.0
 10
8.9902528606
 20
7.5002726249
 30
0.0
 10
8.9797396736
 20
7.4983105217
 30
0.0
 10
8.9709938179
 20
7.4970714268
 30
0.0
 10
8.9640858633
 20
7.4962897093
 30
0.0
 10
8.9590227194
 20
7.4958044527
 30
0.0
 10
8.9540677948
 20
7.4954090199
 30
0.0
 10
8.9492457233
 20
7.4950959729
 30
0.0
 10
8.9445813117
 20
7.4948592676
 30
0.0
 10
8.9400993953
 20
7.4946938014
 30
0.0
 10
8.9358251156
 20
7.4945950931
 30
0.0
 10
8.9330474062
 20
7.4945719879
 30
0.0
 10
8.9316975791
 20
7.4945719879
 30
0.0
 11
9.0109188915
 21
7.506033205
 31
0.0
 11
9.0058430321
 21
7.5043847264
 31
0.0
 11
9.0006872635
 21
7.5028932667
 31
0.0
 11
8.9902216618
 21
7.5003603291
 31
0.0
 11
8.9796763323
 21
7.4983788992
 31
0.0
 11
8.9692070644
 21
7.4968853017
 31
0.0
 11
8.9640534131
 21
7.4963010778
 31
0.0
 11
8.9589833063
 21
7.4958144
 31
0.0
 11
8.9540209226
 21
7.4954177787
 31
0.0
 11
8.9491912531
 21
7.4951040486
 31
0.0
 11
8.9445191532
 21
7.4948671058
 31
0.0
 11
8.9400293564
 21
7.4947018124
 31
0.0
 11
8.935746933
 21
7.4946041325
 31
0.0
 11
8.9316975791
 21
7.4945719879
 31
0.0
  0
SPLINE
  5
2F7
100
AcDbEntity
  8
0
100
AcDbSpline
 62
6
  6
CONTINUOUS
 70
0
 71
3
 72
16
 73
12
 74
10
 42
0.0000001
 43
0.0000001
 44
0.0000000001
 12
-0.0946250801
 22
-0.1024578367
 32
0.0
 13
-0.1318936644
 23
-0.0453384536
 33
0.0
 40
0.0
 40
0.0
 40
0.0
 40
0.0
 40
0.1249292369
 40
0.2501572354
 40
0.312836942
 40
0.3755372322
 40
0.5009205211
 40
0.6261856105
 40
0.7512002104
 40
0.8758545677
 40
1.0
 40
1.0
 40
1.0
 40
1.0
 10
9.1266005223
 20
7.581452279
 30
0.0
 10
9.1226600426
 20
7.5771856192
 30
0.0
 10
9.114493164
 20
7.5688933139
 30
0.0
 10
9.1036513368
 20
7.5591848919
 30
0.0
 10
9.0946201961
 20
7.5518218439
 30
0.0
 10
9.0853616876
 20
7.544735059
 30
0.0
 10
9.0733926694
 20
7.5364140632
 30
0.0
 10
9.0584651961
 20
7.5273288719
 30
0.0
 10
9.0430428721
 20
7.5191827661
 30
0.0
 10
9.0271990704
 20
7.5120171456
 30
0.0
 10
9.0163768902
 20
7.5079093923
 30
0.0
 10
9.0109188915
 20
7.506033205
 30
0.0
 11
9.1266005223
 21
7.581452279
 31
0.0
 11
9.114377545
 21
7.569035165
 31
0.0
 11
9.1013684268
 21
7.5573817324
 31
0.0
 11
9.0945932259
 21
7.5518575399
 31
0.0
 11
9.0876493588
 21
7.5465421885
 31
0.0
 11
9.0732916129
 21
7.5365596144
 31
0.0
 11
9.0583676518
 21
7.5274768969
 31
0.0
 11
9.0429497628
 21
7.5193350538
 31
0.0
 11
9.0271079627
 21
7.5121734352
 31
0.0
 11
9.0109188915
 21
7.506033205
 31
0.0
  0
LINE
  5
2F8
100
AcDbEntity
  8
0
100
AcDbLine
 62
2
  6
CONTINUOUS
 10
9.0099646695
 20
7.5937581009
 11
8.9145477237
 21
7.5938637619
  0
SPLINE
  5
2F9
100
AcDbEntity
  8
0
100
AcDbSpline
 62
2
  6
CONTINUOUS
 70
0
 71
3
 72
15
 73
11
 74
9
 42
0.0000001
 43
0.0000001
 44
0.0000000001
 12
-0.1022867697
 22
-0.1075390366
 32
0.0
 13
-0.1423807747
 23
-0.0418920355
 33
0.0
 40
0.0
 40
0.0
 40
0.0
 40
0.0
 40
0.1269666167
 40
0.2537731548
 40
0.3801717319
 40
0.5059860207
 40
0.6310315713
 40
0.7551419743
 40
0.8781859895
 40
1.0
 40
1.0
 40
1.0
 40
1.0
 10
8.9145477237
 20
7.5938637619
 30
0.0
 10
8.910218722
 20
7.5893124726
 30
0.0
 10
8.9012527062
 20
7.5805083777
 30
0.0
 10
8.8869793778
 20
7.5682410509
 30
0.0
 10
8.8719839092
 20
7.5569616457
 30
0.0
 10
8.8563685079
 20
7.5467162526
 30
0.0
 10
8.8402280881
 20
7.5375468751
 30
0.0
 10
8.8236549356
 20
7.5294930045
 30
0.0
 10
8.8067411484
 20
7.5225957993
 30
0.0
 10
8.795234631
 20
7.5187742204
 30
0.0
 10
8.7894533066
 20
7.5170732081
 30
0.0
 11
8.9145477237
 21
7.5938637619
 31
0.0
 11
8.9011064355
 21
7.5806568631
 31
0.0
 11
8.8868358163
 21
7.5683871849
 31
0.0
 11
8.8718450006
 21
7.5571090797
 31
0.0
 11
8.8562324004
 21
7.5468659902
 31
0.0
 11
8.840094765
 21
7.537700673
 31
0.0
 11
8.8235256098
 21
7.529653492
 31
0.0
 11
8.806613543
 21
7.5227636102
 31
0.0
 11
8.7894533066
 21
7.5170732081
 31
0.0
  0
LINE
  5
2FA
100
AcDbEntity
  8
0
100
AcDbLine
 62
6
  6
CONTINUOUS
 10
8.8099174464
 20
7.4945719879
 11
8.7411152585
 21
7.4945598674
  0
SPLINE
  5
2FB
100
AcDbEntity
  8
0
100
AcDbSpline
 62
6
  6
CONTINUOUS
 70
0
 71
3
 72
23
 73
19
 74
17
 42
0.0000001
 43
0.0000001
 44
0.0000000001
 12
-0.1007979752
 22
-0.0428176848
 32
0.0
 13
-0.1095152315
 23
-0.0
 33
0.0
 40
0.0
 40
0.0
 40
0.0
 40
0.0
 40
0.0636602532
 40
0.1278893996
 40
0.1925500145
 40
0.2575339456
 40
0.3227247801
 40
0.3879840665
 40
0.4531549718
 40
0.5180630005
 40
0.5825160682
 40
0.6462944827
 40
0.7091592976
 40
0.7708407108
 40
0.831056767
 40
0.8895212299
 40
0.9459403204
 40
1.0
 40
1.0
 40
1.0
 40
1.0
 10
8.9173746979
 20
7.5118040542
 30
0.0
 10
8.9152357564
 20
7.5108954593
 30
0.0
 10
8.9108952762
 20
7.5091710139
 30
0.0
 10
8.9042554295
 20
7.5068587687
 30
0.0
 10
8.8974826951
 20
7.5047986549
 30
0.0
 10
8.8906056766
 20
7.5029781031
 30
0.0
 10
8.8836505879
 20
7.5013834971
 30
0.0
 10
8.8766437125
 20
7.4999999609
 30
0.0
 10
8.8696115761
 20
7.498812674
 30
0.0
 10
8.8625812002
 20
7.4978060591
 30
0.0
 10
8.8555804747
 20
7.4969646089
 30
0.0
 10
8.8486383955
 20
7.4962732874
 30
0.0
 10
8.8417857672
 20
7.4957172198
 30
0.0
 10
8.835054691
 20
7.4952834129
 30
0.0
 10
8.8284783303
 20
7.4949589688
 30
0.0
 10
8.8220900258
 20
7.4947349521
 30
0.0
 10
8.8159239855
 20
7.4946023896
 30
0.0
 10
8.8118908991
 20
7.4945719879
 30
0.0
 10
8.8099174464
 20
7.4945719879
 30
0.0
 11
8.9173746979
 21
7.5118040542
 31
0.0
 11
8.910897332
 21
7.5092254361
 31
0.0
 11
8.9042559051
 21
7.5069081992
 31
0.0
 11
8.8974822892
 21
7.5048434349
 31
0.0
 11
8.8906035282
 21
7.50301847
 31
0.0
 11
8.8836455077
 21
7.5014194608
 31
0.0
 11
8.8766346311
 21
7.5000318055
 31
0.0
 11
8.8695975366
 21
7.4988405787
 31
0.0
 11
8.8625612718
 21
7.4978303407
 31
0.0
 11
8.8555534074
 21
7.4969856115
 31
0.0
 11
8.8486032901
 21
7.4962913401
 31
0.0
 11
8.84174132
 21
7.4957329161
 31
0.0
 11
8.8350003386
 21
7.4952971096
 31
0.0
 11
8.8284137973
 21
7.4949716894
 31
0.0
 11
8.8220149899
 21
7.4947470543
 31
0.0
 11
8.8158376469
 21
7.4946152173
 31
0.0
 11
8.8099174464
 21
7.4945719879
 31
0.0
  0
SPLINE
  5
2FC
100
AcDbEntity
  8
0
100
AcDbSpline
 62
6
  6
CONTINUOUS
 70
0
 71
3
 72
14
 73
10
 74
8
 42
0.0000001
 43
0.0000001
 44
0.0000000001
 12
-0.0826769975
 22
-0.0892039248
 32
0.0
 13
-0.1119445252
 23
-0.047552596
 33
0.0
 40
0.0
 40
0.0
 40
0.0
 40
0.0
 40
0.2522002819
 40
0.378102101
 40
0.5036656204
 40
0.6287580048
 40
0.7532526665
 40
0.8770429263
 40
1.0
 40
1.0
 40
1.0
 40
1.0
 10
9.0160452916
 20
7.581429443
 30
0.0
 10
9.0090949043
 20
7.573930358
 30
0.0
 10
8.9980645461
 20
7.5632317611
 30
0.0
 10
8.9823361991
 20
7.5502001623
 30
0.0
 10
8.9700847867
 20
7.5410790552
 30
0.0
 10
8.9574239067
 20
7.5326393193
 30
0.0
 10
8.9444007591
 20
7.5249092011
 30
0.0
 10
8.9310644679
 20
7.517918192
 30
0.0
 10
8.9219628217
 20
7.5137530302
 30
0.0
 10
8.9173746979
 20
7.5118040542
 30
0.0
 11
9.0160452916
 21
7.581429443
 31
0.0
 11
8.9940343849
 21
7.5600655148
 31
0.0
 11
8.9822432139
 21
7.5502954923
 31
0.0
 11
8.9699931286
 21
7.5411761708
 31
0.0
 11
8.9573328548
 21
7.5327383298
 31
0.0
 11
8.9443110119
 21
7.5250114646
 31
0.0
 11
8.9309747271
 21
7.5180236755
 31
0.0
 11
8.9173746979
 21
7.5118040542
 31
0.0
  0
LINE
  5
2FD
100
AcDbEntity
  8
0
100
AcDbLine
 62
2
  6
CONTINUOUS
 10
8.8646746169
 20
7.5937726803
 11
8.7669649748
 21
7.593866156
  0
SPLINE
  5
2FE
100
AcDbEntity
  8
0
100
AcDbSpline
 62
2
  6
CONTINUOUS
 70
0
 71
3
 72
14
 73
10
 74
8
 42
0.0000001
 43
0.0000001
 44
0.0000000001
 12
-0.0849360203
 22
-0.0895686203
 32
0.0
 13
-0.1143915463
 23
-0.0463814555
 33
0.0
 40
0.0
 40
0.0
 40
0.0
 40
0.0
 40
0.1282686333
 40
0.2560062548
 40
0.3829254742
 40
0.5088418448
 40
0.6336280474
 40
0.7571647145
 40
1.0
 40
1.0
 40
1.0
 40
1.0
 10
8.7669649748
 20
7.593866156
 30
0.0
 10
8.7633334323
 20
7.5900365412
 30
0.0
 10
8.7558772121
 20
7.5825876307
 30
0.0
 10
8.7441505043
 20
7.5720545936
 30
0.0
 10
8.7319613811
 20
7.5622129929
 30
0.0
 10
8.7193723152
 20
7.5530947406
 30
0.0
 10
8.7064389565
 20
7.5447235135
 30
0.0
 10
8.6889129273
 20
7.5346498036
 30
0.0
 10
8.6752501664
 20
7.5281867794
 30
0.0
 10
8.6659907318
 20
7.5244324281
 30
0.0
 11
8.7669649748
 21
7.593866156
 31
0.0
 11
8.7557654194
 21
7.5826743549
 31
0.0
 11
8.7440354603
 21
7.5721376001
 31
0.0
 11
8.7318458356
 21
7.5622962235
 31
0.0
 11
8.7192574002
 21
7.5531798869
 31
0.0
 11
8.7063252909
 21
7.5448121065
 31
0.0
 11
8.6931028453
 21
7.5372161618
 31
0.0
 11
8.6659907318
 21
7.5244324281
 31
0.0
  0
LINE
  5
2FF
100
AcDbEntity
  8
0
100
AcDbLine
 62
6
  6
CONTINUOUS
 10
8.6764708538
 20
7.4945719879
 11
8.597175202
 21
7.4945582938
  0
SPLINE
  5
300
100
AcDbEntity
  8
0
100
AcDbSpline
 62
6
  6
CONTINUOUS
 70
0
 71
3
 72
23
 73
19
 74
17
 42
0.0000001
 43
0.0000001
 44
0.0000000001
 12
-0.0781223388
 22
-0.0289683605
 32
0.0
 13
-0.08332026
 23
0.0
 33
0.0
 40
0.0
 40
0.0
 40
0.0
 40
0.0
 40
0.0601758019
 40
0.1213872547
 40
0.1835058004
 40
0.2463879765
 40
0.3099025607
 40
0.3739270863
 40
0.4383277858
 40
0.5029443422
 40
0.5675745138
 40
0.6320045788
 40
0.6960068079
 40
0.7593220476
 40
0.8216816121
 40
0.8828031031
 40
0.9423568043
 40
1.0
 40
1.0
 40
1.0
 40
1.0
 10
8.7585960102
 20
7.506033205
 30
0.0
 10
8.7570289854
 20
7.5054521402
 30
0.0
 10
8.7538429983
 20
7.5043464202
 30
0.0
 10
8.7489671915
 20
7.5028590443
 30
0.0
 10
8.743970187
 20
7.5015222609
 30
0.0
 10
8.7388709742
 20
7.5003309641
 30
0.0
 10
8.7336874622
 20
7.4992782447
 30
0.0
 10
8.7284365137
 20
7.4983556227
 30
0.0
 10
8.723134752
 20
7.4975548283
 30
0.0
 10
8.7178002038
 20
7.4968675734
 30
0.0
 10
8.7124523931
 20
7.4962856107
 30
0.0
 10
8.7071120809
 20
7.4958009162
 30
0.0
 10
8.7018010765
 20
7.4954055694
 30
0.0
 10
8.6965421842
 20
7.4950931717
 30
0.0
 10
8.6913594188
 20
7.4948574264
 30
0.0
 10
8.6862784713
 20
7.494691963
 30
0.0
 10
8.6813267969
 20
7.4945941405
 30
0.0
 10
8.6780718024
 20
7.4945719879
 30
0.0
 10
8.6764708538
 20
7.4945719879
 30
0.0
 11
8.7585960102
 21
7.506033205
 31
0.0
 11
8.7538605199
 21
7.5043857954
 31
0.0
 11
8.7489832518
 21
7.5028945447
 31
0.0
 11
8.7439840629
 21
7.5015542738
 31
0.0
 11
8.738882701
 21
7.5003597058
 31
0.0
 11
8.7336970423
 21
7.4993038864
 31
0.0
 11
8.7284433877
 21
7.4983784503
 31
0.0
 11
8.7231379989
 21
7.4975749889
 31
0.0
 11
8.7177985016
 21
7.4968852016
 31
0.0
 11
8.7124452811
 21
7.4963010061
 31
0.0
 11
8.7070990556
 21
7.4958143467
 31
0.0
 11
8.7017811601
 21
7.495417499
 31
0.0
 11
8.6965150484
 21
7.4951038771
 31
0.0
 11
8.6913246294
 21
7.4948671396
 31
0.0
 11
8.6862346637
 21
7.4947015486
 31
0.0
 11
8.6812735933
 21
7.4946039736
 31
0.0
 11
8.6764708538
 21
7.4945719879
 31
0.0
  0
SPLINE
  5
301
100
AcDbEntity
  8
0
100
AcDbSpline
 62
6
  6
CONTINUOUS
 70
0
 71
3
 72
15
 73
11
 74
9
 42
0.0000001
 43
0.0000001
 44
0.0000000001
 12
-0.0921912847
 22
-0.0992092406
 32
0.0
 13
-0.1269826799
 23
-0.0470861486
 33
0.0
 40
0.0
 40
0.0
 40
0.0
 40
0.0
 40
0.1285911264
 40
0.25656462
 40
0.3836766639
 40
0.509741279
 40
0.6345679594
 40
0.757983298
 40
0.8798483703
 40
1.0
 40
1.0
 40
1.0
 40
1.0
 10
8.8696550077
 20
7.581452279
 30
0.0
 10
8.8657033473
 20
7.577199803
 30
0.0
 10
8.8575768151
 20
7.5689367239
 30
0.0
 10
8.8447501038
 20
7.5572842384
 30
0.0
 10
8.8313768985
 20
7.5464425916
 30
0.0
 10
8.8175278633
 20
7.5364568419
 30
0.0
 10
8.8032708335
 20
7.5273692947
 30
0.0
 10
8.7886735366
 20
7.5192202133
 30
0.0
 10
8.7738052239
 20
7.5120507523
 30
0.0
 10
8.7636817355
 20
7.5079190308
 30
0.0
 10
8.7585960102
 20
7.506033205
 30
0.0
 11
8.8696550077
 21
7.581452279
 31
0.0
 11
8.8574440361
 21
7.569035165
 31
0.0
 11
8.844615023
 21
7.5573817324
 31
0.0
 11
8.8312411719
 21
7.5465421885
 31
0.0
 11
8.8173905445
 21
7.5365596144
 31
0.0
 11
8.8031322413
 21
7.5274768969
 31
0.0
 11
8.7885350065
 21
7.5193350538
 31
0.0
 11
8.7736653845
 21
7.5121734352
 31
0.0
 11
8.7585960102
 21
7.506033205
 31
0.0
  0
LINE
  5
302
100
AcDbEntity
  8
0
100
AcDbLine
 62
2
  6
CONTINUOUS
 10
8.7300227877
 20
7.5937581009
 11
8.6173769598
 21
7.5938637619
  0
SPLINE
  5
303
100
AcDbEntity
  8
0
100
AcDbSpline
 62
2
  6
CONTINUOUS
 70
0
 71
3
 72
15
 73
11
 74
9
 42
0.0000001
 43
0.0000001
 44
0.0000000001
 12
-0.0951373998
 22
-0.1028564363
 32
0.0
 13
-0.1329887159
 23
-0.0440973104
 33
0.0
 40
0.0
 40
0.0
 40
0.0
 40
0.0
 40
0.1321007549
 40
0.2626746542
 40
0.3913971441
 40
0.5180395559
 40
0.6423833252
 40
0.7642465446
 40
0.8834991898
 40
1.0
 40
1.0
 40
1.0
 40
1.0
 10
8.6173769598
 20
7.5938637619
 30
0.0
 10
8.613187719
 20
7.5893346242
 30
0.0
 10
8.6045871307
 20
7.5805746394
 30
0.0
 10
8.5910225569
 20
7.5683062767
 30
0.0
 10
8.5769514545
 20
7.5570245219
 30
0.0
 10
8.5624662369
 20
7.5467755467
 30
0.0
 10
8.5476526027
 20
7.5376014493
 30
0.0
 10
8.5325937429
 20
7.5295418192
 30
0.0
 10
8.5173727533
 20
7.522637838
 30
0.0
 10
8.5070465129
 20
7.5187856656
 30
0.0
 10
8.5018820819
 20
7.5170732081
 30
0.0
 11
8.6173769598
 21
7.5938637619
 31
0.0
 11
8.6044099532
 21
7.5806568632
 31
0.0
 11
8.5908398657
 21
7.5683871851
 31
0.0
 11
8.5767660357
 21
7.55710908
 31
0.0
 11
8.5622774154
 21
7.5468659905
 31
0.0
 11
8.5474614596
 21
7.5377006733
 31
0.0
 11
8.5324025915
 21
7.5296534923
 31
0.0
 11
8.517180907
 21
7.5227636103
 31
0.0
 11
8.5018820819
 21
7.5170732081
 31
0.0
  0
SPLINE
  5
304
100
AcDbEntity
  8
0
100
AcDbSpline
 62
2
  6
CONTINUOUS
 70
0
 71
3
 72
11
 73
7
 74
5
 42
0.0000001
 43
0.0000001
 44
0.0000000001
 12
-0.0289360077
 22
-0.0095947999
 32
0.0
 13
-0.0301845706
 23
-0.0042713489
 33
0.0
 40
0.0
 40
0.0
 40
0.0
 40
0.0
 40
0.2431241702
 40
0.4909304662
 40
0.7432411834
 40
1.0
 40
1.0
 40
1.0
 40
1.0
 10
8.5018820819
 20
7.5170732081
 30
0.0
 10
8.4995370676
 20
7.5162956322
 30
0.0
 10
8.4947565869
 20
7.5148595266
 30
0.0
 10
8.4874209826
 20
7.513050921
 30
0.0
 10
8.4798765066
 20
7.5115443638
 30
0.0
 10
8.4747662942
 20
7.5107319115
 30
0.0
 10
8.4721829093
 20
7.5103663426
 30
0.0
 11
8.5018820819
 21
7.5170732081
 31
0.0
 11
8.4947862675
 21
7.5149324455
 31
0.0
 11
8.4874533863
 21
7.5131162656
 31
0.0
 11
8.4799120385
 21
7.511602556
 31
0.0
 11
8.4721829093
 21
7.5103663426
 31
0.0
  0
LINE
  5
305
100
AcDbEntity
  8
0
100
AcDbLine
 62
6
  6
CONTINUOUS
 10
8.5334623337
 20
7.4945719879
 11
8.4552551397
 21
7.4945598674
  0
SPLINE
  5
306
100
AcDbEntity
  8
0
100
AcDbSpline
 62
6
  6
CONTINUOUS
 70
0
 71
3
 72
23
 73
19
 74
17
 42
0.0000001
 43
0.0000001
 44
0.0000000001
 12
-0.0999077157
 22
-0.0470502409
 32
0.0
 13
-0.1104322273
 23
0.0
 33
0.0
 40
0.0
 40
0.0
 40
0.0
 40
0.0
 40
0.0581745419
 40
0.1173971233
 40
0.1776015483
 40
0.2387410027
 40
0.3007543369
 40
0.3635558666
 40
0.4270385408
 40
0.4910756581
 40
0.5555206631
 40
0.6201969236
 40
0.684905494
 40
0.749409204
 40
0.8134534092
 40
0.8767666467
 40
0.9390602519
 40
1.0
 40
1.0
 40
1.0
 40
1.0
 10
8.6417141578
 20
7.5118040542
 30
0.0
 10
8.639776796
 20
7.5108916788
 30
0.0
 10
8.6358147772
 20
7.5091600196
 30
0.0
 10
8.6296970058
 20
7.506848097
 30
0.0
 10
8.6233750393
 20
7.5047885291
 30
0.0
 10
8.6168736397
 20
7.5029686988
 30
0.0
 10
8.6102151383
 20
7.5013748753
 30
0.0
 10
8.6034218515
 20
7.4999921613
 30
0.0
 10
8.5965161868
 20
7.498805694
 30
0.0
 10
8.58952098
 20
7.4977998828
 30
0.0
 10
8.5824599239
 20
7.4969592127
 30
0.0
 10
8.5753579125
 20
7.4962686383
 30
0.0
 10
8.5682419842
 20
7.4957133105
 30
0.0
 10
8.5611409636
 20
7.495280214
 30
0.0
 10
8.5540855913
 20
7.4949565
 30
0.0
 10
8.54710776
 20
7.4947332235
 30
0.0
 10
8.5402419326
 20
7.4946014647
 30
0.0
 10
8.5357055711
 20
7.4945719879
 30
0.0
 10
8.5334623337
 20
7.4945719879
 30
0.0
 11
8.6417141578
 21
7.5118040542
 31
0.0
 11
8.6358300328
 21
7.5092254361
 31
0.0
 11
8.629714227
 21
7.5069081992
 31
0.0
 11
8.623394463
 21
7.5048434349
 31
0.0
 11
8.6168940131
 21
7.50301847
 31
0.0
 11
8.6102350357
 21
7.5014194608
 31
0.0
 11
8.6034399657
 21
7.5000318055
 31
0.0
 11
8.5965313803
 21
7.4988405787
 31
0.0
 11
8.5895321496
 21
7.4978303407
 31
0.0
 11
8.5824656545
 21
7.4969856115
 31
0.0
 11
8.5753571344
 21
7.4962913401
 31
0.0
 11
8.5682330756
 21
7.4957329161
 31
0.0
 11
8.5611231312
 21
7.4952971096
 31
0.0
 11
8.5540580775
 21
7.4949716894
 31
0.0
 11
8.5470698651
 21
7.4947470543
 31
0.0
 11
8.540191907
 21
7.4946152173
 31
0.0
 11
8.5334623337
 21
7.4945719879
 31
0.0
  0
SPLINE
  5
307
100
AcDbEntity
  8
0
100
AcDbSpline
 62
6
  6
CONTINUOUS
 70
0
 71
3
 72
15
 73
11
 74
9
 42
0.0000001
 43
0.0000001
 44
0.0000000001
 12
-0.0779324749
 22
-0.0861921698
 32
0.0
 13
-0.1051262731
 23
-0.0495078528
 33
0.0
 40
0.0
 40
0.0
 40
0.0
 40
0.0
 40
0.1300944596
 40
0.2591120796
 40
0.3868278213
 40
0.5130663235
 40
0.6376517884
 40
0.7604246321
 40
0.881254427
 40
1.0
 40
1.0
 40
1.0
 40
1.0
 10
8.733831026
 20
7.581429443
 30
0.0
 10
8.7304514983
 20
7.577691735
 30
0.0
 10
8.7235465007
 20
7.5704023608
 30
0.0
 10
8.7127426551
 20
7.5600134619
 30
0.0
 10
8.7015744039
 20
7.5502421116
 30
0.0
 10
8.6900877881
 20
7.5411205833
 30
0.0
 10
8.6783271147
 20
7.5326792469
 30
0.0
 10
8.6663366097
 20
7.5249471076
 30
0.0
 10
8.6541612424
 20
7.5179534409
 30
0.0
 10
8.645875251
 20
7.513763667
 30
0.0
 10
8.6417141578
 20
7.5118040542
 30
0.0
 11
8.733831026
 21
7.581429443
 31
0.0
 11
8.7234341555
 21
7.5704553782
 31
0.0
 11
8.7126263695
 21
7.5600655148
 31
0.0
 11
8.7014553747
 21
7.5502954923
 31
0.0
 11
8.6899655123
 21
7.5411761708
 31
0.0
 11
8.678201867
 21
7.5327383298
 31
0.0
 11
8.6662092875
 21
7.5250114646
 31
0.0
 11
8.6540311915
 21
7.5180236755
 31
0.0
 11
8.6417141578
 21
7.5118040542
 31
0.0
  0
LINE
  5
308
100
AcDbEntity
  8
0
100
AcDbLine
 62
2
  6
CONTINUOUS
 10
8.5599031428
 20
7.5937726803
 11
8.4495823925
 21
7.593866156
  0
SPLINE
  5
309
100
AcDbEntity
  8
0
100
AcDbSpline
 62
2
  6
CONTINUOUS
 70
0
 71
3
 72
19
 73
15
 74
13
 42
0.0000001
 43
0.0000001
 44
0.0000000001
 12
-0.0891656847
 22
-0.0999548951
 32
0.0
 13
-0.1259194807
 23
-0.0456703926
 33
0.0
 40
0.0
 40
0.0
 40
0.0
 40
0.0
 40
0.0680636902
 40
0.135571979
 40
0.2686539573
 40
0.3988992933
 40
0.5260577278
 40
0.6498991076
 40
0.710524367
 40
0.7702564989
 40
0.829083517
 40
0.8869955552
 40
0.9439746598
 40
1.0
 40
1.0
 40
1.0
 40
1.0
 10
8.4495823925
 20
7.593866156
 30
0.0
 10
8.4475594107
 20
7.5915983897
 30
0.0
 10
8.4434674867
 20
7.587136567
 30
0.0
 10
8.4351181029
 20
7.5785228385
 30
0.0
 10
8.4244011214
 20
7.5683451067
 30
0.0
 10
8.4110965813
 20
7.5570632826
 30
0.0
 10
8.3974932151
 20
7.5468152058
 30
0.0
 10
8.3858919941
 20
7.5391167318
 30
0.0
 10
8.3765312109
 20
7.5335231531
 30
0.0
 10
8.369533913
 20
7.5296415541
 30
0.0
 10
8.3625197691
 20
7.5260489785
 30
0.0
 10
8.355498116
 20
7.5227503614
 30
0.0
 10
8.3484793552
 20
7.5197510748
 30
0.0
 10
8.3437688612
 20
7.5179393434
 30
0.0
 10
8.3414173006
 20
7.5170864437
 30
0.0
 11
8.4495823925
 21
7.593866156
 31
0.0
 11
8.4434201087
 21
7.5871472844
 31
0.0
 11
8.4371261614
 21
7.5806548067
 31
0.0
 11
8.4241963674
 21
7.5683837439
 31
0.0
 11
8.4108853236
 21
7.5571066436
 31
0.0
 11
8.3972752189
 21
7.546866235
 31
0.0
 11
8.3834467466
 21
7.5377045464
 31
0.0
 11
8.3764750435
 21
7.5335406611
 31
0.0
 11
8.3694776263
 21
7.5296612118
 31
0.0
 11
8.3624634477
 21
7.52607095
 31
0.0
 11
8.35544156
 21
7.5227746838
 31
0.0
 11
8.348422413
 21
7.5197778888
 31
0.0
 11
8.3414173006
 21
7.5170864437
 31
0.0
  0
LINE
  5
30A
100
AcDbEntity
  8
0
100
AcDbLine
 62
6
  6
CONTINUOUS
 10
8.383147216
 20
7.4945719879
 11
8.2964138361
 21
7.4945582938
  0
SPLINE
  5
30B
100
AcDbEntity
  8
0
100
AcDbSpline
 62
6
  6
CONTINUOUS
 70
0
 71
3
 72
23
 73
19
 74
17
 42
0.0000001
 43
0.0000001
 44
0.0000000001
 12
-0.0745311623
 22
-0.0321936254
 32
0.0
 13
-0.0811869674
 23
0.0
 33
0.0
 40
0.0
 40
0.0
 40
0.0
 40
0.0
 40
0.0544559232
 40
0.1104266925
 40
0.1678569485
 40
0.2266983709
 40
0.2869002222
 40
0.3483870286
 40
0.411058374
 40
0.4747946107
 40
0.5394492616
 40
0.6048583911
 40
0.6708155827
 40
0.7370921634
 40
0.8034375349
 40
0.8695820708
 40
0.9352227744
 40
1.0
 40
1.0
 40
1.0
 40
1.0
 10
8.4630159908
 20
7.506033205
 30
0.0
 10
8.4616631031
 20
7.5054488271
 30
0.0
 10
8.4588875873
 20
7.5043370551
 30
0.0
 10
8.4545938576
 20
7.502849722
 30
0.0
 10
8.4501265558
 20
7.5015143994
 30
0.0
 10
8.4455002728
 20
7.50032455
 30
0.0
 10
8.440728425
 20
7.4992724995
 30
0.0
 10
8.4358244377
 20
7.4983503885
 30
0.0
 10
8.4308023807
 20
7.4975499682
 30
0.0
 10
8.4256771287
 20
7.4968631914
 30
0.0
 10
8.4204643949
 20
7.4962817815
 30
0.0
 10
8.4151814488
 20
7.4957975923
 30
0.0
 10
8.4098470885
 20
7.4954031809
 30
0.0
 10
8.4044819415
 20
7.4950911667
 30
0.0
 10
8.3991078555
 20
7.4948555162
 30
0.0
 10
8.3937483557
 20
7.4946911556
 30
0.0
 10
8.3884296871
 20
7.494593667
 30
0.0
 10
8.3849002382
 20
7.4945719879
 30
0.0
 10
8.383147216
 20
7.4945719879
 30
0.0
 11
8.4630159908
 21
7.506033205
 31
0.0
 11
8.4589137057
 21
7.5043847264
 31
0.0
 11
8.4546213444
 21
7.5028932667
 31
0.0
 11
8.4501552406
 21
7.5015539958
 31
0.0
 11
8.4455296179
 21
7.5003603291
 31
0.0
 11
8.4407573968
 21
7.4993045848
 31
0.0
 11
8.4358520482
 21
7.4983788992
 31
0.0
 11
8.4308278307
 21
7.4975751806
 31
0.0
 11
8.4256994729
 21
7.4968853017
 31
0.0
 11
8.4204829711
 21
7.4963010778
 31
0.0
 11
8.4151949505
 21
7.4958144
 31
0.0
 11
8.4098547947
 21
7.4954177787
 31
0.0
 11
8.404483154
 21
7.4951040486
 31
0.0
 11
8.3991019885
 21
7.4948671058
 31
0.0
 11
8.3937344587
 21
7.4947018124
 31
0.0
 11
8.3884061843
 21
7.4946041325
 31
0.0
 11
8.383147216
 21
7.4945719879
 31
0.0
  0
SPLINE
  5
30C
100
AcDbEntity
  8
0
100
AcDbSpline
 62
6
  6
CONTINUOUS
 70
0
 71
3
 72
16
 73
12
 74
10
 42
0.0000001
 43
0.0000001
 44
0.0000000001
 12
-0.0829263466
 22
-0.0946019458
 32
0.0
 13
-0.115489199
 23
-0.0498853889
 33
0.0
 40
0.0
 40
0.0
 40
0.0
 40
0.0
 40
0.1341629217
 40
0.2662340253
 40
0.3958899156
 40
0.5228825947
 40
0.6469737128
 40
0.7679581423
 40
0.8856809879
 40
0.9432802434
 40
1.0
 40
1.0
 40
1.0
 40
1.0
 10
8.5624741099
 20
7.581452279
 30
0.0
 10
8.5587655629
 20
7.5772215878
 30
0.0
 10
8.5512021016
 20
7.569002496
 30
0.0
 10
8.539368089
 20
7.5573501501
 30
0.0
 10
8.527186705
 20
7.5465076909
 30
0.0
 10
8.5147208322
 20
7.5365201384
 30
0.0
 10
8.502030443
 20
7.5274296363
 30
0.0
 10
8.4891760326
 20
7.5192767802
 30
0.0
 10
8.4782980112
 20
7.5132539075
 30
0.0
 10
8.4695680788
 20
7.5089530629
 30
0.0
 10
8.4651994972
 20
7.5069763673
 30
0.0
 10
8.4630159908
 20
7.506033205
 30
0.0
 11
8.5624741099
 21
7.581452279
 31
0.0
 11
8.5510424042
 21
7.569035165
 31
0.0
 11
8.5391995901
 21
7.5573817324
 31
0.0
 11
8.5270112844
 21
7.5465421885
 31
0.0
 11
8.5145380613
 21
7.5365596144
 31
0.0
 11
8.5018413175
 21
7.5274768969
 31
0.0
 11
8.4889819348
 21
7.5193350538
 31
0.0
 11
8.476018804
 21
7.5121734352
 31
0.0
 11
8.4695178176
 21
7.5089728561
 31
0.0
 11
8.4630159908
 21
7.506033205
 31
0.0
  0
LINE
  5
30D
100
AcDbEntity
  8
0
100
AcDbLine
 62
2
  6
CONTINUOUS
 10
8.4086191286
 20
7.5937581009
 11
8.2858223702
 21
7.5938637619
  0
SPLINE
  5
30E
100
AcDbEntity
  8
0
100
AcDbSpline
 62
2
  6
CONTINUOUS
 70
0
 71
3
 72
22
 73
18
 74
16
 42
0.0000001
 43
0.0000001
 44
0.0000000001
 12
-0.0811836245
 22
-0.0965748631
 32
0.0
 13
-0.1167637049
 23
-0.047788307
 33
0.0
 40
0.0
 40
0.0
 40
0.0
 40
0.0
 40
0.0702879342
 40
0.1397447571
 40
0.2758696472
 40
0.3424507575
 40
0.4079920051
 40
0.4724586817
 40
0.5358174342
 40
0.5980373461
 40
0.6590926646
 40
0.7189607614
 40
0.7776238187
 40
0.8350702842
 40
0.891291881
 40
0.9462737897
 40
1.0
 40
1.0
 40
1.0
 40
1.0
 10
8.2858223702
 20
7.5938637619
 30
0.0
 10
8.2839202938
 20
7.5916010793
 30
0.0
 10
8.2800825536
 20
7.587149171
 30
0.0
 10
8.2722883526
 20
7.5785545438
 30
0.0
 10
8.2642796024
 20
7.5703688112
 30
0.0
 10
8.2560759867
 20
7.5626236821
 30
0.0
 10
8.2499136744
 20
7.557110474
 30
0.0
 10
8.2437060052
 20
7.5518558487
 30
0.0
 10
8.2374620119
 20
7.5468651343
 30
0.0
 10
8.2311906718
 20
7.5421436218
 30
0.0
 10
8.2249008157
 20
7.5376964018
 30
0.0
 10
8.2186010915
 20
7.5335283929
 30
0.0
 10
8.212299874
 20
7.529644476
 30
0.0
 10
8.206005324
 20
7.5260495932
 30
0.0
 10
8.1997259319
 20
7.5227487989
 30
0.0
 10
8.193471088
 20
7.5197475474
 30
0.0
 10
8.1892750899
 20
7.5179290363
 30
0.0
 10
8.1871839994
 20
7.5170732081
 30
0.0
 11
8.2858223702
 21
7.5938637619
 31
0.0
 11
8.2800317755
 21
7.5871475386
 31
0.0
 11
8.2741444102
 21
7.5806568636
 31
0.0
 11
8.2621275139
 21
7.5683871866
 31
0.0
 11
8.2560185554
 21
7.5626214653
 31
0.0
 11
8.2498549805
 21
7.5571090819
 31
0.0
 11
8.2436459818
 21
7.5518554503
 31
0.0
 11
8.2374007138
 21
7.5468659925
 31
0.0
 11
8.2311282511
 21
7.5421460507
 31
0.0
 11
8.2248373789
 21
7.5377006754
 31
0.0
 11
8.2185368103
 21
7.5335348489
 31
0.0
 11
8.2122350019
 21
7.529653494
 31
0.0
 11
8.2059400474
 21
7.5260614495
 31
0.0
 11
8.1996601327
 21
7.5227636109
 31
0.0
 11
8.1934047109
 21
7.5197655416
 31
0.0
 11
8.1871839994
 21
7.5170732081
 31
0.0
  0
SPLINE
  5
30F
100
AcDbEntity
  8
0
100
AcDbSpline
 62
2
  6
CONTINUOUS
 70
0
 71
3
 72
15
 73
11
 74
9
 42
0.0000001
 43
0.0000001
 44
0.0000000001
 12
-0.0382589836
 22
-0.0156583936
 32
0.0
 13
-0.0411898109
 23
-0.0035120642
 33
0.0
 40
0.0
 40
0.0
 40
0.0
 40
0.0
 40
0.115636259
 40
0.2337640273
 40
0.3544873661
 40
0.4778876514
 40
0.6040806474
 40
0.7331475083
 40
0.8651234172
 40
1.0
 40
1.0
 40
1.0
 40
1.0
 10
8.1871839994
 20
7.5170732081
 30
0.0
 10
8.1857092909
 20
7.5164696488
 30
0.0
 10
8.1826931477
 20
7.5153334768
 30
0.0
 10
8.1780386564
 20
7.5138455668
 30
0.0
 10
8.1732174009
 20
7.5125458731
 30
0.0
 10
8.1682381096
 20
7.5114236628
 30
0.0
 10
8.163107637
 20
7.5104669005
 30
0.0
 10
8.1578315972
 20
7.5096633087
 30
0.0
 10
8.1524156783
 20
7.5090004257
 30
0.0
 10
8.148755075
 20
7.5086475735
 30
0.0
 10
8.1469032281
 20
7.5084896751
 30
0.0
 11
8.1871839994
 21
7.5170732081
 31
0.0
 11
8.18271227
 21
7.5153835101
 31
0.0
 11
8.1780622827
 21
7.5138920716
 31
0.0
 11
8.1732448561
 21
7.5125887551
 31
0.0
 11
8.1682693777
 21
7.5114628567
 31
0.0
 11
8.1631418424
 21
7.5105023295
 31
0.0
 11
8.1578677565
 21
7.5096949295
 31
0.0
 11
8.1524528542
 21
7.5090282584
 31
0.0
 11
8.1469032281
 21
7.5084896751
 31
0.0
  0
LINE
  5
310
100
AcDbEntity
  8
0
100
AcDbLine
 62
6
  6
CONTINUOUS
 10
8.2278960599
 20
7.4945719879
 11
8.1451979054
 21
7.4945598674
  0
SPLINE
  5
311
100
AcDbEntity
  8
0
100
AcDbSpline
 62
6
  6
CONTINUOUS
 70
0
 71
3
 72
23
 73
19
 74
17
 42
0.0000001
 43
0.0000001
 44
0.0000000001
 12
-0.091044297
 22
-0.0517500139
 32
0.0
 13
-0.1047240562
 23
0.0
 33
0.0
 40
0.0
 40
0.0
 40
0.0
 40
0.0
 40
0.0530519772
 40
0.1074648524
 40
0.1632840775
 40
0.220559015
 40
0.2793127685
 40
0.3395363349
 40
0.4011919041
 40
0.4642164101
 40
0.5285216163
 40
0.5939842652
 40
0.6604537302
 40
0.7277320136
 40
0.7955970023
 40
0.8637958096
 40
0.9320477666
 40
1.0
 40
1.0
 40
1.0
 40
1.0
 10
8.3301405964
 20
7.5118040542
 30
0.0
 10
8.3285305697
 20
7.5108889073
 30
0.0
 10
8.3252023581
 20
7.5091507607
 30
0.0
 10
8.3199890987
 20
7.5068381269
 30
0.0
 10
8.314513334
 20
7.5047784641
 30
0.0
 10
8.308794546
 20
7.5029590379
 30
0.0
 10
8.3028497637
 20
7.5013658783
 30
0.0
 10
8.2966959209
 20
7.499983998
 30
0.0
 10
8.290349858
 20
7.4987984308
 30
0.0
 10
8.2838287597
 20
7.497793537
 30
0.0
 10
8.2771505989
 20
7.496953767
 30
0.0
 10
8.2703345709
 20
7.4962640501
 30
0.0
 10
8.2634022262
 20
7.4957095512
 30
0.0
 10
8.2563772744
 20
7.4952772266
 30
0.0
 10
8.2492860888
 20
7.4949542685
 30
0.0
 10
8.2421570852
 20
7.4947317173
 30
0.0
 10
8.2350228083
 20
7.4946006949
 30
0.0
 10
8.2302681378
 20
7.4945719879
 30
0.0
 10
8.2278960599
 20
7.4945719879
 30
0.0
 11
8.3301405964
 21
7.5118040542
 31
0.0
 11
8.3252194334
 21
7.5092254361
 31
0.0
 11
8.3200135274
 21
7.5069081992
 31
0.0
 11
8.3145447093
 21
7.5048434349
 31
0.0
 11
8.3088310177
 21
7.50301847
 31
0.0
 11
8.3028894914
 21
7.5014194608
 31
0.0
 11
8.2967371872
 21
7.5000318055
 31
0.0
 11
8.2903912026
 21
7.4988405787
 31
0.0
 11
8.2838687935
 21
7.4978303407
 31
0.0
 11
8.2771876816
 21
7.4969856115
 31
0.0
 11
8.2703674132
 21
7.4962913401
 31
0.0
 11
8.2634288964
 21
7.4957329161
 31
0.0
 11
8.256396733
 21
7.4952971096
 31
0.0
 11
8.2492970902
 21
7.4949716894
 31
0.0
 11
8.242158568
 21
7.4947470543
 31
0.0
 11
8.2350121621
 21
7.4946152173
 31
0.0
 11
8.2278960599
 21
7.4945719879
 31
0.0
  0
SPLINE
  5
312
100
AcDbEntity
  8
0
100
AcDbSpline
 62
6
  6
CONTINUOUS
 70
0
 71
3
 72
15
 73
11
 74
9
 42
0.0000001
 43
0.0000001
 44
0.0000000001
 12
-0.067725564
 22
-0.0821215996
 32
0.0
 13
-0.0925411384
 23
-0.0526008256
 33
0.0
 40
0.0
 40
0.0
 40
0.0
 40
0.0
 40
0.1358312258
 40
0.2690575657
 40
0.3993848077
 40
0.5265802292
 40
0.6504199136
 40
0.7707070651
 40
0.8872847309
 40
1.0
 40
1.0
 40
1.0
 40
1.0
 10
8.4099156974
 20
7.581429443
 30
0.0
 10
8.4068492819
 20
7.5777112171
 30
0.0
 10
8.400633553
 20
7.5704614948
 30
0.0
 10
8.390989719
 20
7.5600732888
 30
0.0
 10
8.3811479286
 20
7.5503021192
 30
0.0
 10
8.3711476808
 20
7.5411801804
 30
0.0
 10
8.3610268682
 20
7.5327377582
 30
0.0
 10
8.3508231629
 20
7.5250037934
 30
0.0
 10
8.340574726
 20
7.5180074203
 30
0.0
 10
8.3336175295
 20
7.5137803596
 30
0.0
 10
8.3301405964
 20
7.5118040542
 30
0.0
 11
8.4099156974
 21
7.581429443
 31
0.0
 11
8.4005017255
 21
7.5704553782
 31
0.0
 11
8.3908496576
 21
7.5600655148
 31
0.0
 11
8.3810007537
 21
7.5502954923
 31
0.0
 11
8.3709930647
 21
7.5411761708
 31
0.0
 11
8.3608652009
 21
7.5327383298
 31
0.0
 11
8.3506554227
 21
7.5250114646
 31
0.0
 11
8.34040071
 21
7.5180236755
 31
0.0
 11
8.3301405964
 21
7.5118040542
 31
0.0
  0
LINE
  5
313
100
AcDbEntity
  8
0
100
AcDbLine
 62
6
  6
CONTINUOUS
 10
8.0701572689
 20
7.4945719879
 11
7.9814359379
 21
7.4945582938
  0
SPLINE
  5
314
100
AcDbEntity
  8
0
100
AcDbSpline
 62
6
  6
CONTINUOUS
 70
0
 71
3
 72
23
 73
19
 74
17
 42
0.0000001
 43
0.0000001
 44
0.0000000001
 12
-0.0647350495
 22
-0.0362073164
 32
0.0
 13
-0.0741727469
 23
0.0
 33
0.0
 40
0.0
 40
0.0
 40
0.0
 40
0.0
 40
0.0486371594
 40
0.0991586607
 40
0.151635849
 40
0.2061289786
 40
0.2626804417
 40
0.32129743
 40
0.381954839
 40
0.4446005314
 40
0.5091491876
 40
0.5754922876
 40
0.6434692521
 40
0.7128913606
 40
0.7835358602
 40
0.8551503246
 40
0.9274333293
 40
1.0
 40
1.0
 40
1.0
 40
1.0
 10
8.1427512132
 20
7.506033205
 30
0.0
 10
8.1417017035
 20
7.505446198
 30
0.0
 10
8.1395169758
 20
7.5043286669
 30
0.0
 10
8.1360732861
 20
7.5028410509
 30
0.0
 10
8.1324133727
 20
7.5015058994
 30
0.0
 10
8.1285476933
 20
7.5003165731
 30
0.0
 10
8.1244855301
 20
7.4992652195
 30
0.0
 10
8.1202361032
 20
7.4983438765
 30
0.0
 10
8.1158091096
 20
7.4975442503
 30
0.0
 10
8.1112149246
 20
7.4968582512
 30
0.0
 10
8.1064647278
 20
7.4962775769
 30
0.0
 10
8.1015712923
 20
7.4957940927
 30
0.0
 10
8.0965490341
 20
7.4954003273
 30
0.0
 10
8.0914145124
 20
7.4950889267
 30
0.0
 10
8.0861859481
 20
7.494853856
 30
0.0
 10
8.0808839306
 20
7.4946900505
 30
0.0
 10
8.0755327639
 20
7.4945931127
 30
0.0
 10
8.0719514253
 20
7.4945719879
 30
0.0
 10
8.0701572689
 20
7.4945719879
 30
0.0
 11
8.1427512132
 21
7.506033205
 31
0.0
 11
8.1395423274
 21
7.5043847264
 31
0.0
 11
8.1361046037
 21
7.5028932667
 31
0.0
 11
8.1324498871
 21
7.5015539958
 31
0.0
 11
8.1285882609
 21
7.5003603291
 31
0.0
 11
8.1245287186
 21
7.4993045848
 31
0.0
 11
8.1202806222
 21
7.4983788992
 31
0.0
 11
8.1158538652
 21
7.4975751806
 31
0.0
 11
8.1112587605
 21
7.4968853017
 31
0.0
 11
8.1065067879
 21
7.4963010778
 31
0.0
 11
8.1016100636
 21
7.4958144
 31
0.0
 11
8.0965836493
 21
7.4954177787
 31
0.0
 11
8.0914439871
 21
7.4951040486
 31
0.0
 11
8.0862094504
 21
7.4948671058
 31
0.0
 11
8.0809001813
 21
7.4947018124
 31
0.0
 11
8.0755396422
 21
7.4946041325
 31
0.0
 11
8.0701572689
 21
7.4945719879
 31
0.0
  0
SPLINE
  5
315
100
AcDbEntity
  8
0
100
AcDbSpline
 62
6
  6
CONTINUOUS
 70
0
 71
3
 72
21
 73
17
 74
15
 42
0.0000001
 43
0.0000001
 44
0.0000000001
 12
-0.0681644432
 22
-0.0886606912
 32
0.0
 13
-0.0976053441
 23
-0.0545921815
 33
0.0
 40
0.0
 40
0.0
 40
0.0
 40
0.0
 40
0.1421909108
 40
0.2801559986
 40
0.347419892
 40
0.4134796845
 40
0.4782942574
 40
0.5418234162
 40
0.6040292788
 40
0.664877843
 40
0.7243379542
 40
0.7823829457
 40
0.838991667
 40
0.8941461001
 40
0.9478232677
 40
1.0
 40
1.0
 40
1.0
 40
1.0
 10
8.2243591343
 20
7.581452279
 30
0.0
 10
8.2211283462
 20
7.5772500308
 30
0.0
 10
8.2146057434
 20
7.5690897101
 30
0.0
 10
8.206120581
 20
7.5593001149
 30
0.0
 10
8.1992569417
 20
7.5518717128
 30
0.0
 10
8.1941276127
 20
7.5465560634
 30
0.0
 10
8.1889795402
 20
7.5414544841
 30
0.0
 10
8.1838189139
 20
7.5365723331
 30
0.0
 10
8.1786519039
 20
7.5319149466
 30
0.0
 10
8.1734847129
 20
7.5274874567
 30
0.0
 10
8.1683234314
 20
7.5232949
 30
0.0
 10
8.1631740132
 20
7.5193422207
 30
0.0
 10
8.1580423379
 20
7.5156342869
 30
0.0
 10
8.1529344959
 20
7.5121761238
 30
0.0
 10
8.1478572931
 20
7.5089729854
 30
0.0
 10
8.1444487891
 20
7.5069826855
 30
0.0
 10
8.1427512132
 20
7.506033205
 30
0.0
 11
8.2243591343
 21
7.581452279
 31
0.0
 11
8.2144249906
 21
7.569035165
 31
0.0
 11
8.2043125033
 21
7.5573817324
 31
0.0
 11
8.1992065405
 21
7.5518575399
 31
0.0
 11
8.1940755789
 21
7.5465421885
 31
0.0
 11
8.1889258132
 21
7.5414410719
 31
0.0
 11
8.1837634986
 21
7.5365596144
 31
0.0
 11
8.1785948709
 21
7.5319031765
 31
0.0
 11
8.1734260974
 21
7.5274768969
 31
0.0
 11
8.1682633275
 21
7.5232858644
 31
0.0
 11
8.1631125691
 21
7.5193350538
 31
0.0
 11
8.1579796426
 21
7.5156292894
 31
0.0
 11
8.1528704507
 21
7.5121734352
 31
0.0
 11
8.1477918429
 21
7.5089728561
 31
0.0
 11
8.1427512132
 21
7.506033205
 31
0.0
  0
LINE
  5
316
100
AcDbEntity
  8
0
100
AcDbLine
 62
2
  6
CONTINUOUS
 10
8.065948666
 20
7.5937581009
 11
7.9407167491
 21
7.5938637619
  0
SPLINE
  5
317
100
AcDbEntity
  8
0
100
AcDbSpline
 62
2
  6
CONTINUOUS
 70
0
 71
3
 72
23
 73
19
 74
17
 42
0.0000001
 43
0.0000001
 44
0.0000000001
 12
-0.0624239622
 22
-0.0887353427
 32
0.0
 13
-0.09375675
 23
-0.0545928928
 33
0.0
 40
0.0
 40
0.0
 40
0.0
 40
0.0
 40
0.0761769852
 40
0.1507981225
 40
0.2237707938
 40
0.2950188797
 40
0.3644910637
 40
0.4321392423
 40
0.4979169894
 40
0.5617799042
 40
0.623686921
 40
0.6836033102
 40
0.7414986771
 40
0.7973484744
 40
0.8511356492
 40
0.9028487786
 40
0.9524738123
 40
1.0
 40
1.0
 40
1.0
 40
1.0
 10
7.9407167491
 20
7.5938637619
 30
0.0
 10
7.9391316593
 20
7.5916105649
 30
0.0
 10
7.9359539521
 20
7.5871780904
 30
0.0
 10
7.931117897
 20
7.5806889702
 30
0.0
 10
7.9262684856
 20
7.5744338369
 30
0.0
 10
7.9214138697
 20
7.5684202246
 30
0.0
 10
7.9165614485
 20
7.5626542918
 30
0.0
 10
7.9117180446
 20
7.5571414609
 30
0.0
 10
7.9068903903
 20
7.5518871165
 30
0.0
 10
7.9020851695
 20
7.5468966244
 30
0.0
 10
7.8973089481
 20
7.5421752334
 30
0.0
 10
7.8925681911
 20
7.5377280181
 30
0.0
 10
7.8878692227
 20
7.5335598813
 30
0.0
 10
7.8832181688
 20
7.5296756669
 30
0.0
 10
7.8786209921
 20
7.5260802506
 30
0.0
 10
7.8740838844
 20
7.5227786316
 30
0.0
 10
7.8696137161
 20
7.5197762377
 30
0.0
 10
7.8666179974
 20
7.5179380721
 30
0.0
 10
7.8651326971
 20
7.5170732081
 30
0.0
 11
7.9407167491
 21
7.5938637619
 31
0.0
 11
7.9359004227
 21
7.5871475386
 31
0.0
 11
7.9310616045
 21
7.5806568637
 31
0.0
 11
7.9262096563
 21
7.5744008452
 31
0.0
 11
7.9213529641
 21
7.5683871869
 31
0.0
 11
7.9164984364
 21
7.5626214657
 31
0.0
 11
7.9116528552
 21
7.5571090823
 31
0.0
 11
7.9068229653
 21
7.5518554507
 31
0.0
 11
7.9020154888
 21
7.5468659929
 31
0.0
 11
7.8972370839
 21
7.5421460512
 31
0.0
 11
7.892494175
 21
7.5377006759
 31
0.0
 11
7.8877931297
 21
7.5335348493
 31
0.0
 11
7.8831401427
 21
7.5296534943
 31
0.0
 11
7.8785411652
 21
7.5260614498
 31
0.0
 11
7.874002216
 21
7.522763611
 31
0.0
 11
7.8695302306
 21
7.5197655416
 31
0.0
 11
7.8651326971
 21
7.5170732081
 31
0.0
  0
SPLINE
  5
318
100
AcDbEntity
  8
0
100
AcDbSpline
 62
2
  6
CONTINUOUS
 70
0
 71
3
 72
15
 73
11
 74
9
 42
0.0000001
 43
0.0000001
 44
0.0000000001
 12
-0.0299770231
 22
-0.0174550889
 32
0.0
 13
-0.0345505349
 23
-0.003092342
 33
0.0
 40
0.0
 40
0.0
 40
0.0
 40
0.0
 40
0.1111087596
 40
0.2252942454
 40
0.3430836213
 40
0.464931589
 40
0.5912642758
 40
0.7224062173
 40
0.8585963584
 40
1.0
 40
1.0
 40
1.0
 40
1.0
 10
7.8651326971
 20
7.5170732081
 30
0.0
 10
7.8640224605
 20
7.516426737
 30
0.0
 10
7.8617138044
 20
7.5152125204
 30
0.0
 10
7.8580675942
 20
7.5136413048
 30
0.0
 10
7.8542046714
 20
7.5122848263
 30
0.0
 10
7.8501314043
 20
7.5111294193
 30
0.0
 10
7.8458519799
 20
7.5101598758
 30
0.0
 10
7.8413693299
 20
7.5093608771
 30
0.0
 10
7.8366862317
 20
7.5087168103
 30
0.0
 10
7.8334928972
 20
7.5083865361
 30
0.0
 10
7.8318643734
 20
7.5082407799
 30
0.0
 11
7.8651326971
 21
7.5170732081
 31
0.0
 11
7.8617244846
 21
7.515273475
 31
0.0
 11
7.8580896006
 21
7.5136997338
 31
0.0
 11
7.8542366855
 21
7.5123395634
 31
0.0
 11
7.8501722444
 21
7.511179539
 31
0.0
 11
7.8458997146
 21
7.5102047944
 31
0.0
 11
7.841422275
 21
7.509400323
 31
0.0
 11
7.8367428851
 21
7.5087508151
 31
0.0
 11
7.8318643734
 21
7.5082407799
 31
0.0
  0
LINE
  5
319
100
AcDbEntity
  8
0
100
AcDbLine
 62
6
  6
CONTINUOUS
 10
7.9124184778
 20
7.4945719879
 11
7.8304255919
 21
7.4945598674
  0
SPLINE
  5
31A
100
AcDbEntity
  8
0
100
AcDbSpline
 62
6
  6
CONTINUOUS
 70
0
 71
3
 72
23
 73
19
 74
17
 42
0.0000001
 43
0.0000001
 44
0.0000000001
 12
-0.0733046996
 22
-0.0570620406
 32
0.0
 13
-0.0928959389
 23
0.0
 33
0.0
 40
0.0
 40
0.0
 40
0.0
 40
0.0
 40
0.0480984509
 40
0.0975714536
 40
0.1486698539
 40
0.2016214008
 40
0.256602299
 40
0.3137369492
 40
0.373102664
 40
0.4347371101
 40
0.4986402152
 40
0.5647661846
 40
0.6330322103
 40
0.7032946063
 40
0.7753757709
 40
0.8490493894
 40
0.9240479963
 40
1.0
 40
1.0
 40
1.0
 40
1.0
 10
8.0022313263
 20
7.5118040542
 30
0.0
 10
8.0010560455
 20
7.5108891889
 30
0.0
 10
7.9985815519
 20
7.5091469521
 30
0.0
 10
7.994597524
 20
7.5068305178
 30
0.0
 10
7.9903090762
 20
7.5047687433
 30
0.0
 10
7.9857295859
 20
7.502948627
 30
0.0
 10
7.9808698375
 20
7.5013556351
 30
0.0
 10
7.9757403459
 20
7.499974483
 30
0.0
 10
7.9703512784
 20
7.498789923
 30
0.0
 10
7.9647130287
 20
7.4977861585
 30
0.0
 10
7.9588366502
 20
7.4969475331
 30
0.0
 10
7.9527343666
 20
7.4962589092
 30
0.0
 10
7.9464208359
 20
7.4957054454
 30
0.0
 10
7.9399131138
 20
7.4952740564
 30
0.0
 10
7.9332315205
 20
7.4949519737
 30
0.0
 10
7.9263991751
 20
7.4947302208
 30
0.0
 10
7.9194446449
 20
7.4945999612
 30
0.0
 10
7.9147703553
 20
7.4945719879
 30
0.0
 10
7.9124184778
 20
7.4945719879
 30
0.0
 11
8.0022313263
 21
7.5118040542
 31
0.0
 11
7.9985823402
 21
7.5092254361
 31
0.0
 11
7.9946134401
 21
7.5069081992
 31
0.0
 11
7.9903391939
 21
7.5048434349
 31
0.0
 11
7.9857712728
 21
7.50301847
 31
0.0
 11
7.9809205256
 21
7.5014194608
 31
0.0
 11
7.9757975591
 21
7.5000318055
 31
0.0
 11
7.970412917
 21
7.4988405787
 31
0.0
 11
7.9647771564
 21
7.4978303407
 31
0.0
 11
7.9589012265
 21
7.4969856115
 31
0.0
 11
7.9527977523
 21
7.4962913401
 31
0.0
 11
7.9464807501
 21
7.4957329161
 31
0.0
 11
7.9399682243
 21
7.4952971096
 31
0.0
 11
7.933280089
 21
7.4949716894
 31
0.0
 11
7.9264397966
 21
7.4947470543
 31
0.0
 11
7.919473978
 21
7.4946152173
 31
0.0
 11
7.9124184778
 21
7.4945719879
 31
0.0
  0
SPLINE
  5
31B
100
AcDbEntity
  8
0
100
AcDbSpline
 62
6
  6
CONTINUOUS
 70
0
 71
3
 72
20
 73
16
 74
14
 42
0.0000001
 43
0.0000001
 44
0.0000000001
 12
-0.0534735459
 22
-0.0771171033
 32
0.0
 13
-0.0740518587
 23
-0.0576436463
 33
0.0
 40
0.0
 40
0.0
 40
0.0
 40
0.0
 40
0.1437149941
 40
0.2827352619
 40
0.4166760986
 40
0.481645375
 40
0.5452273713
 40
0.6073848256
 40
0.6680833022
 40
0.7272902518
 40
0.7849760252
 40
0.841114997
 40
0.8956835653
 40
0.9486546476
 40
1.0
 40
1.0
 40
1.0
 40
1.0
 10
8.0646520972
 20
7.581429443
 30
0.0
 10
8.0620904471
 20
7.5777351483
 30
0.0
 10
8.0569513652
 20
7.5705354932
 30
0.0
 10
8.0490726074
 20
7.5601500514
 30
0.0
 10
8.0424255721
 20
7.5519280772
 30
0.0
 10
8.037104597
 20
7.5456740224
 30
0.0
 10
8.0331609168
 20
7.5411975367
 30
0.0
 10
8.0292274954
 20
7.5368913034
 30
0.0
 10
8.0253080117
 20
7.5327590195
 30
0.0
 10
8.021406101
 20
7.5288043105
 30
0.0
 10
8.0175253069
 20
7.5250307162
 30
0.0
 10
8.0136691266
 20
7.521441696
 30
0.0
 10
8.0098411369
 20
7.5180407927
 30
0.0
 10
8.0060452859
 20
7.514831732
 30
0.0
 10
8.0034987326
 20
7.512790632
 30
0.0
 10
8.0022313263
 20
7.5118040542
 30
0.0
 11
8.0646520972
 21
7.581429443
 31
0.0
 11
8.0568125383
 21
7.5704553782
 31
0.0
 11
8.0489226636
 21
7.5600655148
 31
0.0
 11
8.0410146933
 21
7.5502954923
 31
0.0
 11
8.0370630759
 21
7.5456525535
 31
0.0
 11
8.0331179976
 21
7.5411761708
 31
0.0
 11
8.029183178
 21
7.5368701963
 31
0.0
 11
8.0252622862
 21
7.5327383298
 31
0.0
 11
8.0213589763
 21
7.5287842284
 31
0.0
 11
8.0174768273
 21
7.5250114646
 31
0.0
 11
8.0136192898
 21
7.5214234667
 31
0.0
 11
8.0097898393
 21
7.5180236755
 31
0.0
 11
8.0059924254
 21
7.5148158681
 31
0.0
 11
8.0022313263
 21
7.5118040542
 31
0.0
  0
LINE
  5
31C
100
AcDbEntity
  8
0
100
AcDbLine
 62
2
  6
CONTINUOUS
 10
7.8791260555
 20
7.5937726803
 11
7.7647355124
 21
7.593866156
  0
SPLINE
  5
31D
100
AcDbEntity
  8
0
100
AcDbSpline
 62
2
  6
CONTINUOUS
 70
0
 71
3
 72
23
 73
19
 74
17
 42
0.0000001
 43
0.0000001
 44
0.0000000001
 12
-0.0522427668
 22
-0.0844640943
 32
0.0
 13
-0.0790085142
 23
-0.0601759469
 33
0.0
 40
0.0
 40
0.0
 40
0.0
 40
0.0
 40
0.0798814861
 40
0.1577552095
 40
0.2335185112
 40
0.3070860393
 40
0.3783984705
 40
0.4473996392
 40
0.514034777
 40
0.5782508221
 40
0.6399977528
 40
0.6992316734
 40
0.7559126817
 40
0.8100061087
 40
0.8614841185
 40
0.910324417
 40
0.9565029217
 40
1.0
 40
1.0
 40
1.0
 40
1.0
 10
7.7647355124
 20
7.593866156
 30
0.0
 10
7.7633444358
 20
7.5916171169
 30
0.0
 10
7.7605678886
 20
7.5871936363
 30
0.0
 10
7.7563678557
 20
7.5807031614
 30
0.0
 10
7.7521910984
 20
7.5744474849
 30
0.0
 10
7.7480441965
 20
7.5684340255
 30
0.0
 10
7.7439330555
 20
7.562668875
 30
0.0
 10
7.7398630786
 20
7.5571573717
 30
0.0
 10
7.7358395945
 20
7.5519048095
 30
0.0
 10
7.7318678937
 20
7.5469164587
 30
0.0
 10
7.7279531676
 20
7.542197465
 30
0.0
 10
7.7241005165
 20
7.5377528062
 30
0.0
 10
7.7203149296
 20
7.533587289
 30
0.0
 10
7.7166012462
 20
7.5297056466
 30
0.0
 10
7.7129641753
 20
7.5261126192
 30
0.0
 10
7.7094086076
 20
7.522813067
 30
0.0
 10
7.705939954
 20
7.5198122785
 30
0.0
 10
7.7036194786
 20
7.5179589363
 30
0.0
 10
7.7024739321
 20
7.5170864437
 30
0.0
 11
7.7647355124
 21
7.593866156
 31
0.0
 11
7.7605169575
 21
7.5871472845
 31
0.0
 11
7.7563142127
 21
7.580654807
 31
0.0
 11
7.7521349211
 21
7.5743977533
 31
0.0
 11
7.7479858611
 21
7.568383745
 31
0.0
 11
7.7438725017
 21
7.5626182714
 31
0.0
 11
7.7398002
 21
7.557106645
 31
0.0
 11
7.7357742849
 21
7.5518541897
 31
0.0
 11
7.7318000681
 21
7.5468662365
 31
0.0
 11
7.7278828049
 21
7.5421480362
 31
0.0
 11
7.7240275464
 21
7.5377045479
 31
0.0
 11
7.7202392942
 21
7.5335406625
 31
0.0
 11
7.7165229226
 21
7.529661213
 31
0.0
 11
7.7128831255
 21
7.5260709509
 31
0.0
 11
7.7093246502
 21
7.5227746842
 31
0.0
 11
7.7058529562
 21
7.5197778889
 31
0.0
 11
7.7024739321
 21
7.5170864437
 31
0.0
  0
SPLINE
  5
31E
100
AcDbEntity
  8
0
100
AcDbSpline
 62
2
  6
CONTINUOUS
 70
0
 71
3
 72
15
 73
11
 74
9
 42
0.0000001
 43
0.0000001
 44
0.0000000001
 12
-0.0230056164
 22
-0.0175219692
 32
0.0
 13
-0.0287592594
 23
-0.0030303119
 33
0.0
 40
0.0
 40
0.0
 40
0.0
 40
0.0
 40
0.1095520634
 40
0.2218744323
 40
0.3379481035
 40
0.4586134042
 40
0.5846232259
 40
0.7165679499
 40
0.8549092513
 40
1.0
 40
1.0
 40
1.0
 40
1.0
 10
7.7024739321
 20
7.5170864437
 30
0.0
 10
7.7016338278
 20
7.5164465877
 30
0.0
 10
7.6998621772
 20
7.5152406255
 30
0.0
 10
7.69700003
 20
7.5136757915
 30
0.0
 10
7.6939143836
 20
7.5123242641
 30
0.0
 10
7.6906096935
 20
7.5111722702
 30
0.0
 10
7.6870882055
 20
7.5102044767
 30
0.0
 10
7.6833507956
 20
7.5094054118
 30
0.0
 10
7.6793979164
 20
7.5087595417
 30
0.0
 10
7.6766851512
 20
7.5084287763
 30
0.0
 10
7.6752942504
 20
7.5082822196
 30
0.0
 11
7.7024739321
 21
7.5170864437
 31
0.0
 11
7.6998581028
 21
7.5152992239
 31
0.0
 11
7.6970113263
 21
7.5137350605
 31
0.0
 11
7.6939395901
 21
7.5123816615
 31
0.0
 11
7.6906471255
 21
7.5112258167
 31
0.0
 11
7.6871354027
 21
7.5102528729
 31
0.0
 11
7.6834056129
 21
7.5094480308
 31
0.0
 11
7.679458449
 21
7.5087962288
 31
0.0
 11
7.6752942504
 21
7.5082822196
 31
0.0
  0
LINE
  5
31F
100
AcDbEntity
  8
0
100
AcDbLine
 62
6
  6
CONTINUOUS
 10
7.7571673217
 20
7.4945719879
 11
7.6720327272
 21
7.4945582938
  0
SPLINE
  5
320
100
AcDbEntity
  8
0
100
AcDbSpline
 62
6
  6
CONTINUOUS
 70
0
 71
3
 72
23
 73
19
 74
17
 42
0.0000001
 43
0.0000001
 44
0.0000000001
 12
-0.0474213222
 22
-0.0412945213
 32
0.0
 13
-0.062880993
 23
-0.0
 33
0.0
 40
0.0
 40
0.0
 40
0.0
 40
0.0
 40
0.0426305364
 40
0.087123656
 40
0.1338283723
 40
0.1830400598
 40
0.2349964579
 40
0.2898685567
 40
0.3477709897
 40
0.4087699419
 40
0.4728817839
 40
0.5400859839
 40
0.6102931646
 40
0.683375048
 40
0.7591514836
 40
0.8373974629
 40
0.9178180275
 40
1.0
 40
1.0
 40
1.0
 40
1.0
 10
7.817925091
 20
7.506033205
 30
0.0
 10
7.8172512255
 20
7.5054464024
 30
0.0
 10
7.8158051282
 20
7.5043245657
 30
0.0
 10
7.8134246228
 20
7.5028334444
 30
0.0
 10
7.8107988972
 20
7.5014965576
 30
0.0
 10
7.8079339942
 20
7.5003068791
 30
0.0
 10
7.8048345851
 20
7.4992559623
 30
0.0
 10
7.801505074
 20
7.498335472
 30
0.0
 10
7.7979500928
 20
7.4975368951
 30
0.0
 10
7.7941747698
 20
7.4968519876
 30
0.0
 10
7.7901849673
 20
7.4962723603
 30
0.0
 10
7.7859880905
 20
7.4957898642
 30
0.0
 10
7.7815932116
 20
7.4953969793
 30
0.0
 10
7.7770117426
 20
7.4950863812
 30
0.0
 10
7.7722571004
 20
7.4948520315
 30
0.0
 10
7.7673456224
 20
7.494688879
 30
0.0
 10
7.76229813
 20
7.4945925494
 30
0.0
 10
7.758889883
 20
7.4945719879
 30
0.0
 10
7.7571673217
 20
7.4945719879
 30
0.0
 11
7.817925091
 21
7.506033205
 31
0.0
 11
7.8158112307
 21
7.5043847264
 31
0.0
 11
7.8134441494
 21
7.5028932667
 31
0.0
 11
7.8108304593
 21
7.5015539958
 31
0.0
 11
7.8079754698
 21
7.5003603291
 31
0.0
 11
7.8048836823
 21
7.4993045848
 31
0.0
 11
7.8015597615
 21
7.4983788992
 31
0.0
 11
7.7980086146
 21
7.4975751806
 31
0.0
 11
7.7942354902
 21
7.4968853017
 31
0.0
 11
7.7902466308
 21
7.4963010778
 31
0.0
 11
7.786048882
 21
7.4958144
 31
0.0
 11
7.7816520373
 21
7.4954177787
 31
0.0
 11
7.7770672975
 21
7.4951040486
 31
0.0
 11
7.7723082948
 21
7.4948671058
 31
0.0
 11
7.7673908872
 21
7.4947018124
 31
0.0
 11
7.7623349057
 21
7.4946041325
 31
0.0
 11
7.7571673217
 21
7.4945719879
 31
0.0
  0
SPLINE
  5
321
100
AcDbEntity
  8
0
100
AcDbSpline
 62
6
  6
CONTINUOUS
 70
0
 71
3
 72
23
 73
19
 74
17
 42
0.0000001
 43
0.0000001
 44
0.0000000001
 12
-0.0500781849
 22
-0.0817259293
 32
0.0
 13
-0.0722836365
 23
-0.0629446425
 33
0.0
 40
0.0
 40
0.0
 40
0.0
 40
0.0
 40
0.077369316
 40
0.1530599321
 40
0.2269819698
 40
0.2990577053
 40
0.3692273451
 40
0.4374332614
 40
0.5036180058
 40
0.5677248617
 40
0.6296992777
 40
0.6894908287
 40
0.7470517699
 40
0.8023385411
 40
0.8553128727
 40
0.9059397902
 40
0.9541810894
 40
1.0
 40
1.0
 40
1.0
 40
1.0
 10
7.8765550884
 20
7.581452279
 30
0.0
 10
7.8752635834
 20
7.5793445859
 30
0.0
 10
7.8726845274
 20
7.5751896161
 30
0.0
 10
7.8687859488
 20
7.5690745007
 30
0.0
 10
7.8649038021
 20
7.5631501173
 30
0.0
 10
7.8610431635
 20
7.5574232234
 30
0.0
 10
7.857208708
 20
7.5518996682
 30
0.0
 10
7.8534047868
 20
7.5465848379
 30
0.0
 10
7.8496357825
 20
7.5414840932
 30
0.0
 10
7.8459060961
 20
7.5366028025
 30
0.0
 10
7.8422200755
 20
7.531946269
 30
0.0
 10
7.8385820817
 20
7.5275196349
 30
0.0
 10
7.8349963842
 20
7.5233279232
 30
0.0
 10
7.8314671547
 20
7.5193760509
 30
0.0
 10
7.82799851
 20
7.5156688523
 30
0.0
 10
7.8245946859
 20
7.5122112869
 30
0.0
 10
7.8212603797
 20
7.5090085802
 30
0.0
 10
7.8190290768
 20
7.5069945566
 30
0.0
 10
7.817925091
 20
7.506033205
 30
0.0
 11
7.8765550884
 21
7.581452279
 31
0.0
 11
7.8726435018
 21
7.5751520657
 31
0.0
 11
7.8687427055
 21
7.569035165
 31
0.0
 11
7.8648584542
 21
7.563109425
 31
0.0
 11
7.8609959496
 21
7.5573817324
 31
0.0
 11
7.8571595694
 21
7.5518575399
 31
0.0
 11
7.8533536302
 21
7.5465421885
 31
0.0
 11
7.8495825135
 21
7.5414410719
 31
0.0
 11
7.8458506387
 21
7.5365596144
 31
0.0
 11
7.8421624019
 21
7.5319031765
 31
0.0
 11
7.8385221169
 21
7.5274768969
 31
0.0
 11
7.8349340777
 21
7.5232858644
 31
0.0
 11
7.83140248
 21
7.5193350538
 31
0.0
 11
7.8279313896
 21
7.5156292894
 31
0.0
 11
7.8245249239
 21
7.5121734352
 31
0.0
 11
7.8211878025
 21
7.5089728561
 31
0.0
 11
7.817925091
 21
7.506033205
 31
0.0
  0
LINE
  5
322
100
AcDbEntity
  8
0
100
AcDbLine
 62
2
  6
CONTINUOUS
 10
7.7235426455
 20
7.5937581009
 11
7.6037443519
 21
7.5938637619
  0
SPLINE
  5
323
100
AcDbEntity
  8
0
100
AcDbSpline
 62
2
  6
CONTINUOUS
 70
0
 71
3
 72
23
 73
19
 74
17
 42
0.0000001
 43
0.0000001
 44
0.0000000001
 12
-0.0419391091
 22
-0.0803218759
 32
0.0
 13
-0.0599944108
 23
-0.0679055468
 33
0.0
 40
0.0
 40
0.0
 40
0.0
 40
0.0
 40
0.0837836705
 40
0.165094046
 40
0.2438175423
 40
0.319858354
 40
0.39314751
 40
0.4636187265
 40
0.5312062666
 40
0.5958451329
 40
0.6574723242
 40
0.716029773
 40
0.7714618688
 40
0.8237160919
 40
0.8727441007
 40
0.9185004271
 40
0.9609352541
 40
1.0
 40
1.0
 40
1.0
 40
1.0
 10
7.6037443519
 20
7.5938637619
 30
0.0
 10
7.6025730811
 20
7.5916205413
 30
0.0
 10
7.600248665
 20
7.587208883
 30
0.0
 10
7.5967647171
 20
7.5807207899
 30
0.0
 10
7.5933396255
 20
7.5744668056
 30
0.0
 10
7.5899783182
 20
7.5684544072
 30
0.0
 10
7.586685138
 20
7.5626897962
 30
0.0
 10
7.5834640141
 20
7.557178416
 30
0.0
 10
7.5803188307
 20
7.5519256601
 30
0.0
 10
7.5772534514
 20
7.5469368992
 30
0.0
 10
7.5742716672
 20
7.5422173794
 30
0.0
 10
7.5713772009
 20
7.5377721846
 30
0.0
 10
7.5685736984
 20
7.5336062386
 30
0.0
 10
7.5658647207
 20
7.5297243817
 30
0.0
 10
7.5632537583
 20
7.52613143
 30
0.0
 10
7.5607444593
 20
7.5228323376
 30
0.0
 10
7.5583408243
 20
7.5198324521
 30
0.0
 10
7.5567450648
 20
7.5179574458
 30
0.0
 10
7.5559638427
 20
7.5170732081
 30
0.0
 11
7.6037443519
 21
7.5938637619
 31
0.0
 11
7.6002049214
 21
7.5871475386
 31
0.0
 11
7.5967186909
 21
7.5806568637
 31
0.0
 11
7.5932914691
 21
7.5744008453
 31
0.0
 11
7.5899283357
 21
7.568387187
 31
0.0
 11
7.5866332666
 21
7.5626214658
 31
0.0
 11
7.5834101446
 21
7.5571090824
 31
0.0
 11
7.5802628432
 21
7.5518554508
 31
0.0
 11
7.5771952298
 21
7.5468659931
 31
0.0
 11
7.5742111273
 21
7.5421460513
 31
0.0
 11
7.5713141961
 21
7.537700676
 31
0.0
 11
7.5685080579
 21
7.5335348494
 31
0.0
 11
7.5657962568
 21
7.5296534945
 31
0.0
 11
7.5631822271
 21
7.5260614499
 31
0.0
 11
7.5606694425
 21
7.5227636111
 31
0.0
 11
7.558261885
 21
7.5197655416
 31
0.0
 11
7.5559638427
 21
7.5170732081
 31
0.0
  0
SPLINE
  5
324
100
AcDbEntity
  8
0
100
AcDbSpline
 62
2
  6
CONTINUOUS
 70
0
 71
3
 72
18
 73
14
 74
12
 42
0.0000001
 43
0.0000001
 44
0.0000000001
 12
-0.0154327046
 22
-0.0174677312
 32
0.0
 13
-0.0231282716
 23
-0.0028936238
 33
0.0
 40
0.0
 40
0.0
 40
0.0
 40
0.0
 40
0.0547971845
 40
0.1096499778
 40
0.1648165293
 40
0.220539335
 40
0.2770428474
 40
0.334533573
 40
0.4532357087
 40
0.5781175801
 40
0.7103076313
 40
0.8507026457
 40
1.0
 40
1.0
 40
1.0
 40
1.0
 10
7.5559638427
 20
7.5170732081
 30
0.0
 10
7.5556819531
 20
7.5167541473
 30
0.0
 10
7.5550966436
 20
7.5161341217
 30
0.0
 10
7.5541581855
 20
7.5152616234
 30
0.0
 10
7.5531605865
 20
7.5144459848
 30
0.0
 10
7.5521044323
 20
7.513685705
 30
0.0
 10
7.5509901931
 20
7.5129791729
 30
0.0
 10
7.5494110096
 20
7.5120973005
 30
0.0
 10
7.5472804802
 20
7.5111213428
 30
0.0
 10
7.5445233524
 20
7.5101511623
 30
0.0
 10
7.5415375443
 20
7.5093527378
 30
0.0
 10
7.5383215661
 20
7.5087099604
 30
0.0
 10
7.5360934385
 20
7.5083847834
 30
0.0
 10
7.5349424419
 20
7.5082407799
 30
0.0
 11
7.5559638427
 21
7.5170732081
 31
0.0
 11
7.5550871921
 21
7.5161443175
 31
0.0
 11
7.5541510832
 21
7.515273475
 31
0.0
 11
7.5531559632
 21
7.5144591304
 31
0.0
 11
7.5521022796
 21
7.5136997338
 31
0.0
 11
7.5509904798
 21
7.5129937349
 31
0.0
 11
7.5498209788
 21
7.5123395634
 31
0.0
 11
7.5473091256
 21
7.511179539
 31
0.0
 11
7.5445663637
 21
7.5102047944
 31
0.0
 11
7.5415920757
 21
7.509400323
 31
0.0
 11
7.5383847718
 21
7.5087508151
 31
0.0
 11
7.5349424419
 21
7.5082407799
 31
0.0
  0
LINE
  5
325
100
AcDbEntity
  8
0
100
AcDbLine
 62
6
  6
CONTINUOUS
 10
7.606852204
 20
7.4945719879
 11
7.5307165013
 21
7.4945598674
  0
SPLINE
  5
326
100
AcDbEntity
  8
0
100
AcDbSpline
 62
6
  6
CONTINUOUS
 70
0
 71
3
 72
9
 73
5
 74
3
 42
0.0000001
 43
0.0000001
 44
0.0000000001
 12
-0.0030218562
 22
-0.0041436763
 32
0.0
 13
-0.0037597627
 23
-0.0034879583
 33
0.0
 40
0.0
 40
0.0
 40
0.0
 40
0.0
 40
0.4984570153
 40
1.0
 40
1.0
 40
1.0
 40
1.0
 10
7.678590093
 20
7.5118040542
 30
0.0
 10
7.6780880045
 20
7.5111155727
 30
0.0
 10
7.6770117014
 20
7.5097834142
 30
0.0
 10
7.6758114608
 20
7.5085620769
 30
0.0
 10
7.6751828999
 20
7.5079789566
 30
0.0
 11
7.678590093
 21
7.5118040542
 31
0.0
 11
7.6769842294
 21
7.5098150598
 31
0.0
 11
7.6751828999
 21
7.5079789566
 31
0.0
  0
SPLINE
  5
327
100
AcDbEntity
  8
0
100
AcDbSpline
 62
6
  6
CONTINUOUS
 70
0
 71
3
 72
24
 73
20
 74
18
 42
0.0000001
 43
0.0000001
 44
0.0000000001
 12
-0.0520307618
 22
-0.0482693034
 32
0.0
 13
-0.0709727118
 23
0.0
 33
0.0
 40
0.0
 40
0.0
 40
0.0
 40
0.0
 40
0.0217619688
 40
0.0437851278
 40
0.0888596869
 40
0.1357108042
 40
0.1847304721
 40
0.2362376405
 40
0.2904812966
 40
0.3476522369
 40
0.407889165
 40
0.4712753578
 40
0.5378532006
 40
0.6076046549
 40
0.6804655351
 40
0.7563268444
 40
0.835031273
 40
0.9163640174
 40
1.0
 40
1.0
 40
1.0
 40
1.0
 10
7.6751828999
 20
7.5079789566
 30
0.0
 10
7.6748054693
 20
7.5076288115
 30
0.0
 10
7.6740263798
 20
7.5069452206
 30
0.0
 10
7.6723738502
 20
7.5056445513
 30
0.0
 10
7.6701288203
 20
7.5041436222
 30
0.0
 10
7.6671936123
 20
7.5025530153
 30
0.0
 10
7.6639993009
 20
7.5011470213
 30
0.0
 10
7.6605488689
 20
7.4999139164
 30
0.0
 10
7.6568444699
 20
7.4988418687
 30
0.0
 10
7.6528882888
 20
7.4979188509
 30
0.0
 10
7.648682745
 20
7.4971330196
 30
0.0
 10
7.6442308358
 20
7.4964729673
 30
0.0
 10
7.6395369881
 20
7.4959275068
 30
0.0
 10
7.6346072677
 20
7.4954864446
 30
0.0
 10
7.6294499733
 20
7.4951401212
 30
0.0
 10
7.6240756262
 20
7.4948802036
 30
0.0
 10
7.6184975368
 20
7.494700248
 30
0.0
 10
7.6127336355
 20
7.4945943331
 30
0.0
 10
7.6088308282
 20
7.4945719879
 30
0.0
 10
7.606852204
 20
7.4945719879
 30
0.0
 11
7.6751828999
 21
7.5079789566
 31
0.0
 11
7.6740223355
 21
7.5069598447
 31
0.0
 11
7.672794551
 21
7.505992555
 31
0.0
 11
7.6701390006
 21
7.5042087218
 31
0.0
 11
7.6672193313
 21
7.5026174459
 31
0.0
 11
7.6640384057
 21
7.501208346
 31
0.0
 11
7.6605987515
 21
7.4999705191
 31
0.0
 11
7.6569028294
 21
7.4988928973
 31
0.0
 11
7.6529530019
 21
7.4979640318
 31
0.0
 11
7.6487517508
 21
7.4971724275
 31
0.0
 11
7.6443025627
 21
7.4965068924
 31
0.0
 11
7.639609526
 21
7.495956423
 31
0.0
 11
7.6346791691
 21
7.4955108508
 31
0.0
 11
7.6295199055
 21
7.4951606667
 31
0.0
 11
7.6241422532
 21
7.4948976019
 31
0.0
 11
7.6185593733
 21
7.494714956
 31
0.0
 11
7.6127879713
 21
7.4946073321
 31
0.0
 11
7.606852204
 21
7.4945719879
 31
0.0
  0
SPLINE
  5
328
100
AcDbEntity
  8
0
100
AcDbSpline
 62
6
  6
CONTINUOUS
 70
0
 71
3
 72
20
 73
16
 74
14
 42
0.0000001
 43
0.0000001
 44
0.0000000001
 12
-0.0372600866
 22
-0.0718548878
 32
0.0
 13
-0.047692545
 23
-0.0653977073
 33
0.0
 40
0.0
 40
0.0
 40
0.0
 40
0.0
 40
0.1531943568
 40
0.2992034762
 40
0.4375405679
 40
0.5037021022
 40
0.5677889977
 40
0.6297498089
 40
0.6895355281
 40
0.7470982311
 40
0.8023918485
 40
0.8553731526
 40
0.905999665
 40
0.9542248473
 40
1.0
 40
1.0
 40
1.0
 40
1.0
 10
7.7197344072
 20
7.581429443
 30
0.0
 10
7.7178317288
 20
7.5777601885
 30
0.0
 10
7.7140752463
 20
7.5706145965
 30
0.0
 10
7.7084526098
 20
7.5602342897
 30
0.0
 10
7.7038357142
 20
7.5519806561
 30
0.0
 10
7.7002254357
 20
7.5456974303
 30
0.0
 10
7.6976057024
 20
7.5412218471
 30
0.0
 10
7.6950359085
 20
7.5369165648
 30
0.0
 10
7.6925183877
 20
7.5327853061
 30
0.0
 10
7.6900554343
 20
7.5288317006
 30
0.0
 10
7.687649285
 20
7.5250592886
 30
0.0
 10
7.6853021435
 20
7.5214715324
 30
0.0
 10
7.6830162595
 20
7.518071963
 30
0.0
 10
7.6807940704
 20
7.514864301
 30
0.0
 10
7.6793178042
 20
7.5128019175
 30
0.0
 10
7.678590093
 20
7.5118040542
 30
0.0
 11
7.7197344072
 21
7.581429443
 31
0.0
 11
7.7139618497
 21
7.5704553782
 31
0.0
 11
7.7083299178
 21
7.5600655148
 31
0.0
 11
7.7028597682
 21
7.5502954923
 31
0.0
 11
7.7001912383
 21
7.5456525535
 31
0.0
 11
7.6975702441
 21
7.5411761708
 31
0.0
 11
7.6949991569
 21
7.5368701963
 31
0.0
 11
7.6924802884
 21
7.5327383298
 31
0.0
 11
7.6900159337
 21
7.5287842284
 31
0.0
 11
7.6876083377
 21
7.5250114646
 31
0.0
 11
7.685259661
 21
7.5214234667
 31
0.0
 11
7.6829720761
 21
7.5180236755
 31
0.0
 11
7.6807480157
 21
7.5148158681
 31
0.0
 11
7.678590093
 21
7.5118040542
 31
0.0
  0
LINE
  5
329
100
AcDbEntity
  8
0
100
AcDbLine
 62
2
  6
CONTINUOUS
 10
7.5458961704
 20
7.5937726803
 11
7.4403026627
 21
7.593866156
  0
SPLINE
  5
32A
100
AcDbEntity
  8
0
100
AcDbSpline
 62
2
  6
CONTINUOUS
 70
0
 71
3
 72
17
 73
13
 74
11
 42
0.0000001
 43
0.0000001
 44
0.0000000001
 12
-0.0322006202
 22
-0.0769634219
 32
0.0
 13
-0.0337507036
 23
-0.0762963843
 33
0.0
 40
0.0
 40
0.0
 40
0.0
 40
0.0
 40
0.1716447834
 40
0.3312430214
 40
0.4779806835
 40
0.6112932249
 40
0.730666274
 40
0.8355971483
 40
0.8824881126
 40
0.9255684264
 40
0.9647637981
 40
1.0
 40
1.0
 40
1.0
 40
1.0
 10
7.4403026627
 20
7.593866156
 30
0.0
 10
7.4384603066
 20
7.5894626994
 30
0.0
 10
7.4349004534
 20
7.5809666917
 30
0.0
 10
7.4297489295
 20
7.5687131938
 30
0.0
 10
7.4249951269
 20
7.5574488705
 30
0.0
 10
7.420659929
 20
7.547222074
 30
0.0
 10
7.4167608636
 20
7.5380731839
 30
0.0
 10
7.4137874217
 20
7.5311423159
 30
0.0
 10
7.4116381485
 20
7.5261665549
 30
0.0
 10
7.4102075292
 20
7.5228716924
 30
0.0
 10
7.408899237
 20
7.5198770696
 30
0.0
 10
7.4080653466
 20
7.5179825753
 30
0.0
 10
7.4076689311
 20
7.5170864437
 30
0.0
 11
7.4403026627
 21
7.593866156
 31
0.0
 11
7.4347682565
 21
7.5806588585
 31
0.0
 11
7.4296074076
 21
7.568384728
 31
0.0
 11
7.4248468194
 21
7.5571062326
 31
0.0
 11
7.4205051687
 21
7.5468666414
 31
0.0
 11
7.4165995073
 21
7.5377053739
 31
0.0
 11
7.413146474
 21
7.5296609787
 31
0.0
 11
7.411594946
 21
7.526069782
 31
0.0
 11
7.4101632032
 21
7.5227731578
 31
0.0
 11
7.4088537101
 21
7.5197768103
 31
0.0
 11
7.4076689311
 21
7.5170864437
 31
0.0
  0
LINE
  5
32B
100
AcDbEntity
  8
0
100
AcDbLine
 62
6
  6
CONTINUOUS
 10
7.463843684
 20
7.4945719879
 11
7.3876451457
 21
7.4945582938
  0
LINE
  5
32C
100
AcDbEntity
  8
0
100
AcDbLine
 62
2
  6
CONTINUOUS
 10
7.3931758466
 20
7.5082400424
 11
7.4040464119
 21
7.5082416593
  0
SPLINE
  5
32D
100
AcDbEntity
  8
0
100
AcDbSpline
 62
6
  6
CONTINUOUS
 70
0
 71
3
 72
32
 73
28
 74
26
 42
0.0000001
 43
0.0000001
 44
0.0000000001
 12
-0.019433609
 22
-0.0445030025
 32
0.0
 13
-0.0485611201
 23
-0.0
 33
0.0
 40
0.0
 40
0.0
 40
0.0
 40
0.0
 40
0.0193273735
 40
0.0385712682
 40
0.0578693938
 40
0.0773562627
 40
0.0971606116
 40
0.1174061693
 40
0.1596600619
 40
0.1818937683
 40
0.2049744347
 40
0.2289765849
 40
0.2539652042
 40
0.279996489
 40
0.3071188539
 40
0.3353731537
 40
0.364792503
 40
0.3954045833
 40
0.427232636
 40
0.4602956395
 40
0.4946030094
 40
0.5669543776
 40
0.6442769516
 40
0.7264719655
 40
0.813368763
 40
0.9046931347
 40
1.0
 40
1.0
 40
1.0
 40
1.0
 10
7.5089476442
 20
7.506033205
 30
0.0
 10
7.508822444
 20
7.5057464962
 30
0.0
 10
7.5085493379
 20
7.5051841293
 30
0.0
 10
7.5080718705
 20
7.5043770508
 30
0.0
 10
7.5075285442
 20
7.5036095364
 30
0.0
 10
7.5069196454
 20
7.5028811559
 30
0.0
 10
7.5062453331
 20
7.5021912887
 30
0.0
 10
7.5052453185
 20
7.5013095122
 30
0.0
 10
7.5041222774
 20
7.5005140277
 30
0.0
 10
7.502897113
 20
7.4998002672
 30
0.0
 10
7.501897434
 20
7.4992894638
 30
0.0
 10
7.500832783
 20
7.4988114229
 30
0.0
 10
7.4997030137
 20
7.4983649976
 30
0.0
 10
7.4985080899
 20
7.4979491491
 30
0.0
 10
7.4972479464
 20
7.4975628268
 30
0.0
 10
7.4959225703
 20
7.497204996
 30
0.0
 10
7.4945320003
 20
7.4968745965
 30
0.0
 10
7.4930763056
 20
7.4965705901
 30
0.0
 10
7.4915555692
 20
7.4962919478
 30
0.0
 10
7.4899699837
 20
7.4960376441
 30
0.0
 10
7.4877300013
 20
7.495724199
 30
0.0
 10
7.4847698305
 20
7.4953924078
 30
0.0
 10
7.4810289285
 20
7.4950830225
 30
0.0
 10
7.4770467128
 20
7.4948497218
 30
0.0
 10
7.4728342364
 20
7.4946874551
 30
0.0
 10
7.4684074801
 20
7.4945918962
 30
0.0
 10
7.46538642
 20
7.4945719879
 30
0.0
 10
7.463843684
 20
7.4945719879
 30
0.0
 11
7.5089476442
 21
7.506033205
 31
0.0
 11
7.5085374137
 21
7.5051890463
 31
0.0
 11
7.5080616309
 21
7.5043847264
 31
0.0
 11
7.5075204249
 21
7.5036196612
 31
0.0
 11
7.5069139246
 21
7.5028932667
 31
0.0
 11
7.5062422577
 21
7.502204956
 31
0.0
 11
7.5055054886
 21
7.5015539958
 31
0.0
 11
7.5038365253
 21
7.5003603291
 31
0.0
 11
7.5029042612
 21
7.499815699
 31
0.0
 11
7.501906761
 21
7.4993045848
 31
0.0
 11
7.5008439803
 21
7.4988259894
 31
0.0
 11
7.49971587
 21
7.4983788992
 31
0.0
 11
7.4985223811
 21
7.4979623008
 31
0.0
 11
7.4972634648
 21
7.4975751806
 31
0.0
 11
7.4959391107
 21
7.497216522
 31
0.0
 11
7.4945494001
 21
7.4968853017
 31
0.0
 11
7.4930944278
 21
7.4965804951
 31
0.0
 11
7.4915742885
 21
7.4963010778
 31
0.0
 11
7.4899890987
 21
7.4960460303
 31
0.0
 11
7.4883392751
 21
7.4958144
 31
0.0
 11
7.48484827
 21
7.4954177787
 31
0.0
 11
7.4811065286
 21
7.4951040486
 31
0.0
 11
7.4771220856
 21
7.4948671058
 31
0.0
 11
7.4729055184
 21
7.4947018124
 31
0.0
 11
7.4684717805
 21
7.4946041325
 31
0.0
 11
7.463843684
 21
7.4945719879
 31
0.0
  0
SPLINE
  5
32E
100
AcDbEntity
  8
0
100
AcDbSpline
 62
6
  6
CONTINUOUS
 70
0
 71
3
 72
15
 73
11
 74
9
 42
0.0000001
 43
0.0000001
 44
0.0000000001
 12
-0.0316038944
 22
-0.075573111
 32
0.0
 13
-0.0327815361
 23
-0.0750697818
 33
0.0
 40
0.0
 40
0.0
 40
0.0
 40
0.0
 40
0.1643391205
 40
0.318638621
 40
0.4622330247
 40
0.5945511163
 40
0.7150242507
 40
0.8231085315
 40
0.9182823164
 40
1.0
 40
1.0
 40
1.0
 40
1.0
 10
7.5409157795
 20
7.581452279
 30
0.0
 10
7.5391845275
 20
7.5773124061
 30
0.0
 10
7.5358241302
 20
7.5692870973
 30
0.0
 10
7.530937302
 20
7.5576502461
 30
0.0
 10
7.5263763332
 20
7.5468248638
 30
0.0
 10
7.5221605405
 20
7.5368563233
 30
0.0
 10
7.518307969
 20
7.5277869355
 30
0.0
 10
7.5148362077
 20
7.5196577402
 30
0.0
 10
7.5117626125
 20
7.5125092094
 30
0.0
 10
7.5098405879
 20
7.5080780478
 30
0.0
 10
7.5089476442
 20
7.506033205
 30
0.0
 11
7.5409157795
 21
7.581452279
 31
0.0
 11
7.5357160382
 21
7.569035165
 31
0.0
 11
7.5308217709
 21
7.5573817324
 31
0.0
 11
7.5262542515
 21
7.5465421885
 31
0.0
 11
7.5220317893
 21
7.5365596144
 31
0.0
 11
7.518172625
 21
7.5274768969
 31
0.0
 11
7.5146942324
 21
7.5193350538
 31
0.0
 11
7.5116133808
 21
7.5121734352
 31
0.0
 11
7.5089476442
 21
7.506033205
 31
0.0
  0
LINE
  5
32F
100
AcDbEntity
  8
0
100
AcDbLine
 62
2
  6
CONTINUOUS
 10
7.4029156965
 20
7.5937581009
 11
7.2960783936
 21
7.5938637619
  0
SPLINE
  5
330
100
AcDbEntity
  8
0
100
AcDbSpline
 62
6
  6
CONTINUOUS
 70
0
 71
3
 72
25
 73
21
 74
19
 42
0.0000001
 43
0.0000001
 44
0.0000000001
 12
0.0022058661
 22
0.0787979986
 32
0.0
 13
0.0228378791
 23
0.0754481392
 33
0.0
 40
0.0
 40
0.0
 40
0.0
 40
0.0
 40
0.0178119496
 40
0.0365272503
 40
0.0561447204
 40
0.0766623071
 40
0.1203851966
 40
0.1676722456
 40
0.2184985546
 40
0.2728349336
 40
0.3306470886
 40
0.3918968411
 40
0.4565432104
 40
0.5245401486
 40
0.5958392813
 40
0.6703913373
 40
0.7481464331
 40
0.829052279
 40
0.9130337245
 40
1.0
 40
1.0
 40
1.0
 40
1.0
 10
7.2730386164
 20
7.504776152
 30
0.0
 10
7.2730517134
 20
7.5052440007
 30
0.0
 10
7.2730891605
 20
7.5062031509
 30
0.0
 10
7.2731753119
 20
7.5076759858
 30
0.0
 10
7.2732927624
 20
7.5092179639
 30
0.0
 10
7.2734953756
 20
7.511412183
 30
0.0
 10
7.2738301834
 20
7.5143239292
 30
0.0
 10
7.2743475151
 20
7.5180150894
 30
0.0
 10
7.2749881868
 20
7.521969611
 30
0.0
 10
7.2757517378
 20
7.5261835835
 30
0.0
 10
7.2766377531
 20
7.5306530554
 30
0.0
 10
7.2776457988
 20
7.5353739586
 30
0.0
 10
7.2787753956
 20
7.5403420829
 30
0.0
 10
7.2800259987
 20
7.5455530828
 30
0.0
 10
7.2813970325
 20
7.5510024958
 30
0.0
 10
7.2828879157
 20
7.556685836
 30
0.0
 10
7.2844980596
 20
7.5625985756
 30
0.0
 10
7.2862267041
 20
7.5687355809
 30
0.0
 10
7.2880727316
 20
7.5750907384
 30
0.0
 10
7.2893587511
 20
7.5793946326
 30
0.0
 10
7.2900207928
 20
7.5815817805
 30
0.0
 11
7.2730386164
 21
7.504776152
 31
0.0
 11
7.2730926577
 21
7.5061792075
 31
0.0
 11
7.2731781426
 21
7.5076520347
 31
0.0
 11
7.2732949971
 21
7.5091940363
 31
0.0
 11
7.2734431474
 21
7.5108046149
 31
0.0
 11
7.2738330399
 21
7.5142291169
 31
0.0
 11
7.2743472577
 21
7.5179210631
 31
0.0
 11
7.2749852901
 21
7.5218765152
 31
0.0
 11
7.2757466323
 21
7.526091584
 31
0.0
 11
7.2766307849
 21
7.5305622611
 31
0.0
 11
7.2776372526
 21
7.5352844436
 31
0.0
 11
7.2787655249
 21
7.5402539727
 31
0.0
 11
7.2800150136
 21
7.5454664272
 31
0.0
 11
7.2813851068
 21
7.5509173058
 31
0.0
 11
7.2828751984
 21
7.5566021138
 31
0.0
 11
7.2844846921
 21
7.562516369
 31
0.0
 11
7.2862129514
 21
7.5686554556
 31
0.0
 11
7.288058821
 21
7.5750130742
 31
0.0
 11
7.2900207928
 21
7.5815817805
 31
0.0
  0
LINE
  5
331
100
AcDbEntity
  8
0
100
AcDbLine
 62
6
  6
CONTINUOUS
 10
7.3303970913
 20
7.4945719879
 11
7.2649024581
 21
7.4945598674
  0
SPLINE
  5
332
100
AcDbEntity
  8
0
100
AcDbSpline
 62
2
  6
CONTINUOUS
 70
0
 71
3
 72
21
 73
17
 74
15
 42
0.0000001
 43
0.0000001
 44
0.0000000001
 12
0.0081882973
 22
0.0717754344
 32
0.0
 13
0.021784458
 23
0.068878143
 33
0.0
 40
0.0
 40
0.0
 40
0.0
 40
0.0
 40
0.040597853
 40
0.0843694762
 40
0.1312649668
 40
0.1812305234
 40
0.2342094712
 40
0.2901435739
 40
0.3489804482
 40
0.4106715185
 40
0.4751672597
 40
0.542417308
 40
0.612370515
 40
0.6849636697
 40
0.8377251198
 40
1.0
 40
1.0
 40
1.0
 40
1.0
 10
7.3854455227
 20
7.5237524182
 30
0.0
 10
7.3855563318
 20
7.5247237277
 30
0.0
 10
7.3858147472
 20
7.5267391242
 30
0.0
 10
7.3862880126
 20
7.5298646131
 30
0.0
 10
7.3868607666
 20
7.5332025064
 30
0.0
 10
7.3875320688
 20
7.5367478628
 30
0.0
 10
7.3883009748
 20
7.5404957845
 30
0.0
 10
7.3891665779
 20
7.5444415394
 30
0.0
 10
7.3901279696
 20
7.5485807174
 30
0.0
 10
7.3911842553
 20
7.5529092135
 30
0.0
 10
7.3923345705
 20
7.5574230419
 30
0.0
 10
7.3935780453
 20
7.5621182145
 30
0.0
 10
7.3949137284
 20
7.5669904756
 30
0.0
 10
7.3968491196
 20
7.5738332146
 30
0.0
 10
7.3994923636
 20
7.5827857409
 30
0.0
 10
7.4017373397
 20
7.5900323701
 30
0.0
 10
7.4029156965
 20
7.5937581009
 30
0.0
 11
7.3854455227
 21
7.5237524182
 31
0.0
 11
7.3858156246
 21
7.5266618017
 31
0.0
 11
7.3862866241
 21
7.5297886325
 31
0.0
 11
7.3868575137
 21
7.5331279613
 31
0.0
 11
7.3875272857
 21
7.5366748388
 31
0.0
 11
7.3882949326
 21
7.5404243154
 31
0.0
 11
7.389159452
 21
7.5443714849
 31
0.0
 11
7.3901199093
 21
7.5485119816
 31
0.0
 11
7.3911754157
 21
7.5528418091
 31
0.0
 11
7.3923250833
 21
7.5573569778
 31
0.0
 11
7.3935680244
 21
7.5620534983
 31
0.0
 11
7.3949033488
 21
7.5669273738
 31
0.0
 11
7.3963299131
 21
7.5719738146
 31
0.0
 11
7.399450239
 21
7.5825591296
 31
0.0
 11
7.4029156965
 21
7.5937581009
 31
0.0
  0
LINE
  5
333
100
AcDbEntity
  8
0
100
AcDbLine
 62
2
  6
CONTINUOUS
 10
7.2456075381
 20
7.5937726803
 11
7.1554458944
 21
7.593866156
  0
SPLINE
  5
334
100
AcDbEntity
  8
0
100
AcDbSpline
 62
6
  6
CONTINUOUS
 70
0
 71
3
 72
23
 73
19
 74
17
 42
0.0000001
 43
0.0000001
 44
0.0000000001
 12
-0.0279359242
 22
0.0723465557
 32
0.0
 13
0.0138170283
 23
0.0763120548
 33
0.0
 40
0.0
 40
0.0
 40
0.0
 40
0.0
 40
0.0391980608
 40
0.081290545
 40
0.1263799986
 40
0.1745418406
 40
0.2258347055
 40
0.2802993455
 40
0.3379605275
 40
0.3988305589
 40
0.4629121957
 40
0.5301977594
 40
0.600672877
 40
0.6743187185
 40
0.7511129472
 40
0.8310285019
 40
0.9140137532
 40
1.0
 40
1.0
 40
1.0
 40
1.0
 10
7.1474273258
 20
7.5047898848
 30
0.0
 10
7.1470623144
 20
7.5057351664
 30
0.0
 10
7.1463835949
 20
7.5077262845
 30
0.0
 10
7.1455370649
 20
7.5108837253
 30
0.0
 10
7.1448272611
 20
7.5143115096
 30
0.0
 10
7.144254985
 20
7.5180054189
 30
0.0
 10
7.1438208816
 20
7.5219617916
 30
0.0
 10
7.1435256309
 20
7.5261769577
 30
0.0
 10
7.1433700087
 20
7.5306471789
 30
0.0
 10
7.1433548743
 20
7.5353685765
 30
0.0
 10
7.1434810765
 20
7.5403371019
 30
0.0
 10
7.1437494137
 20
7.5455485508
 30
0.0
 10
7.1441606846
 20
7.5509985897
 30
0.0
 10
7.1447156963
 20
7.5566828502
 30
0.0
 10
7.1454152671
 20
7.5625969112
 30
0.0
 10
7.1462601351
 20
7.56873574
 30
0.0
 10
7.1472507359
 20
7.5750932979
 30
0.0
 10
7.1479954801
 20
7.5793976438
 30
0.0
 10
7.1483915049
 20
7.5815849062
 30
0.0
 11
7.1474273258
 21
7.5047898848
 31
0.0
 11
7.1464389674
 21
7.5076646479
 31
0.0
 11
7.1455866855
 21
7.5108158164
 31
0.0
 11
7.1448713955
 21
7.514238691
 31
0.0
 11
7.1442939424
 21
7.5179288699
 31
0.0
 11
7.1438550431
 21
7.5218824893
 31
0.0
 11
7.1435554054
 21
7.5260957344
 31
0.0
 11
7.1433958036
 21
7.5305646727
 31
0.0
 11
7.1433770648
 21
7.5352852781
 31
0.0
 11
7.1435000091
 21
7.5402534688
 31
0.0
 11
7.1437654163
 21
7.5454649001
 31
0.0
 11
7.1441740539
 21
7.5509151467
 31
0.0
 11
7.1447266991
 21
7.5565997893
 31
0.0
 11
7.1454241467
 21
7.5625144191
 31
0.0
 11
7.1462671674
 21
7.5686544934
 31
0.0
 11
7.1472562102
 21
7.5750137817
 31
0.0
 11
7.1483915049
 21
7.5815849062
 31
0.0
  0
LINE
  5
335
100
AcDbEntity
  8
0
100
AcDbLine
 62
6
  6
CONTINUOUS
 10
7.2086169587
 20
7.4945719879
 11
7.146142311
 21
7.4945582938
  0
SPLINE
  5
336
100
AcDbEntity
  8
0
100
AcDbSpline
 62
2
  6
CONTINUOUS
 70
0
 71
3
 72
26
 73
22
 74
20
 42
0.0000001
 43
0.0000001
 44
0.0000000001
 12
-0.0257558687
 22
0.0718337499
 32
0.0
 13
0.0155415371
 23
0.0747122012
 33
0.0
 40
0.0
 40
0.0
 40
0.0
 40
0.0
 40
0.0186729318
 40
0.0381191827
 40
0.0583543222
 40
0.0793906867
 40
0.1012378466
 40
0.1239030983
 40
0.171708353
 40
0.2228453165
 40
0.2773275728
 40
0.3351505973
 40
0.3962963361
 40
0.4607363647
 40
0.5284314516
 40
0.5993356512
 40
0.6733987641
 40
0.7505674916
 40
0.8307835061
 40
0.9139618653
 40
1.0
 40
1.0
 40
1.0
 40
1.0
 10
7.2422519832
 20
7.5182527065
 30
0.0
 10
7.2420916707
 20
7.5186998221
 30
0.0
 10
7.2417839104
 20
7.5196196594
 30
0.0
 10
7.2413673494
 20
7.5210447076
 30
0.0
 10
7.2409866472
 20
7.5225418538
 30
0.0
 10
7.2406418566
 20
7.5241102217
 30
0.0
 10
7.2403330035
 20
7.5257489863
 30
0.0
 10
7.2399626237
 20
7.528068153
 30
0.0
 10
7.23959536
 20
7.5311409782
 30
0.0
 10
7.2393056951
 20
7.5350339754
 30
0.0
 10
7.2391597079
 20
7.5391898728
 30
0.0
 10
7.239157462
 20
7.5436027534
 30
0.0
 10
7.2392990752
 20
7.5482666714
 30
0.0
 10
7.2395846423
 20
7.5531754611
 30
0.0
 10
7.2400141063
 20
7.5583228186
 30
0.0
 10
7.2405874156
 20
7.5637023216
 30
0.0
 10
7.2413044981
 20
7.5693075396
 30
0.0
 10
7.2421652315
 20
7.57513201
 30
0.0
 10
7.2431694049
 20
7.581168622
 30
0.0
 10
7.2443164036
 20
7.5874092231
 30
0.0
 10
7.2451618165
 20
7.5916299809
 30
0.0
 10
7.2456075381
 20
7.5937726803
 30
0.0
 11
7.2422519832
 21
7.5182527065
 31
0.0
 11
7.2417987078
 21
7.5196036519
 31
0.0
 11
7.241381257
 21
7.5210276997
 31
0.0
 11
7.2409996818
 21
7.5225239872
 31
0.0
 11
7.2406540331
 21
7.5240916515
 31
0.0
 11
7.2403443619
 21
7.5257298299
 31
0.0
 11
7.2400707168
 21
7.5274376663
 31
0.0
 11
7.2396315705
 21
7.5310592313
 31
0.0
 11
7.2393366407
 21
7.5349504111
 31
0.0
 11
7.2391859577
 21
7.539105305
 31
0.0
 11
7.2391795685
 21
7.5435178649
 31
0.0
 11
7.2393175307
 21
7.5481819509
 31
0.0
 11
7.2395998738
 21
7.5530913571
 31
0.0
 11
7.2400265183
 21
7.5582396259
 31
0.0
 11
7.2405973581
 21
7.5636202391
 31
0.0
 11
7.2413122741
 21
7.569226712
 31
0.0
 11
7.2421711283
 21
7.5750526112
 31
0.0
 11
7.2431737436
 21
7.5810913529
 31
0.0
 11
7.2443195099
 21
7.5873345562
 31
0.0
 11
7.2456075381
 21
7.5937726803
 31
0.0
  0
LINE
  5
337
100
AcDbEntity
  8
0
100
AcDbLine
 62
2
  6
CONTINUOUS
 10
7.1242139894
 20
7.5937581009
 11
7.037050658
 21
7.5938637619
  0
SPLINE
  5
338
100
AcDbEntity
  8
0
100
AcDbSpline
 62
6
  6
CONTINUOUS
 70
0
 71
3
 72
22
 73
18
 74
16
 42
0.0000001
 43
0.0000001
 44
0.0000000001
 12
-0.0494484086
 22
0.0625730531
 32
0.0
 13
0.0046296785
 23
0.0796184536
 33
0.0
 40
0.0
 40
0.0
 40
0.0
 40
0.0
 40
0.0909643866
 40
0.1394626618
 40
0.1901607643
 40
0.2431913845
 40
0.2986647524
 40
0.3566694364
 40
0.4172759001
 40
0.4805399553
 40
0.5465024302
 40
0.6151932491
 40
0.6866341193
 40
0.7608399727
 40
0.837818303
 40
0.9175506346
 40
1.0
 40
1.0
 40
1.0
 40
1.0
 10
7.0439977635
 20
7.504776152
 30
0.0
 10
7.0424984154
 20
7.5066734585
 30
0.0
 10
7.0404450166
 20
7.5097825788
 30
0.0
 10
7.0381008061
 20
7.5142633297
 30
0.0
 10
7.0364544994
 20
7.5179633797
 30
0.0
 10
7.034960416
 20
7.5219253431
 30
0.0
 10
7.0336197828
 20
7.5261459966
 30
0.0
 10
7.0324345116
 20
7.5306212794
 30
0.0
 10
7.0314065282
 20
7.5353472828
 30
0.0
 10
7.0305378475
 20
7.5403198747
 30
0.0
 10
7.029830442
 20
7.5455347905
 30
0.0
 10
7.029286331
 20
7.5509876444
 30
0.0
 10
7.0289075648
 20
7.5566740224
 30
0.0
 10
7.0286962285
 20
7.5625894575
 30
0.0
 10
7.0286544279
 20
7.5687288831
 30
0.0
 10
7.0287840318
 20
7.5750861756
 30
0.0
 10
7.0289826599
 20
7.5793936169
 30
0.0
 10
7.0291098979
 20
7.5815817805
 30
0.0
 11
7.0439977635
 21
7.504776152
 31
0.0
 11
7.0399619262
 21
7.5108046149
 31
0.0
 11
7.0381637929
 21
7.5142291169
 31
0.0
 11
7.0365151589
 21
7.5179210631
 31
0.0
 11
7.0350179001
 21
7.5218765152
 31
0.0
 11
7.0336738667
 21
7.526091584
 31
0.0
 11
7.0324850304
 21
7.5305622611
 31
0.0
 11
7.0314534593
 21
7.5352844436
 31
0.0
 11
7.0305812222
 21
7.5402539727
 31
0.0
 11
7.0298703785
 21
7.5454664272
 31
0.0
 11
7.0293229852
 21
7.5509173058
 31
0.0
 11
7.0289411105
 21
7.5566021138
 31
0.0
 11
7.0287268428
 21
7.562516369
 31
0.0
 11
7.0286822625
 21
7.5686554556
 31
0.0
 11
7.0288093245
 21
7.5750130742
 31
0.0
 11
7.0291098979
 21
7.5815817805
 31
0.0
  0
SPLINE
  5
339
100
AcDbEntity
  8
0
100
AcDbSpline
 62
6
  6
CONTINUOUS
 70
0
 71
3
 72
24
 73
20
 74
18
 42
0.0000001
 43
0.0000001
 44
0.0000000001
 12
0.0048749419
 22
0.0109770978
 32
0.0
 13
-0.0074469968
 23
0.009423586
 33
0.0
 40
0.0
 40
0.0
 40
0.0
 40
0.0
 40
0.0145458286
 40
0.0292962875
 40
0.0600727897
 40
0.0936054348
 40
0.1308430179
 40
0.1724720939
 40
0.2189787626
 40
0.2707136114
 40
0.3279369568
 40
0.3908458214
 40
0.4595937977
 40
0.534304352
 40
0.6150730586
 40
0.7019703683
 40
0.7950561065
 40
0.8943832597
 40
1.0
 40
1.0
 40
1.0
 40
1.0
 10
7.0496855362
 20
7.4945598674
 30
0.0
 10
7.0497091729
 20
7.4946130911
 30
0.0
 10
7.0497510029
 20
7.4947229606
 30
0.0
 10
7.0498124256
 20
7.4949558826
 30
0.0
 10
7.0498452026
 20
7.4952728417
 30
0.0
 10
7.0498163172
 20
7.495679927
 30
0.0
 10
7.0497226867
 20
7.496121233
 30
0.0
 10
7.0495661465
 20
7.4965989136
 30
0.0
 10
7.049348159
 20
7.4971152634
 30
0.0
 10
7.0490697034
 20
7.4976722914
 30
0.0
 10
7.0487316174
 20
7.4982718508
 30
0.0
 10
7.0483347477
 20
7.498915719
 30
0.0
 10
7.0478799417
 20
7.4996056123
 30
0.0
 10
7.047368096
 20
7.5003432023
 30
0.0
 10
7.0468000887
 20
7.5011300333
 30
0.0
 10
7.0461767062
 20
7.5019674669
 30
0.0
 10
7.0454988003
 20
7.5028568376
 30
0.0
 10
7.0447672237
 20
7.5037994677
 30
0.0
 10
7.0442599393
 20
7.5044443892
 30
0.0
 10
7.0439977635
 20
7.504776152
 30
0.0
 11
7.0496855362
 21
7.4945598674
 31
0.0
 11
7.0497477832
 21
7.4947231107
 31
0.0
 11
7.0497931343
 21
7.4948943741
 31
0.0
 11
7.049833764
 21
7.495261788
 31
0.0
 11
7.0498086552
 21
7.4956637618
 31
0.0
 11
7.0497190382
 21
7.4961019485
 31
0.0
 11
7.0495661432
 21
7.4965780008
 31
0.0
 11
7.0493511857
 21
7.4970935711
 31
0.0
 11
7.0490752101
 21
7.4976503055
 31
0.0
 11
7.0487391482
 21
7.4982498462
 31
0.0
 11
7.0483439298
 21
7.4988938352
 31
0.0
 11
7.0478904849
 21
7.4995839147
 31
0.0
 11
7.047379743
 21
7.5003217247
 31
0.0
 11
7.0468126138
 21
7.5011087876
 31
0.0
 11
7.0461899756
 21
7.5019464406
 31
0.0
 11
7.045512704
 21
7.5028360049
 31
0.0
 11
7.0447816748
 21
7.5037788017
 31
0.0
 11
7.0439977635
 21
7.504776152
 31
0.0
  0
LINE
  5
33A
100
AcDbEntity
  8
0
100
AcDbLine
 62
6
  6
CONTINUOUS
 10
7.1004238313
 20
7.4945719879
 11
7.0496855362
 21
7.4945598674
  0
SPLINE
  5
33B
100
AcDbEntity
  8
0
100
AcDbSpline
 62
2
  6
CONTINUOUS
 70
0
 71
3
 72
23
 73
19
 74
17
 42
0.0000001
 43
0.0000001
 44
0.0000000001
 12
-0.0331002623
 22
0.0631234568
 32
0.0
 13
0.0070982132
 23
0.0709211783
 33
0.0
 40
0.0
 40
0.0
 40
0.0
 40
0.0
 40
0.0453746934
 40
0.0928257489
 40
0.1424403991
 40
0.1942863443
 40
0.2484212265
 40
0.3048903814
 40
0.3637262107
 40
0.4249467824
 40
0.4885589775
 40
0.5545622494
 40
0.6229506319
 40
0.6937137932
 40
0.7668369626
 40
0.8422928749
 40
0.9200321044
 40
1.0
 40
1.0
 40
1.0
 40
1.0
 10
7.1316331415
 20
7.5237524182
 30
0.0
 10
7.1311325034
 20
7.5247071541
 30
0.0
 10
7.1301740345
 20
7.5266953331
 30
0.0
 10
7.1288895436
 20
7.5298281251
 30
0.0
 10
7.1277279602
 20
7.5331716607
 30
0.0
 10
7.1266904479
 20
7.5367212511
 30
0.0
 10
7.1257778194
 20
7.5404726371
 30
0.0
 10
7.1249908328
 20
7.5444217032
 30
0.0
 10
7.1243302741
 20
7.5485643104
 30
0.0
 10
7.1237969039
 20
7.5528961407
 30
0.0
 10
7.1233915078
 20
7.5574127257
 30
0.0
 10
7.1231149048
 20
7.5621095513
 30
0.0
 10
7.1229678706
 20
7.5669821283
 30
0.0
 10
7.1229511176
 20
7.5720259988
 30
0.0
 10
7.1230653828
 20
7.5772365098
 30
0.0
 10
7.1233112815
 20
7.5826083537
 30
0.0
 10
7.1236891962
 20
7.5881354791
 30
0.0
 10
7.1240247797
 20
7.5918676284
 30
0.0
 10
7.1242139894
 20
7.5937581009
 30
0.0
 11
7.1316331415
 21
7.5237524182
 31
0.0
 11
7.130224479
 21
7.5266636209
 31
0.0
 11
7.1289372907
 21
7.5297911972
 31
0.0
 11
7.1277728413
 21
7.5331302903
 31
0.0
 11
7.1267323445
 21
7.5366761258
 31
0.0
 11
7.125816721
 21
7.5404244038
 31
0.0
 11
7.1250267876
 21
7.544370993
 31
0.0
 11
7.1243633609
 21
7.5485117365
 31
0.0
 11
7.1238272577
 21
7.5528422059
 31
0.0
 11
7.1234192949
 21
7.5573578062
 31
0.0
 11
7.1231402879
 21
7.5620539421
 31
0.0
 11
7.1229910087
 21
7.5669260725
 31
0.0
 11
7.12297218
 21
7.5719697176
 31
0.0
 11
7.1230845211
 21
7.5771803979
 31
0.0
 11
7.1233286582
 21
7.5825530124
 31
0.0
 11
7.1237050151
 21
7.588081119
 31
0.0
 11
7.1242139894
 21
7.5937581009
 31
0.0
  0
LINE
  5
33C
100
AcDbEntity
  8
0
100
AcDbLine
 62
2
  6
CONTINUOUS
 10
6.997128398
 20
7.5937726803
 11
6.9280638058
 21
7.593866156
  0
SPLINE
  5
33D
100
AcDbEntity
  8
0
100
AcDbSpline
 62
6
  6
CONTINUOUS
 70
0
 71
3
 72
22
 73
18
 74
16
 42
0.0000001
 43
0.0000001
 44
0.0000000001
 12
-0.064936213
 22
0.0546695236
 32
0.0
 13
-0.0057630722
 23
0.0846891703
 33
0.0
 40
0.0
 40
0.0
 40
0.0
 40
0.0
 40
0.0504103595
 40
0.1018371151
 40
0.1544517372
 40
0.2084090213
 40
0.3208445141
 40
0.3796108615
 40
0.440211327
 40
0.5027453509
 40
0.5673013177
 40
0.6339576219
 40
0.7027732015
 40
0.7737734679
 40
0.8469730317
 40
0.9223806061
 40
1.0
 40
1.0
 40
1.0
 40
1.0
 10
6.9501349891
 20
7.5047898848
 30
0.0
 10
6.9490438364
 20
7.5057085216
 30
0.0
 10
6.946907235
 20
7.5076462619
 30
0.0
 10
6.9438819645
 20
7.5108045286
 30
0.0
 10
6.9410110278
 20
7.5142358497
 30
0.0
 10
6.9373445644
 20
7.5192357695
 30
0.0
 10
6.9340583149
 20
7.5247134718
 30
0.0
 10
6.93114694
 20
7.5305928661
 30
0.0
 10
6.9291027382
 20
7.5353190094
 30
0.0
 10
6.9272337711
 20
7.540292024
 30
0.0
 10
6.9255428774
 20
7.5455087346
 30
0.0
 10
6.9240332783
 20
7.5509652351
 30
0.0
 10
6.9227082258
 20
7.55665672
 30
0.0
 10
6.9215710222
 20
7.5625772083
 30
0.0
 10
6.9206252833
 20
7.5687199889
 30
0.0
 10
6.9198746482
 20
7.5750781248
 30
0.0
 10
6.919511953
 20
7.5793937322
 30
0.0
 10
6.9193628443
 20
7.5815849062
 30
0.0
 11
6.9501349891
 21
7.5047898848
 31
0.0
 11
6.9469633305
 21
7.5076623663
 31
0.0
 11
6.943941239
 21
7.5108125007
 31
0.0
 11
6.9410725538
 21
7.5142355889
 31
0.0
 11
6.9383611138
 21
7.5179269317
 31
0.0
 11
6.9334253049
 21
7.5260956189
 31
0.0
 11
6.9312082159
 21
7.5305642299
 31
0.0
 11
6.9291626515
 21
7.5352840971
 31
0.0
 11
6.9272917623
 21
7.5402516709
 31
0.0
 11
6.9255986994
 21
7.5454634011
 31
0.0
 11
6.9240866138
 21
7.5509157352
 31
0.0
 11
6.9227587917
 21
7.5566042315
 31
0.0
 11
6.9216188442
 21
7.5625223021
 31
0.0
 11
6.9206704309
 21
7.5686630416
 31
0.0
 11
6.9199172111
 21
7.5750195448
 31
0.0
 11
6.9193628443
 21
7.5815849062
 31
0.0
  0
SPLINE
  5
33E
100
AcDbEntity
  8
0
100
AcDbSpline
 62
6
  6
CONTINUOUS
 70
0
 71
3
 72
19
 73
15
 74
13
 42
0.0000001
 43
0.0000001
 44
0.0000000001
 12
-0.0110061053
 22
0.0118987529
 32
0.0
 13
-0.012399324
 23
0.0104389385
 33
0.0
 40
0.0
 40
0.0
 40
0.0
 40
0.0
 40
0.0288500089
 40
0.0621069312
 40
0.0998226584
 40
0.1420214076
 40
0.188711526
 40
0.2398930119
 40
0.2955704746
 40
0.355752335
 40
0.4896589236
 40
0.6416691762
 40
0.8117883562
 40
1.0
 40
1.0
 40
1.0
 40
1.0
 10
6.9626987344
 20
7.4945582938
 30
0.0
 10
6.9625928923
 20
7.4946727201
 30
0.0
 10
6.9623562788
 20
7.4949109487
 30
0.0
 10
6.9619595119
 20
7.4952763881
 30
0.0
 10
6.9614972169
 20
7.4956766843
 30
0.0
 10
6.960970798
 20
7.4961135034
 30
0.0
 10
6.960381653
 20
7.4965885216
 30
0.0
 10
6.9597312037
 20
7.497103458
 30
0.0
 10
6.9590207066
 20
7.4976599558
 30
0.0
 10
6.9579563466
 20
7.4984894917
 30
0.0
 10
6.9564814562
 20
7.4996389588
 30
0.0
 10
6.9545482424
 20
7.5011665601
 30
0.0
 10
6.9524029852
 20
7.502898848
 30
0.0
 10
6.9509128881
 20
7.5041349749
 30
0.0
 10
6.9501349891
 20
7.5047898848
 30
0.0
 11
6.9626987344
 21
7.4945582938
 31
0.0
 11
6.9623708577
 21
7.4948917009
 31
0.0
 11
6.9619755172
 21
7.4952581355
 31
0.0
 11
6.9615142291
 21
7.4956592822
 31
0.0
 11
6.9609885096
 21
7.4960968255
 31
0.0
 11
6.960399875
 21
7.4965724499
 31
0.0
 11
6.9597498242
 21
7.4970878398
 31
0.0
 11
6.9590396518
 21
7.497644675
 31
0.0
 11
6.9582705186
 21
7.4982446324
 31
0.0
 11
6.9565600033
 21
7.4995806217
 31
0.0
 11
6.9546275624
 21
7.5011091017
 31
0.0
 11
6.9524826836
 21
7.5028419023
 31
0.0
 11
6.9501349891
 21
7.5047898848
 31
0.0
  0
LINE
  5
33F
100
AcDbEntity
  8
0
100
AcDbLine
 62
6
  6
CONTINUOUS
 10
7.0075239796
 20
7.4945719879
 11
6.9626987344
 21
7.4945582938
  0
SPLINE
  5
340
100
AcDbEntity
  8
0
100
AcDbSpline
 62
2
  6
CONTINUOUS
 70
0
 71
3
 72
23
 73
19
 74
17
 42
0.0000001
 43
0.0000001
 44
0.0000000001
 12
-0.0614075952
 22
0.0541836069
 32
0.0
 13
-0.0012141945
 23
0.0818857847
 33
0.0
 40
0.0
 40
0.0
 40
0.0
 40
0.0
 40
0.0490089378
 40
0.0991948419
 40
0.1507524134
 40
0.2038569519
 40
0.2586689617
 40
0.3153259528
 40
0.3739418518
 40
0.434610203
 40
0.4974071636
 40
0.5623916494
 40
0.6296090659
 40
0.6990942438
 40
0.7708732662
 40
0.8449622996
 40
0.9213487809
 40
1.0
 40
1.0
 40
1.0
 40
1.0
 10
7.022637053
 20
7.5182527065
 30
0.0
 10
7.0216338793
 20
7.5191378669
 30
0.0
 10
7.0196768701
 20
7.5210143462
 30
0.0
 10
7.016934733
 20
7.5240879022
 30
0.0
 10
7.0143578966
 20
7.527443347
 30
0.0
 10
7.0119496961
 20
7.531073851
 30
0.0
 10
7.0097125337
 20
7.5349731763
 30
0.0
 10
7.0076487781
 20
7.5391352846
 30
0.0
 10
7.0057608427
 20
7.5435541526
 30
0.0
 10
7.0040512656
 20
7.5482237001
 30
0.0
 10
7.0025226487
 20
7.5531377389
 30
0.0
 10
7.0011773981
 20
7.5582899103
 30
0.0
 10
7.0000179909
 20
7.5636738078
 30
0.0
 10
6.9990468971
 20
7.5692830313
 30
0.0
 10
6.9982665256
 20
7.5751111416
 30
0.0
 10
6.997679403
 20
7.5811511004
 30
0.0
 10
6.9972877257
 20
7.5873946987
 30
0.0
 10
6.9971602306
 20
7.5916258748
 30
0.0
 10
6.997128398
 20
7.5937726803
 30
0.0
 11
7.022637053
 21
7.5182527065
 31
0.0
 11
7.0197373618
 21
7.5210276997
 31
0.0
 11
7.0169980184
 21
7.5240916515
 31
0.0
 11
7.014422757
 21
7.5274376663
 31
0.0
 11
7.0120148666
 21
7.5310592313
 31
0.0
 11
7.0097769647
 21
7.5349504111
 31
0.0
 11
7.0077116217
 21
7.539105305
 31
0.0
 11
7.0058215037
 21
7.5435178649
 31
0.0
 11
7.0041093368
 21
7.5481819509
 31
0.0
 11
7.0025778202
 21
7.5530913571
 31
0.0
 11
7.0012295444
 21
7.5582396259
 31
0.0
 11
7.0000670731
 21
7.5636202391
 31
0.0
 11
6.9990929309
 21
7.569226712
 31
0.0
 11
6.9983095822
 21
7.5750526112
 31
0.0
 11
6.9977194789
 21
7.5810913529
 31
0.0
 11
6.9973249829
 21
7.5873345562
 31
0.0
 11
6.997128398
 21
7.5937726803
 31
0.0
  0
LINE
  5
341
100
AcDbEntity
  8
0
100
AcDbLine
 62
2
  6
CONTINUOUS
 10
6.9049493775
 20
7.5937581009
 11
6.8429368101
 21
7.5938637619
  0
SPLINE
  5
342
100
AcDbEntity
  8
0
100
AcDbSpline
 62
6
  6
CONTINUOUS
 70
0
 71
3
 72
21
 73
17
 74
15
 42
0.0000001
 43
0.0000001
 44
0.0000000001
 12
-0.0773772544
 22
0.0496376736
 32
0.0
 13
-0.0171643848
 23
0.0903134654
 33
0.0
 40
0.0
 40
0.0
 40
0.0
 40
0.0
 40
0.0552719515
 40
0.1109608538
 40
0.1671990472
 40
0.2241172083
 40
0.281848058
 40
0.3405175594
 40
0.4002414486
 40
0.4611260201
 40
0.5867237104
 40
0.6516447257
 40
0.7180701394
 40
0.855674682
 40
0.9269875274
 40
1.0
 40
1.0
 40
1.0
 40
1.0
 10
6.8794342862
 20
7.504776152
 30
0.0
 10
6.8780086889
 20
7.5056906757
 30
0.0
 10
6.8752037974
 20
7.507617274
 30
0.0
 10
6.8711654656
 20
7.5107753897
 30
0.0
 10
6.8672880697
 20
7.5142059158
 30
0.0
 10
6.8635765904
 20
7.5179042478
 30
0.0
 10
6.8600352879
 20
7.5218662141
 30
0.0
 10
6.8566682914
 20
7.5260876675
 30
0.0
 10
6.8534797468
 20
7.5305646993
 30
0.0
 10
6.8494309262
 20
7.5369341024
 30
0.0
 10
6.8458040867
 20
7.5437475943
 30
0.0
 10
6.8426001989
 20
7.5509420811
 30
0.0
 10
6.8395931863
 20
7.5586181652
 30
0.0
 10
6.8370425418
 20
7.5666735161
 30
0.0
 10
6.8349373884
 20
7.5750538668
 30
0.0
 10
6.8340295761
 20
7.5793837774
 30
0.0
 10
6.833611838
 20
7.5815817805
 30
0.0
 11
6.8794342862
 21
7.504776152
 31
0.0
 11
6.8752453209
 21
7.5076520347
 31
0.0
 11
6.8712116672
 21
7.5108046149
 31
0.0
 11
6.8673384913
 21
7.5142291169
 31
0.0
 11
6.8636305955
 21
7.5179210631
 31
0.0
 11
6.8600921236
 21
7.5218765152
 31
0.0
 11
6.8567271651
 21
7.526091584
 31
0.0
 11
6.853540039
 21
7.5305622611
 31
0.0
 11
6.8505352464
 21
7.5352844436
 31
0.0
 11
6.8450907947
 21
7.5454664272
 31
0.0
 11
6.8426603096
 21
7.5509173058
 31
0.0
 11
6.8404304631
 21
7.5566021138
 31
0.0
 11
6.8365912786
 21
7.5686554556
 31
0.0
 11
6.8349915492
 21
7.5750130742
 31
0.0
 11
6.833611838
 21
7.5815817805
 31
0.0
  0
SPLINE
  5
343
100
AcDbEntity
  8
0
100
AcDbSpline
 62
6
  6
CONTINUOUS
 70
0
 71
3
 72
15
 73
11
 74
9
 42
0.0000001
 43
0.0000001
 44
0.0000000001
 12
-0.0199382641
 22
0.0086491168
 32
0.0
 13
-0.0182929527
 23
0.0117349682
 33
0.0
 40
0.0
 40
0.0
 40
0.0
 40
0.0
 40
0.0803632306
 40
0.1738949505
 40
0.2802976104
 40
0.3993513624
 40
0.5309420863
 40
0.6749887762
 40
0.8313814801
 40
1.0
 40
1.0
 40
1.0
 40
1.0
 10
6.8985886063
 20
7.4945598674
 30
0.0
 10
6.8980545052
 20
7.4947915577
 30
0.0
 10
6.8969004834
 20
7.4952968554
 30
0.0
 10
6.8950510425
 20
7.4961354639
 30
0.0
 10
6.8929631486
 20
7.4971262256
 30
0.0
 10
6.890649091
 20
7.4982824025
 30
0.0
 10
6.8881198387
 20
7.4996165959
 30
0.0
 10
6.8853864434
 20
7.5011418193
 30
0.0
 10
6.8824599347
 20
7.5028694452
 30
0.0
 10
6.880462463
 20
7.5041165744
 30
0.0
 10
6.8794342862
 20
7.504776152
 30
0.0
 11
6.8985886063
 21
7.4945598674
 31
0.0
 11
6.8969892917
 21
7.495261788
 31
0.0
 11
6.8951382755
 21
7.4961019485
 31
0.0
 11
6.8930491819
 21
7.4970935711
 31
0.0
 11
6.8907344678
 21
7.4982498462
 31
0.0
 11
6.8882047673
 21
7.4995839147
 31
0.0
 11
6.8854706147
 21
7.5011087876
 31
0.0
 11
6.8825432317
 21
7.5028360049
 31
0.0
 11
6.8794342862
 21
7.504776152
 31
0.0
  0
LINE
  5
344
100
AcDbEntity
  8
0
100
AcDbLine
 62
6
  6
CONTINUOUS
 10
6.9313824896
 20
7.4945719879
 11
6.8985886063
 21
7.4945598674
  0
SPLINE
  5
345
100
AcDbEntity
  8
0
100
AcDbSpline
 62
2
  6
CONTINUOUS
 70
0
 71
3
 72
17
 73
13
 74
11
 42
0.0000001
 43
0.0000001
 44
0.0000000001
 12
-0.0513985535
 22
0.052436728
 32
0.0
 13
-0.0089202441
 23
0.0728824463
 33
0.0
 40
0.0
 40
0.0
 40
0.0
 40
0.0
 40
0.0543925336
 40
0.1095594287
 40
0.1655817071
 40
0.2225413306
 40
0.339544909
 40
0.4611278749
 40
0.587691459
 40
0.7195565096
 40
0.856967689
 40
1.0
 40
1.0
 40
1.0
 40
1.0
 10
6.9330655007
 20
7.527295738
 30
0.0
 10
6.9321336015
 20
7.5282464602
 30
0.0
 10
6.930307564
 20
7.5302121601
 30
0.0
 10
6.9277054656
 20
7.5333212844
 30
0.0
 10
6.9252244861
 20
7.5366070996
 30
0.0
 10
6.9220530571
 20
7.5412598685
 30
0.0
 10
6.9184062238
 20
7.5475195192
 30
0.0
 10
6.9145897687
 20
7.5556119773
 30
0.0
 10
6.9113081891
 20
7.5643248111
 30
0.0
 10
6.9085769514
 20
7.5736289715
 30
0.0
 10
6.9064113631
 20
7.5834927064
 30
0.0
 10
6.9053746719
 20
7.5902832526
 30
0.0
 10
6.9049493775
 20
7.5937581009
 30
0.0
 11
6.9330655007
 21
7.527295738
 31
0.0
 11
6.9303461838
 21
7.5302208182
 31
0.0
 11
6.9277451904
 21
7.5333261382
 31
0.0
 11
6.9252651221
 21
7.5366079388
 31
0.0
 11
6.9229080944
 21
7.54006284
 31
0.0
 11
6.9185710363
 21
7.5474788776
 31
0.0
 11
6.9147500225
 21
7.555547217
 31
0.0
 11
6.9114615495
 21
7.5642390279
 31
0.0
 11
6.9087216059
 21
7.5735256237
 31
0.0
 11
6.9065456325
 21
7.5833777839
 31
0.0
 11
6.9049493775
 21
7.5937581009
 31
0.0
  0
LINE
  5
346
100
AcDbEntity
  8
0
100
AcDbLine
 62
2
  6
CONTINUOUS
 10
6.8160716081
 20
7.5937726803
 11
6.7724436498
 21
7.593866156
  0
SPLINE
  5
347
100
AcDbEntity
  8
0
100
AcDbSpline
 62
6
  6
CONTINUOUS
 70
0
 71
3
 72
22
 73
18
 74
16
 42
0.0000001
 43
0.0000001
 44
0.0000000001
 12
-0.088998487
 22
0.046478846
 32
0.0
 13
-0.0299815245
 23
0.0958233897
 33
0.0
 40
0.0
 40
0.0
 40
0.0
 40
0.0
 40
0.0588378209
 40
0.1177386666
 40
0.1767924032
 40
0.2360923942
 40
0.2957396015
 40
0.3558335041
 40
0.4164682618
 40
0.4777333694
 40
0.539715289
 40
0.6024952755
 40
0.6661511953
 40
0.7307583843
 40
0.7963897739
 40
0.8631147739
 40
1.0
 40
1.0
 40
1.0
 40
1.0
 10
6.8232177713
 20
7.5047898848
 30
0.0
 10
6.821472279
 20
7.5057014562
 30
0.0
 10
6.8180279166
 20
7.5076202018
 30
0.0
 10
6.8130188715
 20
7.5107747419
 30
0.0
 10
6.8081728335
 20
7.5142015072
 30
0.0
 10
6.8034959708
 20
7.5178960886
 30
0.0
 10
6.7989937161
 20
7.5218544345
 30
0.0
 10
6.7946713074
 20
7.5260725573
 30
0.0
 10
6.7905341417
 20
7.5305464836
 30
0.0
 10
6.7865878448
 20
7.535272191
 30
0.0
 10
6.7828381392
 20
7.5402454985
 30
0.0
 10
6.7792907353
 20
7.5454620438
 30
0.0
 10
6.7759514015
 20
7.5509174023
 30
0.0
 10
6.7728259736
 20
7.5566070597
 30
0.0
 10
6.7699202377
 20
7.5625267966
 30
0.0
 10
6.7663170564
 20
7.5707883703
 30
0.0
 10
6.7640108389
 20
7.5772126374
 30
0.0
 10
6.7626428296
 20
7.5815849062
 30
0.0
 11
6.8232177713
 21
7.5047898848
 31
0.0
 11
6.8180568518
 21
7.5076646479
 31
0.0
 11
6.8130524243
 21
7.5108158164
 31
0.0
 11
6.8082109482
 21
7.514238691
 31
0.0
 11
6.8035384379
 21
7.5179288699
 31
0.0
 11
6.7990401029
 21
7.5218824893
 31
0.0
 11
6.7947210868
 21
7.5260957344
 31
0.0
 11
6.7905868175
 21
7.5305646727
 31
0.0
 11
6.7866429492
 21
7.5352852781
 31
0.0
 11
6.7828951631
 21
7.5402534688
 31
0.0
 11
6.7793492426
 21
7.5454649001
 31
0.0
 11
6.7760110024
 21
7.5509151467
 31
0.0
 11
6.7728862806
 21
7.5565997893
 31
0.0
 11
6.7699809558
 21
7.5625144191
 31
0.0
 11
6.7673009491
 21
7.5686544934
 31
0.0
 11
6.7626428296
 21
7.5815849062
 31
0.0
  0
SPLINE
  5
348
100
AcDbEntity
  8
0
100
AcDbSpline
 62
6
  6
CONTINUOUS
 70
0
 71
3
 72
12
 73
8
 74
6
 42
0.0000001
 43
0.0000001
 44
0.0000000001
 12
-0.0266596896
 22
0.0072989734
 32
0.0
 13
-0.0245008524
 23
0.0127954012
 33
0.0
 40
0.0
 40
0.0
 40
0.0
 40
0.0
 40
0.1940097191
 40
0.3648227849
 40
0.5564199357
 40
0.7683259789
 40
1.0
 40
1.0
 40
1.0
 40
1.0
 10
6.8488408504
 20
7.4945582938
 30
0.0
 10
6.8471167708
 20
7.4950303177
 30
0.0
 10
6.8438957384
 20
7.4959966117
 30
0.0
 10
6.8390519771
 20
7.497679494
 30
0.0
 10
6.8341260268
 20
7.4996164812
 30
0.0
 10
6.8287732837
 20
7.5019864833
 30
0.0
 10
6.8251098417
 20
7.5038017642
 30
0.0
 10
6.8232177713
 20
7.5047898848
 30
0.0
 11
6.8488408504
 21
7.4945582938
 31
0.0
 11
6.8437037079
 21
7.4960968258
 31
0.0
 11
6.839243225
 21
7.4976446661
 31
0.0
 11
6.8343138554
 21
7.4995806065
 31
0.0
 11
6.8289569148
 21
7.5019492783
 31
0.0
 11
6.8232177713
 21
7.5047898848
 31
0.0
  0
LINE
  5
349
100
AcDbEntity
  8
0
100
AcDbLine
 62
6
  6
CONTINUOUS
 10
6.8732001581
 20
7.4945719879
 11
6.8488408504
 21
7.4945582938
  0
SPLINE
  5
34A
100
AcDbEntity
  8
0
100
AcDbSpline
 62
2
  6
CONTINUOUS
 70
0
 71
3
 72
19
 73
15
 74
13
 42
0.0000001
 43
0.0000001
 44
0.0000000001
 12
-0.0641230791
 22
0.0491090871
 32
0.0
 13
-0.0186069243
 23
0.0785955092
 33
0.0
 40
0.0
 40
0.0
 40
0.0
 40
0.0
 40
0.0576565237
 40
0.1156414397
 40
0.1740374618
 40
0.2329232508
 40
0.2923718787
 40
0.352451632
 40
0.4132269976
 40
0.47475796
 40
0.6002777053
 40
0.729445244
 40
0.8626147746
 40
1.0
 40
1.0
 40
1.0
 40
1.0
 10
6.8569957178
 20
7.5259550479
 30
0.0
 10
6.8557633465
 20
7.5268988677
 30
0.0
 10
6.8533385331
 20
7.5288540691
 30
0.0
 10
6.849838928
 20
7.5319723646
 30
0.0
 10
6.8464708906
 20
7.5352798355
 30
0.0
 10
6.8432374886
 20
7.5387728204
 30
0.0
 10
6.8401416873
 20
7.5424477449
 30
0.0
 10
6.837186561
 20
7.5463009323
 30
0.0
 10
6.8343751677
 20
7.5503288023
 30
0.0
 10
6.8307990341
 20
7.5559637405
 30
0.0
 10
6.8267064298
 20
7.5634414205
 30
0.0
 10
6.8224533947
 20
7.5729900605
 30
0.0
 10
6.8188489277
 20
7.5831406604
 30
0.0
 10
6.8169237136
 20
7.5901733931
 30
0.0
 10
6.8160716081
 20
7.5937726803
 30
0.0
 11
6.8569957178
 21
7.5259550479
 31
0.0
 11
6.8533701419
 21
7.5288775488
 31
0.0
 11
6.8498729561
 21
7.5319925508
 31
0.0
 11
6.8465070804
 21
7.5352965698
 31
0.0
 11
6.8432754452
 21
7.5387861125
 31
0.0
 11
6.8401810839
 21
7.5424575954
 31
0.0
 11
6.837227088
 21
7.5463073849
 31
0.0
 11
6.8344165468
 21
7.5503318411
 31
0.0
 11
6.8317525048
 21
7.5545272113
 31
0.0
 11
6.8268759315
 21
7.563415275
 31
0.0
 11
6.8226211715
 21
7.5729408338
 31
0.0
 11
6.8190115888
 21
7.58307291
 31
0.0
 11
6.8160716081
 21
7.5937726803
 31
0.0
  0
LINE
  5
34B
100
AcDbEntity
  8
0
100
AcDbLine
 62
2
  6
CONTINUOUS
 10
6.7588990628
 20
7.5937581009
 11
6.7259337371
 21
7.5938637619
  0
SPLINE
  5
34C
100
AcDbEntity
  8
0
100
AcDbSpline
 62
6
  6
CONTINUOUS
 70
0
 71
3
 72
23
 73
19
 74
17
 42
0.0000001
 43
0.0000001
 44
0.0000000001
 12
-0.0995569545
 22
0.0446547075
 32
0.0
 13
-0.0427901358
 23
0.1003724782
 33
0.0
 40
0.0
 40
0.0
 40
0.0
 40
0.0
 40
0.0611803855
 40
0.1222328213
 40
0.1832133388
 40
0.2441835434
 40
0.3052151686
 40
0.3663807947
 40
0.4277500056
 40
0.4893901696
 40
0.5513682982
 40
0.6137490566
 40
0.6765964776
 40
0.7399747452
 40
0.8039482595
 40
0.8685805045
 40
0.9339189121
 40
1.0
 40
1.0
 40
1.0
 40
1.0
 10
6.789688313
 20
7.504776152
 30
0.0
 10
6.7876580021
 20
7.5056868161
 30
0.0
 10
6.7836441237
 20
7.507602772
 30
0.0
 10
6.7777717299
 20
7.5107573161
 30
0.0
 10
6.7720627187
 20
7.5141842096
 30
0.0
 10
6.766524302
 20
7.517879036
 30
0.0
 10
6.761162905
 20
7.5218376998
 30
0.0
 10
6.7559847219
 20
7.5260561759
 30
0.0
 10
6.7509961258
 20
7.5305304469
 30
0.0
 10
6.7462037443
 20
7.5352564487
 30
0.0
 10
6.7416143339
 20
7.5402299561
 30
0.0
 10
6.7372346492
 20
7.5454465508
 30
0.0
 10
6.7330715225
 20
7.5509017292
 30
0.0
 10
6.7291318236
 20
7.5565909809
 30
0.0
 10
6.725422489
 20
7.5625097601
 30
0.0
 10
6.7219507771
 20
7.5686530161
 30
0.0
 10
6.7187241551
 20
7.5750143513
 30
0.0
 10
6.7167530149
 20
7.579370873
 30
0.0
 10
6.7158104753
 20
7.5815817805
 30
0.0
 11
6.789688313
 21
7.504776152
 31
0.0
 11
6.7836639837
 21
7.5076520347
 31
0.0
 11
6.7777955698
 21
7.5108046149
 31
0.0
 11
6.7720907173
 21
7.5142291169
 31
0.0
 11
6.7665565402
 21
7.5179210631
 31
0.0
 11
6.7611991905
 21
7.5218765152
 31
0.0
 11
6.7560247397
 21
7.526091584
 31
0.0
 11
6.7510395825
 21
7.5305622611
 31
0.0
 11
6.7462503706
 21
7.5352844436
 31
0.0
 11
6.7416637879
 21
7.5402539727
 31
0.0
 11
6.7372866429
 21
7.5454664272
 31
0.0
 11
6.7331257823
 21
7.5509173058
 31
0.0
 11
6.7291880736
 21
7.5566021138
 31
0.0
 11
6.7254804203
 21
7.562516369
 31
0.0
 11
6.7220097825
 21
7.5686554556
 31
0.0
 11
6.7187837787
 21
7.5750130742
 31
0.0
 11
6.7158104753
 21
7.5815817805
 31
0.0
  0
SPLINE
  5
34D
100
AcDbEntity
  8
0
100
AcDbSpline
 62
6
  6
CONTINUOUS
 70
0
 71
3
 72
10
 73
6
 74
4
 42
0.0000001
 43
0.0000001
 44
0.0000000001
 12
-0.0324257305
 22
0.0066043834
 32
0.0
 13
-0.0301933685
 23
0.013542761
 33
0.0
 40
0.0
 40
0.0
 40
0.0
 40
0.0
 40
0.2082741369
 40
0.4455123462
 40
1.0
 40
1.0
 40
1.0
 40
1.0
 10
6.8211056441
 20
7.4945598674
 30
0.0
 10
6.8188544971
 20
7.4950183748
 30
0.0
 10
6.8140627523
 20
7.496120066
 30
0.0
 10
6.803450954
 20
7.4991424665
 30
0.0
 10
6.7952689297
 20
7.5022730541
 30
0.0
 10
6.789688313
 20
7.504776152
 30
0.0
 11
6.8211056441
 21
7.4945598674
 31
0.0
 11
6.8143882776
 21
7.4961019485
 31
0.0
 11
6.8068372596
 21
7.4982498462
 31
0.0
 11
6.789688313
 21
7.504776152
 31
0.0
  0
LINE
  5
34E
100
AcDbEntity
  8
0
100
AcDbLine
 62
6
  6
CONTINUOUS
 10
6.8338945553
 20
7.4945719879
 11
6.8211056441
 21
7.4945598674
  0
LINE
  5
34F
100
AcDbEntity
  8
0
100
AcDbLine
 62
2
  6
CONTINUOUS
 10
6.7138136325
 20
7.5937726803
 11
6.6983636131
 21
7.593866156
  0
SPLINE
  5
350
100
AcDbEntity
  8
0
100
AcDbSpline
 62
6
  6
CONTINUOUS
 70
0
 71
3
 72
15
 73
11
 74
9
 42
0.0000001
 43
0.0000001
 44
0.0000000001
 12
-0.0891891083
 22
0.0463308055
 32
0.0
 13
-0.0476216108
 23
0.0885066256
 33
0.0
 40
0.0
 40
0.0
 40
0.0
 40
0.0
 40
0.1243043453
 40
0.2482556599
 40
0.3721332698
 40
0.4962077799
 40
0.6207508703
 40
0.7460436231
 40
0.8723818496
 40
1.0
 40
1.0
 40
1.0
 40
1.0
 10
6.7586334521
 20
7.5120999862
 30
0.0
 10
6.7549379209
 20
7.514019693
 30
0.0
 10
6.7476940329
 20
7.5181238836
 30
0.0
 10
6.7373191652
 20
7.5250563678
 30
0.0
 10
6.7274914039
 20
7.5327336749
 30
0.0
 10
6.7182489003
 20
7.5411358796
 30
0.0
 10
6.7096297415
 20
7.5502419978
 30
0.0
 10
6.7016727523
 20
7.5600304621
 30
0.0
 10
6.6944196905
 20
7.5704762918
 30
0.0
 10
6.6901045499
 20
7.5778198889
 30
0.0
 10
6.6880787559
 20
7.5815849062
 30
0.0
 11
6.7586334521
 21
7.5120999862
 31
0.0
 11
6.7477646261
 21
7.5182602336
 31
0.0
 11
6.7374072416
 21
7.5251826121
 31
0.0
 11
6.7275964452
 21
7.5328480214
 31
0.0
 11
6.7183695689
 21
7.5412365934
 31
0.0
 11
6.7097649206
 21
7.550327258
 31
0.0
 11
6.7018213617
 21
7.5600982311
 31
0.0
 11
6.6945782378
 21
7.5705273522
 31
0.0
 11
6.6880787559
 21
7.5815849062
 31
0.0
  0
LINE
  5
351
100
AcDbEntity
  8
0
100
AcDbLine
 62
6
  6
CONTINUOUS
 10
6.8140855541
 20
7.4945719879
 11
6.8116677615
 21
7.4945614107
  0
LINE
  5
352
100
AcDbEntity
  8
0
100
AcDbLine
 62
2
  6
CONTINUOUS
 10
6.6952399236
 20
7.5937581009
 11
6.6927352538
 21
7.5938362761
  0
LINE
  5
353
100
AcDbEntity
  8
0
100
AcDbLine
 62
6
  6
CONTINUOUS
 10
6.8142142846
 20
7.4945719795
 11
6.8210316298
 21
7.4945620481
  0
LINE
  5
354
100
AcDbEntity
  8
0
100
AcDbLine
 62
6
  6
CONTINUOUS
 10
6.8338945553
 20
7.4945719879
 11
6.8356225927
 21
7.494571822
  0
SPLINE
  5
355
100
AcDbEntity
  8
0
100
AcDbSpline
 62
6
  6
CONTINUOUS
 70
0
 71
3
 72
8
 73
4
 74
2
 42
0.0000001
 43
0.0000001
 44
0.0000000001
 12
0.0000473459
 22
-0.000000009
 32
0.0
 13
0.0000473459
 23
-0.000000009
 33
0.0
 40
0.0
 40
0.0
 40
0.0
 40
0.0
 40
1.0
 40
1.0
 40
1.0
 40
1.0
 10
6.8356225927
 20
7.494571822
 30
0.0
 10
6.8356383747
 20
7.494571819
 30
0.0
 10
6.8356541567
 20
7.494571816
 30
0.0
 10
6.8356699386
 20
7.494571813
 30
0.0
 11
6.8356225927
 21
7.494571822
 31
0.0
 11
6.8356699386
 21
7.494571813
 31
0.0
  0
LINE
  5
356
100
AcDbEntity
  8
0
100
AcDbLine
 62
6
  6
CONTINUOUS
 10
6.8356699386
 20
7.494571813
 11
6.8487478514
 21
7.4945633661
  0
SPLINE
  5
357
100
AcDbEntity
  8
0
100
AcDbSpline
 62
2
  6
CONTINUOUS
 70
0
 71
3
 72
12
 73
8
 74
6
 42
0.0000001
 43
0.0000001
 44
0.0000000001
 12
0.0562993941
 22
0.0050896713
 32
0.0
 13
0.0540170872
 23
0.0166637578
 33
0.0
 40
0.0
 40
0.0
 40
0.0
 40
0.0
 40
0.2503559612
 40
0.5012901517
 40
0.7515275871
 40
0.8760729836
 40
1.0
 40
1.0
 40
1.0
 40
1.0
 10
8.864822093
 20
7.4945582938
 30
0.0
 10
8.8695203893
 20
7.4949830369
 30
0.0
 10
8.8789143261
 20
7.4959976794
 30
0.0
 10
8.8929200249
 20
7.4981217827
 30
0.0
 10
8.9044769303
 20
7.5004922388
 30
0.0
 10
8.9135873222
 20
7.5028014709
 30
0.0
 10
8.9180863522
 20
7.5041015216
 30
0.0
 10
8.9203177443
 20
7.5047898848
 30
0.0
 11
8.864822093
 21
7.4945582938
 31
0.0
 11
8.8788905852
 21
7.4960968258
 31
0.0
 11
8.8929120971
 21
7.4982446195
 31
0.0
 11
8.9067647046
 21
7.5011090947
 31
0.0
 11
8.9135885577
 21
7.5028419008
 31
0.0
 11
8.9203177443
 21
7.5047898848
 31
0.0
  0
SPLINE
  5
358
100
AcDbEntity
  8
0
100
AcDbSpline
 62
2
  6
CONTINUOUS
 70
0
 71
3
 72
13
 73
9
 74
7
 42
0.0000001
 43
0.0000001
 44
0.0000000001
 12
0.0550919818
 22
0.0052854118
 32
0.0
 13
0.0529483855
 23
0.0161099508
 33
0.0
 40
0.0
 40
0.0
 40
0.0
 40
0.0
 40
0.2435663637
 40
0.4924137608
 40
0.6183221223
 40
0.745019005
 40
0.8723151269
 40
1.0
 40
1.0
 40
1.0
 40
1.0
 10
9.0825372705
 20
7.4945582938
 30
0.0
 10
9.0870101217
 20
7.4949874099
 30
0.0
 10
9.096038471
 20
7.4960149903
 30
0.0
 10
9.1073122353
 20
7.4977818826
 30
0.0
 10
9.1163930083
 20
7.4995529708
 30
0.0
 10
9.1232343771
 20
7.501078901
 30
0.0
 10
9.1300608679
 20
7.5028088522
 30
0.0
 10
9.1345839509
 20
7.5041042192
 30
0.0
 10
9.1368375202
 20
7.5047898848
 30
0.0
 11
9.0825372705
 21
7.4945582938
 31
0.0
 11
9.0959293491
 21
7.4960968258
 31
0.0
 11
9.109533289
 21
7.4982446195
 31
0.0
 11
9.1163724119
 21
7.4995806065
 31
0.0
 11
9.123215825
 21
7.5011090947
 31
0.0
 11
9.1300446
 21
7.5028419008
 31
0.0
 11
9.1368375202
 21
7.5047898848
 31
0.0
  0
SPLINE
  5
359
100
AcDbEntity
  8
0
100
AcDbSpline
 62
2
  6
CONTINUOUS
 70
0
 71
3
 72
14
 73
10
 74
8
 42
0.0000001
 43
0.0000001
 44
0.0000000001
 12
0.0505168691
 22
0.0055328406
 32
0.0
 13
0.0484015913
 23
0.0154871674
 33
0.0
 40
0.0
 40
0.0
 40
0.0
 40
0.0
 40
0.2356099089
 40
0.3575641248
 40
0.4819370317
 40
0.6085486836
 40
0.7372373408
 40
0.8677966998
 40
1.0
 40
1.0
 40
1.0
 40
1.0
 10
9.2366408892
 20
7.4945582938
 30
0.0
 10
9.2406083142
 20
7.4949928244
 30
0.0
 10
9.2466178564
 20
7.4957668347
 30
0.0
 10
9.2546774432
 20
7.4970707157
 30
0.0
 10
9.2608890566
 20
7.4982258628
 30
0.0
 10
9.2671813871
 20
7.4995601347
 30
0.0
 10
9.2735377935
 20
7.5010868044
 30
0.0
 10
9.2799399045
 20
7.5028175465
 30
0.0
 10
9.2842009029
 20
7.5041074
 30
0.0
 10
9.286333853
 20
7.5047898848
 30
0.0
 11
9.2366408892
 21
7.4945582938
 31
0.0
 11
9.2485150806
 21
7.4960968258
 31
0.0
 11
9.2546329211
 21
7.4970878352
 31
0.0
 11
9.260846663
 21
7.4982446195
 31
0.0
 11
9.2671407075
 21
7.4995806065
 31
0.0
 11
9.2734994034
 21
7.5011090947
 31
0.0
 11
9.2799040232
 21
7.5028419008
 31
0.0
 11
9.286333853
 21
7.5047898848
 31
0.0
  0
SPLINE
  5
35A
100
AcDbEntity
  8
0
100
AcDbSpline
 62
2
  6
CONTINUOUS
 70
0
 71
3
 72
19
 73
15
 74
13
 42
0.0000001
 43
0.0000001
 44
0.0000000001
 12
0.0184995032
 22
0.0040842817
 32
0.0
 13
0.0076266482
 23
0.0173420648
 33
0.0
 40
0.0
 40
0.0
 40
0.0
 40
0.0
 40
0.1496989097
 40
0.2886659941
 40
0.418245997
 40
0.5401640406
 40
0.5989354386
 40
0.6566375401
 40
0.713609071
 40
0.7702019756
 40
0.8267710217
 40
0.8836810995
 40
0.9413016928
 40
1.0
 40
1.0
 40
1.0
 40
1.0
 10
7.3876451457
 20
7.4945582938
 30
0.0
 10
7.3885682642
 20
7.4947620979
 30
0.0
 10
7.3903377758
 20
7.4952065392
 30
0.0
 10
7.3928473271
 20
7.4960394487
 30
0.0
 10
7.3951109449
 20
7.497027075
 30
0.0
 10
7.3968151616
 20
7.4980041632
 30
0.0
 10
7.398044035
 20
7.4988754425
 30
0.0
 10
7.3988937583
 20
7.4995679745
 30
0.0
 10
7.3996827122
 20
7.5003091135
 30
0.0
 10
7.4004109444
 20
7.5011003683
 30
0.0
 10
7.4010783298
 20
7.5019431085
 30
0.0
 10
7.4016847054
 20
7.5028386293
 30
0.0
 10
7.4022298959
 20
7.5037881155
 30
0.0
 10
7.4025489546
 20
7.5044505682
 30
0.0
 10
7.4026981784
 20
7.5047898848
 30
0.0
 11
7.3876451457
 21
7.4945582938
 31
0.0
 11
7.3903934862
 21
7.4952581362
 31
0.0
 11
7.392889057
 21
7.4960968258
 31
0.0
 11
7.3951350311
 21
7.4970878352
 31
0.0
 11
7.397134215
 21
7.4982446195
 31
0.0
 11
7.3980419624
 21
7.4988893735
 31
0.0
 11
7.3988888445
 21
7.4995806065
 31
0.0
 11
7.3996751326
 21
7.5003199946
 31
0.0
 11
7.4004009645
 21
7.5011090947
 31
0.0
 11
7.4010662717
 21
7.5019492783
 31
0.0
 11
7.4016709674
 21
7.5028419008
 31
0.0
 11
7.4022149651
 21
7.5037883178
 31
0.0
 11
7.4026981784
 21
7.5047898848
 31
0.0
  0
LINE
  5
35B
100
AcDbEntity
  8
0
100
AcDbLine
 62
2
  6
CONTINUOUS
 10
9.4475789893
 20
7.5938369846
 11
9.4467483545
 21
7.593866156
  0
LINE
  5
35C
100
AcDbEntity
  8
0
100
AcDbLine
 62
2
  6
CONTINUOUS
 10
7.2735916416
 20
7.5088045321
 11
7.2716500263
 21
7.5082407799
  0
SPLINE
  5
35D
100
AcDbEntity
  8
0
100
AcDbSpline
 62
6
  6
CONTINUOUS
 70
0
 71
3
 72
34
 73
30
 74
28
 42
0.0000001
 43
0.0000001
 44
0.0000000001
 12
-0.0226403002
 22
-0.0458997477
 32
0.0
 13
-0.0511797815
 23
0.0
 33
0.0
 40
0.0
 40
0.0
 40
0.0
 40
0.0
 40
0.0201081591
 40
0.0400618193
 40
0.0599947435
 40
0.0800391446
 40
0.1003233185
 40
0.1209707528
 40
0.1420978266
 40
0.1638117774
 40
0.2093641301
 40
0.2333859625
 40
0.258329182
 40
0.2842555678
 40
0.311219348
 40
0.3392668636
 40
0.3684372
 40
0.3987642774
 40
0.4302776101
 40
0.4630020074
 40
0.4969529824
 40
0.5321408442
 40
0.5685735857
 40
0.6062572022
 40
0.6451923387
 40
0.7267803409
 40
0.8132520797
 40
0.9044299097
 40
1.0
 40
1.0
 40
1.0
 40
1.0
 10
7.3780323774
 20
7.5065536147
 30
0.0
 10
7.3778806259
 20
7.5062459616
 30
0.0
 10
7.3775556469
 20
7.5056438663
 30
0.0
 10
7.3770026302
 20
7.5047815206
 30
0.0
 10
7.3763867216
 20
7.5039642103
 30
0.0
 10
7.375707806
 20
7.5031909744
 30
0.0
 10
7.3749657209
 20
7.502460716
 30
0.0
 10
7.3741602983
 20
7.5017723022
 30
0.0
 10
7.373291298
 20
7.5011245009
 30
0.0
 10
7.3720275677
 20
7.5003002322
 30
0.0
 10
7.3706496145
 20
7.4995667748
 30
0.0
 10
7.3691746152
 20
7.4989145098
 30
0.0
 10
7.3679836054
 20
7.4984508059
 30
0.0
 10
7.3667272486
 20
7.4980200473
 30
0.0
 10
7.365405104
 20
7.4976208988
 30
0.0
 10
7.3640168826
 20
7.4972521032
 30
0.0
 10
7.3625623032
 20
7.4969124212
 30
0.0
 10
7.3610411188
 20
7.4966006295
 30
0.0
 10
7.3594530972
 20
7.4963155142
 30
0.0
 10
7.3577981268
 20
7.4960558722
 30
0.0
 10
7.3560762427
 20
7.4958206115
 30
0.0
 10
7.3542876244
 20
7.4956086871
 30
0.0
 10
7.3524324968
 20
7.4954190634
 30
0.0
 10
7.3505111487
 20
7.495250689
 30
0.0
 10
7.3478195522
 20
7.4950501178
 30
0.0
 10
7.344293539
 20
7.4948510905
 30
0.0
 10
7.3398737638
 20
7.4946877812
 30
0.0
 10
7.3352134667
 20
7.4945918064
 30
0.0
 10
7.3320275101
 20
7.4945719879
 30
0.0
 10
7.3303970913
 20
7.4945719879
 30
0.0
 11
7.3780323774
 21
7.5065536147
 31
0.0
 11
7.3775432328
 21
7.5056481599
 31
0.0
 11
7.376991866
 21
7.504788571
 31
0.0
 11
7.376378036
 21
7.503973743
 31
0.0
 11
7.3757015015
 21
7.5032025709
 31
0.0
 11
7.3749620169
 21
7.5024739446
 31
0.0
 11
7.3741592865
 21
7.5017867003
 31
0.0
 11
7.3732929845
 21
7.5011396414
 31
0.0
 11
7.3723627846
 21
7.5005315709
 31
0.0
 11
7.3703093796
 21
7.4994275941
 31
0.0
 11
7.3691854872
 21
7.4989292276
 31
0.0
 11
7.3679963243
 21
7.4984649326
 31
0.0
 11
7.3667415318
 21
7.4980334497
 31
0.0
 11
7.3654207527
 21
7.4976335202
 31
0.0
 11
7.3640336879
 21
7.4972639084
 31
0.0
 11
7.3625801054
 21
7.4969234054
 31
0.0
 11
7.3610597772
 21
7.4966108039
 31
0.0
 11
7.3594724752
 21
7.4963248966
 31
0.0
 11
7.3578180156
 21
7.496064492
 31
0.0
 11
7.3560965115
 21
7.495828506
 31
0.0
 11
7.3543081982
 21
7.4956158984
 31
0.0
 11
7.3524533116
 21
7.4954256294
 31
0.0
 11
7.3505320884
 21
7.4952566597
 31
0.0
 11
7.3485449462
 21
7.4951080445
 31
0.0
 11
7.3443761427
 21
7.4948689184
 31
0.0
 11
7.339953669
 21
7.4947024759
 31
0.0
 11
7.3352882412
 21
7.4946042625
 31
0.0
 11
7.3303970913
 21
7.4945719879
 31
0.0
  0
SPLINE
  5
35E
100
AcDbEntity
  8
0
100
AcDbSpline
 62
6
  6
CONTINUOUS
 70
0
 71
3
 72
17
 73
13
 74
11
 42
0.0000001
 43
0.0000001
 44
0.0000000001
 12
0.0043079645
 22
0.0074998112
 32
0.0
 13
-0.0031155367
 23
0.0080684049
 33
0.0
 40
0.0
 40
0.0
 40
0.0
 40
0.0
 40
0.0456408023
 40
0.0918904331
 40
0.1392122209
 40
0.1880418423
 40
0.2917192288
 40
0.4057354148
 40
0.5322004517
 40
0.6726675851
 40
0.8282993919
 40
1.0
 40
1.0
 40
1.0
 40
1.0
 10
7.1481817851
 20
7.4964331224
 30
0.0
 10
7.1482473247
 20
7.4965472216
 30
0.0
 10
7.1483683914
 20
7.4967833865
 30
0.0
 10
7.1485174805
 20
7.4971565959
 30
0.0
 10
7.1486349918
 20
7.4975505297
 30
0.0
 10
7.1487522865
 20
7.4981151804
 30
0.0
 10
7.148817005
 20
7.4988838702
 30
0.0
 10
7.1487706839
 20
7.4998771031
 30
0.0
 10
7.1486057427
 20
7.5009645241
 30
0.0
 10
7.1483244438
 20
7.5021509518
 30
0.0
 10
7.1479285774
 20
7.503440973
 30
0.0
 10
7.147605639
 20
7.5043281015
 30
0.0
 10
7.1474273258
 20
7.5047898848
 30
0.0
 11
7.1481817851
 21
7.4964331224
 31
0.0
 11
7.1483619999
 21
7.4967843334
 31
0.0
 11
7.1485107148
 21
7.4971556762
 31
0.0
 11
7.148628199
 21
7.4975477397
 31
0.0
 11
7.1487147116
 21
7.4979611127
 31
0.0
 11
7.1487958588
 21
7.4988541423
 31
0.0
 11
7.1487562297
 21
7.4998394752
 31
0.0
 11
7.1485978617
 21
7.5009217496
 31
0.0
 11
7.1483225086
 21
7.5021050389
 31
0.0
 11
7.1479317903
 21
7.5033931492
 31
0.0
 11
7.1474273258
 21
7.5047898848
 31
0.0
  0
SPLINE
  5
35F
100
AcDbEntity
  8
0
100
AcDbSpline
 62
2
  6
CONTINUOUS
 70
0
 71
3
 72
15
 73
11
 74
9
 42
0.0000001
 43
0.0000001
 44
0.0000000001
 12
0.0028761884
 22
0.005004976
 32
0.0
 13
-0.0019482876
 23
0.0054338219
 33
0.0
 40
0.0
 40
0.0
 40
0.0
 40
0.0
 40
0.1039267532
 40
0.2096532205
 40
0.3197025488
 40
0.4363118634
 40
0.5613395349
 40
0.69624065
 40
0.842160983
 40
1.0
 40
1.0
 40
1.0
 40
1.0
 10
7.2423713102
 20
7.5126582281
 30
0.0
 10
7.2424709479
 20
7.5128316117
 30
0.0
 10
7.2426456429
 20
7.5131972658
 30
0.0
 10
7.2428250697
 20
7.5137878749
 30
0.0
 10
7.2429234706
 20
7.5144217893
 30
0.0
 10
7.2429423915
 20
7.5150997795
 30
0.0
 10
7.2428835076
 20
7.5158231345
 30
0.0
 10
7.2427481028
 20
7.5165931916
 30
0.0
 10
7.2425372759
 20
7.5174112176
 30
0.0
 10
7.2423544885
 20
7.5179668168
 30
0.0
 10
7.2422519832
 20
7.5182527065
 30
0.0
 11
7.2423713102
 21
7.5126582281
 31
0.0
 11
7.2426301292
 21
7.5131994477
 31
0.0
 11
7.2428089059
 21
7.5137829867
 31
0.0
 11
7.242908585
 21
7.5144103821
 31
0.0
 11
7.2429301109
 21
7.51508317
 31
0.0
 11
7.2428743919
 21
7.5158027435
 31
0.0
 11
7.2427422542
 21
7.5165701731
 31
0.0
 11
7.2425345129
 21
7.5173864853
 31
0.0
 11
7.2422519832
 21
7.5182527065
 31
0.0
  0
SPLINE
  5
360
100
AcDbEntity
  8
0
100
AcDbSpline
 62
6
  6
CONTINUOUS
 70
0
 71
3
 72
25
 73
21
 74
19
 42
0.0000001
 43
0.0000001
 44
0.0000000001
 12
-0.013845312
 22
-0.0240909639
 32
0.0
 13
-0.0277860974
 23
-0.0
 33
0.0
 40
0.0
 40
0.0
 40
0.0
 40
0.0
 40
0.0161920882
 40
0.032609451
 40
0.049389125
 40
0.0666603026
 40
0.1031217385
 40
0.1428419888
 40
0.1864660827
 40
0.2344877868
 40
0.2872855272
 40
0.3451308985
 40
0.4082042994
 40
0.4766395911
 40
0.5505123868
 40
0.6298253003
 40
0.7145594415
 40
0.8046400319
 40
0.8998633295
 40
1.0
 40
1.0
 40
1.0
 40
1.0
 10
7.2350642174
 20
7.4999370303
 30
0.0
 10
7.2349894892
 20
7.4998070026
 30
0.0
 10
7.2348272206
 20
7.4995517154
 30
0.0
 10
7.2345487807
 20
7.4991881059
 30
0.0
 10
7.2342340444
 20
7.4988417727
 30
0.0
 10
7.2337572802
 20
7.4983945681
 30
0.0
 10
7.2330602794
 20
7.4978761634
 30
0.0
 10
7.232091672
 20
7.4973301229
 30
0.0
 10
7.23097423
 20
7.4968442911
 30
0.0
 10
7.229705929
 20
7.4964147321
 30
0.0
 10
7.2282846219
 20
7.4960377745
 30
0.0
 10
7.2267087206
 20
7.4957101407
 30
0.0
 10
7.2249771536
 20
7.4954288961
 30
0.0
 10
7.2230894729
 20
7.4951912691
 30
0.0
 10
7.2210460015
 20
7.4949947119
 30
0.0
 10
7.2188478277
 20
7.494837299
 30
0.0
 10
7.2164970247
 20
7.4947170972
 30
0.0
 10
7.2139972533
 20
7.4946323449
 30
0.0
 10
7.2113538826
 20
7.4945823534
 30
0.0
 10
7.2095444277
 20
7.4945719879
 30
0.0
 10
7.2086169587
 20
7.4945719879
 30
0.0
 11
7.2350642174
 21
7.4999370303
 31
0.0
 11
7.2348230227
 21
7.4995572296
 31
0.0
 11
7.2345459628
 21
7.4991948307
 31
0.0
 11
7.2342327676
 21
7.4988494468
 31
0.0
 11
7.2338831652
 21
7.4985206903
 31
0.0
 11
7.2330736517
 21
7.4979115088
 31
0.0
 11
7.2321152548
 21
7.497364184
 31
0.0
 11
7.231005942
 21
7.4968755976
 31
0.0
 11
7.2297438095
 21
7.4964426155
 31
0.0
 11
7.228326972
 21
7.4960621066
 31
0.0
 11
7.2267541299
 21
7.4957310903
 31
0.0
 11
7.2250247794
 21
7.4954467908
 31
0.0
 11
7.2231384796
 21
7.4952064493
 31
0.0
 11
7.221095501
 21
7.4950075625
 31
0.0
 11
7.2188974801
 21
7.4948481187
 31
0.0
 11
7.2165462097
 21
7.4947261623
 31
0.0
 11
7.2140447039
 21
7.4946400333
 31
0.0
 11
7.2113993146
 21
7.4945888801
 31
0.0
 11
7.2086169587
 21
7.4945719879
 31
0.0
  0
SPLINE
  5
361
100
AcDbEntity
  8
0
100
AcDbSpline
 62
2
  6
CONTINUOUS
 70
0
 71
3
 72
23
 73
19
 74
17
 42
0.0000001
 43
0.0000001
 44
0.0000000001
 12
0.0066163881
 22
0.0102393719
 32
0.0
 13
-0.0056615022
 23
0.0107966995
 33
0.0
 40
0.0
 40
0.0
 40
0.0
 40
0.0
 40
0.0414734425
 40
0.0832787602
 40
0.1261902516
 40
0.1709195264
 40
0.2180932941
 40
0.268244923
 40
0.3218170098
 40
0.3791697082
 40
0.4405973207
 40
0.5063413341
 40
0.5766009433
 40
0.65153658
 40
0.7312625331
 40
0.8158681581
 40
0.9054269776
 40
1.0
 40
1.0
 40
1.0
 40
1.0
 10
7.1340757694
 20
7.5122904555
 30
0.0
 10
7.1341672376
 20
7.5124320095
 30
0.0
 10
7.1343328327
 20
7.5127284223
 30
0.0
 10
7.1345236414
 20
7.5132058152
 30
0.0
 10
7.1346573194
 20
7.5137158881
 30
0.0
 10
7.1347348561
 20
7.5142593011
 30
0.0
 10
7.1347574016
 20
7.514837018
 30
0.0
 10
7.1347260586
 20
7.5154501303
 30
0.0
 10
7.1346418564
 20
7.5160998236
 30
0.0
 10
7.1345055987
 20
7.5167872773
 30
0.0
 10
7.1343180289
 20
7.5175136418
 30
0.0
 10
7.1340798484
 20
7.5182800487
 30
0.0
 10
7.1337917416
 20
7.5190875898
 30
0.0
 10
7.1334544186
 20
7.5199372464
 30
0.0
 10
7.1330685359
 20
7.5208298351
 30
0.0
 10
7.1326347798
 20
7.5217660632
 30
0.0
 10
7.1321538474
 20
7.5227466068
 30
0.0
 10
7.1318116167
 20
7.5234120594
 30
0.0
 10
7.1316331415
 20
7.5237524182
 30
0.0
 11
7.1340757694
 21
7.5122904555
 31
0.0
 11
7.1343223338
 21
7.5127318642
 31
0.0
 11
7.1345120793
 21
7.5132048756
 31
0.0
 11
7.1346458286
 21
7.5137106244
 31
0.0
 11
7.1347243847
 21
7.5142502325
 31
0.0
 11
7.1347485507
 21
7.5148248215
 31
0.0
 11
7.1347191298
 21
7.5154355135
 31
0.0
 11
7.1346369032
 21
7.5160834157
 31
0.0
 11
7.1345025637
 21
7.5167695774
 31
0.0
 11
7.1343167822
 21
7.5174950329
 31
0.0
 11
7.1340802292
 21
7.5182608168
 31
0.0
 11
7.1337935755
 21
7.5190679635
 31
0.0
 11
7.133457499
 21
7.5199174418
 31
0.0
 11
7.1330727052
 21
7.520809969
 31
0.0
 11
7.1326399063
 21
7.5217462025
 31
0.0
 11
7.1321598144
 21
7.5227267997
 31
0.0
 11
7.1316331415
 21
7.5237524182
 31
0.0
  0
SPLINE
  5
362
100
AcDbEntity
  8
0
100
AcDbSpline
 62
6
  6
CONTINUOUS
 70
0
 71
3
 72
25
 73
21
 74
19
 42
0.0000001
 43
0.0000001
 44
0.0000000001
 12
-0.0144251613
 22
-0.0223136647
 32
0.0
 13
-0.0265703766
 23
0.0
 33
0.0
 40
0.0
 40
0.0
 40
0.0
 40
0.0
 40
0.0162951142
 40
0.0328447687
 40
0.0497775853
 40
0.067214592
 40
0.104018857
 40
0.1440515862
 40
0.1879211649
 40
0.236103222
 40
0.2889631934
 40
0.3467602751
 40
0.4096900991
 40
0.4779047384
 40
0.5514887482
 40
0.6304808932
 40
0.7149041538
 40
0.8047191056
 40
0.899797705
 40
1.0
 40
1.0
 40
1.0
 40
1.0
 10
7.1258190908
 20
7.499519858
 30
0.0
 10
7.1257407375
 20
7.4993986568
 30
0.0
 10
7.1255723218
 20
7.4991609713
 30
0.0
 10
7.1252882241
 20
7.4988232437
 30
0.0
 10
7.1249710455
 20
7.4985019867
 30
0.0
 10
7.1244952596
 20
7.4980876904
 30
0.0
 10
7.1238081804
 20
7.4976086011
 30
0.0
 10
7.1228630847
 20
7.497104721
 30
0.0
 10
7.1217806058
 20
7.4966571058
 30
0.0
 10
7.1205583869
 20
7.4962619228
 30
0.0
 10
7.1191940969
 20
7.4959155319
 30
0.0
 10
7.1176858068
 20
7.4956148177
 30
0.0
 10
7.1160319779
 20
7.4953569356
 30
0.0
 10
7.1142315852
 20
7.4951390794
 30
0.0
 10
7.1122841799
 20
7.4949590158
 30
0.0
 10
7.1101899183
 20
7.4948149018
 30
0.0
 10
7.1079496948
 20
7.4947047888
 30
0.0
 10
7.1055655807
 20
7.4946271602
 30
0.0
 10
7.1030408861
 20
7.4945814301
 30
0.0
 10
7.1013113022
 20
7.4945719879
 30
0.0
 10
7.1004238313
 20
7.4945719879
 30
0.0
 11
7.1258190908
 21
7.499519858
 31
0.0
 11
7.1255689404
 21
7.4991664667
 31
0.0
 11
7.1252861435
 21
7.4988297339
 31
0.0
 11
7.1249703837
 21
7.4985092407
 31
0.0
 11
7.1246213445
 21
7.4982045675
 31
0.0
 11
7.1238221622
 21
7.4976410053
 31
0.0
 11
7.1228861415
 21
7.4971357426
 31
0.0
 11
7.1218109538
 21
7.4966855564
 31
0.0
 11
7.1205942827
 21
7.4962872313
 31
0.0
 11
7.1192339815
 21
7.4959376213
 31
0.0
 11
7.1177286297
 21
7.4956338775
 31
0.0
 11
7.1160770007
 21
7.4953732306
 31
0.0
 11
7.1142779477
 21
7.4951529505
 31
0.0
 11
7.1123312973
 21
7.4949707888
 31
0.0
 11
7.1102375283
 21
7.4948248194
 31
0.0
 11
7.1079971528
 21
7.4947131296
 31
0.0
 11
7.1056120395
 21
7.494634255
 31
0.0
 11
7.1030861992
 21
7.494587439
 31
0.0
 11
7.1004238313
 21
7.4945719879
 31
0.0
  0
SPLINE
  5
363
100
AcDbEntity
  8
0
100
AcDbSpline
 62
2
  6
CONTINUOUS
 70
0
 71
3
 72
28
 73
24
 74
22
 42
0.0000001
 43
0.0000001
 44
0.0000000001
 12
0.0065062096
 22
0.009213712
 32
0.0
 13
-0.0084576378
 23
0.0074626814
 33
0.0
 40
0.0
 40
0.0
 40
0.0
 40
0.0
 40
0.013579818
 40
0.026839591
 40
0.0400846634
 40
0.0536153281
 40
0.0825513009
 40
0.0984466264
 40
0.1155022858
 40
0.1338439226
 40
0.1535693241
 40
0.1747541394
 40
0.197456728
 40
0.2475774897
 40
0.3041907146
 40
0.3674471677
 40
0.437438868
 40
0.5142187359
 40
0.5978138808
 40
0.6882221964
 40
0.785414719
 40
0.8893545009
 40
1.0
 40
1.0
 40
1.0
 40
1.0
 10
7.0294477466
 20
7.5098481574
 30
0.0
 10
7.0294771976
 20
7.5098898642
 30
0.0
 10
7.0295300001
 20
7.5099763176
 30
0.0
 10
7.0295892866
 20
7.5101154469
 30
0.0
 10
7.0296273101
 20
7.510261665
 30
0.0
 10
7.0296504929
 20
7.5104704708
 30
0.0
 10
7.0296295139
 20
7.5106914045
 30
0.0
 10
7.0295727064
 20
7.5109171893
 30
0.0
 10
7.0295091594
 20
7.511099548
 30
0.0
 10
7.0294262452
 20
7.5112896558
 30
0.0
 10
7.0293241955
 20
7.5114878307
 30
0.0
 10
7.0292032333
 20
7.511694272
 30
0.0
 10
7.029010547
 20
7.5119907035
 30
0.0
 10
7.0287209098
 20
7.5123823089
 30
0.0
 10
7.0283122834
 20
7.5128740255
 30
0.0
 10
7.0278331217
 20
7.5134033688
 30
0.0
 10
7.0272847624
 20
7.5139717117
 30
0.0
 10
7.0266685184
 20
7.514580422
 30
0.0
 10
7.0259858117
 20
7.5152308236
 30
0.0
 10
7.0252380643
 20
7.5159240618
 30
0.0
 10
7.0244266586
 20
7.5166610465
 30
0.0
 10
7.0235530657
 20
7.5174426732
 30
0.0
 10
7.0229489862
 20
7.5179774692
 30
0.0
 10
7.022637053
 20
7.5182527065
 30
0.0
 11
7.0294477466
 21
7.5098481574
 31
0.0
 11
7.0295272746
 21
7.5099790646
 31
0.0
 11
7.0295857973
 21
7.5101167007
 31
0.0
 11
7.0296235426
 21
7.5102612494
 31
0.0
 11
7.0296407388
 21
7.5104128943
 31
0.0
 11
7.0296143962
 21
7.5107382078
 31
0.0
 11
7.0295713103
 21
7.5109122423
 31
0.0
 11
7.0295085727
 21
7.5110941012
 31
0.0
 11
7.0294263989
 21
7.5112839627
 31
0.0
 11
7.0293250044
 21
7.5114820047
 31
0.0
 11
7.0292046045
 21
7.5116884053
 31
0.0
 11
7.0290654148
 21
7.5119033426
 31
0.0
 11
7.0287315275
 21
7.5123595395
 31
0.0
 11
7.028325046
 21
7.5128520134
 31
0.0
 11
7.0278475029
 21
7.5133821276
 31
0.0
 11
7.0273003437
 21
7.5139512172
 31
0.0
 11
7.0266850132
 21
7.5145606171
 31
0.0
 11
7.0260029566
 21
7.5152116576
 31
0.0
 11
7.0252556395
 21
7.5159054855
 31
0.0
 11
7.024444554
 21
7.5166430086
 31
0.0
 11
7.0235711939
 21
7.5174251184
 31
0.0
 11
7.022637053
 21
7.5182527065
 31
0.0
  0
SPLINE
  5
364
100
AcDbEntity
  8
0
100
AcDbSpline
 62
6
  6
CONTINUOUS
 70
0
 71
3
 72
22
 73
18
 74
16
 42
0.0000001
 43
0.0000001
 44
0.0000000001
 12
-0.0075142795
 22
-0.0106179781
 32
0.0
 13
-0.0130079151
 23
0.0
 33
0.0
 40
0.0
 40
0.0
 40
0.0
 40
0.0
 40
0.0277634398
 40
0.0582105617
 40
0.0921887456
 40
0.1303201393
 40
0.173061986
 40
0.2207549482
 40
0.2736576309
 40
0.3319477305
 40
0.3957410161
 40
0.4651257956
 40
0.5401714523
 40
0.6209255133
 40
0.7073581923
 40
0.7993994966
 40
1.0
 40
1.0
 40
1.0
 40
1.0
 10
7.0201017846
 20
7.4966565364
 30
0.0
 10
7.0200322438
 20
7.4965582725
 30
0.0
 10
7.0198645761
 20
7.4963672288
 30
0.0
 10
7.0195518693
 20
7.4961158587
 30
0.0
 10
7.0191689501
 20
7.4958874965
 30
0.0
 10
7.0187150991
 20
7.4956806581
 30
0.0
 10
7.0181892335
 20
7.4954940179
 30
0.0
 10
7.0175903104
 20
7.4953265824
 30
0.0
 10
7.0169174363
 20
7.4951774825
 30
0.0
 10
7.01616998
 20
7.495046007
 30
0.0
 10
7.0153475541
 20
7.4949315956
 30
0.0
 10
7.0144499146
 20
7.494833709
 30
0.0
 10
7.0134768783
 20
7.4947518223
 30
0.0
 10
7.0124286052
 20
7.4946853982
 30
0.0
 10
7.0113057171
 20
7.4946341398
 30
0.0
 10
7.009662767
 20
7.4945843821
 30
0.0
 10
7.0083937777
 20
7.4945719879
 30
0.0
 10
7.0075239796
 20
7.4945719879
 30
0.0
 11
7.0201017846
 21
7.4966565364
 31
0.0
 11
7.0198655308
 21
7.496383389
 31
0.0
 11
7.0195589299
 21
7.4961326814
 31
0.0
 11
7.0191809683
 21
7.4959035612
 31
0.0
 11
7.0187308261
 21
7.4956952397
 31
0.0
 11
7.0182077034
 21
7.4955069341
 31
0.0
 11
7.0176108002
 21
7.4953378621
 31
0.0
 11
7.0169393314
 21
7.4951872464
 31
0.0
 11
7.0161928232
 21
7.4950544223
 31
0.0
 11
7.0153710958
 21
7.4949388312
 31
0.0
 11
7.0144739808
 21
7.4948399188
 31
0.0
 11
7.0135013101
 21
7.4947571307
 31
0.0
 11
7.0124530194
 21
7.4946899386
 31
0.0
 11
7.0113299093
 21
7.4946380313
 31
0.0
 11
7.0101332103
 21
7.4946012055
 31
0.0
 11
7.0075239796
 21
7.4945719879
 31
0.0
  0
SPLINE
  5
365
100
AcDbEntity
  8
0
100
AcDbSpline
 62
6
  6
CONTINUOUS
 70
0
 71
3
 72
22
 73
18
 74
16
 42
0.0000001
 43
0.0000001
 44
0.0000000001
 12
-0.0063355868
 22
-0.0083459723
 32
0.0
 13
-0.0104783068
 23
-0.0
 33
0.0
 40
0.0
 40
0.0
 40
0.0
 40
0.0
 40
0.0274226111
 40
0.0577182611
 40
0.0916701652
 40
0.129857418
 40
0.1727063019
 40
0.2205304732
 40
0.2735436567
 40
0.3319016948
 40
0.3957262398
 40
0.4651148629
 40
0.540146576
 40
0.6208528126
 40
0.7072177461
 40
0.7992174488
 40
1.0
 40
1.0
 40
1.0
 40
1.0
 10
6.9415411407
 20
7.4961932348
 30
0.0
 10
6.941483228
 20
7.4961169453
 30
0.0
 10
6.9413443566
 20
7.4959689103
 30
0.0
 10
6.9410883761
 20
7.4957747587
 30
0.0
 10
6.940776284
 20
7.4955980673
 30
0.0
 10
6.9404074284
 20
7.4954377504
 30
0.0
 10
6.939980908
 20
7.4952928013
 30
0.0
 10
6.9394959739
 20
7.4951624789
 30
0.0
 10
6.9389520241
 20
7.4950462308
 30
0.0
 10
6.9383486237
 20
7.4949436122
 30
0.0
 10
6.937685402
 20
7.4948541958
 30
0.0
 10
6.936962017
 20
7.4947775683
 30
0.0
 10
6.9361782708
 20
7.4947133012
 30
0.0
 10
6.9353342263
 20
7.4946610978
 30
0.0
 10
6.9344302085
 20
7.4946208198
 30
0.0
 10
6.9331064766
 20
7.4945816998
 30
0.0
 10
6.9320837766
 20
7.4945719879
 30
0.0
 10
6.9313824896
 20
7.4945719879
 30
0.0
 11
6.9415411407
 21
7.4961932348
 31
0.0
 11
6.9413462351
 21
7.4959821009
 31
0.0
 11
6.9410949525
 21
7.495788117
 31
0.0
 11
6.9407866148
 21
7.4956106574
 31
0.0
 11
6.9404205433
 21
7.4954490967
 31
0.0
 11
6.9399960596
 21
7.4953028092
 31
0.0
 11
6.9395125358
 21
7.4951711947
 31
0.0
 11
6.9389695984
 21
7.4950537798
 31
0.0
 11
6.9383669533
 21
7.4949501306
 31
0.0
 11
6.9377043068
 21
7.4948598136
 31
0.0
 11
6.936981365
 21
7.4947823951
 31
0.0
 11
6.936197847
 21
7.494717446
 31
0.0
 11
6.9353538312
 21
7.4946646631
 31
0.0
 11
6.9344497922
 21
7.4946238826
 31
0.0
 11
6.9334862255
 21
7.4945949477
 31
0.0
 11
6.9313824896
 21
7.4945719879
 31
0.0
  0
SPLINE
  5
366
100
AcDbEntity
  8
0
100
AcDbSpline
 62
6
  6
CONTINUOUS
 70
0
 71
3
 72
20
 73
16
 74
14
 42
0.0000001
 43
0.0000001
 44
0.0000000001
 12
-0.0024627265
 22
-0.0030928236
 32
0.0
 13
-0.0039535528
 23
0.0
 33
0.0
 40
0.0
 40
0.0
 40
0.0
 40
0.0
 40
0.0246543999
 40
0.0528641476
 40
0.085338629
 40
0.1225569594
 40
0.1648487313
 40
0.2124485021
 40
0.2655297846
 40
0.3242200558
 40
0.388586719
 40
0.4586674139
 40
0.6160542633
 40
0.7964929274
 40
1.0
 40
1.0
 40
1.0
 40
1.0
 10
6.8770535284
 20
7.4951286347
 30
0.0
 10
6.8770332894
 20
7.4951032175
 30
0.0
 10
6.8769833347
 20
7.4950538529
 30
0.0
 10
6.8768905111
 20
7.4949896992
 30
0.0
 10
6.8767754783
 20
7.4949306439
 30
0.0
 10
6.8766380191
 20
7.4948764564
 30
0.0
 10
6.8764778656
 20
7.494826934
 30
0.0
 10
6.8762948048
 20
7.4947819708
 30
0.0
 10
6.8760886555
 20
7.4947414762
 30
0.0
 10
6.8758593103
 20
7.4947053782
 30
0.0
 10
6.875606737
 20
7.4946736305
 30
0.0
 10
6.8752239924
 20
7.4946356067
 30
0.0
 10
6.8746874309
 20
7.4946005347
 30
0.0
 10
6.873974361
 20
7.4945765881
 30
0.0
 10
6.8734683501
 20
7.4945719879
 30
0.0
 10
6.8732001581
 20
7.4945719879
 30
0.0
 11
6.8770535284
 21
7.4951286347
 31
0.0
 11
6.876985053
 21
7.4950592661
 31
0.0
 11
6.8768940055
 21
7.4949948533
 31
0.0
 11
6.8767802576
 21
7.494935311
 31
0.0
 11
6.8766436808
 21
7.4948805539
 31
0.0
 11
6.876484147
 21
7.4948304966
 31
0.0
 11
6.8763015279
 21
7.4947850539
 31
0.0
 11
6.876095695
 21
7.4947441404
 31
0.0
 11
6.8758665429
 21
7.494707677
 31
0.0
 11
6.8756140931
 21
7.4946756202
 31
0.0
 11
6.8753384116
 21
7.4946479388
 31
0.0
 11
6.874717618
 21
7.4946055776
 31
0.0
 11
6.8740046907
 21
7.4945803438
 31
0.0
 11
6.8732001581
 21
7.4945719879
 31
0.0
  0
SPLINE
  5
367
100
AcDbEntity
  8
0
100
AcDbSpline
 62
6
  6
CONTINUOUS
 70
0
 71
3
 72
18
 73
14
 74
12
 42
0.0000001
 43
0.0000001
 44
0.0000000001
 12
-0.0012035681
 22
-0.0014647684
 32
0.0
 13
-0.0018958171
 23
0.0
 33
0.0
 40
0.0
 40
0.0
 40
0.0
 40
0.0
 40
0.0242484315
 40
0.0522446058
 40
0.0846665549
 40
0.1219563538
 40
0.164392762
 40
0.2121614306
 40
0.324156967
 40
0.4586357193
 40
0.6159665423
 40
0.7963734158
 40
1.0
 40
1.0
 40
1.0
 40
1.0
 10
6.8357446547
 20
7.4948338341
 30
0.0
 10
6.8357349265
 20
7.4948219946
 30
0.0
 10
6.8357108492
 20
7.4947990136
 30
0.0
 10
6.8356662267
 20
7.4947691885
 30
0.0
 10
6.8356108356
 20
7.4947416143
 30
0.0
 10
6.8355445928
 20
7.4947162055
 30
0.0
 10
6.835467414
 20
7.4946928868
 30
0.0
 10
6.835343131
 20
7.4946629757
 30
0.0
 10
6.8351595432
 20
7.4946322304
 30
0.0
 10
6.8349057486
 20
7.4946049112
 30
0.0
 10
6.8346078911
 20
7.4945855811
 30
0.0
 10
6.834265933
 20
7.4945741823
 30
0.0
 10
6.8340232349
 20
7.4945719879
 30
0.0
 10
6.8338945553
 20
7.4945719879
 30
0.0
 11
6.8357446547
 21
7.4948338341
 31
0.0
 11
6.8357118315
 21
7.4948016482
 31
0.0
 11
6.8356680421
 21
7.4947716564
 31
0.0
 11
6.8356132368
 21
7.4947438272
 31
0.0
 11
6.8355473768
 21
7.4947181331
 31
0.0
 11
6.8354704561
 21
7.4946945602
 31
0.0
 11
6.8353824756
 21
7.4946730971
 31
0.0
 11
6.8351733384
 21
7.4946364542
 31
0.0
 11
6.8349199714
 21
7.4946081132
 31
0.0
 11
6.834622381
 21
7.4945879827
 31
0.0
 11
6.8342805736
 21
7.4945759714
 31
0.0
 11
6.8338945553
 21
7.4945719879
 31
0.0
  0
LINE
  5
368
100
AcDbEntity
  8
0
100
AcDbLine
 62
6
  6
CONTINUOUS
 10
8.2871140302
 20
7.5815817805
 11
8.4099156974
 21
7.581429443
  0
SPLINE
  5
369
100
AcDbEntity
  8
0
100
AcDbSpline
 62
6
  6
CONTINUOUS
 70
0
 71
3
 72
13
 73
9
 74
7
 42
0.0000001
 43
0.0000001
 44
0.0000000001
 12
0.042864903
 22
0.0059013001
 32
0.0
 13
0.0406940631
 23
0.0147043693
 33
0.0
 40
0.0
 40
0.0
 40
0.0
 40
0.0
 40
0.2249308119
 40
0.3442486408
 40
0.4677613636
 40
0.5952809141
 40
0.7266402309
 40
1.0
 40
1.0
 40
1.0
 40
1.0
 10
9.3174500521
 20
7.4945582938
 30
0.0
 10
9.3206639312
 20
7.4950007552
 30
0.0
 10
9.3255690068
 20
7.4957842279
 30
0.0
 10
9.3321907135
 20
7.4970787035
 30
0.0
 10
9.3374063534
 20
7.4982346211
 30
0.0
 10
9.3427583381
 20
7.499569727
 30
0.0
 10
9.3501528157
 20
7.5016337987
 30
0.0
 10
9.3557052982
 20
7.5034500239
 30
0.0
 10
9.3594133381
 20
7.5047898848
 30
0.0
 11
9.3174500521
 21
7.4945582938
 31
0.0
 11
9.3270602571
 21
7.4960968258
 31
0.0
 11
9.3321270403
 21
7.4970878352
 31
0.0
 11
9.3373446434
 21
7.4982446195
 31
0.0
 11
9.3426981315
 21
7.4995806065
 31
0.0
 11
9.3481725699
 21
7.5011090947
 31
0.0
 11
9.3594133381
 21
7.5047898848
 31
0.0
  0
SPLINE
  5
36A
100
AcDbEntity
  8
0
100
AcDbSpline
 62
6
  6
CONTINUOUS
 70
0
 71
3
 72
21
 73
17
 74
15
 42
0.0000001
 43
0.0000001
 44
0.0000000001
 12
0.1152967134
 22
0.0507848509
 32
0.0
 13
0.0825640859
 23
0.0951609421
 33
0.0
 40
0.0
 40
0.0
 40
0.0
 40
0.0
 40
0.0544482283
 40
0.110044579
 40
0.166774167
 40
0.2246233511
 40
0.283584407
 40
0.3436474975
 40
0.404797675
 40
0.4670158444
 40
0.5302805646
 40
0.594566184
 40
0.659845013
 40
0.7260884047
 40
0.8613398414
 40
1.0
 40
1.0
 40
1.0
 40
1.0
 10
8.1884772448
 20
7.504776152
 30
0.0
 10
8.1905698121
 20
7.5056978671
 30
0.0
 10
8.1947656852
 20
7.5076374402
 30
0.0
 10
8.2010198844
 20
7.5107925122
 30
0.0
 10
8.2072926693
 20
7.5142193521
 30
0.0
 10
8.2135761657
 20
7.5179135769
 30
0.0
 10
8.2198632278
 20
7.5218711075
 30
0.0
 10
8.2261469652
 20
7.5260879653
 30
0.0
 10
8.2324203134
 20
7.5305601644
 30
0.0
 10
8.2386759664
 20
7.5352836609
 30
0.0
 10
8.2449064441
 20
7.5402542604
 30
0.0
 10
8.2511041655
 20
7.5454675825
 30
0.0
 10
8.2572614735
 20
7.5509191869
 30
0.0
 10
8.265463382
 20
7.5585522216
 30
0.0
 10
8.275559985
 20
7.5686656342
 30
0.0
 10
8.2832979138
 20
7.5771834367
 30
0.0
 10
8.2871140302
 20
7.5815817805
 30
0.0
 11
8.1884772448
 21
7.504776152
 31
0.0
 11
8.1947049945
 21
7.5076520347
 31
0.0
 11
8.2009597688
 21
7.5108046149
 31
0.0
 11
8.2072330601
 21
7.5142291169
 31
0.0
 11
8.2135169345
 21
7.5179210631
 31
0.0
 11
8.2198044954
 21
7.5218765152
 31
0.0
 11
8.2260889354
 21
7.526091584
 31
0.0
 11
8.2323631315
 21
7.5305622611
 31
0.0
 11
8.2386197103
 21
7.5352844436
 31
0.0
 11
8.2448512431
 21
7.5402539727
 31
0.0
 11
8.2510500643
 21
7.5454664272
 31
0.0
 11
8.2572084348
 21
7.5509173058
 31
0.0
 11
8.2633186035
 21
7.5566021138
 31
0.0
 11
8.2753631291
 21
7.5686554556
 31
0.0
 11
8.2871140302
 21
7.5815817805
 31
0.0
  0
SPLINE
  5
36B
100
AcDbEntity
  8
0
100
AcDbSpline
 62
6
  6
CONTINUOUS
 70
0
 71
3
 72
15
 73
11
 74
9
 42
0.0000001
 43
0.0000001
 44
0.0000000001
 12
0.0443983897
 22
0.0046613071
 32
0.0
 13
0.0408547736
 23
0.0179953402
 33
0.0
 40
0.0
 40
0.0
 40
0.0
 40
0.0
 40
0.1352445272
 40
0.2675339084
 40
0.3968222851
 40
0.5231134483
 40
0.6464739123
 40
0.7670147911
 40
0.8848237832
 40
1.0
 40
1.0
 40
1.0
 40
1.0
 10
8.1451979054
 20
7.4945598674
 30
0.0
 10
8.1471994518
 20
7.4947700062
 30
0.0
 10
8.1511543336
 20
7.4952303061
 30
0.0
 10
8.1570006458
 20
7.4960662644
 30
0.0
 10
8.1626883654
 20
7.4970535861
 30
0.0
 10
8.1682095925
 20
7.498205647
 30
0.0
 10
8.1735569249
 20
7.4995355968
 30
0.0
 10
8.1787220548
 20
7.501056461
 30
0.0
 10
8.18369468
 20
7.5027797523
 30
0.0
 10
8.1869087454
 20
7.5040852736
 30
0.0
 10
8.1884772448
 20
7.504776152
 30
0.0
 11
8.1451979054
 21
7.4945598674
 31
0.0
 11
8.1511946065
 21
7.495261788
 31
0.0
 11
8.1570402563
 21
7.4961019485
 31
0.0
 11
8.1627261795
 21
7.4970935711
 31
0.0
 11
8.1682442785
 21
7.4982498462
 31
0.0
 11
8.1735873586
 21
7.4995839147
 31
0.0
 11
8.178748023
 21
7.5011087876
 31
0.0
 11
8.1837155896
 21
7.5028360049
 31
0.0
 11
8.1884772448
 21
7.504776152
 31
0.0
  0
LINE
  5
36C
100
AcDbEntity
  8
0
100
AcDbLine
 62
6
  6
CONTINUOUS
 10
8.1083591343
 20
7.5815849062
 11
8.2243591343
 21
7.581452279
  0
SPLINE
  5
36D
100
AcDbEntity
  8
0
100
AcDbSpline
 62
6
  6
CONTINUOUS
 70
0
 71
3
 72
14
 73
10
 74
8
 42
0.0000001
 43
0.0000001
 44
0.0000000001
 12
0.0402188629
 22
0.0045376674
 32
0.0
 13
0.0360472316
 23
0.0184050115
 33
0.0
 40
0.0
 40
0.0
 40
0.0
 40
0.0
 40
0.1379656233
 40
0.2720265729
 40
0.4022097576
 40
0.528601938
 40
0.6513640884
 40
0.7707194653
 40
1.0
 40
1.0
 40
1.0
 40
1.0
 10
7.9814359379
 20
7.4945582938
 30
0.0
 10
7.9832855447
 20
7.4947669745
 30
0.0
 10
7.9869275108
 20
7.4952240471
 30
0.0
 10
7.9922902546
 20
7.4960580945
 30
0.0
 10
7.9974685585
 20
7.4970444102
 30
0.0
 10
8.0024563309
 20
7.4981966126
 30
0.0
 10
8.0072485635
 20
7.4995284737
 30
0.0
 10
8.0132852059
 20
7.5015337618
 30
0.0
 10
8.0176268532
 20
7.5033832479
 30
0.0
 10
8.0203818294
 20
7.5047898848
 30
0.0
 11
7.9814359379
 21
7.4945582938
 31
0.0
 11
7.9869759341
 21
7.4952581362
 31
0.0
 11
7.9923367118
 21
7.4960968258
 31
0.0
 11
7.9975117159
 21
7.4970878352
 31
0.0
 11
8.00249481
 21
7.4982446195
 31
0.0
 11
8.0072805088
 21
7.4995806065
 31
0.0
 11
8.0118631161
 21
7.5011090947
 31
0.0
 11
8.0203818294
 21
7.5047898848
 31
0.0
  0
LINE
  5
36E
100
AcDbEntity
  8
0
100
AcDbLine
 62
6
  6
CONTINUOUS
 10
9.4407893522
 20
7.5815817805
 11
9.4547078278
 21
7.581429443
  0
LINE
  5
36F
100
AcDbEntity
  8
0
100
AcDbLine
 62
6
  6
CONTINUOUS
 10
7.9394250891
 20
7.5815817805
 11
8.0646520972
 21
7.581429443
  0
SPLINE
  5
370
100
AcDbEntity
  8
0
100
AcDbSpline
 62
6
  6
CONTINUOUS
 70
0
 71
3
 72
21
 73
17
 74
15
 42
0.0000001
 43
0.0000001
 44
0.0000000001
 12
0.1266043185
 22
0.0427433942
 32
0.0
 13
0.0785239414
 23
0.108118647
 33
0.0
 40
0.0
 40
0.0
 40
0.0
 40
0.0
 40
0.0638871085
 40
0.1275366542
 40
0.1909464767
 40
0.2541208829
 40
0.3798067799
 40
0.504747703
 40
0.5669901515
 40
0.6290953278
 40
0.6910816534
 40
0.7529702746
 40
0.8147853135
 40
0.8765531198
 40
0.9382885634
 40
1.0
 40
1.0
 40
1.0
 40
1.0
 10
9.3340060182
 20
7.504776152
 30
0.0
 10
9.3367021462
 20
7.5056864026
 30
0.0
 10
9.3420522667
 20
7.5076003282
 30
0.0
 10
9.3499532932
 20
7.5107530726
 30
0.0
 10
9.3577057946
 20
7.5141779505
 30
0.0
 10
9.367812946
 20
7.5190924065
 30
0.0
 10
9.3800386272
 20
7.525895135
 30
0.0
 10
9.3916859041
 20
7.5335726352
 30
0.0
 10
9.4005920119
 20
7.540207814
 30
0.0
 10
9.4070524079
 20
7.5454215761
 30
0.0
 10
9.413291775
 20
7.5508739047
 30
0.0
 10
9.419300823
 20
7.5565604045
 30
0.0
 10
9.4250700254
 20
7.5624765597
 30
0.0
 10
9.4305894075
 20
7.5686173997
 30
0.0
 10
9.4358483995
 20
7.5749765431
 30
0.0
 10
9.4391740772
 20
7.5793577282
 30
0.0
 10
9.4407893522
 20
7.5815817805
 30
0.0
 11
9.3340060182
 21
7.504776152
 31
0.0
 11
9.3420439444
 21
7.5076520347
 31
0.0
 11
9.3499432613
 21
7.5108046149
 31
0.0
 11
9.3576935444
 21
7.5142291169
 31
0.0
 11
9.3652850882
 21
7.5179210631
 31
0.0
 11
9.3799584424
 21
7.526091584
 31
0.0
 11
9.393894806
 21
7.5352844436
 31
0.0
 11
9.4005640458
 21
7.5402539727
 31
0.0
 11
9.4070216389
 21
7.5454664272
 31
0.0
 11
9.4132582063
 21
7.5509173058
 31
0.0
 11
9.4192643447
 21
7.5566021138
 31
0.0
 11
9.4250306084
 21
7.562516369
 31
0.0
 11
9.4305474555
 21
7.5686554556
 31
0.0
 11
9.4358041944
 21
7.5750130742
 31
0.0
 11
9.4407893522
 21
7.5815817805
 31
0.0
  0
SPLINE
  5
371
100
AcDbEntity
  8
0
100
AcDbSpline
 62
6
  6
CONTINUOUS
 70
0
 71
3
 72
23
 73
19
 74
17
 42
0.0000001
 43
0.0000001
 44
0.0000000001
 12
0.0920353333
 22
0.0572393274
 32
0.0
 13
0.063361224
 23
0.0879329203
 33
0.0
 40
0.0
 40
0.0
 40
0.0
 40
0.0
 40
0.0487583133
 40
0.0994386347
 40
0.1520291424
 40
0.2065161766
 40
0.2628891377
 40
0.3211336015
 40
0.3812290697
 40
0.4431500948
 40
0.5068679357
 40
0.5723486454
 40
0.6395554958
 40
0.7084502277
 40
0.7789933434
 40
0.8511428165
 40
0.9248368308
 40
1.0
 40
1.0
 40
1.0
 40
1.0
 10
7.8638394518
 20
7.504776152
 30
0.0
 10
7.865335281
 20
7.5057064497
 30
0.0
 10
7.868348561
 20
7.5076643122
 30
0.0
 10
7.8728450563
 20
7.510820205
 30
0.0
 10
7.8773999701
 20
7.5142476441
 30
0.0
 10
7.8820075671
 20
7.5179422602
 30
0.0
 10
7.8866626583
 20
7.5219000127
 30
0.0
 10
7.8913602313
 20
7.5261169656
 30
0.0
 10
7.896095142
 20
7.53058916
 30
0.0
 10
7.9008620678
 20
7.5353125625
 30
0.0
 10
7.9056555506
 20
7.5402829872
 30
0.0
 10
7.9104700587
 20
7.545496083
 30
0.0
 10
7.9152999583
 20
7.5509473972
 30
0.0
 10
7.9201395831
 20
7.5566324586
 30
0.0
 10
7.9249832153
 20
7.5625467622
 30
0.0
 10
7.9298246746
 20
7.5686852326
 30
0.0
 10
7.9346571695
 20
7.5750416914
 30
0.0
 10
7.9378376123
 20
7.5793786749
 30
0.0
 10
7.9394250891
 20
7.5815817805
 30
0.0
 11
7.8638394518
 21
7.504776152
 31
0.0
 11
7.8682729524
 21
7.5076520347
 31
0.0
 11
7.8727710571
 21
7.5108046149
 31
0.0
 11
7.8773275637
 21
7.5142291169
 31
0.0
 11
7.8819366845
 21
7.5179210631
 31
0.0
 11
7.8865933806
 21
7.5218765152
 31
0.0
 11
7.8912926776
 21
7.526091584
 31
0.0
 11
7.8960293813
 21
7.5305622611
 31
0.0
 11
7.9007981228
 21
7.5352844436
 31
0.0
 11
7.9055934885
 21
7.5402539727
 31
0.0
 11
7.9104098701
 21
7.5454664272
 31
0.0
 11
7.9152415989
 21
7.5509173058
 31
0.0
 11
7.9200829997
 21
7.5566021138
 31
0.0
 11
7.9249283859
 21
7.562516369
 31
0.0
 11
7.9297719749
 21
7.5686554556
 31
0.0
 11
7.9346067999
 21
7.5750130742
 31
0.0
 11
7.9394250891
 21
7.5815817805
 31
0.0
  0
SPLINE
  5
372
100
AcDbEntity
  8
0
100
AcDbSpline
 62
6
  6
CONTINUOUS
 70
0
 71
3
 72
15
 73
11
 74
9
 42
0.0000001
 43
0.0000001
 44
0.0000000001
 12
0.0349207381
 22
0.0044466915
 32
0.0
 13
0.029893044
 23
0.0185913135
 33
0.0
 40
0.0
 40
0.0
 40
0.0
 40
0.0
 40
0.140770591
 40
0.2765567284
 40
0.4074982022
 40
0.5338109463
 40
0.6558031616
 40
0.7738736888
 40
0.888443951
 40
1.0
 40
1.0
 40
1.0
 40
1.0
 10
7.8304255919
 20
7.4945598674
 30
0.0
 10
7.8320641962
 20
7.4947685219
 30
0.0
 10
7.8352777597
 20
7.4952249615
 30
0.0
 10
7.8399870121
 20
7.4960601609
 30
0.0
 10
7.8444937129
 20
7.4970468674
 30
0.0
 10
7.8487941318
 20
7.4981985779
 30
0.0
 10
7.8528846787
 20
7.4995287138
 30
0.0
 10
7.8567608103
 20
7.5010505507
 30
0.0
 10
7.8604161135
 20
7.5027758342
 30
0.0
 10
7.8627278685
 20
7.5040848275
 30
0.0
 10
7.8638394518
 20
7.504776152
 30
0.0
 11
7.8304255919
 21
7.4945598674
 31
0.0
 11
7.8353311351
 21
7.495261788
 31
0.0
 11
7.8400367612
 21
7.4961019485
 31
0.0
 11
7.844538331
 21
7.4970935711
 31
0.0
 11
7.848831913
 21
7.4982498462
 31
0.0
 11
7.8529139005
 21
7.4995839147
 31
0.0
 11
7.8567804813
 21
7.5011087876
 31
0.0
 11
7.8604251067
 21
7.5028360049
 31
0.0
 11
7.8638394518
 21
7.504776152
 31
0.0
  0
SPLINE
  5
373
100
AcDbEntity
  8
0
100
AcDbSpline
 62
6
  6
CONTINUOUS
 70
0
 71
3
 72
13
 73
9
 74
7
 42
0.0000001
 43
0.0000001
 44
0.0000000001
 12
0.0467573566
 22
0.0057077294
 32
0.0
 13
0.0446295541
 23
0.0150675636
 33
0.0
 40
0.0
 40
0.0
 40
0.0
 40
0.0
 40
0.2309581046
 40
0.3517589595
 40
0.4757532953
 40
0.6027592835
 40
0.7326141008
 40
1.0
 40
1.0
 40
1.0
 40
1.0
 10
9.2881035954
 20
7.4945598674
 30
0.0
 10
9.2917032589
 20
7.4949992829
 30
0.0
 10
9.2971732054
 20
7.4957793405
 30
0.0
 10
9.3045296372
 20
7.497080096
 30
0.0
 10
9.31025269
 20
7.4982351365
 30
0.0
 10
9.3160830467
 20
7.4995679376
 30
0.0
 10
9.3240554845
 20
7.5016191401
 30
0.0
 10
9.3300282471
 20
7.5034332007
 30
0.0
 10
9.3340060182
 20
7.504776152
 30
0.0
 11
9.2881035954
 21
7.4945598674
 31
0.0
 11
9.2988729015
 21
7.4961019485
 31
0.0
 11
9.3044760889
 21
7.4970935711
 31
0.0
 11
9.3102011758
 21
7.4982498462
 31
0.0
 11
9.3160330813
 21
7.4995839147
 31
0.0
 11
9.3219566999
 21
7.5011087876
 31
0.0
 11
9.3340060182
 21
7.504776152
 31
0.0
  0
LINE
  5
374
100
AcDbEntity
  8
0
100
AcDbLine
 62
6
  6
CONTINUOUS
 10
7.7621727153
 20
7.5815849062
 11
7.8765550884
 21
7.581452279
  0
SPLINE
  5
375
100
AcDbEntity
  8
0
100
AcDbSpline
 62
6
  6
CONTINUOUS
 70
0
 71
3
 72
23
 73
19
 74
17
 42
0.0000001
 43
0.0000001
 44
0.0000000001
 12
0.0772109817
 22
0.062364374
 32
0.0
 13
0.0529174196
 23
0.0839678363
 33
0.0
 40
0.0
 40
0.0
 40
0.0
 40
0.0
 40
0.0450815191
 40
0.0926124368
 40
0.1425734464
 40
0.1949427345
 40
0.2497009456
 40
0.3068249853
 40
0.3662861439
 40
0.4280512106
 40
0.4920839269
 40
0.5583429313
 40
0.6267842841
 40
0.6973627412
 40
0.7700320093
 40
0.8447433235
 40
0.921427208
 40
1.0
 40
1.0
 40
1.0
 40
1.0
 10
7.6999079404
 20
7.5047898848
 30
0.0
 10
7.7010682032
 20
7.5057270451
 30
0.0
 10
7.7034147593
 20
7.5076984302
 30
0.0
 10
7.7069229325
 20
7.5108525673
 30
0.0
 10
7.7105083739
 20
7.5142779338
 30
0.0
 10
7.7141665888
 20
7.5179702659
 30
0.0
 10
7.7178935
 20
7.5219256311
 30
0.0
 10
7.7216851693
 20
7.5261401977
 30
0.0
 10
7.7255375527
 20
7.5306100982
 30
0.0
 10
7.7294464673
 20
7.535331379
 30
0.0
 10
7.7334076208
 20
7.5402999327
 30
0.0
 10
7.7374166522
 20
7.5455114952
 30
0.0
 10
7.7414691128
 20
7.5509616931
 30
0.0
 10
7.745560527
 20
7.5566461308
 30
0.0
 10
7.7496863748
 20
7.5625603754
 30
0.0
 10
7.7538417335
 20
7.5686994073
 30
0.0
 10
7.7580211359
 20
7.5750571444
 30
0.0
 10
7.7607867589
 20
7.5793857104
 30
0.0
 10
7.7621727153
 20
7.5815849062
 30
0.0
 11
7.6999079404
 21
7.5047898848
 31
0.0
 11
7.7033366499
 21
7.5076646479
 31
0.0
 11
7.7068473567
 21
7.5108158164
 31
0.0
 11
7.710435206
 21
7.514238691
 31
0.0
 11
7.7140956643
 21
7.5179288699
 31
0.0
 11
7.7178247784
 21
7.5218824893
 31
0.0
 11
7.7216186456
 21
7.5260957344
 31
0.0
 11
7.7254731947
 21
7.5305646727
 31
0.0
 11
7.729384221
 21
7.5352852781
 31
0.0
 11
7.7333474809
 21
7.5402534688
 31
0.0
 11
7.7373585577
 21
7.5454649001
 31
0.0
 11
7.7414129815
 21
7.5509151467
 31
0.0
 11
7.7455062766
 21
7.5565997893
 31
0.0
 11
7.7496339575
 21
7.5625144191
 31
0.0
 11
7.7537914537
 21
7.5686544934
 31
0.0
 11
7.7579731488
 21
7.5750137817
 31
0.0
 11
7.7621727153
 21
7.5815849062
 31
0.0
  0
SPLINE
  5
376
100
AcDbEntity
  8
0
100
AcDbSpline
 62
6
  6
CONTINUOUS
 70
0
 71
3
 72
15
 73
11
 74
9
 42
0.0000001
 43
0.0000001
 44
0.0000000001
 12
0.0297333695
 22
0.0043007137
 32
0.0
 13
0.0233712804
 23
0.0188773052
 33
0.0
 40
0.0
 40
0.0
 40
0.0
 40
0.0
 40
0.1443090329
 40
0.2821590684
 40
0.4138695152
 40
0.5398716797
 40
0.6607310635
 40
0.7771597173
 40
0.8899462921
 40
1.0
 40
1.0
 40
1.0
 40
1.0
 10
7.6720327272
 20
7.4945582938
 30
0.0
 10
7.6734629918
 20
7.494765171
 30
0.0
 10
7.6762529673
 20
7.4952175226
 30
0.0
 10
7.6803143457
 20
7.4960507056
 30
0.0
 10
7.6841529178
 20
7.4970364706
 30
0.0
 10
7.6877671879
 20
7.4981887644
 30
0.0
 10
7.6911555515
 20
7.4995216314
 30
0.0
 10
7.6943153385
 20
7.5010489528
 30
0.0
 10
7.6972419342
 20
7.5027829951
 30
0.0
 10
7.699050575
 20
7.504097379
 30
0.0
 10
7.6999079404
 20
7.5047898848
 30
0.0
 11
7.6720327272
 21
7.4945582938
 31
0.0
 11
7.6763113153
 21
7.4952581362
 31
0.0
 11
7.6803669033
 21
7.4960968258
 31
0.0
 11
7.6841977454
 21
7.4970878352
 31
0.0
 11
7.6878021225
 21
7.4982446195
 31
0.0
 11
7.6911783573
 21
7.4995806065
 31
0.0
 11
7.6943245648
 21
7.5011090947
 31
0.0
 11
7.6972364024
 21
7.5028419008
 31
0.0
 11
7.6999079404
 21
7.5047898848
 31
0.0
  0
SPLINE
  5
377
100
AcDbEntity
  8
0
100
AcDbSpline
 62
6
  6
CONTINUOUS
 70
0
 71
3
 72
15
 73
11
 74
9
 42
0.0000001
 43
0.0000001
 44
0.0000000001
 12
0.1334913718
 22
0.0427135382
 32
0.0
 13
0.0881243263
 23
0.1089885122
 33
0.0
 40
0.0
 40
0.0
 40
0.0
 40
0.0
 40
0.1276556954
 40
0.254490324
 40
0.3804997801
 40
0.505733264
 40
0.6302334002
 40
0.7540549145
 40
0.8772883635
 40
1.0
 40
1.0
 40
1.0
 40
1.0
 10
9.286333853
 20
7.5047898848
 30
0.0
 10
9.2920141643
 20
7.506607427
 30
0.0
 10
9.3032199828
 20
7.5106136137
 30
0.0
 10
9.3195254189
 20
7.5177281611
 30
0.0
 10
9.33520212
 20
7.5258984156
 30
0.0
 10
9.3501741722
 20
7.5350916581
 30
0.0
 10
9.3643653688
 20
7.5452763449
 30
0.0
 10
9.3776975427
 20
7.5564187404
 30
0.0
 10
9.3900867503
 20
7.5684811839
 30
0.0
 10
9.3976771326
 20
7.5771268533
 30
0.0
 10
9.4012817594
 20
7.5815849062
 30
0.0
 11
9.286333853
 21
7.5047898848
 31
0.0
 11
9.3031805948
 21
7.5108158164
 31
0.0
 11
9.3194724415
 21
7.5179288699
 31
0.0
 11
9.3351320556
 21
7.5260957344
 31
0.0
 11
9.3500867758
 21
7.5352852781
 31
0.0
 11
9.3642596005
 21
7.5454649001
 31
0.0
 11
9.3775711557
 21
7.5565997893
 31
0.0
 11
9.389941012
 21
7.5686544934
 31
0.0
 11
9.4012817594
 21
7.5815849062
 31
0.0
  0
LINE
  5
378
100
AcDbEntity
  8
0
100
AcDbLine
 62
6
  6
CONTINUOUS
 10
7.5999505317
 20
7.5815817805
 11
7.7197344072
 21
7.581429443
  0
SPLINE
  5
379
100
AcDbEntity
  8
0
100
AcDbSpline
 62
6
  6
CONTINUOUS
 70
0
 71
3
 72
15
 73
11
 74
9
 42
0.0000001
 43
0.0000001
 44
0.0000000001
 12
-0.0449326405
 22
-0.0413299156
 32
0.0
 13
-0.0551247653
 23
-0.0262366988
 33
0.0
 40
0.0
 40
0.0
 40
0.0
 40
0.0
 40
0.1384207822
 40
0.2731653741
 40
0.4041092312
 40
0.5311665601
 40
0.6543074085
 40
0.7735171767
 40
0.8887605751
 40
1.0
 40
1.0
 40
1.0
 40
1.0
 10
8.0701572689
 20
7.5520570394
 30
0.0
 10
8.0680840651
 20
7.5501500663
 30
0.0
 10
8.063937264
 20
7.5464464533
 30
0.0
 10
8.057635753
 20
7.5411605517
 30
0.0
 10
8.051347034
 20
7.5362255507
 30
0.0
 10
8.0450825898
 20
7.5316493895
 30
0.0
 10
8.038852728
 20
7.5274389781
 30
0.0
 10
8.0326677147
 20
7.5236010019
 30
0.0
 10
8.0265391065
 20
7.5201429687
 30
0.0
 10
8.0224258451
 20
7.5180592954
 30
0.0
 10
8.0203818294
 20
7.5170864437
 30
0.0
 11
8.0701572689
 21
7.5520570394
 31
0.0
 11
8.0638524866
 21
7.5464301218
 31
0.0
 11
8.0575478802
 21
7.5411460295
 31
0.0
 11
8.0512566374
 21
7.5362138609
 31
0.0
 11
8.0449905726
 21
7.5316416428
 31
0.0
 11
8.038759419
 21
7.5274357783
 31
0.0
 11
8.0325729083
 21
7.5236026535
 31
0.0
 11
8.0264427319
 21
7.5201500082
 31
0.0
 11
8.0203818294
 21
7.5170864437
 31
0.0
  0
SPLINE
  5
37A
100
AcDbEntity
  8
0
100
AcDbSpline
 62
6
  6
CONTINUOUS
 70
0
 71
3
 72
22
 73
18
 74
16
 42
0.0000001
 43
0.0000001
 44
0.0000000001
 12
0.0584532612
 22
0.0692180721
 32
0.0
 13
0.0423152255
 23
0.080108345
 33
0.0
 40
0.0
 40
0.0
 40
0.0
 40
0.0
 40
0.0410682615
 40
0.0851981117
 40
0.1323480393
 40
0.1824762935
 40
0.2355453329
 40
0.2915157752
 40
0.3503445186
 40
0.411985538
 40
0.4763909089
 40
0.5435084702
 40
0.6132842793
 40
0.6856638325
 40
0.7605922339
 40
0.8380125136
 40
1.0
 40
1.0
 40
1.0
 40
1.0
 10
7.552165366
 20
7.504776152
 30
0.0
 10
7.5529655572
 20
7.5057237073
 30
0.0
 10
7.554596217
 20
7.507714373
 30
0.0
 10
7.5570519243
 20
7.5108681843
 30
0.0
 10
7.5596025655
 20
7.5142935553
 30
0.0
 10
7.5622448616
 20
7.5179861634
 30
0.0
 10
7.5649758129
 20
7.5219419948
 30
0.0
 10
7.5677925359
 20
7.5261571494
 30
0.0
 10
7.5706920834
 20
7.5306276736
 30
0.0
 10
7.5736714216
 20
7.5353495193
 30
0.0
 10
7.5767274375
 20
7.5403184896
 30
0.0
 10
7.5798569629
 20
7.5455302399
 30
0.0
 10
7.5830567638
 20
7.5509803142
 30
0.0
 10
7.5863235866
 20
7.5566642336
 30
0.0
 10
7.5896541657
 20
7.5625774829
 30
0.0
 10
7.5942445734
 20
7.5708865728
 30
0.0
 10
7.597665686
 20
7.577256264
 30
0.0
 10
7.5999505317
 20
7.5815817805
 30
0.0
 11
7.552165366
 21
7.504776152
 31
0.0
 11
7.5545260444
 21
7.5076520347
 31
0.0
 11
7.5569848469
 21
7.5108046149
 31
0.0
 11
7.5595382669
 21
7.5142291169
 31
0.0
 11
7.5621830262
 21
7.5179210631
 31
0.0
 11
7.56491626
 21
7.5218765152
 31
0.0
 11
7.5677351399
 21
7.526091584
 31
0.0
 11
7.5706367267
 21
7.5305622611
 31
0.0
 11
7.5736179933
 21
7.5352844436
 31
0.0
 11
7.5766758815
 21
7.5402539727
 31
0.0
 11
7.5798071925
 21
7.5454664272
 31
0.0
 11
7.5830086843
 21
7.5509173058
 31
0.0
 11
7.5862771142
 21
7.5566021138
 31
0.0
 11
7.589609239
 21
7.562516369
 31
0.0
 11
7.5930017449
 21
7.5686554556
 31
0.0
 11
7.5999505317
 21
7.5815817805
 31
0.0
  0
SPLINE
  5
37B
100
AcDbEntity
  8
0
100
AcDbSpline
 62
6
  6
CONTINUOUS
 70
0
 71
3
 72
18
 73
14
 74
12
 42
0.0000001
 43
0.0000001
 44
0.0000000001
 12
0.0238807549
 22
0.004198396
 32
0.0
 13
0.0156440809
 23
0.0185251105
 33
0.0
 40
0.0
 40
0.0
 40
0.0
 40
0.0
 40
0.1474707396
 40
0.2867102024
 40
0.4183671736
 40
0.5432770384
 40
0.662494371
 40
0.7203869327
 40
0.7773627368
 40
0.833606126
 40
0.8893159268
 40
0.9447053215
 40
1.0
 40
1.0
 40
1.0
 40
1.0
 10
7.5307165013
 20
7.4945598674
 30
0.0
 10
7.5318904055
 20
7.4947662476
 30
0.0
 10
7.5341645622
 20
7.4952167672
 30
0.0
 10
7.5374433052
 20
7.4960511406
 30
0.0
 10
7.540489131
 20
7.497037878
 30
0.0
 10
7.5433024455
 20
7.4981909204
 30
0.0
 10
7.5454745419
 20
7.499313546
 30
0.0
 10
7.5470853085
 20
7.5003073989
 30
0.0
 10
7.5482229047
 20
7.5010950731
 30
0.0
 10
7.5493012949
 20
7.5019336379
 30
0.0
 10
7.5503200483
 20
7.5028244641
 30
0.0
 10
7.551278632
 20
7.5037688225
 30
0.0
 10
7.5518770211
 20
7.5044347053
 30
0.0
 10
7.552165366
 20
7.504776152
 30
0.0
 11
7.5307165013
 21
7.4945598674
 31
0.0
 11
7.5342226534
 21
7.495261788
 31
0.0
 11
7.537492584
 21
7.4961019485
 31
0.0
 11
7.5405269501
 21
7.4970935711
 31
0.0
 11
7.5433262335
 21
7.4982498462
 31
0.0
 11
7.5458906421
 21
7.4995839147
 31
0.0
 11
7.5470848233
 21
7.5003217247
 31
0.0
 11
7.548220188
 21
7.5011087876
 31
0.0
 11
7.5492963415
 21
7.5019464406
 31
0.0
 11
7.5503128669
 21
7.5028360049
 31
0.0
 11
7.5512693473
 21
7.5037788017
 31
0.0
 11
7.552165366
 21
7.504776152
 31
0.0
  0
SPLINE
  5
37C
100
AcDbEntity
  8
0
100
AcDbSpline
 62
6
  6
CONTINUOUS
 70
0
 71
3
 72
22
 73
18
 74
16
 42
0.0000001
 43
0.0000001
 44
0.0000000001
 12
0.104736098
 22
0.0534762034
 32
0.0
 13
0.0735765871
 23
0.0917378896
 33
0.0
 40
0.0
 40
0.0
 40
0.0
 40
0.0
 40
0.0518447504
 40
0.1052006385
 40
0.1600560497
 40
0.2163941681
 40
0.2741937882
 40
0.3334305037
 40
0.3940854667
 40
0.4561445917
 40
0.5195917835
 40
0.5844090376
 40
0.6505766948
 40
0.7180631894
 40
0.7868113609
 40
0.8567596766
 40
1.0
 40
1.0
 40
1.0
 40
1.0
 10
8.0203818294
 20
7.5047898848
 30
0.0
 10
8.022191835
 20
7.5057140383
 30
0.0
 10
8.0258291564
 20
7.5076594532
 30
0.0
 10
8.0312546793
 20
7.5108126419
 30
0.0
 10
8.0367213455
 20
7.5142384303
 30
0.0
 10
8.0422216919
 20
7.5179320831
 30
0.0
 10
8.0477483989
 20
7.521888946
 30
0.0
 10
8.0532943793
 20
7.5261045699
 30
0.0
 10
8.0588530462
 20
7.5305749213
 30
0.0
 10
8.0644183467
 20
7.535296302
 30
0.0
 10
8.0699844626
 20
7.5402651955
 30
0.0
 10
8.0755455801
 20
7.5454780844
 30
0.0
 10
8.0810955784
 20
7.5509311764
 30
0.0
 10
8.0866274375
 20
7.5566195944
 30
0.0
 10
8.0921332942
 20
7.5625373215
 30
0.0
 10
8.0994858687
 20
7.5707892341
 30
0.0
 10
8.1048460896
 20
7.5772047179
 30
0.0
 10
8.1083591343
 20
7.5815849062
 30
0.0
 11
8.0203818294
 21
7.5047898848
 31
0.0
 11
8.0257595999
 21
7.5076623757
 31
0.0
 11
8.0311860749
 21
7.510812531
 31
0.0
 11
8.0366538395
 21
7.5142356414
 31
0.0
 11
8.0421554789
 21
7.5179269972
 31
0.0
 11
8.0476835784
 21
7.5218818891
 31
0.0
 11
8.0532307696
 21
7.5260956422
 31
0.0
 11
8.0587905012
 21
7.5305641899
 31
0.0
 11
8.0643569193
 21
7.5352839851
 31
0.0
 11
8.0699241922
 21
7.5402514973
 31
0.0
 11
8.0754864884
 21
7.545463196
 31
0.0
 11
8.0810379728
 21
7.5509155469
 31
0.0
 11
8.0865719846
 21
7.5566040879
 31
0.0
 11
8.0920799501
 21
7.5625222083
 31
0.0
 11
8.0975530258
 21
7.568662994
 31
0.0
 11
8.1083591343
 21
7.5815849062
 31
0.0
  0
LINE
  5
37D
100
AcDbEntity
  8
0
100
AcDbLine
 62
6
  6
CONTINUOUS
 10
7.4353380985
 20
7.5815849062
 11
7.5409157795
 21
7.581452279
  0
SPLINE
  5
37E
100
AcDbEntity
  8
0
100
AcDbSpline
 62
6
  6
CONTINUOUS
 70
0
 71
3
 72
16
 73
12
 74
10
 42
0.0000001
 43
0.0000001
 44
0.0000000001
 12
0.1382637326
 22
0.0428961089
 32
0.0
 13
0.0951210138
 23
0.1091280379
 33
0.0
 40
0.0
 40
0.0
 40
0.0
 40
0.0
 40
0.1272876316
 40
0.2539800021
 40
0.3170891443
 40
0.3800343403
 40
0.5054058921
 40
0.6300911918
 40
0.754077446
 40
0.8773835082
 40
1.0
 40
1.0
 40
1.0
 40
1.0
 10
9.2231148012
 20
7.504776152
 30
0.0
 10
9.2289812223
 20
7.5065962
 30
0.0
 10
9.2405723459
 20
7.5106080036
 30
0.0
 10
9.2546860944
 20
7.5165472023
 30
0.0
 10
9.2656821161
 20
7.5218279477
 30
0.0
 10
9.276440644
 20
7.5274403203
 30
0.0
 10
9.289476744
 20
7.5350930302
 30
0.0
 10
9.3043953919
 20
7.5452773439
 30
0.0
 10
9.3184896982
 20
7.5564172056
 30
0.0
 10
9.3316725033
 20
7.5684742056
 30
0.0
 10
9.3398193302
 20
7.5771214815
 30
0.0
 10
9.3437071319
 20
7.5815817805
 30
0.0
 11
9.2231148012
 21
7.504776152
 31
0.0
 11
9.2405275801
 21
7.5108046149
 31
0.0
 11
9.2574312791
 21
7.5179210631
 31
0.0
 11
9.2656666252
 21
7.5218765152
 31
0.0
 11
9.2737454012
 21
7.526091584
 31
0.0
 11
9.2893944585
 21
7.5352844436
 31
0.0
 11
9.3042985728
 21
7.5454664272
 31
0.0
 11
9.318375465
 21
7.5566021138
 31
0.0
 11
9.331541872
 21
7.5686554556
 31
0.0
 11
9.3437071319
 21
7.5815817805
 31
0.0
  0
SPLINE
  5
37F
100
AcDbEntity
  8
0
100
AcDbSpline
 62
6
  6
CONTINUOUS
 70
0
 71
3
 72
16
 73
12
 74
10
 42
0.0000001
 43
0.0000001
 44
0.0000000001
 12
0.0335920502
 22
0.0763842117
 32
0.0
 13
0.0322333574
 23
0.0769674236
 33
0.0
 40
0.0
 40
0.0
 40
0.0
 40
0.0
 40
0.0375838621
 40
0.078759407
 40
0.1716414178
 40
0.2781579895
 40
0.3978597554
 40
0.5303664042
 40
0.6752936789
 40
0.8320762611
 40
1.0
 40
1.0
 40
1.0
 40
1.0
 10
7.4026981784
 20
7.5047898848
 30
0.0
 10
7.403119018
 20
7.5057468227
 30
0.0
 10
7.4039980404
 20
7.5077534124
 30
0.0
 10
7.4059038408
 20
7.5121307046
 30
0.0
 10
7.4085571614
 20
7.5182737143
 30
0.0
 10
7.4120541323
 20
7.526431512
 30
0.0
 10
7.4159653483
 20
7.5356108567
 30
0.0
 10
7.4202773071
 20
7.5457807559
 30
0.0
 10
7.424975252
 20
7.5569072578
 30
0.0
 10
7.430040905
 20
7.5689478224
 30
0.0
 10
7.4335338499
 20
7.577276687
 30
0.0
 10
7.4353380985
 20
7.5815849062
 30
0.0
 11
7.4026981784
 21
7.5047898848
 31
0.0
 11
7.4039569234
 21
7.5076623553
 31
0.0
 11
7.4053287849
 21
7.5108124662
 31
0.0
 11
7.4084037437
 21
7.5179268653
 31
0.0
 11
7.4119068422
 21
7.5260956271
 31
0.0
 11
7.4158231527
 21
7.5352842923
 31
0.0
 11
7.4201400253
 21
7.545463712
 31
0.0
 11
7.4248446901
 21
7.5566044407
 31
0.0
 11
7.4299185254
 21
7.56866311
 31
0.0
 11
7.4353380985
 21
7.5815849062
 31
0.0
  0
SPLINE
  5
380
100
AcDbEntity
  8
0
100
AcDbSpline
 62
6
  6
CONTINUOUS
 70
0
 71
3
 72
9
 73
5
 74
3
 42
0.0000001
 43
0.0000001
 44
0.0000000001
 12
0.0528498686
 22
0.0054131317
 32
0.0
 13
0.0507404695
 23
0.0157421521
 33
0.0
 40
0.0
 40
0.0
 40
0.0
 40
0.0
 40
0.4876719039
 40
1.0
 40
1.0
 40
1.0
 40
1.0
 10
9.1710465691
 20
7.4945598674
 30
0.0
 10
9.1796377011
 20
7.4954398115
 30
0.0
 10
9.1971961683
 20
7.4978992895
 30
0.0
 10
9.2144495452
 20
7.5020877697
 30
0.0
 10
9.2231148012
 20
7.504776152
 30
0.0
 11
9.1710465691
 21
7.4945598674
 31
0.0
 11
9.1966906856
 21
7.4982498462
 31
0.0
 11
9.2231148012
 21
7.504776152
 31
0.0
  0
LINE
  5
381
100
AcDbEntity
  8
0
100
AcDbLine
 62
6
  6
CONTINUOUS
 10
7.2900207928
 20
7.5815817805
 11
7.3968350743
 21
7.581429443
  0
SPLINE
  5
382
100
AcDbEntity
  8
0
100
AcDbSpline
 62
6
  6
CONTINUOUS
 70
0
 71
3
 72
15
 73
11
 74
9
 42
0.0000001
 43
0.0000001
 44
0.0000000001
 12
0.008642773
 22
0.0027302726
 32
0.0
 13
0.0040084016
 23
0.0081292454
 33
0.0
 40
0.0
 40
0.0
 40
0.0
 40
0.0
 40
0.1464218577
 40
0.2838983907
 40
0.4135588981
 40
0.5367644705
 40
0.6551170534
 40
0.7704285152
 40
0.8846909598
 40
1.0
 40
1.0
 40
1.0
 40
1.0
 10
7.2649024581
 20
7.4945598674
 30
0.0
 10
7.2653242884
 20
7.4946931246
 30
0.0
 10
7.2661349392
 20
7.4949755684
 30
0.0
 10
7.2672836539
 20
7.4954701415
 30
0.0
 10
7.2683258313
 20
7.4960254441
 30
0.0
 10
7.2692626405
 20
7.4966455455
 30
0.0
 10
7.2700949991
 20
7.4973343876
 30
0.0
 10
7.270823373
 20
7.4980958315
 30
0.0
 10
7.2714479001
 20
7.498933079
 30
0.0
 10
7.271791866
 20
7.4995377032
 30
0.0
 10
7.2719459344
 20
7.4998501617
 30
0.0
 11
7.2649024581
 21
7.4945598674
 31
0.0
 11
7.2661546072
 21
7.4949996484
 31
0.0
 11
7.2672977422
 21
7.4954955281
 31
0.0
 11
7.2683333386
 21
7.4960511049
 31
0.0
 11
7.2692628714
 21
7.4966699773
 31
0.0
 11
7.2700877699
 21
7.4973557409
 31
0.0
 11
7.2708091992
 21
7.4981119762
 31
0.0
 11
7.2714282304
 21
7.4989422582
 31
0.0
 11
7.2719459344
 21
7.4998501617
 31
0.0
  0
SPLINE
  5
383
100
AcDbEntity
  8
0
100
AcDbSpline
 62
6
  6
CONTINUOUS
 70
0
 71
3
 72
16
 73
12
 74
10
 42
0.0000001
 43
0.0000001
 44
0.0000000001
 12
0.1419919177
 22
0.0432021257
 32
0.0
 13
0.1009319255
 23
0.1088157836
 33
0.0
 40
0.0
 40
0.0
 40
0.0
 40
0.0
 40
0.1265088553
 40
0.2527336712
 40
0.3157132283
 40
0.3785918303
 40
0.5039984611
 40
0.6289011093
 40
0.7532342364
 40
0.8769584404
 40
1.0
 40
1.0
 40
1.0
 40
1.0
 10
9.1368375202
 20
7.5047898848
 30
0.0
 10
9.1428252652
 20
7.506611702
 30
0.0
 10
9.1546763078
 20
7.5106274208
 30
0.0
 10
9.1691363011
 20
7.5165605876
 30
0.0
 10
9.1804389613
 20
7.5218359585
 30
0.0
 10
9.191532642
 20
7.5274483468
 30
0.0
 10
9.2050186504
 20
7.5351008473
 30
0.0
 10
9.2205226049
 20
7.5452812427
 30
0.0
 10
9.235251895
 20
7.556418012
 30
0.0
 10
9.249117108
 20
7.568473383
 30
0.0
 10
9.2577512525
 20
7.5771219516
 30
0.0
 10
9.2618908597
 20
7.5815849062
 30
0.0
 11
9.1368375202
 21
7.5047898848
 31
0.0
 11
9.1546205773
 21
7.5108158164
 31
0.0
 11
9.1719518243
 21
7.5179288699
 31
0.0
 11
9.1804218777
 21
7.5218824893
 31
0.0
 11
9.1887490372
 21
7.5260957344
 31
0.0
 11
9.2049349806
 21
7.5352852781
 31
0.0
 11
9.2204278464
 21
7.5454649001
 31
0.0
 11
9.2351431804
 21
7.5565997893
 31
0.0
 11
9.2489953867
 21
7.5686544934
 31
0.0
 11
9.2618908597
 21
7.5815849062
 31
0.0
  0
SPLINE
  5
384
100
AcDbEntity
  8
0
100
AcDbSpline
 62
6
  6
CONTINUOUS
 70
0
 71
3
 72
20
 73
16
 74
14
 42
0.0000001
 43
0.0000001
 44
0.0000000001
 12
-0.0213326808
 22
-0.0685710408
 32
0.0
 13
-0.0091223363
 23
-0.0712309896
 33
0.0
 40
0.0
 40
0.0
 40
0.0
 40
0.0
 40
0.159666313
 40
0.3103713084
 40
0.451532877
 40
0.518376025
 40
0.5826670225
 40
0.6443639987
 40
0.7034257487
 40
0.759811803
 40
0.8134784643
 40
0.8643770893
 40
0.9124601195
 40
0.9576820361
 40
1.0
 40
1.0
 40
1.0
 40
1.0
 10
7.3968350743
 20
7.581429443
 30
0.0
 10
7.3956997042
 20
7.5777799479
 30
0.0
 10
7.3935326295
 20
7.5706732573
 30
0.0
 10
7.3905115244
 20
7.5602951442
 30
0.0
 10
7.3882287009
 20
7.5520171253
 30
0.0
 10
7.3865739406
 20
7.5457124989
 30
0.0
 10
7.3854412511
 20
7.5412376526
 30
0.0
 10
7.3843949222
 20
7.5369332869
 30
0.0
 10
7.3834356699
 20
7.5328027096
 30
0.0
 10
7.3825642255
 20
7.5288493322
 30
0.0
 10
7.3817813356
 20
7.5250768163
 30
0.0
 10
7.3810877448
 20
7.5214890884
 30
0.0
 10
7.3804842326
 20
7.5180902143
 30
0.0
 10
7.3799715766
 20
7.5148842945
 30
0.0
 10
7.379681145
 20
7.5128088377
 30
0.0
 10
7.3795524655
 20
7.5118040542
 30
0.0
 11
7.3968350743
 21
7.581429443
 31
0.0
 11
7.3934939969
 21
7.5704609371
 31
0.0
 11
7.390473101
 21
7.5600685572
 31
0.0
 11
7.3877832256
 21
7.5502947453
 31
0.0
 11
7.3865653501
 21
7.5456516208
 31
0.0
 11
7.3854332211
 21
7.5411756659
 31
0.0
 11
7.3843875629
 21
7.5368701954
 31
0.0
 11
7.3834290999
 21
7.5327385239
 31
0.0
 11
7.3825585572
 21
7.5287839721
 31
0.0
 11
7.3817766971
 21
7.5250101638
 31
0.0
 11
7.3810843366
 21
7.5214211659
 31
0.0
 11
7.380482297
 21
7.5180210803
 31
0.0
 11
7.3799713995
 21
7.5148140091
 31
0.0
 11
7.3795524655
 21
7.5118040542
 31
0.0
  0
LINE
  5
385
100
AcDbEntity
  8
0
100
AcDbLine
 62
6
  6
CONTINUOUS
 10
7.1483915049
 20
7.5815849062
 11
7.2385306599
 21
7.581452279
  0
LINE
  5
386
100
AcDbEntity
  8
0
100
AcDbLine
 62
6
  6
CONTINUOUS
 10
8.2243591343
 20
7.5937726803
 11
8.1083591343
 21
7.593866156
  0
SPLINE
  5
387
100
AcDbEntity
  8
0
100
AcDbSpline
 62
6
  6
CONTINUOUS
 70
0
 71
3
 72
16
 73
12
 74
10
 42
0.0000001
 43
0.0000001
 44
0.0000000001
 12
0.0018156496
 22
-0.0060032403
 32
0.0
 13
-0.0031251251
 23
-0.005437745
 33
0.0
 40
0.0
 40
0.0
 40
0.0
 40
0.0
 40
0.1525037014
 40
0.2948329537
 40
0.4278496495
 40
0.4912084985
 40
0.5526602303
 40
0.6705062255
 40
0.7830496152
 40
0.8921862416
 40
1.0
 40
1.0
 40
1.0
 40
1.0
 10
7.2352330621
 20
7.506033205
 30
0.0
 10
7.2353253599
 20
7.5057280328
 30
0.0
 10
7.2354873779
 20
7.5051328377
 30
0.0
 10
7.2356636733
 20
7.5042551804
 30
0.0
 10
7.2357482676
 20
7.5035511965
 30
0.0
 10
7.2357753338
 20
7.5030126673
 30
0.0
 10
7.2357760578
 20
7.5025052094
 30
0.0
 10
7.2357298953
 20
7.5018955157
 30
0.0
 10
7.2355937015
 20
7.5011970771
 30
0.0
 10
7.2353763066
 20
7.5005414447
 30
0.0
 10
7.2351765279
 20
7.5001324515
 30
0.0
 10
7.2350642174
 20
7.4999370303
 30
0.0
 11
7.2352330621
 21
7.506033205
 31
0.0
 11
7.2354821245
 21
7.5051097289
 31
0.0
 11
7.2356555705
 21
7.5042340809
 31
0.0
 11
7.2357526205
 21
7.5034054909
 31
0.0
 11
7.2357722535
 21
7.5030086022
 31
0.0
 11
7.2357724952
 21
7.5026231893
 31
0.0
 11
7.2357144116
 21
7.5018863686
 31
0.0
 11
7.2355775563
 21
7.5011939133
 31
0.0
 11
7.235361101
 21
7.5005445565
 31
0.0
 11
7.2350642174
 21
7.4999370303
 31
0.0
  0
SPLINE
  5
388
100
AcDbEntity
  8
0
100
AcDbSpline
 62
6
  6
CONTINUOUS
 70
0
 71
3
 72
12
 73
8
 74
6
 42
0.0000001
 43
0.0000001
 44
0.0000000001
 12
-0.0348627952
 22
-0.0447080257
 32
0.0
 13
-0.0417267074
 23
-0.0383810361
 33
0.0
 40
0.0
 40
0.0
 40
0.0
 40
0.0
 40
0.262224207
 40
0.5166874016
 40
0.7627790729
 40
0.8825386998
 40
1.0
 40
1.0
 40
1.0
 40
1.0
 10
8.1083591343
 20
7.593866156
 30
0.0
 10
8.1053118447
 20
7.5899583138
 30
0.0
 10
8.0991624185
 20
7.5823699113
 30
0.0
 10
8.0896532358
 20
7.5715315547
 30
0.0
 10
8.0815663167
 20
7.5630395538
 30
0.0
 10
8.0750555848
 20
7.5566329467
 30
0.0
 10
8.0717910266
 20
7.5535598015
 30
0.0
 10
8.0701572689
 20
7.5520570394
 30
0.0
 11
8.1083591343
 21
7.593866156
 31
0.0
 11
8.0989948775
 21
7.5823194883
 31
0.0
 11
8.0894750975
 21
7.5714797677
 31
0.0
 11
8.0798474666
 21
7.5613819669
 31
0.0
 11
8.075007053
 21
7.5566206696
 31
0.0
 11
8.0701572689
 21
7.5520570394
 31
0.0
  0
SPLINE
  5
389
100
AcDbEntity
  8
0
100
AcDbSpline
 62
6
  6
CONTINUOUS
 70
0
 71
3
 72
23
 73
19
 74
17
 42
0.0000001
 43
0.0000001
 44
0.0000000001
 12
-0.0147305855
 22
-0.0746436953
 32
0.0
 13
0.0220256776
 23
-0.072825414
 33
0.0
 40
0.0
 40
0.0
 40
0.0
 40
0.0
 40
0.0842847663
 40
0.1658910197
 40
0.2447356643
 40
0.320750298
 40
0.3938878924
 40
0.4641054357
 40
0.531362322
 40
0.595621319
 40
0.65685072
 40
0.7150275459
 40
0.7701366831
 40
0.822173643
 40
0.8711475932
 40
0.917082199
 40
0.960013751
 40
1.0
 40
1.0
 40
1.0
 40
1.0
 10
7.2385306599
 20
7.581452279
 30
0.0
 10
7.2381168052
 20
7.5793551701
 30
0.0
 10
7.2373314687
 20
7.575221755
 30
0.0
 10
7.2362655777
 20
7.5691069502
 30
0.0
 10
7.2353310132
 20
7.5631829082
 30
0.0
 10
7.2345282247
 20
7.5574563482
 30
0.0
 10
7.2338573453
 20
7.5519331458
 30
0.0
 10
7.233318446
 20
7.5466186676
 30
0.0
 10
7.2329115503
 20
7.5415182639
 30
0.0
 10
7.2326366675
 20
7.5366372793
 30
0.0
 10
7.2324938062
 20
7.5319809594
 30
0.0
 10
7.232482843
 20
7.5275544222
 30
0.0
 10
7.2326036481
 20
7.5233626304
 30
0.0
 10
7.232856112
 20
7.5194104007
 30
0.0
 10
7.2332401231
 20
7.5157024547
 30
0.0
 10
7.2337556105
 20
7.5122435125
 30
0.0
 10
7.2344022626
 20
7.5090387654
 30
0.0
 10
7.2349394874
 20
7.5070038767
 30
0.0
 10
7.2352330621
 20
7.506033205
 30
0.0
 11
7.2385306599
 21
7.581452279
 31
0.0
 11
7.2373350087
 21
7.5751520657
 31
0.0
 11
7.2362702789
 21
7.569035165
 31
0.0
 11
7.2353371368
 21
7.563109425
 31
0.0
 11
7.234536025
 21
7.5573817324
 31
0.0
 11
7.2338670527
 21
7.5518575399
 31
0.0
 11
7.2333302997
 21
7.5465421885
 31
0.0
 11
7.2329258259
 21
7.5414410719
 31
0.0
 11
7.2326536796
 21
7.5365596144
 31
0.0
 11
7.2325138814
 21
7.5319031765
 31
0.0
 11
7.2325063583
 21
7.5274768969
 31
0.0
 11
7.2326310175
 21
7.5232858644
 31
0.0
 11
7.2328877702
 21
7.5193350538
 31
0.0
 11
7.2332765327
 21
7.5156292894
 31
0.0
 11
7.2337972043
 21
7.5121734352
 31
0.0
 11
7.2344495071
 21
7.5089728561
 31
0.0
 11
7.2352330621
 21
7.506033205
 31
0.0
  0
LINE
  5
38A
100
AcDbEntity
  8
0
100
AcDbLine
 62
6
  6
CONTINUOUS
 10
7.0291098979
 20
7.5815817805
 11
7.1162430513
 21
7.581429443
  0
SPLINE
  5
38B
100
AcDbEntity
  8
0
100
AcDbSpline
 62
6
  6
CONTINUOUS
 70
0
 71
3
 72
15
 73
11
 74
9
 42
0.0000001
 43
0.0000001
 44
0.0000000001
 12
0.1433250344
 22
0.0436705985
 32
0.0
 13
0.1038886155
 23
0.1079645415
 33
0.0
 40
0.0
 40
0.0
 40
0.0
 40
0.0
 40
0.1253927309
 40
0.2508827178
 40
0.3763464565
 40
0.5017012772
 40
0.6268449154
 40
0.7516724873
 40
0.876099472
 40
1.0
 40
1.0
 40
1.0
 40
1.0
 10
9.0397790222
 20
7.504776152
 30
0.0
 10
9.0457696614
 20
7.5066014772
 30
0.0
 10
9.0576455894
 20
7.5106261379
 30
0.0
 10
9.0750536555
 20
7.5177446135
 30
0.0
 10
9.0919910645
 20
7.5259175278
 30
0.0
 10
9.1083768754
 20
7.5351114426
 30
0.0
 10
9.1241299108
 20
7.5452939965
 30
0.0
 10
9.1391668879
 20
7.5564305711
 30
0.0
 10
9.1533986549
 20
7.5684830051
 30
0.0
 10
9.1623124718
 20
7.5771228259
 30
0.0
 10
9.1666030899
 20
7.5815817805
 30
0.0
 11
9.0397790222
 21
7.504776152
 31
0.0
 11
9.057573228
 21
7.5108046149
 31
0.0
 11
9.0749766774
 21
7.5179210631
 31
0.0
 11
9.0919064912
 21
7.526091584
 31
0.0
 11
9.1082849544
 21
7.5352844436
 31
0.0
 11
9.1240298697
 21
7.5454664272
 31
0.0
 11
9.1390564453
 21
7.5566021138
 31
0.0
 11
9.1532788549
 21
7.5686554556
 31
0.0
 11
9.1666030899
 21
7.5815817805
 31
0.0
  0
SPLINE
  5
38C
100
AcDbEntity
  8
0
100
AcDbSpline
 62
6
  6
CONTINUOUS
 70
0
 71
3
 72
12
 73
8
 74
6
 42
0.0000001
 43
0.0000001
 44
0.0000000001
 12
0.0557533323
 22
0.0052003164
 32
0.0
 13
0.0535640718
 23
0.0163207711
 33
0.0
 40
0.0
 40
0.0
 40
0.0
 40
0.0
 40
0.2470987488
 40
0.4970297851
 40
0.7483966636
 40
0.874265608
 40
1.0
 40
1.0
 40
1.0
 40
1.0
 10
8.9848166192
 20
7.4945598674
 30
0.0
 10
8.9894088121
 20
7.494988198
 30
0.0
 10
8.9986319946
 20
7.4960116148
 30
0.0
 10
9.0124426688
 20
7.4981384709
 30
0.0
 10
9.0239144647
 20
7.5005019105
 30
0.0
 10
9.0330181837
 20
7.5027995473
 30
0.0
 10
9.0375340735
 20
7.5040921246
 30
0.0
 10
9.0397790222
 20
7.504776152
 30
0.0
 11
8.9848166192
 21
7.4945598674
 31
0.0
 11
8.9985667941
 21
7.4961019485
 31
0.0
 11
9.0123959578
 21
7.4982498462
 31
0.0
 11
9.0261779226
 21
7.5011087876
 31
0.0
 11
9.0330110815
 21
7.5028360049
 31
0.0
 11
9.0397790222
 21
7.504776152
 31
0.0
  0
SPLINE
  5
38D
100
AcDbEntity
  8
0
100
AcDbSpline
 62
6
  6
CONTINUOUS
 70
0
 71
3
 72
22
 73
18
 74
16
 42
0.0000001
 43
0.0000001
 44
0.0000000001
 12
0.0056068091
 22
-0.0116521499
 32
0.0
 13
-0.0070202515
 23
-0.0108593266
 33
0.0
 40
0.0
 40
0.0
 40
0.0
 40
0.0
 40
0.090966592
 40
0.1774032746
 40
0.2593740099
 40
0.3369564961
 40
0.4102454186
 40
0.4793606936
 40
0.5444672808
 40
0.6057679996
 40
0.6635053226
 40
0.7179692271
 40
0.8184363349
 40
0.8654290103
 40
0.9109414942
 40
0.9555822181
 40
1.0
 40
1.0
 40
1.0
 40
1.0
 10
7.1239080776
 20
7.5118040542
 30
0.0
 10
7.1240780883
 20
7.5114507354
 30
0.0
 10
7.1244031527
 20
7.5107585361
 30
0.0
 10
7.1248558891
 20
7.5097362157
 30
0.0
 10
7.1252605482
 20
7.5087560378
 30
0.0
 10
7.1256164462
 20
7.5078174661
 30
0.0
 10
7.1259229074
 20
7.5069199311
 30
0.0
 10
7.1261792757
 20
7.5060627628
 30
0.0
 10
7.1263848659
 20
7.5052451272
 30
0.0
 10
7.1265390139
 20
7.504466147
 30
0.0
 10
7.1266410296
 20
7.5037246983
 30
0.0
 10
7.1267049051
 20
7.50280992
 30
0.0
 10
7.126668359
 20
7.5019351407
 30
0.0
 10
7.1265123169
 20
7.5011168599
 30
0.0
 10
7.1263414463
 20
7.500549718
 30
0.0
 10
7.1261133619
 20
7.5000151344
 30
0.0
 10
7.1259230321
 20
7.4996806404
 30
0.0
 10
7.1258190908
 20
7.499519858
 30
0.0
 11
7.1239080776
 21
7.5118040542
 31
0.0
 11
7.1244074019
 21
7.5107390116
 31
0.0
 11
7.124859227
 21
7.5097166995
 31
0.0
 11
7.1252628596
 21
7.5087366021
 31
0.0
 11
7.1256176069
 21
7.5077982035
 31
0.0
 11
7.1259227756
 21
7.5069009881
 31
0.0
 11
7.1261776813
 21
7.5060443862
 31
0.0
 11
7.1263816786
 21
7.5052275866
 31
0.0
 11
7.1265341326
 21
7.5044497101
 31
0.0
 11
7.1266344086
 21
7.5037098777
 31
0.0
 11
7.1266818721
 21
7.50300721
 31
0.0
 11
7.126615719
 21
7.5017097625
 31
0.0
 11
7.1265006811
 21
7.501113092
 31
0.0
 11
7.1263300439
 21
7.5005498539
 31
0.0
 11
7.1261030885
 21
7.5000190958
 31
0.0
 11
7.1258190908
 21
7.499519858
 31
0.0
  0
SPLINE
  5
38E
100
AcDbEntity
  8
0
100
AcDbSpline
 62
6
  6
CONTINUOUS
 70
0
 71
3
 72
23
 73
19
 74
17
 42
0.0000001
 43
0.0000001
 44
0.0000000001
 12
-0.0059332875
 22
-0.0705397889
 32
0.0
 13
0.0306938324
 23
-0.0637883561
 33
0.0
 40
0.0
 40
0.0
 40
0.0
 40
0.0
 40
0.0787223415
 40
0.1553512049
 40
0.2298430866
 40
0.3021655844
 40
0.3723026558
 40
0.4402425462
 40
0.5059766498
 40
0.5695002948
 40
0.6308143199
 40
0.6899274812
 40
0.7468559507
 40
0.8016251722
 40
0.8542721149
 40
0.9048446746
 40
0.9533983562
 40
1.0
 40
1.0
 40
1.0
 40
1.0
 10
7.1162430513
 20
7.581429443
 30
0.0
 10
7.1160873572
 20
7.5795784238
 30
0.0
 10
7.1158152414
 20
7.5759225387
 30
0.0
 10
7.1155230499
 20
7.5705065923
 30
0.0
 10
7.115351869
 20
7.5652365102
 30
0.0
 10
7.115301272
 20
7.560117052
 30
0.0
 10
7.1153706421
 20
7.5551523908
 30
0.0
 10
7.1155593748
 20
7.550346366
 30
0.0
 10
7.1158668208
 20
7.5457028039
 30
0.0
 10
7.1162923141
 20
7.5412255328
 30
0.0
 10
7.1168352122
 20
7.5369183281
 30
0.0
 10
7.1174947643
 20
7.5327848738
 30
0.0
 10
7.1182702334
 20
7.5288287549
 30
0.0
 10
7.1191609171
 20
7.5250534587
 30
0.0
 10
7.1201661066
 20
7.5214624051
 30
0.0
 10
7.1212851239
 20
7.518059044
 30
0.0
 10
7.1225170213
 20
7.5148471748
 30
0.0
 10
7.1234312832
 20
7.5127949349
 30
0.0
 10
7.1239080776
 20
7.5118040542
 30
0.0
 11
7.1162430513
 21
7.581429443
 31
0.0
 11
7.1158307364
 21
7.5758720507
 31
0.0
 11
7.1155399618
 21
7.5704553782
 31
0.0
 11
7.1153703481
 21
7.5651849098
 31
0.0
 11
7.1153214306
 21
7.5600655148
 31
0.0
 11
7.1153926111
 21
7.5551011002
 31
0.0
 11
7.1155832772
 21
7.5502954923
 31
0.0
 11
7.1158927864
 21
7.5456525535
 31
0.0
 11
7.1163204757
 21
7.5411761708
 31
0.0
 11
7.1168656666
 21
7.5368701963
 31
0.0
 11
7.1175276151
 21
7.5327383298
 31
0.0
 11
7.1183055597
 21
7.5287842284
 31
0.0
 11
7.1191987474
 21
7.5250114646
 31
0.0
 11
7.1202064403
 21
7.5214234667
 31
0.0
 11
7.121327886
 21
7.5180236755
 31
0.0
 11
7.12256213
 21
7.5148158681
 31
0.0
 11
7.1239080776
 21
7.5118040542
 31
0.0
  0
LINE
  5
38F
100
AcDbEntity
  8
0
100
AcDbLine
 62
6
  6
CONTINUOUS
 10
6.9193628443
 20
7.5815849062
 11
6.9883996985
 21
7.581452279
  0
SPLINE
  5
390
100
AcDbEntity
  8
0
100
AcDbSpline
 62
6
  6
CONTINUOUS
 70
0
 71
3
 72
26
 73
22
 74
20
 42
0.0000001
 43
0.0000001
 44
0.0000000001
 12
0.0084162754
 22
-0.0082305369
 32
0.0
 13
-0.0068002169
 23
-0.0096089791
 33
0.0
 40
0.0
 40
0.0
 40
0.0
 40
0.0
 40
0.1067334476
 40
0.2071477475
 40
0.3012095812
 40
0.3888940219
 40
0.4701888264
 40
0.5451157164
 40
0.6137356752
 40
0.676145945
 40
0.7324961167
 40
0.7830128546
 40
0.8280398196
 40
0.868100948
 40
0.9039844932
 40
0.9207223695
 40
0.9368788828
 40
0.9526581896
 40
0.9682828703
 40
0.9839857673
 40
1.0
 40
1.0
 40
1.0
 40
1.0
 10
7.0139798385
 20
7.506033205
 30
0.0
 10
7.0142792712
 20
7.5057403804
 30
0.0
 10
7.0148582165
 20
7.5051698169
 30
0.0
 10
7.0156915307
 20
7.5043316056
 30
0.0
 10
7.0164619318
 20
7.5035363604
 30
0.0
 10
7.0171679907
 20
7.502783404
 30
0.0
 10
7.0178083635
 20
7.5020720206
 30
0.0
 10
7.0183817026
 20
7.5014012856
 30
0.0
 10
7.0188866846
 20
7.5007700899
 30
0.0
 10
7.0193220682
 20
7.5001772602
 30
0.0
 10
7.0196866398
 20
7.4996215487
 30
0.0
 10
7.01997919
 20
7.4991015973
 30
0.0
 10
7.0201982996
 20
7.4986156808
 30
0.0
 10
7.0203423277
 20
7.4981620287
 30
0.0
 10
7.0203989888
 20
7.4978007305
 30
0.0
 10
7.0204013175
 20
7.497530432
 30
0.0
 10
7.0203828976
 20
7.4973399448
 30
0.0
 10
7.0203440948
 20
7.4971569782
 30
0.0
 10
7.0202846848
 20
7.4969814789
 30
0.0
 10
7.0202045182
 20
7.4968134431
 30
0.0
 10
7.0201380846
 20
7.4967078299
 30
0.0
 10
7.0201017846
 20
7.4966565364
 30
0.0
 11
7.0139798385
 21
7.506033205
 31
0.0
 11
7.0148743221
 21
7.5051508476
 31
0.0
 11
7.0157072286
 21
7.5043120823
 31
0.0
 11
7.0164770978
 21
7.5035162398
 31
0.0
 11
7.0171824698
 21
7.5027626511
 31
0.0
 11
7.0178218876
 21
7.5020506339
 31
0.0
 11
7.0183939489
 21
7.5013792817
 31
0.0
 11
7.0188972975
 21
7.5007474985
 31
0.0
 11
7.0193305789
 21
7.5001541821
 31
0.0
 11
7.0196924382
 21
7.4995982305
 31
0.0
 11
7.0199814775
 21
7.4990785261
 31
0.0
 11
7.0201961919
 21
7.4985939135
 31
0.0
 11
7.0203350606
 21
7.4981432314
 31
0.0
 11
7.0203965625
 21
7.4977253185
 31
0.0
 11
7.0203978257
 21
7.4975282875
 31
0.0
 11
7.0203791795
 21
7.4973390124
 31
0.0
 11
7.020340438
 21
7.4971573464
 31
0.0
 11
7.0202814155
 21
7.4969831429
 31
0.0
 11
7.0202019263
 21
7.4968162552
 31
0.0
 11
7.0201017846
 21
7.4966565364
 31
0.0
  0
SPLINE
  5
391
100
AcDbEntity
  8
0
100
AcDbSpline
 62
6
  6
CONTINUOUS
 70
0
 71
3
 72
23
 73
19
 74
17
 42
0.0000001
 43
0.0000001
 44
0.0000000001
 12
0.0029227974
 22
-0.0814174095
 32
0.0
 13
0.0582470273
 23
-0.0569615759
 33
0.0
 40
0.0
 40
0.0
 40
0.0
 40
0.0
 40
0.0774316903
 40
0.1527646064
 40
0.2259761567
 40
0.2970605849
 40
0.3660353562
 40
0.4329259202
 40
0.4977645974
 40
0.5605920309
 40
0.6214596115
 40
0.6804323282
 40
0.7375884386
 40
0.7930221346
 40
0.8468456899
 40
0.8991881912
 40
0.9501885111
 40
1.0
 40
1.0
 40
1.0
 40
1.0
 10
6.9883996985
 20
7.581452279
 30
0.0
 10
6.9884751376
 20
7.5793508497
 30
0.0
 10
6.9886842904
 20
7.5752068152
 30
0.0
 10
6.9891825725
 20
7.5690893497
 30
0.0
 10
6.9898591898
 20
7.5631623584
 30
0.0
 10
6.9907122152
 20
7.5574326147
 30
0.0
 10
6.9917394759
 20
7.5519059371
 30
0.0
 10
6.9929389039
 20
7.5465876805
 30
0.0
 10
6.9943083607
 20
7.5414831741
 30
0.0
 10
6.9958457015
 20
7.5365977559
 30
0.0
 10
6.9975488263
 20
7.5319367152
 30
0.0
 10
6.999415461
 20
7.5275051868
 30
0.0
 10
7.0014433966
 20
7.5233082041
 30
0.0
 10
7.0036305176
 20
7.5193507252
 30
0.0
 10
7.0059747261
 20
7.515637683
 30
0.0
 10
7.0084738939
 20
7.5121741628
 30
0.0
 10
7.0111251501
 20
7.5089657259
 30
0.0
 10
7.0130127148
 20
7.5069789853
 30
0.0
 10
7.0139798385
 20
7.506033205
 30
0.0
 11
6.9883996985
 21
7.581452279
 31
0.0
 11
6.9887199712
 21
7.5751520657
 31
0.0
 11
6.9892207061
 21
7.569035165
 31
0.0
 11
6.9898998795
 21
7.563109425
 31
0.0
 11
6.9907554351
 21
7.5573817324
 31
0.0
 11
6.9917852682
 21
7.5518575399
 31
0.0
 11
6.992987264
 21
7.5465421885
 31
0.0
 11
6.9943592458
 21
7.5414410719
 31
0.0
 11
6.9958990006
 21
7.5365596144
 31
0.0
 11
6.9976042885
 21
7.5319031765
 31
0.0
 11
6.9994727789
 21
7.5274768969
 31
0.0
 11
7.0015021234
 21
7.5232858644
 31
0.0
 11
7.0036900298
 21
7.5193350538
 31
0.0
 11
7.0060342805
 21
7.5156292894
 31
0.0
 11
7.0085326066
 21
7.5121734352
 31
0.0
 11
7.0111821772
 21
7.5089728561
 31
0.0
 11
7.0139798385
 21
7.506033205
 31
0.0
  0
LINE
  5
392
100
AcDbEntity
  8
0
100
AcDbLine
 62
6
  6
CONTINUOUS
 10
9.0476189557
 20
7.5815849062
 11
9.1266005223
 21
7.581452279
  0
LINE
  5
393
100
AcDbEntity
  8
0
100
AcDbLine
 62
6
  6
CONTINUOUS
 10
6.833611838
 20
7.5815817805
 11
6.8955889667
 21
7.581429443
  0
SPLINE
  5
394
100
AcDbEntity
  8
0
100
AcDbSpline
 62
6
  6
CONTINUOUS
 70
0
 71
3
 72
16
 73
12
 74
10
 42
0.0000001
 43
0.0000001
 44
0.0000000001
 12
0.1434644585
 22
0.0442574215
 32
0.0
 13
0.1055328712
 23
0.1067875615
 33
0.0
 40
0.0
 40
0.0
 40
0.0
 40
0.0
 40
0.12392042
 40
0.2483961465
 40
0.3732916957
 40
0.4985067493
 40
0.6239165008
 40
0.6866596852
 40
0.7494023818
 40
0.874814927
 40
1.0
 40
1.0
 40
1.0
 40
1.0
 10
8.9203177443
 20
7.5047898848
 30
0.0
 10
8.926243803
 20
7.5066180176
 30
0.0
 10
8.9380125815
 20
7.5106496589
 30
0.0
 10
8.9552970746
 20
7.5177661558
 30
0.0
 10
8.9721819243
 20
7.5259365524
 30
0.0
 10
8.9885866216
 20
7.5351277239
 30
0.0
 10
9.0017893478
 20
7.5436107508
 30
0.0
 10
9.0120321354
 20
7.5508760627
 30
0.0
 10
9.0220461798
 20
7.5584539205
 30
0.0
 10
9.034103183
 20
7.5684969798
 30
0.0
 10
9.0432152423
 20
7.5771288367
 30
0.0
 10
9.0476189557
 20
7.5815849062
 30
0.0
 11
8.9203177443
 21
7.5047898848
 31
0.0
 11
8.9379197418
 21
7.5108158164
 31
0.0
 11
8.9552014031
 21
7.5179288699
 31
0.0
 11
8.9720807841
 21
7.5260957344
 31
0.0
 11
8.9884809284
 21
7.5352852781
 31
0.0
 11
9.0043203616
 21
7.5454649001
 31
0.0
 11
9.0120035395
 21
7.5509151467
 31
0.0
 11
9.0195148557
 21
7.5565997893
 31
0.0
 11
9.033979027
 21
7.5686544934
 31
0.0
 11
9.0476189557
 21
7.5815849062
 31
0.0
  0
SPLINE
  5
395
100
AcDbEntity
  8
0
100
AcDbSpline
 62
6
  6
CONTINUOUS
 70
0
 71
3
 72
10
 73
6
 74
4
 42
0.0000001
 43
0.0000001
 44
0.0000000001
 12
-0.0170304918
 22
-0.0081056832
 32
0.0
 13
-0.0184262521
 23
-0.0040265348
 33
0.0
 40
0.0
 40
0.0
 40
0.0
 40
0.0
 40
0.4861082139
 40
0.7393525798
 40
1.0
 40
1.0
 40
1.0
 40
1.0
 10
8.0203818294
 20
7.5170864437
 30
0.0
 10
8.0176222754
 20
7.5157730306
 30
0.0
 10
8.0132766894
 20
7.5140769214
 30
0.0
 10
8.0072472835
 20
7.5122918964
 30
0.0
 10
8.0041051544
 20
7.5115325062
 30
0.0
 10
8.002504236
 20
7.5111826709
 30
0.0
 11
8.0203818294
 21
7.5170864437
 31
0.0
 11
8.011859487
 21
7.513705407
 31
0.0
 11
8.007281315
 21
7.5123434617
 31
0.0
 11
8.002504236
 21
7.5111826709
 31
0.0
  0
SPLINE
  5
396
100
AcDbEntity
  8
0
100
AcDbSpline
 62
6
  6
CONTINUOUS
 70
0
 71
3
 72
32
 73
28
 74
26
 42
0.0000001
 43
0.0000001
 44
0.0000000001
 12
0.0156150662
 22
-0.0147284539
 32
0.0
 13
-0.0129787243
 23
-0.0170970863
 33
0.0
 40
0.0
 40
0.0
 40
0.0
 40
0.0
 40
0.1135462141
 40
0.2202734119
 40
0.3200834842
 40
0.4128834308
 40
0.4986246126
 40
0.5388394553
 40
0.5772797095
 40
0.6488267579
 40
0.7132543637
 40
0.7428008457
 40
0.7705738236
 40
0.7965808373
 40
0.8208336864
 40
0.8433500302
 40
0.8641554444
 40
0.8832863413
 40
0.9007941476
 40
0.9167512421
 40
0.9312592327
 40
0.9444596998
 40
0.9565478468
 40
0.967785797
 40
0.9785077945
 40
0.9891070366
 40
1.0
 40
1.0
 40
1.0
 40
1.0
 10
6.9277200064
 20
7.5118040542
 30
0.0
 10
6.928311017
 20
7.5112466008
 30
0.0
 10
6.9294603274
 20
7.5101681193
 30
0.0
 10
6.9311364782
 20
7.5086074575
 30
0.0
 10
6.9327071771
 20
7.5071513848
 30
0.0
 10
6.9341679693
 20
7.5057976257
 30
0.0
 10
6.9353132008
 20
7.5047306801
 30
0.0
 10
6.9361699474
 20
7.5039247002
 30
0.0
 10
6.9369495092
 20
7.5031849094
 30
0.0
 10
6.9378478072
 20
7.5023185784
 30
0.0
 10
6.9386860141
 20
7.5014817499
 30
0.0
 10
6.9392897838
 20
7.5008537765
 30
0.0
 10
6.9396959291
 20
7.5004172576
 30
0.0
 10
6.9400680908
 20
7.5000009892
 30
0.0
 10
6.9404057233
 20
7.4996044827
 30
0.0
 10
6.9407082688
 20
7.4992272263
 30
0.0
 10
6.9409751746
 20
7.4988686948
 30
0.0
 10
6.9412058949
 20
7.4985283452
 30
0.0
 10
6.9413998869
 20
7.4982056048
 30
0.0
 10
6.9415565996
 20
7.497899856
 30
0.0
 10
6.9416754403
 20
7.4976104209
 30
0.0
 10
6.9417557303
 20
7.497336567
 30
0.0
 10
6.9417965978
 20
7.4970775492
 30
0.0
 10
6.9417969023
 20
7.4968327937
 30
0.0
 10
6.9417553484
 20
7.4966021539
 30
0.0
 10
6.9416710514
 20
7.4963861143
 30
0.0
 10
6.9415882663
 20
7.4962553141
 30
0.0
 10
6.9415411407
 20
7.4961932348
 30
0.0
 11
6.9277200064
 21
7.5118040542
 31
0.0
 11
6.9294970159
 21
7.5101359213
 31
0.0
 11
6.9311732878
 21
7.5085743638
 31
0.0
 11
6.9327440005
 21
7.5071173281
 31
0.0
 11
6.9342043956
 21
7.5057626279
 31
0.0
 11
6.9355501553
 21
7.5045071544
 31
0.0
 11
6.9361787559
 21
7.5039155345
 31
0.0
 11
6.9367771483
 21
7.5033474092
 31
0.0
 11
6.9378812258
 21
7.5022798783
 31
0.0
 11
6.9388580232
 21
7.5013008822
 31
0.0
 11
6.9392972834
 21
7.5008434006
 31
0.0
 11
6.9397030328
 21
7.5004066313
 31
0.0
 11
6.9400747079
 21
7.4999901005
 31
0.0
 11
6.9404117406
 21
7.4995933299
 31
0.0
 11
6.9407135478
 21
7.499215825
 31
0.0
 11
6.9409795422
 21
7.498857087
 31
0.0
 11
6.9412091367
 21
7.4985166173
 31
0.0
 11
6.9414017442
 21
7.4981939173
 31
0.0
 11
6.9415567776
 21
7.4978884883
 31
0.0
 11
6.9416736503
 21
7.497599833
 31
0.0
 11
6.9417517821
 21
7.4973274665
 31
0.0
 11
6.9417905962
 21
7.4970709107
 31
0.0
 11
6.9417895157
 21
7.4968296875
 31
0.0
 11
6.9417479639
 21
7.496603319
 31
0.0
 11
6.9416653639
 21
7.4963913271
 31
0.0
 11
6.9415411407
 21
7.4961932348
 31
0.0
  0
SPLINE
  5
397
100
AcDbEntity
  8
0
100
AcDbSpline
 62
6
  6
CONTINUOUS
 70
0
 71
3
 72
17
 73
13
 74
11
 42
0.0000001
 43
0.0000001
 44
0.0000000001
 12
0.0114443228
 22
-0.0772413356
 32
0.0
 13
0.0568031798
 23
-0.0535779358
 33
0.0
 40
0.0
 40
0.0
 40
0.0
 40
0.0
 40
0.1427396081
 40
0.2120329189
 40
0.279942606
 40
0.4116331663
 40
0.538042853
 40
0.6595704859
 40
0.7767058752
 40
0.8899731267
 40
0.9453546199
 40
1.0
 40
1.0
 40
1.0
 40
1.0
 10
6.8955889667
 20
7.581429443
 30
0.0
 10
6.8961334861
 20
7.5777543103
 30
0.0
 10
6.8971088597
 20
7.5723172653
 30
0.0
 10
6.8987532947
 20
7.5652177291
 30
0.0
 10
6.900565579
 20
7.5584564258
 30
0.0
 10
6.9031938466
 20
7.5503796203
 30
0.0
 10
6.9069654164
 20
7.5412356834
 30
0.0
 10
6.9113060034
 20
7.5327695853
 30
0.0
 10
6.9161991583
 20
7.5250111377
 30
0.0
 10
6.9207564609
 20
7.5191153103
 30
0.0
 10
6.9246550375
 20
7.5148020623
 30
0.0
 10
6.9266853293
 20
7.5127799831
 30
0.0
 10
6.9277200064
 20
7.5118040542
 30
0.0
 11
6.8955889667
 21
7.581429443
 31
0.0
 11
6.8975691489
 21
7.5704609977
 31
0.0
 11
6.8987917148
 21
7.5651901908
 31
0.0
 11
6.9001662576
 21
7.5600687429
 31
0.0
 11
6.9033622713
 21
7.5502950262
 31
0.0
 11
6.9071399009
 21
7.5411758645
 31
0.0
 11
6.9114828631
 21
7.5327385685
 31
0.0
 11
6.9163745965
 21
7.5250101312
 31
0.0
 11
6.9217946211
 21
7.5180210587
 31
0.0
 11
6.9246955792
 21
7.5148140019
 31
0.0
 11
6.9277200064
 21
7.5118040542
 31
0.0
  0
LINE
  5
398
100
AcDbEntity
  8
0
100
AcDbLine
 62
6
  6
CONTINUOUS
 10
8.9206053245
 20
7.5815817805
 11
9.0160452916
 21
7.581429443
  0
SPLINE
  5
399
100
AcDbEntity
  8
0
100
AcDbSpline
 62
6
  6
CONTINUOUS
 70
0
 71
3
 72
35
 73
31
 74
29
 42
0.0000001
 43
0.0000001
 44
0.0000000001
 12
0.0183009183
 22
-0.0109035453
 32
0.0
 13
-0.013269853
 23
-0.0166649906
 33
0.0
 40
0.0
 40
0.0
 40
0.0
 40
0.0
 40
0.1149405305
 40
0.2235915505
 40
0.3257557084
 40
0.4212378581
 40
0.5098763189
 40
0.5915188897
 40
0.6660087585
 40
0.7331735421
 40
0.7928363095
 40
0.8198012814
 40
0.8448283926
 40
0.8678991722
 40
0.8889975984
 40
0.9081113545
 40
0.9252338186
 40
0.9403674028
 40
0.9535301587
 40
0.9647664674
 40
0.9696898459
 40
0.9741713678
 40
0.9782362751
 40
0.9819198548
 40
0.9852710984
 40
0.9883566693
 40
0.9912635021
 40
0.9940970252
 40
0.9969721928
 40
1.0
 40
1.0
 40
1.0
 40
1.0
 10
6.8590901273
 20
7.506033205
 30
0.0
 10
6.8597912997
 20
7.5056154519
 30
0.0
 10
6.8611595296
 20
7.5048099198
 30
0.0
 10
6.8631644064
 20
7.5036560613
 30
0.0
 10
6.8650591181
 20
7.5025879741
 30
0.0
 10
6.866837819
 20
7.501603624
 30
0.0
 10
6.8684946857
 20
7.5007001661
 30
0.0
 10
6.8700241473
 20
7.4998744766
 30
0.0
 10
6.8714206787
 20
7.4991235457
 30
0.0
 10
6.8726784142
 20
7.4984440622
 30
0.0
 10
6.873635667
 20
7.4979183785
 30
0.0
 10
6.8743263689
 20
7.4975290649
 30
0.0
 10
6.8747881251
 20
7.4972627935
 30
0.0
 10
6.8752105924
 20
7.4970118497
 30
0.0
 10
6.8755930132
 20
7.4967758169
 30
0.0
 10
6.8759346492
 20
7.4965542851
 30
0.0
 10
6.8762347768
 20
7.4963468449
 30
0.0
 10
6.8764927395
 20
7.4961530646
 30
0.0
 10
6.8767078856
 20
7.4959725094
 30
0.0
 10
6.8768572054
 20
7.4958269018
 30
0.0
 10
6.8769530753
 20
7.4957159136
 30
0.0
 10
6.8770106011
 20
7.4956393863
 30
0.0
 10
6.8770569145
 20
7.495565778
 30
0.0
 10
6.8770919183
 20
7.4954949706
 30
0.0
 10
6.877115477
 20
7.4954268328
 30
0.0
 10
6.8771273744
 20
7.4953612464
 30
0.0
 10
6.8771273183
 20
7.4952981924
 30
0.0
 10
6.8771150382
 20
7.4952378238
 30
0.0
 10
6.8770905008
 20
7.4951804183
 30
0.0
 10
6.8770669212
 20
7.4951454542
 30
0.0
 10
6.8770535284
 20
7.4951286347
 30
0.0
 11
6.8590901273
 21
7.506033205
 31
0.0
 11
6.8612000978
 21
7.5047908411
 31
0.0
 11
6.8632060837
 21
7.5036361643
 31
0.0
 11
6.8651018879
 21
7.5025672468
 31
0.0
 11
6.8668813951
 21
7.5015820178
 31
0.0
 11
6.8685389545
 21
7.5006775911
 31
0.0
 11
6.8700690801
 21
7.499850792
 31
0.0
 11
6.8714662317
 21
7.4990984316
 31
0.0
 11
6.8727244576
 21
7.4984172138
 31
0.0
 11
6.8738376158
 21
7.4978037932
 31
0.0
 11
6.8743378748
 21
7.4975214612
 31
0.0
 11
6.8747995574
 21
7.4972548219
 31
0.0
 11
6.8752218834
 21
7.4970034527
 31
0.0
 11
6.8756040723
 21
7.4967669307
 31
0.0
 11
6.8759453436
 21
7.4965448334
 31
0.0
 11
6.8762449167
 21
7.496336738
 31
0.0
 11
6.8765020115
 21
7.496142222
 31
0.0
 11
6.8767158851
 21
7.4959608811
 31
0.0
 11
6.8768858547
 21
7.4957923401
 31
0.0
 11
6.876954164
 21
7.4957127533
 31
0.0
 11
6.8770112433
 21
7.4956362268
 31
0.0
 11
6.8770570081
 21
7.4955627141
 31
0.0
 11
6.8770913737
 21
7.4954921687
 31
0.0
 11
6.8771142555
 21
7.495424544
 31
0.0
 11
6.8771255689
 21
7.4953597935
 31
0.0
 11
6.8771252291
 21
7.4952978706
 31
0.0
 11
6.8771131521
 21
7.495238729
 31
0.0
 11
6.8770892688
 21
7.4951823282
 31
0.0
 11
6.8770535284
 21
7.4951286347
 31
0.0
  0
SPLINE
  5
39A
100
AcDbEntity
  8
0
100
AcDbSpline
 62
6
  6
CONTINUOUS
 70
0
 71
3
 72
15
 73
11
 74
9
 42
0.0000001
 43
0.0000001
 44
0.0000000001
 12
0.1411499772
 22
0.0450314755
 32
0.0
 13
0.1043633378
 23
0.1051638891
 33
0.0
 40
0.0
 40
0.0
 40
0.0
 40
0.0
 40
0.1221085598
 40
0.2453139687
 40
0.3694763172
 40
0.4944850922
 40
0.6201999002
 40
0.7464654728
 40
0.8731340328
 40
1.0
 40
1.0
 40
1.0
 40
1.0
 10
8.7955183424
 20
7.504776152
 30
0.0
 10
8.8012635492
 20
7.5066090615
 30
0.0
 10
8.8126934416
 20
7.5106530581
 30
0.0
 10
8.8295045666
 20
7.517775064
 30
0.0
 10
8.8459898039
 20
7.5259508735
 30
0.0
 10
8.8620710237
 20
7.5351469795
 30
0.0
 10
8.8776698735
 20
7.5453308762
 30
0.0
 10
8.8927058623
 20
7.5564677709
 30
0.0
 10
8.9070928204
 20
7.5685194245
 30
0.0
 10
8.9161919392
 20
7.577134541
 30
0.0
 10
8.9206053245
 20
7.5815817805
 30
0.0
 11
8.7955183424
 21
7.504776152
 31
0.0
 11
8.8125758997
 21
7.5108046149
 31
0.0
 11
8.8293855768
 21
7.5179210631
 31
0.0
 11
8.8458673198
 21
7.526091584
 31
0.0
 11
8.8619460699
 21
7.5352844436
 31
0.0
 11
8.8775424752
 21
7.5454664272
 31
0.0
 11
8.8925745593
 21
7.5566021138
 31
0.0
 11
8.906959325
 21
7.5686554556
 31
0.0
 11
8.9206053245
 21
7.5815817805
 31
0.0
  0
SPLINE
  5
39B
100
AcDbEntity
  8
0
100
AcDbSpline
 62
6
  6
CONTINUOUS
 70
0
 71
3
 72
20
 73
16
 74
14
 42
0.0000001
 43
0.0000001
 44
0.0000000001
 12
0.0243501335
 22
-0.0912374357
 32
0.0
 13
0.0811240524
 23
-0.0483330819
 33
0.0
 40
0.0
 40
0.0
 40
0.0
 40
0.0
 40
0.1376722507
 40
0.2707669242
 40
0.3996260589
 40
0.4626316533
 40
0.5247629542
 40
0.5860905184
 40
0.6466911115
 40
0.7066466324
 40
0.7660455403
 40
0.8249834357
 40
0.8835598923
 40
0.9418682784
 40
1.0
 40
1.0
 40
1.0
 40
1.0
 10
6.8062395437
 20
7.581452279
 30
0.0
 10
6.8073569896
 20
7.5772653246
 30
0.0
 10
6.8098751817
 20
7.5691113537
 30
0.0
 10
6.8145771501
 20
7.5574288991
 30
0.0
 10
6.8192206296
 20
7.5482975593
 30
0.0
 10
6.8233347608
 20
7.5414394226
 30
0.0
 10
6.8265906847
 20
7.536553156
 30
0.0
 10
6.8300353681
 20
7.5318919107
 30
0.0
 10
6.8336643999
 20
7.5274607483
 30
0.0
 10
6.8374733668
 20
7.5232648091
 30
0.0
 10
6.8414579726
 20
7.5193091132
 30
0.0
 10
6.8456139339
 20
7.5155986282
 30
0.0
 10
6.8499367836
 20
7.5121384805
 30
0.0
 10
6.8544211539
 20
7.5089340501
 30
0.0
 10
6.857518167
 20
7.5069697667
 30
0.0
 10
6.8590901273
 20
7.506033205
 30
0.0
 11
6.8062395437
 21
7.581452279
 31
0.0
 11
6.8100903528
 21
7.569035165
 31
0.0
 11
6.8147976322
 21
7.5573817324
 31
0.0
 11
6.8203267812
 21
7.5465421885
 31
0.0
 11
6.8233890119
 21
7.5414410719
 31
0.0
 11
6.8266439194
 21
7.5365596144
 31
0.0
 11
6.8300871439
 21
7.5319031765
 31
0.0
 11
6.8337142438
 21
7.5274768969
 31
0.0
 11
6.8375207624
 21
7.5232858644
 31
0.0
 11
6.8415023483
 21
7.5193350538
 31
0.0
 11
6.8456547891
 21
7.5156292894
 31
0.0
 11
6.8499737908
 21
7.5121734352
 31
0.0
 11
6.8544541469
 21
7.5089728561
 31
0.0
 11
6.8590901273
 21
7.506033205
 31
0.0
  0
SPLINE
  5
39C
100
AcDbEntity
  8
0
100
AcDbSpline
 62
6
  6
CONTINUOUS
 70
0
 71
3
 72
14
 73
10
 74
8
 42
0.0000001
 43
0.0000001
 44
0.0000000001
 12
0.0552327954
 22
0.0050187153
 32
0.0
 13
0.0528365794
 23
0.016856603
 33
0.0
 40
0.0
 40
0.0
 40
0.0
 40
0.0
 40
0.1269164998
 40
0.2535953043
 40
0.3798375347
 40
0.5054842819
 40
0.7545654503
 40
0.8778133082
 40
1.0
 40
1.0
 40
1.0
 40
1.0
 10
8.7411152585
 20
7.4945598674
 30
0.0
 10
8.7434519095
 20
7.4947721867
 30
0.0
 10
8.7481171965
 20
7.4952380562
 30
0.0
 10
8.7550895746
 20
7.4960751458
 30
0.0
 10
8.7620186564
 20
7.4970636151
 30
0.0
 10
8.7711528152
 20
7.4985965641
 30
0.0
 10
8.7801693175
 20
7.5004866152
 30
0.0
 10
8.7890171101
 20
7.5027925975
 30
0.0
 10
8.7933663668
 20
7.5040896012
 30
0.0
 10
8.7955183424
 20
7.504776152
 30
0.0
 11
8.7411152585
 21
7.4945598674
 31
0.0
 11
8.748119005
 21
7.495261788
 31
0.0
 11
8.7550942383
 21
7.4961019485
 31
0.0
 11
8.7620250971
 21
7.4970935711
 31
0.0
 11
8.7688969078
 21
7.4982498462
 31
0.0
 11
8.7824119561
 21
7.5011087876
 31
0.0
 11
8.789025501
 21
7.5028360049
 31
0.0
 11
8.7955183424
 21
7.504776152
 31
0.0
  0
SPLINE
  5
39D
100
AcDbEntity
  8
0
100
AcDbSpline
 62
6
  6
CONTINUOUS
 70
0
 71
3
 72
37
 73
33
 74
31
 42
0.0000001
 43
0.0000001
 44
0.0000000001
 12
0.0310412042
 22
-0.0197388291
 32
0.0
 13
-0.0233534821
 23
-0.0284216925
 33
0.0
 40
0.0
 40
0.0
 40
0.0
 40
0.0
 40
0.1136026431
 40
0.2213590237
 40
0.3230260017
 40
0.4184064209
 40
0.5073322831
 40
0.5896179469
 40
0.6650547901
 40
0.7334190317
 40
0.7648744024
 40
0.7944703477
 40
0.8221750583
 40
0.8479560651
 40
0.8717798369
 40
0.8936126733
 40
0.9134212269
 40
0.9311730852
 40
0.9468390183
 40
0.960395035
 40
0.9718233801
 40
0.9767377406
 40
0.9811200328
 40
0.9849742087
 40
0.9883086883
 40
0.9911393335
 40
0.9934944659
 40
0.9954261275
 40
0.9970314123
 40
0.9977647261
 40
0.9984856902
 40
1.0
 40
1.0
 40
1.0
 40
1.0
 10
6.8033154701
 20
7.5118040542
 30
0.0
 10
6.8044909244
 20
7.5110565931
 30
0.0
 10
6.8067976919
 20
7.5096256565
 30
0.0
 10
6.810209297
 20
7.5076126892
 30
0.0
 10
6.8134686786
 20
7.5057831646
 30
0.0
 10
6.8165615253
 20
7.5041303081
 30
0.0
 10
6.8194742514
 20
7.5026460286
 30
0.0
 10
6.8221935581
 20
7.5013219908
 30
0.0
 10
6.824705556
 20
7.5001490509
 30
0.0
 10
6.8266653605
 20
7.4992672969
 30
0.0
 10
6.8281179384
 20
7.4986283892
 30
0.0
 10
6.8291160773
 20
7.4981946247
 30
0.0
 10
6.8300517244
 20
7.4977916505
 30
0.0
 10
6.8309230621
 20
7.4974182947
 30
0.0
 10
6.8317282767
 20
7.4970734304
 30
0.0
 10
6.8324655458
 20
7.4967559366
 30
0.0
 10
6.833133059
 20
7.4964647098
 30
0.0
 10
6.8337290198
 20
7.4961986243
 30
0.0
 10
6.8342517464
 20
7.495956648
 30
0.0
 10
6.8346996573
 20
7.49573787
 30
0.0
 10
6.8350239656
 20
7.4955666364
 30
0.0
 10
6.8352437783
 20
7.4954390387
 30
0.0
 10
6.8353804625
 20
7.4953534073
 30
0.0
 10
6.8354973128
 20
7.4952728262
 30
0.0
 10
6.8355942169
 20
7.495197152
 30
0.0
 10
6.8356711768
 20
7.4951262678
 30
0.0
 10
6.8357282306
 20
7.4950598464
 30
0.0
 10
6.8357655034
 20
7.4949973927
 30
0.0
 10
6.8357797546
 20
7.4949459313
 30
0.0
 10
6.8357789542
 20
7.4949081749
 30
0.0
 10
6.8357708584
 20
7.4948724601
 30
0.0
 10
6.8357564429
 20
7.4948481805
 30
0.0
 10
6.8357446547
 20
7.4948338341
 30
0.0
 11
6.8033154701
 21
7.5118040542
 31
0.0
 11
6.8068668045
 21
7.5096014328
 31
0.0
 11
6.8102809273
 21
7.5075874556
 31
0.0
 11
6.8135422913
 21
7.5057571043
 31
0.0
 11
6.8166367928
 21
7.5041034741
 31
0.0
 11
6.8195513848
 21
7.5026182724
 31
0.0
 11
6.8222727471
 21
7.5012929575
 31
0.0
 11
6.8247869764
 21
7.5001185628
 31
0.0
 11
6.8270800435
 21
7.4990860179
 31
0.0
 11
6.8281391611
 21
7.4986200152
 31
0.0
 11
6.829137589
 21
7.4981859448
 31
0.0
 11
6.8300735178
 21
7.4977826209
 31
0.0
 11
6.8309451325
 21
7.4974088676
 31
0.0
 11
6.8317505987
 21
7.4970635416
 31
0.0
 11
6.8324880785
 21
7.4967455062
 31
0.0
 11
6.8331557336
 21
7.4964536247
 31
0.0
 11
6.8337517277
 21
7.4961867615
 31
0.0
 11
6.8342743068
 21
7.495943842
 31
0.0
 11
6.8347218381
 21
7.4957238802
 31
0.0
 11
6.8350926982
 21
7.4955258969
 31
0.0
 11
6.8352488693
 21
7.4954348413
 31
0.0
 11
6.8353852637
 21
7.4953489132
 31
0.0
 11
6.835501679
 21
7.4952679904
 31
0.0
 11
6.8355979371
 21
7.495191964
 31
0.0
 11
6.8356739013
 21
7.495120747
 31
0.0
 11
6.8357294383
 21
7.4950542546
 31
0.0
 11
6.8357644152
 21
7.494992402
 31
0.0
 11
6.8357786989
 21
7.4949351042
 31
0.0
 11
6.8357780393
 21
7.4949081369
 31
0.0
 11
6.8357721565
 21
7.4948822765
 31
0.0
 11
6.8357446547
 21
7.4948338341
 31
0.0
  0
SPLINE
  5
39E
100
AcDbEntity
  8
0
100
AcDbSpline
 62
6
  6
CONTINUOUS
 70
0
 71
3
 72
15
 73
11
 74
9
 42
0.0000001
 43
0.0000001
 44
0.0000000001
 12
0.0313250538
 22
-0.0844046728
 32
0.0
 13
0.0759711278
 23
-0.048309373
 33
0.0
 40
0.0
 40
0.0
 40
0.0
 40
0.0
 40
0.131913946
 40
0.2612093477
 40
0.388148634
 40
0.5130656009
 40
0.6363116928
 40
0.7582692274
 40
0.8793600953
 40
1.0
 40
1.0
 40
1.0
 40
1.0
 10
6.7487373284
 20
7.581429443
 30
0.0
 10
6.7501147322
 20
7.5777180585
 30
0.0
 10
6.7531103629
 20
7.5704649011
 30
0.0
 10
6.7583614485
 20
7.5600551056
 30
0.0
 10
6.7642963349
 20
7.5502629304
 30
0.0
 10
6.7708863865
 20
7.5411216825
 30
0.0
 10
6.7781037689
 20
7.5326622537
 30
0.0
 10
6.7859200086
 20
7.5249142607
 30
0.0
 10
6.7943051743
 20
7.5179080232
 30
0.0
 10
6.8002604202
 20
7.5137467336
 30
0.0
 10
6.8033154701
 20
7.5118040542
 30
0.0
 11
6.7487373284
 21
7.581429443
 31
0.0
 11
6.7532776419
 21
7.5704553782
 31
0.0
 11
6.7585265731
 21
7.5600655148
 31
0.0
 11
6.7644556386
 21
7.5502954923
 31
0.0
 11
6.7710371865
 21
7.5411761708
 31
0.0
 11
6.778242791
 21
7.5327383298
 31
0.0
 11
6.7860435904
 21
7.5250114646
 31
0.0
 11
6.7944114088
 21
7.5180236755
 31
0.0
 11
6.8033154701
 21
7.5118040542
 31
0.0
  0
LINE
  5
39F
100
AcDbEntity
  8
0
100
AcDbLine
 62
6
  6
CONTINUOUS
 10
6.6880787559
 20
7.5815849062
 11
6.703495988
 21
7.581452279
  0
LINE
  5
3A0
100
AcDbEntity
  8
0
100
AcDbLine
 62
6
  6
CONTINUOUS
 10
8.771929539
 20
7.5815849062
 11
8.8696550077
 21
7.581452279
  0
SPLINE
  5
3A1
100
AcDbEntity
  8
0
100
AcDbSpline
 62
6
  6
CONTINUOUS
 70
0
 71
3
 72
17
 73
13
 74
11
 42
0.0000001
 43
0.0000001
 44
0.0000000001
 12
0.1375868773
 22
0.0459724322
 32
0.0
 13
0.1018951025
 23
0.1032521255
 33
0.0
 40
0.0
 40
0.0
 40
0.0
 40
0.0
 40
0.1198209602
 40
0.2414750048
 40
0.3647471553
 40
0.426935696
 40
0.489469804
 40
0.615515027
 40
0.7427952805
 40
0.806836027
 40
0.8710811762
 40
1.0
 40
1.0
 40
1.0
 40
1.0
 10
8.6503792591
 20
7.5047898848
 30
0.0
 10
8.655874523
 20
7.5066260385
 30
0.0
 10
8.6668338715
 20
7.5106809174
 30
0.0
 10
8.6829803794
 20
7.517801885
 30
0.0
 10
8.6961972445
 20
7.5245937671
 30
0.0
 10
8.7066153523
 20
7.5305349847
 30
0.0
 10
8.7169715991
 20
7.5368452883
 30
0.0
 10
8.7296653563
 20
7.5453550222
 30
0.0
 10
8.7419091863
 20
7.5546213443
 30
0.0
 10
8.7514361572
 20
7.5624947856
 30
0.0
 10
8.7607926634
 20
7.570690272
 30
0.0
 10
8.7675508067
 20
7.5771478587
 30
0.0
 10
8.771929539
 20
7.5815849062
 30
0.0
 11
8.6503792591
 21
7.5047898848
 31
0.0
 11
8.6666842441
 21
7.5108125034
 31
0.0
 11
8.682834301
 21
7.517926923
 31
0.0
 11
8.6987419294
 21
7.5260955577
 31
0.0
 11
8.706578781
 21
7.5305641296
 31
0.0
 11
8.714325687
 21
7.5352839607
 31
0.0
 11
8.7295148468
 21
7.5454632382
 31
0.0
 11
8.7442387214
 21
7.5566041352
 31
0.0
 11
8.7513997573
 21
7.5625222425
 31
0.0
 11
8.758410262
 21
7.5686630127
 31
0.0
 11
8.771929539
 21
7.5815849062
 31
0.0
  0
SPLINE
  5
3A2
100
AcDbEntity
  8
0
100
AcDbSpline
 62
6
  6
CONTINUOUS
 70
0
 71
3
 72
42
 73
38
 74
36
 42
0.0000001
 43
0.0000001
 44
0.0000000001
 12
0.0327411962
 22
-0.0146897564
 32
0.0
 13
-0.0226707177
 23
-0.0278175022
 33
0.0
 40
0.0
 40
0.0
 40
0.0
 40
0.0
 40
0.109451746
 40
0.2141205893
 40
0.3136796536
 40
0.4078344028
 40
0.4963159796
 40
0.5788359605
 40
0.6550687803
 40
0.7246730645
 40
0.7872883743
 40
0.8158585791
 40
0.842540587
 40
0.8672875771
 40
0.8900530983
 40
0.910790436
 40
0.9294526699
 40
0.9459940777
 40
0.9603768497
 40
0.966747922
 40
0.9725664025
 40
0.9778280766
 40
0.9825288261
 40
0.9866646901
 40
0.9902319767
 40
0.9932282796
 40
0.9945124134
 40
0.9956541115
 40
0.9966537567
 40
0.9975119994
 40
0.9982299677
 40
0.9988097251
 40
0.9992554096
 40
0.9995765968
 40
0.9997998297
 40
0.9998967498
 40
1.0
 40
1.0
 40
1.0
 40
1.0
 10
6.7802962185
 20
7.506033205
 30
0.0
 10
6.7814907456
 20
7.5054972651
 30
0.0
 10
6.7838389371
 20
7.5044738592
 30
0.0
 10
6.7873097879
 20
7.5030476515
 30
0.0
 10
6.7906385245
 20
7.501759032
 30
0.0
 10
6.7938100833
 20
7.5006026732
 30
0.0
 10
6.7968099293
 20
7.4995720811
 30
0.0
 10
6.799623565
 20
7.4986608086
 30
0.0
 10
6.8022357682
 20
7.4978617391
 30
0.0
 10
6.8046308865
 20
7.4971680149
 30
0.0
 10
6.8064852693
 20
7.4966574102
 30
0.0
 10
6.8078477625
 20
7.4962948008
 30
0.0
 10
6.8087737031
 20
7.4960531945
 30
0.0
 10
6.8096333882
 20
7.4958327193
 30
0.0
 10
6.8104248827
 20
7.4956326205
 30
0.0
 10
6.8111462563
 20
7.49545213
 30
0.0
 10
6.8117956009
 20
7.4952904999
 30
0.0
 10
6.8123711043
 20
7.4951469116
 30
0.0
 10
6.8128036953
 20
7.4950378712
 30
0.0
 10
6.8131115863
 20
7.4949589096
 30
0.0
 10
6.8133135957
 20
7.4949062914
 30
0.0
 10
6.8134960257
 20
7.4948577792
 30
0.0
 10
6.8136587001
 20
7.4948133083
 30
0.0
 10
6.8138014469
 20
7.4947728223
 30
0.0
 10
6.8139241018
 20
7.4947362559
 30
0.0
 10
6.8140135462
 20
7.4947077275
 30
0.0
 10
6.8140748808
 20
7.49468663
 30
0.0
 10
6.8141133791
 20
7.4946725918
 30
0.0
 10
6.8141467942
 20
7.494659509
 30
0.0
 10
6.8141751284
 20
7.4946473872
 30
0.0
 10
6.8141983867
 20
7.4946362161
 30
0.0
 10
6.8142166066
 20
7.4946260401
 30
0.0
 10
6.8142298358
 20
7.4946167455
 30
0.0
 10
6.8142383502
 20
7.4946084653
 30
0.0
 10
6.8142417099
 20
7.4946010332
 30
0.0
 10
6.8142408447
 20
7.4945959012
 30
0.0
 10
6.814239563
 20
7.494593817
 30
0.0
 10
6.8142387828
 20
7.4945928596
 30
0.0
 11
6.7802962185
 21
7.506033205
 31
0.0
 11
6.783896888
 21
7.504464028
 31
0.0
 11
6.7873712078
 21
7.5030366508
 31
0.0
 11
6.7907030587
 21
7.5017469985
 31
0.0
 11
6.7938774657
 21
7.5005896675
 31
0.0
 11
6.7968804405
 21
7.4995581064
 31
0.0
 11
6.7996976326
 21
7.4986456414
 31
0.0
 11
6.8023136205
 21
7.4978453681
 31
0.0
 11
6.8047127641
 21
7.4971503389
 31
0.0
 11
6.8068790525
 21
7.4965535612
 31
0.0
 11
6.8078698085
 21
7.4962898238
 31
0.0
 11
6.8087962733
 21
7.4960480223
 31
0.0
 11
6.8096564776
 21
7.4958273432
 31
0.0
 11
6.8104484887
 21
7.4956270131
 31
0.0
 11
6.8111703745
 21
7.4954462591
 31
0.0
 11
6.8118202029
 21
7.4952843087
 31
0.0
 11
6.8123960958
 21
7.4951404132
 31
0.0
 11
6.8128965023
 21
7.4950139703
 31
0.0
 11
6.8131179517
 21
7.4949571224
 31
0.0
 11
6.8133199938
 21
7.4949044325
 31
0.0
 11
6.8135024501
 21
7.4948558319
 31
0.0
 11
6.8136651421
 21
7.4948112523
 31
0.0
 11
6.8138078912
 21
7.4947706253
 31
0.0
 11
6.8139305191
 21
7.4947338825
 31
0.0
 11
6.8140328811
 21
7.4947009669
 31
0.0
 11
6.8140764423
 21
7.4946859349
 31
0.0
 11
6.8141149154
 21
7.4946718493
 31
0.0
 11
6.8141482942
 21
7.494658707
 31
0.0
 11
6.8141765724
 21
7.4946465048
 31
0.0
 11
6.8141997438
 21
7.4946352397
 31
0.0
 11
6.8142178023
 21
7.4946249084
 31
0.0
 11
6.8142307417
 21
7.4946155078
 31
0.0
 11
6.8142385557
 21
7.4946070349
 31
0.0
 11
6.8142412381
 21
7.4945994866
 31
0.0
 11
6.814240653
 21
7.4945960581
 31
0.0
 11
6.8142387828
 21
7.4945928596
 31
0.0
  0
SPLINE
  5
3A3
100
AcDbEntity
  8
0
100
AcDbSpline
 62
6
  6
CONTINUOUS
 70
0
 71
3
 72
23
 73
19
 74
17
 42
0.0000001
 43
0.0000001
 44
0.0000000001
 12
0.0476414657
 22
-0.0990247593
 32
0.0
 13
0.1002603342
 23
-0.0449830811
 33
0.0
 40
0.0
 40
0.0
 40
0.0
 40
0.0
 40
0.0642947646
 40
0.1281616613
 40
0.1916251117
 40
0.2547185216
 40
0.3174886022
 40
0.3799828147
 40
0.4422473544
 40
0.5043276878
 40
0.56626963
 40
0.6281200236
 40
0.6899260095
 40
0.7517366193
 40
0.8136034574
 40
0.8755775407
 40
0.9376985835
 40
1.0
 40
1.0
 40
1.0
 40
1.0
 10
6.703495988
 20
7.581452279
 30
0.0
 10
6.7045170203
 20
7.5793300211
 30
0.0
 10
6.7066421673
 20
7.5751421739
 30
0.0
 10
6.710083952
 20
7.5690224055
 30
0.0
 10
6.7137623792
 20
7.5630934396
 30
0.0
 10
6.7176710529
 20
7.5573622646
 30
0.0
 10
6.7218036766
 20
7.5518346586
 30
0.0
 10
6.7261542442
 20
7.5465160606
 30
0.0
 10
6.7307166373
 20
7.5414118446
 30
0.0
 10
6.735484688
 20
7.5365274124
 30
0.0
 10
6.740452238
 20
7.5318681588
 30
0.0
 10
6.7456129493
 20
7.527439218
 30
0.0
 10
6.7509605766
 20
7.5232456536
 30
0.0
 10
6.7564890071
 20
7.5192924486
 30
0.0
 10
6.7621921831
 20
7.5155845094
 30
0.0
 10
6.7680637622
 20
7.5121269186
 30
0.0
 10
6.7740964215
 20
7.5089249349
 30
0.0
 10
6.7782140983
 20
7.5069673748
 30
0.0
 10
6.7802962185
 20
7.506033205
 30
0.0
 11
6.703495988
 21
7.581452279
 31
0.0
 11
6.7066937498
 21
7.5751520657
 31
0.0
 11
6.7101346382
 21
7.569035165
 31
0.0
 11
6.7138117915
 21
7.563109425
 31
0.0
 11
6.7177186922
 21
7.5573817324
 31
0.0
 11
6.7218493352
 21
7.5518575399
 31
0.0
 11
6.7261977446
 21
7.5465421885
 31
0.0
 11
6.7307578129
 21
7.5414410719
 31
0.0
 11
6.7355233553
 21
7.5365596144
 31
0.0
 11
6.740488166
 21
7.5319031765
 31
0.0
 11
6.7456459712
 21
7.5274768969
 31
0.0
 11
6.7509904864
 21
7.5232858644
 31
0.0
 11
6.7565155741
 21
7.5193350538
 31
0.0
 11
6.762215292
 21
7.5156292894
 31
0.0
 11
6.7680835904
 21
7.5121734352
 31
0.0
 11
6.7741132148
 21
7.5089728561
 31
0.0
 11
6.7802962185
 21
7.506033205
 31
0.0
  0
SPLINE
  5
3A4
100
AcDbEntity
  8
0
100
AcDbSpline
 62
6
  6
CONTINUOUS
 70
0
 71
3
 72
14
 73
10
 74
8
 42
0.0000001
 43
0.0000001
 44
0.0000000001
 12
0.054073314
 22
0.004913719
 32
0.0
 13
0.0514974352
 23
0.017207036
 33
0.0
 40
0.0
 40
0.0
 40
0.0
 40
0.0
 40
0.128853091
 40
0.2568656708
 40
0.3838617393
 40
0.5097065693
 40
0.7576172548
 40
0.8795585235
 40
1.0
 40
1.0
 40
1.0
 40
1.0
 10
8.597175202
 20
7.4945582938
 30
0.0
 10
8.5994977066
 20
7.4947693431
 30
0.0
 10
8.6041238634
 20
7.4952325187
 30
0.0
 10
8.6110213773
 20
7.4960678254
 30
0.0
 10
8.6178440346
 20
7.4970553512
 30
0.0
 10
8.6267775236
 20
7.4985853415
 30
0.0
 10
8.6355546717
 20
7.5004770089
 30
0.0
 10
8.6441219294
 20
7.5027946537
 30
0.0
 10
8.6483117834
 20
7.5040990712
 30
0.0
 10
8.6503792591
 20
7.5047898848
 30
0.0
 11
8.597175202
 21
7.4945582938
 31
0.0
 11
8.6041363329
 21
7.4952581362
 31
0.0
 11
8.6110361328
 21
7.4960968258
 31
0.0
 11
8.61785994
 21
7.4970878352
 31
0.0
 11
8.6245941934
 21
7.4982446195
 31
0.0
 11
8.6377464623
 21
7.5011090947
 31
0.0
 11
8.6441366257
 21
7.5028419008
 31
0.0
 11
8.6503792591
 21
7.5047898848
 31
0.0
  0
LINE
  5
3A5
100
AcDbEntity
  8
0
100
AcDbLine
 62
6
  6
CONTINUOUS
 10
6.6824421326
 20
7.5815434492
 11
6.6849153647
 21
7.581429443
  0
SPLINE
  5
3A6
100
AcDbEntity
  8
0
100
AcDbSpline
 62
6
  6
CONTINUOUS
 70
0
 71
3
 72
15
 73
11
 74
9
 42
0.0000001
 43
0.0000001
 44
0.0000000001
 12
0.050938409
 22
-0.0892441102
 32
0.0
 13
0.0917816096
 23
-0.0462100513
 33
0.0
 40
0.0
 40
0.0
 40
0.0
 40
0.0
 40
0.1257099588
 40
0.2508180188
 40
0.375508859
 40
0.5000008027
 40
0.6244958739
 40
0.7491935771
 40
0.8743033305
 40
1.0
 40
1.0
 40
1.0
 40
1.0
 10
6.6849153647
 20
7.581429443
 30
0.0
 10
6.6870498532
 20
7.5776898185
 30
0.0
 10
6.6915865375
 20
7.5703831615
 30
0.0
 10
6.6991678982
 20
7.5599790039
 30
0.0
 10
6.7074702306
 20
7.5501944195
 30
0.0
 10
6.7164549767
 20
7.5410623127
 30
0.0
 10
6.7260849132
 20
7.5326131186
 30
0.0
 10
6.7363223302
 20
7.5248759073
 30
0.0
 10
6.7471282679
 20
7.5178802355
 30
0.0
 10
6.7546657155
 20
7.513740204
 30
0.0
 10
6.7585112631
 20
7.5118040542
 30
0.0
 11
6.6849153647
 21
7.581429443
 31
0.0
 11
6.6917298633
 21
7.5704553782
 31
0.0
 11
6.6993011334
 21
7.5600655148
 31
0.0
 11
6.7075908594
 21
7.5502954923
 31
0.0
 11
6.7165623443
 21
7.5411761708
 31
0.0
 11
6.7261779893
 21
7.5327383298
 31
0.0
 11
6.7363998542
 21
7.5250114646
 31
0.0
 11
6.7471909927
 21
7.5180236755
 31
0.0
 11
6.7585112631
 21
7.5118040542
 31
0.0
  0
LINE
  5
3A7
100
AcDbEntity
  8
0
100
AcDbLine
 62
6
  6
CONTINUOUS
 10
8.62117078
 20
7.5815817805
 11
8.733831026
 21
7.581429443
  0
SPLINE
  5
3A8
100
AcDbEntity
  8
0
100
AcDbSpline
 62
6
  6
CONTINUOUS
 70
0
 71
3
 72
15
 73
11
 74
9
 42
0.0000001
 43
0.0000001
 44
0.0000000001
 12
0.1316861753
 22
0.047198673
 32
0.0
 13
0.096886707
 23
0.1009055474
 33
0.0
 40
0.0
 40
0.0
 40
0.0
 40
0.0
 40
0.1172178469
 40
0.2369336827
 40
0.3590247252
 40
0.4833811517
 40
0.6098500289
 40
0.7382486931
 40
0.8683874764
 40
1.0
 40
1.0
 40
1.0
 40
1.0
 10
8.5056805586
 20
7.504776152
 30
0.0
 10
8.5108258819
 20
7.5066203276
 30
0.0
 10
8.5211055393
 20
7.5106931226
 30
0.0
 10
8.5362644785
 20
7.5178207072
 30
0.0
 10
8.5512625852
 20
7.5260013121
 30
0.0
 10
8.5660294971
 20
7.5352014077
 30
0.0
 10
8.5804946752
 20
7.5453884045
 30
0.0
 10
8.5945855277
 20
7.5565274362
 30
0.0
 10
8.6082242205
 20
7.5685802171
 30
0.0
 10
8.6169202787
 20
7.5771549693
 30
0.0
 10
8.62117078
 20
7.5815817805
 30
0.0
 11
8.5056805586
 21
7.504776152
 31
0.0
 11
8.5209296784
 21
7.5108046149
 31
0.0
 11
8.5360893693
 21
7.5179210631
 31
0.0
 11
8.5510874331
 21
7.526091584
 31
0.0
 11
8.565856183
 21
7.5352844436
 31
0.0
 11
8.5803240988
 21
7.5454664272
 31
0.0
 11
8.5944171703
 21
7.5566021138
 31
0.0
 11
8.6080604445
 21
7.5686554556
 31
0.0
 11
8.62117078
 21
7.5815817805
 31
0.0
  0
SPLINE
  5
3A9
100
AcDbEntity
  8
0
100
AcDbSpline
 62
6
  6
CONTINUOUS
 70
0
 71
3
 72
15
 73
11
 74
9
 42
0.0000001
 43
0.0000001
 44
0.0000000001
 12
0.0513528626
 22
0.004845487
 32
0.0
 13
0.0485563102
 23
0.0174034473
 33
0.0
 40
0.0
 40
0.0
 40
0.0
 40
0.0
 40
0.1308171099
 40
0.2601571514
 40
0.3878799671
 40
0.513887152
 40
0.6381352382
 40
0.7606084164
 40
0.8812514516
 40
1.0
 40
1.0
 40
1.0
 40
1.0
 10
8.4552551397
 20
7.4945598674
 30
0.0
 10
8.4574944174
 20
7.4947711583
 30
0.0
 10
8.461943788
 20
7.49523442
 30
0.0
 10
8.4685607736
 20
7.4960709875
 30
0.0
 10
8.4750734032
 20
7.4970588991
 30
0.0
 10
8.4814701395
 20
7.4982115031
 30
0.0
 10
8.48774024
 20
7.4995418397
 30
0.0
 10
8.4938721129
 20
7.5010628661
 30
0.0
 10
8.499852057
 20
7.5027860156
 30
0.0
 10
8.5037585615
 20
7.504087274
 30
0.0
 10
8.5056805586
 20
7.504776152
 30
0.0
 11
8.4552551397
 21
7.4945598674
 31
0.0
 11
8.4619662039
 21
7.495261788
 31
0.0
 11
8.4685845738
 21
7.4961019485
 31
0.0
 11
8.4750975829
 21
7.4970935711
 31
0.0
 11
8.4814934765
 21
7.4982498462
 31
0.0
 11
8.4877619238
 21
7.4995839147
 31
0.0
 11
8.4938924081
 21
7.5011087876
 31
0.0
 11
8.4998707856
 21
7.5028360049
 31
0.0
 11
8.5056805586
 21
7.504776152
 31
0.0
  0
LINE
  5
3AA
100
AcDbEntity
  8
0
100
AcDbLine
 62
6
  6
CONTINUOUS
 10
8.4521451896
 20
7.5815849062
 11
8.5624741099
 21
7.581452279
  0
SPLINE
  5
3AB
100
AcDbEntity
  8
0
100
AcDbSpline
 62
6
  6
CONTINUOUS
 70
0
 71
3
 72
15
 73
11
 74
9
 42
0.0000001
 43
0.0000001
 44
0.0000000001
 12
0.1245454966
 22
0.0487270077
 32
0.0
 13
0.0907320535
 23
0.0982527173
 33
0.0
 40
0.0
 40
0.0
 40
0.0
 40
0.0
 40
0.1139862149
 40
0.2313797184
 40
0.3520770698
 40
0.4759764431
 40
0.6029247608
 40
0.7327304239
 40
0.8651867959
 40
1.0
 40
1.0
 40
1.0
 40
1.0
 10
8.3439832923
 20
7.5047898848
 30
0.0
 10
8.3487154489
 20
7.5066412872
 30
0.0
 10
8.3581940149
 20
7.5107320572
 30
0.0
 10
8.3721882166
 20
7.5178596033
 30
0.0
 10
8.3861097342
 20
7.5260393076
 30
0.0
 10
8.3998940017
 20
7.5352382935
 30
0.0
 10
8.4134762152
 20
7.5454245886
 30
0.0
 10
8.4267895139
 20
7.5565639623
 30
0.0
 10
8.4397620019
 20
7.5686187374
 30
0.0
 10
8.4480678966
 20
7.5771696517
 30
0.0
 10
8.4521451896
 20
7.5815849062
 30
0.0
 11
8.3439832923
 21
7.5047898848
 31
0.0
 11
8.3579860463
 21
7.5108158164
 31
0.0
 11
8.3719822701
 21
7.5179288699
 31
0.0
 11
8.3859056847
 21
7.5260957344
 31
0.0
 11
8.3996940765
 21
7.5352852781
 31
0.0
 11
8.413281654
 21
7.5454649001
 31
0.0
 11
8.4266001723
 21
7.5565997893
 31
0.0
 11
8.4395804159
 21
7.5686544934
 31
0.0
 11
8.4521451896
 21
7.5815849062
 31
0.0
  0
SPLINE
  5
3AC
100
AcDbEntity
  8
0
100
AcDbSpline
 62
6
  6
CONTINUOUS
 70
0
 71
3
 72
15
 73
11
 74
9
 42
0.0000001
 43
0.0000001
 44
0.0000000001
 12
0.0485772542
 22
0.0047363964
 32
0.0
 13
0.0454527509
 23
0.0177828713
 33
0.0
 40
0.0
 40
0.0
 40
0.0
 40
0.0
 40
0.132994479
 40
0.2638031045
 40
0.3923236061
 40
0.5184991315
 40
0.6423315622
 40
0.7638574709
 40
0.8830796117
 40
1.0
 40
1.0
 40
1.0
 40
1.0
 10
8.2964138361
 20
7.4945582938
 30
0.0
 10
8.2985673383
 20
7.4947682653
 30
0.0
 10
8.3028348472
 20
7.4952286837
 30
0.0
 10
8.3091634792
 20
7.4960634248
 30
0.0
 10
8.3153580592
 20
7.4970503627
 30
0.0
 10
8.3214086348
 20
7.4982031198
 30
0.0
 10
8.3273059272
 20
7.4995350722
 30
0.0
 10
8.3330397667
 20
7.5010594826
 30
0.0
 10
8.3385978765
 20
7.502788092
 30
0.0
 10
8.3422118412
 20
7.5040968248
 30
0.0
 10
8.3439832923
 20
7.5047898848
 30
0.0
 11
8.2964138361
 21
7.4945582938
 31
0.0
 11
8.3028671421
 21
7.4952581362
 31
0.0
 11
8.3091962722
 21
7.4960968258
 31
0.0
 11
8.3153902738
 21
7.4970878352
 31
0.0
 11
8.3214389787
 21
7.4982446195
 31
0.0
 11
8.3273334385
 21
7.4995806065
 31
0.0
 11
8.3330645034
 21
7.5011090947
 31
0.0
 11
8.3386194598
 21
7.5028419008
 31
0.0
 11
8.3439832923
 21
7.5047898848
 31
0.0
  0
LINE
  5
3AD
100
AcDbEntity
  8
0
100
AcDbLine
 62
6
  6
CONTINUOUS
 10
9.4570332118
 20
7.5815849062
 11
9.457872717
 21
7.5815444869
  0
SPLINE
  5
3AE
100
AcDbEntity
  8
0
100
AcDbSpline
 62
6
  6
CONTINUOUS
 70
0
 71
3
 72
21
 73
17
 74
15
 42
0.0000001
 43
0.0000001
 44
0.0000000001
 12
0.1189240535
 22
0.0429719489
 32
0.0
 13
0.0680706667
 23
0.1065640804
 33
0.0
 40
0.0
 40
0.0
 40
0.0
 40
0.0
 40
0.126752391
 40
0.2525546397
 40
0.315165125
 40
0.3776147039
 40
0.4399328977
 40
0.5021485044
 40
0.5642918299
 40
0.6263929524
 40
0.68848363
 40
0.750598181
 40
0.8127736594
 40
0.8750490666
 40
0.9374512733
 40
1.0
 40
1.0
 40
1.0
 40
1.0
 10
9.3594133381
 20
7.5047898848
 30
0.0
 10
9.3644379742
 20
7.5066054839
 30
0.0
 10
9.3743145573
 20
7.5106097594
 30
0.0
 10
9.3862111239
 20
7.516552961
 30
0.0
 10
9.3953745126
 20
7.5218339234
 30
0.0
 10
9.4020565476
 20
7.5260485381
 30
0.0
 10
9.4085499644
 20
7.5305189212
 30
0.0
 10
9.4148465245
 20
7.5352411762
 30
0.0
 10
9.4209376587
 20
7.5402111796
 30
0.0
 10
9.4268147857
 20
7.5454246291
 30
0.0
 10
9.4324692037
 20
7.5508771297
 30
0.0
 10
9.4378921598
 20
7.5565642808
 30
0.0
 10
9.4430748054
 20
7.5624816514
 30
0.0
 10
9.4480078494
 20
7.5686243199
 30
0.0
 10
9.4526815131
 20
7.5749859616
 30
0.0
 10
9.4556139673
 20
7.5793630904
 30
0.0
 10
9.4570332118
 20
7.5815849062
 30
0.0
 11
9.3594133381
 21
7.5047898848
 31
0.0
 11
9.374265222
 21
7.5108158164
 31
0.0
 11
9.3884939917
 21
7.5179288699
 31
0.0
 11
9.3953532171
 21
7.5218824893
 31
0.0
 11
9.4020320559
 21
7.5260957344
 31
0.0
 11
9.4085224183
 21
7.5305646727
 31
0.0
 11
9.4148158929
 21
7.5352852781
 31
0.0
 11
9.42090402
 21
7.5402534688
 31
0.0
 11
9.4267781457
 21
7.5454649001
 31
0.0
 11
9.4324295562
 21
7.5509151467
 31
0.0
 11
9.4378495082
 21
7.5565997893
 31
0.0
 11
9.4430292068
 21
7.5625144191
 31
0.0
 11
9.4479597708
 21
7.5686544934
 31
0.0
 11
9.4526313022
 21
7.5750137817
 31
0.0
 11
9.4570332118
 21
7.5815849062
 31
0.0
  0
ENDSEC
  0
SECTION
  2
OBJECTS
  0
DICTIONARY
  5
C
100
AcDbDictionary
280
0
281
1
  3
ACAD_GROUP
350
D
  3
ACAD_MLINESTYLE
350
17
  3
ACAD_LAYOUT
350
1A
  3
ACAD_PLOTSETTINGS
350
19
  3
ACAD_PLOTSTYLENAME
350
E
  0
DICTIONARY
  5
D
102
{ACAD_REACTORS
330
C
102
}
100
AcDbDictionary
280
0
281
1
  0
ACDBDICTIONARYWDFLT
  5
E
102
{ACAD_REACTORS
330
C
102
}
100
AcDbDictionary
281
1
  3
Normal
350
F
100
AcDbDictionaryWithDefault
340
F
  0
DICTIONARY
  5
17
102
{ACAD_REACTORS
330
C
102
}
100
AcDbDictionary
280
0
281
1
  3
Standard
350
18
  0
DICTIONARY
  5
19
102
{ACAD_REACTORS
330
C
102
}
100
AcDbDictionary
281
1
  0
DICTIONARY
  5
1A
102
{ACAD_REACTORS
330
C
102
}
100
AcDbDictionary
281
1
  3
Model
350
3AF
  3
Layout1
350
3B0
  0
ACDBPLACEHOLDER
  5
F
102
{ACAD_REACTORS
330
E
102
}
  0
MLINESTYLE
  5
18
102
{ACAD_REACTORS
330
17
102
}
100
AcDbMlineStyle
  2
STANDARD
 70
0
  3

 62
256
 51
90.0
 52
90.0
 71
2
 49
0.5
 62
256
  6
BYLAYER
 49
-0.5
 62
256
  6
BYLAYER
  0
LAYOUT
  5
3AF
102
{ACAD_REACTORS
330
1A
102
}
100
AcDbPlotSettings
  1

  2
none_device
  4
ISO_A3_(420.00_x_297.00_MM)
  6

 40
0.0
 41
0.0
 42
0.0
 43
0.0
 44
420.0
 45
297.0
 46
0.0
 47
0.0
 48
0.0
 49
0.0
140
0.0
141
0.0
142
1.0
143
1.0
 70
1024
 72
0
 73
0
 74
0
  7

 75
0
147
1.0
148
0.0
149
0.0
100
AcDbLayout
  1
Model
 70
0
 71
0
 10
0.0
 20
0.0
 11
16.5354330709
 21
11.6929133858
 12
0.0
 22
0.0
 32
0.0
 14
0.0
 24
0.0
 34
0.0
 15
0.0
 25
0.0
 35
0.0
146
0.0
 13
0.0
 23
0.0
 33
0.0
 16
1.0
 26
0.0
 36
0.0
 17
0.0
 27
1.0
 37
0.0
 76
0
330
203
345
0
346
0
  0
LAYOUT
  5
3B0
102
{ACAD_REACTORS
330
1A
102
}
100
AcDbPlotSettings
  1

  2
none_device
  4
ISO_A3_(420.00_x_297.00_MM)
  6

 40
0.0
 41
0.0
 42
0.0
 43
0.0
 44
420.0
 45
297.0
 46
0.0
 47
0.0
 48
0.0
 49
0.0
140
0.0
141
0.0
142
1.0
143
1.0
 70
0
 72
0
 73
0
 74
0
  7

 75
0
147
1.0
148
0.0
149
0.0
100
AcDbLayout
  1
Layout1
 70
0
 71
1
 10
0.0
 20
0.0
 11
16.5354330709
 21
11.6929133858
 12
0.0
 22
0.0
 32
0.0
 14
0.0
 24
0.0
 34
0.0
 15
0.0
 25
0.0
 35
0.0
146
0.0
 13
0.0
 23
0.0
 33
0.0
 16
1.0
 26
0.0
 36
0.0
 17
0.0
 27
1.0
 37
0.0
 76
0
330
204
345
0
346
0
  0
ENDSEC
  0
EOF
