999
DXF file: E:\BT Custom\CADOUTPUT\_FRONT.dxf
999
Pro/ENGINEER 2018400 by Parametric Technology Corporation
  0
SECTION
  2
HEADER
  9
$ACADVER
  1
AC1018
  9
$DWGCODEPAGE
  3
ANSI_1252
  9
$EXTMAX
 10
22.0
 20
17.0
 30
0.0
  9
$EXTMIN
 10
0.0
 20
0.0
 30
0.0
  9
$LIMMIN
 10
0.0
 20
0.0
  9
$LIMMAX
 10
22.0
 20
17.0
  9
$VIEWCTR
 10
11.0
 20
8.5
  9
$VIEWSIZE
 40
17.0
  9
$CLAYER
  8
0
  9
$LTSCALE
 40
1.21
  9
$CELTYPE
  6
BYLAYER
  9
$DIMSCALE
 40
1.0
  9
$DIMASZ
 40
0.1
  9
$DIMEXO
 40
0.0625
  9
$DIMDLI
 40
0.836
  9
$DIMEXE
 40
0.125
  9
$DIMCEN
 40
0.198
  9
$DIMLFAC
 40
1.0
  9
$DIMBLK
  1
_FILLED
  9
$DIMALT
 70
1
  9
$DIMALTD
 70
2
  9
$DIMALTTD
 70
2
  9
$DIMALTF
 40
25.4
  9
$DIMTXT
 40
0.08
  9
$DIMTOL
 70
1
  9
$DIMLIM
 70
0
  9
$DIMTFAC
 40
1.0
  9
$DIMTP
 40
0.001
  9
$DIMTM
 40
0.001
  9
$DIMGAP
 40
0.09
  9
$DIMDSEP
 70
46
  9
$AUNITS
 70
0
  9
$PDMODE
 70
3
  9
$PDSIZE
 40
0.06
  9
$HANDSEED
  5
4E3
  9
$TILEMODE
 70
1
  9
$MEASUREMENT
 70
0
  9
$INSUNITS
 70
1
  0
ENDSEC
  0
SECTION
  2
CLASSES
  0
CLASS
  1
ACDBDICTIONARYWDFLT
  2
AcDbDictionaryWithDefault
  3
AutoCAD 2000
 90
0
 91
1
280
0
281
0
  0
CLASS
  1
ACDBPLACEHOLDER
  2
AcDbPlaceHolder
  3
AutoCAD 2000
 90
0
 91
1
280
0
281
0
  0
CLASS
  1
LAYOUT
  2
AcDbLayout
  3
AutoCAD 2000
 90
0
 91
0
280
0
281
0
  0
ENDSEC
  0
SECTION
  2
TABLES
  0
TABLE
  2
VPORT
  5
8
100
AcDbSymbolTable
 70
2
  0
VPORT
  5
1F4
100
AcDbSymbolTableRecord
100
AcDbViewportTableRecord
  2
*ACTIVE
 70
0
 10
0.0
 20
0.0
 11
1.0
 21
1.0
 12
11.0
 22
8.5
 13
0.0
 23
0.0
 14
1.0
 24
1.0
 15
0.0
 25
0.0
 16
0.0
 26
0.0
 36
1.0
 17
0.0
 27
0.0
 37
0.0
 40
17.0
 41
1.2941176471
 42
50.0
 43
0.0
 44
0.0
 50
0.0
 51
0.0
 71
0
 72
100
 73
1
 74
1
 75
0
 76
0
 77
0
 78
0
  0
ENDTAB
  0
TABLE
  2
LTYPE
  5
5
100
AcDbSymbolTable
 70
6
  0
LTYPE
  5
14
100
AcDbSymbolTableRecord
100
AcDbLinetypeTableRecord
  2
BYBLOCK
 70
0
  3

 72
65
 73
0
 40
0.0
  0
LTYPE
  5
15
100
AcDbSymbolTableRecord
100
AcDbLinetypeTableRecord
  2
BYLAYER
 70
0
  3

 72
65
 73
0
 40
0.0
  0
LTYPE
  5
16
100
AcDbSymbolTableRecord
100
AcDbLinetypeTableRecord
  2
CONTINUOUS
 70
64
  3
Solid line
 72
65
 73
0
 40
0.0
  0
LTYPE
  5
1F5
100
AcDbSymbolTableRecord
100
AcDbLinetypeTableRecord
  2
CENTER
 70
64
  3
____ _ ____ _ ____ _ ____ _ ____ _ ____ _ ____
 72
65
 73
4
 40
0.6
 49
0.375
 74
0
 49
-0.075
 74
0
 49
0.075
 74
0
 49
-0.075
 74
0
  0
LTYPE
  5
1F6
100
AcDbSymbolTableRecord
100
AcDbLinetypeTableRecord
  2
HIDDEN
 70
64
  3
- - - - - - - - - - - - - - - - - - - -
 72
65
 73
2
 40
0.2
 49
0.1
 74
0
 49
-0.1
 74
0
  0
LTYPE
  5
1F7
100
AcDbSymbolTableRecord
100
AcDbLinetypeTableRecord
  2
PHANTOM
 70
64
  3
_____ _ _ _____ _ _ _____ _ _ _____
 72
65
 73
6
 40
0.8
 49
0.45
 74
0
 49
-0.05
 74
0
 49
0.1
 74
0
 49
-0.05
 74
0
 49
0.1
 74
0
 49
-0.05
 74
0
  0
LTYPE
  5
1F8
100
AcDbSymbolTableRecord
100
AcDbLinetypeTableRecord
  2
DOT
 70
64
  3
. . . . . . . . . . . . . . . . . . . .
 72
65
 73
2
 40
0.2
 49
0.1
 74
0
 49
-0.1
 74
0
  0
LTYPE
  5
1F9
100
AcDbSymbolTableRecord
100
AcDbLinetypeTableRecord
  2
DASHED
 70
64
  3
- - - - - - - - - - - - - - - - - - - -
 72
65
 73
2
 40
0.2
 49
0.1
 74
0
 49
-0.1
 74
0
  0
ENDTAB
  0
TABLE
  2
LAYER
  5
2
100
AcDbSymbolTable
 70
36
  0
LAYER
  5
10
100
AcDbSymbolTableRecord
100
AcDbLayerTableRecord
  2
0
 70
0
 62
7
  6
CONTINUOUS
370
-3
390
F
  0
LAYER
  5
1FA
100
AcDbSymbolTableRecord
100
AcDbLayerTableRecord
  2
DEFAULT_1
 70
0
 62
7
  6
CENTER
370
-3
390
F
  0
LAYER
  5
1FB
100
AcDbSymbolTableRecord
100
AcDbLayerTableRecord
  2
DEFAULT_2
 70
0
 62
8
  6
HIDDEN
370
-3
390
F
  0
LAYER
  5
1FC
100
AcDbSymbolTableRecord
100
AcDbLayerTableRecord
  2
DEFAULT_3
 70
0
 62
7
  6
PHANTOM
370
-3
390
F
  0
LAYER
  5
1FD
100
AcDbSymbolTableRecord
100
AcDbLayerTableRecord
  2
ALL_FEATURES
 70
0
 62
7
  6
CONTINUOUS
370
-3
390
F
  0
LAYER
  5
1FE
100
AcDbSymbolTableRecord
100
AcDbLayerTableRecord
  2
AXES_FEATURES
 70
0
 62
7
  6
CONTINUOUS
370
-3
390
F
  0
LAYER
  5
1FF
100
AcDbSymbolTableRecord
100
AcDbLayerTableRecord
  2
DEFAULT_COORDINATE_SYSTEM
 70
0
 62
7
  6
CONTINUOUS
370
-3
390
F
  0
LAYER
  5
200
100
AcDbSymbolTableRecord
100
AcDbLayerTableRecord
  2
DEFAULT_DATUM_AXES
 70
0
 62
7
  6
CONTINUOUS
370
-3
390
F
  0
LAYER
  5
201
100
AcDbSymbolTableRecord
100
AcDbLayerTableRecord
  2
DEFAULT_DATUM_PLANES
 70
0
 62
7
  6
CONTINUOUS
370
-3
390
F
  0
LAYER
  5
202
100
AcDbSymbolTableRecord
100
AcDbLayerTableRecord
  2
DIMENSIONS
 70
0
 62
7
  6
CONTINUOUS
370
-3
390
F
  0
ENDTAB
  0
TABLE
  2
STYLE
  5
3
100
AcDbSymbolTable
 70
1
  0
STYLE
  5
11
100
AcDbSymbolTableRecord
100
AcDbTextStyleTableRecord
  2
STANDARD
 70
0
 40
0.0
 41
0.8
 50
0.0
 71
0
 42
0.2
  3
txt
  4

  0
STYLE
  5
203
100
AcDbSymbolTableRecord
100
AcDbTextStyleTableRecord
  2
TEXTSTYLE_1
 70
0
 40
0.0
 41
0.8
 50
0.0
 71
0
 42
0.2
  3
gdt
  4

  0
ENDTAB
  0
TABLE
  2
VIEW
  5
6
100
AcDbSymbolTable
 70
0
  0
ENDTAB
  0
TABLE
  2
UCS
  5
7
100
AcDbSymbolTable
 70
0
  0
ENDTAB
  0
TABLE
  2
APPID
  5
9
100
AcDbSymbolTable
 70
1
  0
APPID
  5
204
100
AcDbSymbolTableRecord
100
AcDbRegAppTableRecord
  2
ACAD
 70
0
  0
ENDTAB
  0
TABLE
  2
BLOCK_RECORD
  5
1
100
AcDbSymbolTable
 70
0
  0
BLOCK_RECORD
  5
205
100
AcDbSymbolTableRecord
100
AcDbBlockTableRecord
  2
*Model_Space
  0
BLOCK_RECORD
  5
206
100
AcDbSymbolTableRecord
100
AcDbBlockTableRecord
  2
*Paper_Space
  0
BLOCK_RECORD
  5
207
100
AcDbSymbolTableRecord
100
AcDbBlockTableRecord
  2
_FILLED
  0
ENDTAB
  0
TABLE
  2
DIMSTYLE
  5
A
100
AcDbSymbolTable
 70
1
100
AcDbDimStyleTable
 71
0
  0
DIMSTYLE
105
208
100
AcDbSymbolTableRecord
100
AcDbDimStyleTableRecord
  2
STANDARD
 70
0
  3

  4

 40
1.0
 41
0.1
 42
0.0625
 43
0.38
 44
0.125
 45
0.0
 46
0.0
 47
0.001
 48
0.001
140
0.08
141
0.09
142
0.0
143
25.4
144
1.0
145
0.0
146
1.0
147
0.09
 71
1.0
 72
0.0
 73
1
 74
1
 75
0
 76
0
 77
0
 78
4
 79
1
170
1
171
2
172
0
173
0
174
0
175
0
176
0
177
0
178
0
270
2
179
3
271
3
272
3
273
2
274
2
275
0
280
0
281
0
282
0
283
1
284
4
285
0
286
0
287
3
288
0
340
11
278
46
341
207
342
207
343
207
344
207
  0
ENDTAB
  0
ENDSEC
  0
SECTION
  2
BLOCKS
  0
BLOCK
  5
20
100
AcDbEntity
  8
0
100
AcDbBlockBegin
  2
*Model_Space
 70
0
 10
0.0
 20
0.0
 30
0.0
  3
*Model_Space
  1

  0
ENDBLK
  5
21
100
AcDbEntity
  8
0
100
AcDbBlockEnd
  0
BLOCK
  5
1C
100
AcDbEntity
  8
0
100
AcDbBlockBegin
  2
*Paper_Space
 70
0
 10
0.0
 20
0.0
 30
0.0
  3
*Paper_Space
  1

  0
ENDBLK
  5
1D
100
AcDbEntity
  8
0
100
AcDbBlockEnd
  0
BLOCK
  5
209
100
AcDbEntity
  8
0
100
AcDbBlockBegin
  2
_FILLED
 70
64
 10
0.0
 20
0.0
  3
_FILLED
  1

  0
SOLID
  5
20A
100
AcDbEntity
  8
0
  6
BYBLOCK
 62
0
100
AcDbTrace
 10
0.0
 20
0.0
 11
-1.0
 21
0.2
 12
-1.0
 22
-0.2
 13
-1.0
 23
-0.2
  0
ENDBLK
  5
20B
100
AcDbEntity
  8
0
  6
BYBLOCK
 62
0
100
AcDbBlockEnd
  0
ENDSEC
  0
SECTION
  2
ENTITIES
  0
LINE
  5
20C
100
AcDbEntity
  8
0
100
AcDbLine
 62
9
  6
CONTINUOUS
 10
9.633741715
 20
9.1426695021
 11
9.633741715
 21
9.3926695021
  0
LINE
  5
20D
100
AcDbEntity
  8
0
100
AcDbLine
 62
7
  6
CONTINUOUS
 10
10.461741715
 20
9.4036695021
 11
10.461741715
 21
9.1316695021
  0
LINE
  5
20E
100
AcDbEntity
  8
0
100
AcDbLine
 62
7
  6
CONTINUOUS
 10
10.7667483517
 20
7.9009428628
 11
10.7667483517
 21
7.8905967846
  0
LINE
  5
20F
100
AcDbEntity
  8
0
100
AcDbLine
 62
7
  6
CONTINUOUS
 10
10.6130426377
 20
7.9290907976
 11
10.6117469517
 21
7.9188343866
  0
LINE
  5
210
100
AcDbEntity
  8
0
100
AcDbLine
 62
7
  6
CONTINUOUS
 10
10.4344499827
 20
7.9855172021
 11
10.4318773203
 21
7.9754973435
  0
LINE
  5
211
100
AcDbEntity
  8
0
100
AcDbLine
 62
7
  6
CONTINUOUS
 10
10.2903511182
 20
8.0518818076
 11
10.2865454729
 21
8.0422698446
  0
LINE
  5
212
100
AcDbEntity
  8
0
100
AcDbLine
 62
7
  6
CONTINUOUS
 10
10.1314019561
 20
8.1509496601
 11
10.126418281
 21
8.1418843888
  0
LINE
  5
213
100
AcDbEntity
  8
0
100
AcDbLine
 62
7
  6
CONTINUOUS
 10
10.0083344286
 20
8.2510652298
 11
10.0022579466
 21
8.2427016698
  0
LINE
  5
214
100
AcDbEntity
  8
0
100
AcDbLine
 62
7
  6
CONTINUOUS
 10
9.8790161197
 20
8.3865497327
 11
9.8719345747
 21
8.3790086532
  0
LINE
  5
215
100
AcDbEntity
  8
0
100
AcDbLine
 62
7
  6
CONTINUOUS
 10
9.7847127146
 20
8.5141256372
 11
9.7767472037
 21
8.5075359935
  0
LINE
  5
216
100
AcDbEntity
  8
0
100
AcDbLine
 62
7
  6
CONTINUOUS
 10
9.693150804
 20
8.677513801
 11
9.6844163485
 21
8.671970747
  0
LINE
  5
217
100
AcDbEntity
  8
0
100
AcDbLine
 62
7
  6
CONTINUOUS
 10
9.6335369511
 20
8.824533977
 11
9.6241829136
 21
8.8201323011
  0
LINE
  5
218
100
AcDbEntity
  8
0
100
AcDbLine
 62
7
  6
CONTINUOUS
 10
9.5854846102
 20
9.0055595224
 11
9.5756460623
 21
9.0023627844
  0
LINE
  5
219
100
AcDbEntity
  8
0
100
AcDbLine
 62
7
  6
CONTINUOUS
 10
12.2914324155
 20
9.0135923314
 11
12.3017568638
 21
9.0129427721
  0
LINE
  5
21A
100
AcDbEntity
  8
0
100
AcDbLine
 62
7
  6
CONTINUOUS
 10
12.2532447443
 20
8.8596103669
 11
12.2633995598
 21
8.8576732322
  0
LINE
  5
21B
100
AcDbEntity
  8
0
100
AcDbLine
 62
7
  6
CONTINUOUS
 10
12.1857157588
 20
8.684913167
 11
12.1955543068
 21
8.681716429
  0
LINE
  5
21C
100
AcDbEntity
  8
0
100
AcDbLine
 62
7
  6
CONTINUOUS
 10
12.1104340662
 20
8.5452657167
 11
12.1197881037
 21
8.5408640407
  0
LINE
  5
21D
100
AcDbEntity
  8
0
100
AcDbLine
 62
7
  6
CONTINUOUS
 10
12.001581201
 20
8.3928507263
 11
12.0103156565
 21
8.3873076723
  0
LINE
  5
21E
100
AcDbEntity
  8
0
100
AcDbLine
 62
7
  6
CONTINUOUS
 10
11.8939357126
 20
8.2763123531
 11
11.9019012235
 21
8.2697227094
  0
LINE
  5
21F
100
AcDbEntity
  8
0
100
AcDbLine
 62
7
  6
CONTINUOUS
 10
11.7505985935
 20
8.1557563667
 11
11.7576801385
 21
8.1482152872
  0
LINE
  5
220
100
AcDbEntity
  8
0
100
AcDbLine
 62
7
  6
CONTINUOUS
 10
11.6173530711
 20
8.0696496052
 11
11.6234295531
 21
8.0612860452
  0
LINE
  5
221
100
AcDbEntity
  8
0
100
AcDbLine
 62
7
  6
CONTINUOUS
 10
11.4485380967
 20
7.9885275987
 11
11.4535217717
 21
7.9794623275
  0
LINE
  5
222
100
AcDbEntity
  8
0
100
AcDbLine
 62
7
  6
CONTINUOUS
 10
11.2980648466
 20
7.9382628534
 11
11.3018704919
 21
7.9286508905
  0
LINE
  5
223
100
AcDbEntity
  8
0
100
AcDbLine
 62
7
  6
CONTINUOUS
 10
11.1143792823
 20
7.9016720209
 11
11.1169519447
 21
7.8916521623
  0
LINE
  5
224
100
AcDbEntity
  8
0
100
AcDbLine
 62
7
  6
CONTINUOUS
 10
10.9561330922
 20
7.8904076106
 11
10.9574287782
 21
7.8801511996
  0
LINE
  5
225
100
AcDbEntity
  8
0
100
AcDbLine
 62
9
  6
CONTINUOUS
 10
10.841057446
 20
7.9705404532
 11
10.841057446
 21
7.9604989549
  0
LINE
  5
226
100
AcDbEntity
  8
0
100
AcDbLine
 62
7
  6
CONTINUOUS
 10
10.8488125198
 20
10.5113048718
 11
10.8488125198
 21
10.5227938629
  0
LINE
  5
227
100
AcDbEntity
  8
0
100
AcDbLine
 62
9
  6
CONTINUOUS
 10
10.9376923427
 20
8.0208016791
 11
10.9376923427
 21
8.009318593
  0
LINE
  5
228
100
AcDbEntity
  8
0
100
AcDbLine
 62
9
  6
CONTINUOUS
 10
10.9376923427
 20
10.5145373252
 11
10.9376923427
 21
10.5260204113
  0
LINE
  5
229
100
AcDbEntity
  8
0
100
AcDbLine
 62
7
  6
CONTINUOUS
 10
11.0112674435
 20
10.5123109648
 11
11.0127073056
 21
10.5237086469
  0
LINE
  5
22A
100
AcDbEntity
  8
0
100
AcDbLine
 62
9
  6
CONTINUOUS
 10
10.7044234826
 20
8.0003638031
 11
10.7031379349
 21
7.9901876447
  0
LINE
  5
22B
100
AcDbEntity
  8
0
100
AcDbLine
 62
9
  6
CONTINUOUS
 10
10.7814183666
 20
8.0306336043
 11
10.7799791543
 21
8.0192410658
  0
LINE
  5
22C
100
AcDbEntity
  8
0
100
AcDbLine
 62
9
  6
CONTINUOUS
 10
11.0939663188
 20
10.5047054
 11
11.0954055311
 21
10.5160979385
  0
LINE
  5
22D
100
AcDbEntity
  8
0
100
AcDbLine
 62
9
  6
CONTINUOUS
 10
10.5211522786
 20
8.0345603887
 11
10.5186582995
 21
8.0248469814
  0
LINE
  5
22E
100
AcDbEntity
  8
0
100
AcDbLine
 62
7
  6
CONTINUOUS
 10
11.1608843826
 20
10.4943372929
 11
11.1637415785
 21
10.5054653363
  0
LINE
  5
22F
100
AcDbEntity
  8
0
100
AcDbLine
 62
9
  6
CONTINUOUS
 10
10.6276089245
 20
8.0599743246
 11
10.6247531971
 21
8.0488520007
  0
LINE
  5
230
100
AcDbEntity
  8
0
100
AcDbLine
 62
9
  6
CONTINUOUS
 10
11.247775761
 20
10.4753646797
 11
11.2506314884
 21
10.4864870035
  0
LINE
  5
231
100
AcDbEntity
  8
0
100
AcDbLine
 62
7
  6
CONTINUOUS
 10
11.3184856914
 20
10.454910881
 11
11.3227148058
 21
10.4655924049
  0
LINE
  5
232
100
AcDbEntity
  8
0
100
AcDbLine
 62
9
  6
CONTINUOUS
 10
10.3965859415
 20
8.0981901485
 11
10.3928100739
 21
8.0886533956
  0
LINE
  5
233
100
AcDbEntity
  8
0
100
AcDbLine
 62
9
  6
CONTINUOUS
 10
10.4786896831
 20
8.1083611193
 11
10.4744624772
 21
8.0976844158
  0
LINE
  5
234
100
AcDbEntity
  8
0
100
AcDbLine
 62
9
  6
CONTINUOUS
 10
11.3966950024
 20
10.426977885
 11
11.4009222083
 21
10.4376545885
  0
LINE
  5
235
100
AcDbEntity
  8
0
100
AcDbLine
 62
9
  6
CONTINUOUS
 10
10.2275768844
 20
8.1768900805
 11
10.2227456321
 21
8.1681020652
  0
LINE
  5
236
100
AcDbEntity
  8
0
100
AcDbLine
 62
7
  6
CONTINUOUS
 10
11.4589322687
 20
10.4002936653
 11
11.4644671324
 21
10.4103615451
  0
LINE
  5
237
100
AcDbEntity
  8
0
100
AcDbLine
 62
9
  6
CONTINUOUS
 10
10.3370091879
 20
8.1750308997
 11
10.3314771689
 21
8.1649681946
  0
LINE
  5
238
100
AcDbEntity
  8
0
100
AcDbLine
 62
9
  6
CONTINUOUS
 10
11.5383754976
 20
10.3603081046
 11
11.5439075165
 21
10.3703708097
  0
LINE
  5
239
100
AcDbEntity
  8
0
100
AcDbLine
 62
7
  6
CONTINUOUS
 10
11.6017772926
 20
10.322912055
 11
11.6085299286
 21
10.3322062611
  0
LINE
  5
23A
100
AcDbEntity
  8
0
100
AcDbLine
 62
9
  6
CONTINUOUS
 10
10.1227481056
 20
8.2694991828
 11
10.1167191699
 21
8.2612010646
  0
LINE
  5
23B
100
AcDbEntity
  8
0
100
AcDbLine
 62
9
  6
CONTINUOUS
 10
10.2048018248
 20
8.2589322436
 11
10.1980522361
 21
8.2496422317
  0
LINE
  5
23C
100
AcDbEntity
  8
0
100
AcDbLine
 62
9
  6
CONTINUOUS
 10
11.6705828607
 20
10.2764067607
 11
11.6773324494
 21
10.2856967725
  0
LINE
  5
23D
100
AcDbEntity
  8
0
100
AcDbLine
 62
9
  6
CONTINUOUS
 10
9.9786206561
 20
8.3877574551
 11
9.9717556959
 21
8.380447015
  0
LINE
  5
23E
100
AcDbEntity
  8
0
100
AcDbLine
 62
7
  6
CONTINUOUS
 10
11.7242287333
 20
10.2350830961
 11
11.732093489
 21
10.2434582103
  0
LINE
  5
23F
100
AcDbEntity
  8
0
100
AcDbLine
 62
9
  6
CONTINUOUS
 10
10.084152583
 20
8.3587419766
 11
10.0762918696
 21
8.3503711671
  0
LINE
  5
240
100
AcDbEntity
  8
0
100
AcDbLine
 62
9
  6
CONTINUOUS
 10
11.7912321025
 20
10.1765970277
 11
11.7990928158
 21
10.1849678372
  0
LINE
  5
241
100
AcDbEntity
  8
0
100
AcDbLine
 62
7
  6
CONTINUOUS
 10
11.8433419942
 20
10.1246084585
 11
11.8521938588
 21
10.1319313578
  0
LINE
  5
242
100
AcDbEntity
  8
0
100
AcDbLine
 62
9
  6
CONTINUOUS
 10
9.9001162133
 20
8.5035269293
 11
9.8922130296
 21
8.4969888471
  0
LINE
  5
243
100
AcDbEntity
  8
0
100
AcDbLine
 62
9
  6
CONTINUOUS
 10
9.9769641731
 20
8.4728860397
 11
9.9681163032
 21
8.4655664451
  0
LINE
  5
244
100
AcDbEntity
  8
0
100
AcDbLine
 62
9
  6
CONTINUOUS
 10
11.8984205124
 20
10.0624529646
 11
11.9072683823
 21
10.0697725592
  0
LINE
  5
245
100
AcDbEntity
  8
0
100
AcDbLine
 62
9
  6
CONTINUOUS
 10
9.789926429
 20
8.6539129396
 11
9.7814591117
 21
8.6485394167
  0
LINE
  5
246
100
AcDbEntity
  8
0
100
AcDbLine
 62
7
  6
CONTINUOUS
 10
11.9401042238
 20
10.0090863729
 11
11.9498046999
 21
10.0152424822
  0
LINE
  5
247
100
AcDbEntity
  8
0
100
AcDbLine
 62
9
  6
CONTINUOUS
 10
9.8849270203
 20
8.5995643128
 11
9.8752315301
 21
8.5934113675
  0
LINE
  5
248
100
AcDbEntity
  8
0
100
AcDbLine
 62
9
  6
CONTINUOUS
 10
11.9904576652
 20
9.9357746915
 11
12.0001531554
 21
9.9419276368
  0
LINE
  5
249
100
AcDbEntity
  8
0
100
AcDbLine
 62
7
  6
CONTINUOUS
 10
12.0280013974
 20
9.8724602358
 11
12.0383962954
 21
9.8773517035
  0
LINE
  5
24A
100
AcDbEntity
  8
0
100
AcDbLine
 62
9
  6
CONTINUOUS
 10
9.7426790452
 20
8.7855685639
 11
9.7333981996
 21
8.7812013295
  0
LINE
  5
24B
100
AcDbEntity
  8
0
100
AcDbLine
 62
9
  6
CONTINUOUS
 10
9.8094926056
 20
8.7367790038
 11
9.7991023986
 21
8.7318897435
  0
LINE
  5
24C
100
AcDbEntity
  8
0
100
AcDbLine
 62
9
  6
CONTINUOUS
 10
12.0658920799
 20
9.7985600005
 11
12.0762822868
 21
9.8034492608
  0
LINE
  5
24D
100
AcDbEntity
  8
0
100
AcDbLine
 62
9
  6
CONTINUOUS
 10
9.6733505555
 20
8.9586330062
 11
9.6638129137
 21
8.9555340386
  0
LINE
  5
24E
100
AcDbEntity
  8
0
100
AcDbLine
 62
7
  6
CONTINUOUS
 10
12.0929944892
 20
9.7365037009
 11
12.1039211691
 21
9.7400539945
  0
LINE
  5
24F
100
AcDbEntity
  8
0
100
AcDbLine
 62
9
  6
CONTINUOUS
 10
9.7518505747
 20
8.8823661551
 11
9.7409295108
 21
8.8788176863
  0
LINE
  5
250
100
AcDbEntity
  8
0
100
AcDbLine
 62
9
  6
CONTINUOUS
 10
12.1235341108
 20
9.6529728492
 11
12.1344551747
 21
9.656521318
  0
LINE
  5
251
100
AcDbEntity
  8
0
100
AcDbLine
 62
9
  6
CONTINUOUS
 10
12.2307969607
 20
9.4158051085
 11
12.2406477989
 21
9.4176842564
  0
LINE
  5
252
100
AcDbEntity
  8
0
100
AcDbLine
 62
7
  6
CONTINUOUS
 10
9.7327395927
 20
8.9473299548
 11
9.7214541031
 21
8.9451771325
  0
LINE
  5
253
100
AcDbEntity
  8
0
100
AcDbLine
 62
9
  6
CONTINUOUS
 10
9.7129099768
 20
9.0340297703
 11
9.7016302877
 21
9.0318780546
  0
LINE
  5
254
100
AcDbEntity
  8
0
100
AcDbLine
 62
9
  6
CONTINUOUS
 10
12.1624747087
 20
9.5013092339
 11
12.1737543977
 21
9.5034609497
  0
LINE
  5
255
100
AcDbEntity
  8
0
100
AcDbLine
 62
7
  6
CONTINUOUS
 10
9.7013103031
 20
9.1067188322
 11
9.689844702
 21
9.1059974777
  0
LINE
  5
256
100
AcDbEntity
  8
0
100
AcDbLine
 62
7
  6
CONTINUOUS
 10
10.461741715
 20
9.1426695021
 11
9.633741715
 21
9.1426695021
  0
LINE
  5
257
100
AcDbEntity
  8
0
100
AcDbLine
 62
7
  6
CONTINUOUS
 10
11.4136429704
 20
9.1426695021
 11
12.2416429704
 21
9.1426695021
  0
LINE
  5
258
100
AcDbEntity
  8
0
100
AcDbLine
 62
9
  6
CONTINUOUS
 10
12.2270115285
 20
9.0895691145
 11
12.2370202096
 21
9.0889394216
  0
LINE
  5
259
100
AcDbEntity
  8
0
100
AcDbLine
 62
7
  6
CONTINUOUS
 10
9.7001267145
 20
9.4192511033
 11
9.6888419328
 21
9.4214037906
  0
LINE
  5
25A
100
AcDbEntity
  8
0
100
AcDbLine
 62
9
  6
CONTINUOUS
 10
12.1878502306
 20
8.9552861616
 11
12.1979255884
 21
8.9533641843
  0
LINE
  5
25B
100
AcDbEntity
  8
0
100
AcDbLine
 62
9
  6
CONTINUOUS
 10
9.7129099768
 20
9.5013092339
 11
9.7016302877
 21
9.5034609497
  0
LINE
  5
25C
100
AcDbEntity
  8
0
100
AcDbLine
 62
9
  6
CONTINUOUS
 10
12.1624747087
 20
9.0340297703
 11
12.1737543977
 21
9.0318780546
  0
LINE
  5
25D
100
AcDbEntity
  8
0
100
AcDbLine
 62
9
  6
CONTINUOUS
 10
12.14221343
 20
8.7745238228
 11
12.1517510718
 21
8.7714248552
  0
LINE
  5
25E
100
AcDbEntity
  8
0
100
AcDbLine
 62
7
  6
CONTINUOUS
 10
9.7274594448
 20
9.5674442314
 11
9.7165327649
 21
9.5709945249
  0
LINE
  5
25F
100
AcDbEntity
  8
0
100
AcDbLine
 62
9
  6
CONTINUOUS
 10
9.7518505747
 20
9.6529728492
 11
9.7409295108
 21
9.656521318
  0
LINE
  5
260
100
AcDbEntity
  8
0
100
AcDbLine
 62
9
  6
CONTINUOUS
 10
12.1235341108
 20
8.8823661551
 11
12.1344551747
 21
8.8788176863
  0
LINE
  5
261
100
AcDbEntity
  8
0
100
AcDbLine
 62
7
  6
CONTINUOUS
 10
9.7767039257
 20
9.7222589451
 11
9.7663090277
 21
9.7271504128
  0
LINE
  5
262
100
AcDbEntity
  8
0
100
AcDbLine
 62
9
  6
CONTINUOUS
 10
12.0708876439
 20
8.6541986346
 11
12.0801684895
 21
8.6498314002
  0
LINE
  5
263
100
AcDbEntity
  8
0
100
AcDbLine
 62
9
  6
CONTINUOUS
 10
9.8094926056
 20
9.7985600005
 11
9.7991023986
 21
9.8034492608
  0
LINE
  5
264
100
AcDbEntity
  8
0
100
AcDbLine
 62
9
  6
CONTINUOUS
 10
12.0658920799
 20
8.7367790038
 11
12.0762822868
 21
8.7318897435
  0
LINE
  5
265
100
AcDbEntity
  8
0
100
AcDbLine
 62
9
  6
CONTINUOUS
 10
11.9817308418
 20
8.4904646879
 11
11.9901981591
 21
8.4850911649
  0
LINE
  5
266
100
AcDbEntity
  8
0
100
AcDbLine
 62
7
  6
CONTINUOUS
 10
9.8400320804
 20
9.8589989398
 11
9.8303316043
 21
9.8651550492
  0
LINE
  5
267
100
AcDbEntity
  8
0
100
AcDbLine
 62
9
  6
CONTINUOUS
 10
9.8849270203
 20
9.9357746915
 11
9.8752315301
 21
9.9419276368
  0
LINE
  5
268
100
AcDbEntity
  8
0
100
AcDbLine
 62
9
  6
CONTINUOUS
 10
11.9904576652
 20
8.5995643128
 11
12.0001531554
 21
8.5934113675
  0
LINE
  5
269
100
AcDbEntity
  8
0
100
AcDbLine
 62
7
  6
CONTINUOUS
 10
9.926230309
 20
9.9967032602
 11
9.9173784444
 21
10.0040261595
  0
LINE
  5
26A
100
AcDbEntity
  8
0
100
AcDbLine
 62
9
  6
CONTINUOUS
 10
11.8827222289
 20
8.3916577384
 11
11.8906254127
 21
8.3851196562
  0
LINE
  5
26B
100
AcDbEntity
  8
0
100
AcDbLine
 62
9
  6
CONTINUOUS
 10
9.9769641731
 20
10.0624529646
 11
9.9681163032
 21
10.0697725592
  0
LINE
  5
26C
100
AcDbEntity
  8
0
100
AcDbLine
 62
9
  6
CONTINUOUS
 10
11.8984205124
 20
8.4728860397
 11
11.9072683823
 21
8.4655664451
  0
LINE
  5
26D
100
AcDbEntity
  8
0
100
AcDbLine
 62
9
  6
CONTINUOUS
 10
11.7556474749
 20
8.2552401898
 11
11.7625124351
 21
8.2479297497
  0
LINE
  5
26E
100
AcDbEntity
  8
0
100
AcDbLine
 62
7
  6
CONTINUOUS
 10
10.0215747471
 20
10.113398245
 11
10.0137099914
 21
10.1217733591
  0
LINE
  5
26F
100
AcDbEntity
  8
0
100
AcDbLine
 62
9
  6
CONTINUOUS
 10
10.084152583
 20
10.1765970277
 11
10.0762918696
 21
10.1849678372
  0
LINE
  5
270
100
AcDbEntity
  8
0
100
AcDbLine
 62
9
  6
CONTINUOUS
 10
11.7912321025
 20
8.3587419766
 11
11.7990928158
 21
8.3503711671
  0
LINE
  5
271
100
AcDbEntity
  8
0
100
AcDbLine
 62
7
  6
CONTINUOUS
 10
10.1393105718
 20
10.2253397031
 11
10.1325579358
 21
10.2346339093
  0
LINE
  5
272
100
AcDbEntity
  8
0
100
AcDbLine
 62
9
  6
CONTINUOUS
 10
11.6351771106
 20
8.1841598831
 11
11.6412060463
 21
8.1758617649
  0
LINE
  5
273
100
AcDbEntity
  8
0
100
AcDbLine
 62
9
  6
CONTINUOUS
 10
11.6705828607
 20
8.2589322436
 11
11.6773324494
 21
8.2496422317
  0
LINE
  5
274
100
AcDbEntity
  8
0
100
AcDbLine
 62
9
  6
CONTINUOUS
 10
10.2048018248
 20
10.2764067607
 11
10.1980522361
 21
10.2856967725
  0
LINE
  5
275
100
AcDbEntity
  8
0
100
AcDbLine
 62
9
  6
CONTINUOUS
 10
11.4781689789
 20
8.0836303488
 11
11.4830002312
 21
8.0748423335
  0
LINE
  5
276
100
AcDbEntity
  8
0
100
AcDbLine
 62
7
  6
CONTINUOUS
 10
10.2606804516
 20
10.3146573028
 11
10.2551455879
 21
10.3247251825
  0
LINE
  5
277
100
AcDbEntity
  8
0
100
AcDbLine
 62
9
  6
CONTINUOUS
 10
11.5383754976
 20
8.1750308997
 11
11.5439075165
 21
8.1649681946
  0
LINE
  5
278
100
AcDbEntity
  8
0
100
AcDbLine
 62
9
  6
CONTINUOUS
 10
10.3370091879
 20
10.3603081046
 11
10.3314771689
 21
10.3703708097
  0
LINE
  5
279
100
AcDbEntity
  8
0
100
AcDbLine
 62
7
  6
CONTINUOUS
 10
10.4025560975
 20
10.3938022053
 11
10.398326983
 21
10.4044837291
  0
LINE
  5
27A
100
AcDbEntity
  8
0
100
AcDbLine
 62
9
  6
CONTINUOUS
 10
11.3438064591
 20
8.044742922
 11
11.3475823267
 21
8.0352061691
  0
LINE
  5
27B
100
AcDbEntity
  8
0
100
AcDbLine
 62
9
  6
CONTINUOUS
 10
11.3966950024
 20
8.1083611193
 11
11.4009222083
 21
8.0976844158
  0
LINE
  5
27C
100
AcDbEntity
  8
0
100
AcDbLine
 62
9
  6
CONTINUOUS
 10
10.4786896831
 20
10.426977885
 11
10.4744624772
 21
10.4376545885
  0
LINE
  5
27D
100
AcDbEntity
  8
0
100
AcDbLine
 62
9
  6
CONTINUOUS
 10
11.166730348
 20
7.9864180425
 11
11.1692243271
 21
7.9767046353
  0
LINE
  5
27E
100
AcDbEntity
  8
0
100
AcDbLine
 62
7
  6
CONTINUOUS
 10
10.5423253031
 20
10.4501302666
 11
10.5394681072
 21
10.46125831
  0
LINE
  5
27F
100
AcDbEntity
  8
0
100
AcDbLine
 62
9
  6
CONTINUOUS
 10
11.247775761
 20
8.0599743246
 11
11.2506314884
 21
8.0488520007
  0
LINE
  5
280
100
AcDbEntity
  8
0
100
AcDbLine
 62
9
  6
CONTINUOUS
 10
10.6276089245
 20
10.4753646797
 11
10.6247531971
 21
10.4864870035
  0
LINE
  5
281
100
AcDbEntity
  8
0
100
AcDbLine
 62
7
  6
CONTINUOUS
 10
10.6994262015
 20
10.4915056481
 11
10.6979863394
 21
10.5029033302
  0
LINE
  5
282
100
AcDbEntity
  8
0
100
AcDbLine
 62
9
  6
CONTINUOUS
 10
11.0269181641
 20
7.9821669355
 11
11.0282037119
 21
7.9719907772
  0
LINE
  5
283
100
AcDbEntity
  8
0
100
AcDbLine
 62
9
  6
CONTINUOUS
 10
11.0939663188
 20
8.0306336043
 11
11.0954055311
 21
8.0192410658
  0
LINE
  5
284
100
AcDbEntity
  8
0
100
AcDbLine
 62
9
  6
CONTINUOUS
 10
10.7814183666
 20
10.5047054
 11
10.7799791543
 21
10.5160979385
  0
LINE
  5
285
100
AcDbEntity
  8
0
100
AcDbLine
 62
9
  6
CONTINUOUS
 10
11.010286287
 20
10.5542184578
 11
11.010286287
 21
10.5644754959
  0
LINE
  5
286
100
AcDbEntity
  8
0
100
AcDbLine
 62
7
  6
CONTINUOUS
 10
11.0386923427
 20
8.024974772
 11
11.0386923427
 21
8.0134841653
  0
LINE
  5
287
100
AcDbEntity
  8
0
100
AcDbLine
 62
7
  6
CONTINUOUS
 10
11.0920136904
 20
10.6363825111
 11
11.0920136904
 21
10.6467204397
  0
LINE
  5
288
100
AcDbEntity
  8
0
100
AcDbLine
 62
7
  6
CONTINUOUS
 10
10.8700024795
 20
8.0227009733
 11
10.8685625271
 21
8.0113025762
  0
LINE
  5
289
100
AcDbEntity
  8
0
100
AcDbLine
 62
9
  6
CONTINUOUS
 10
11.1963983115
 20
10.5432614951
 11
11.1976552121
 21
10.5532108877
  0
LINE
  5
28A
100
AcDbEntity
  8
0
100
AcDbLine
 62
7
  6
CONTINUOUS
 10
11.2762701927
 20
10.6027846406
 11
11.2775667477
 21
10.6130479297
  0
LINE
  5
28B
100
AcDbEntity
  8
0
100
AcDbLine
 62
9
  6
CONTINUOUS
 10
11.3279573294
 20
10.4957457767
 11
11.3305081511
 21
10.5056805712
  0
LINE
  5
28C
100
AcDbEntity
  8
0
100
AcDbLine
 62
7
  6
CONTINUOUS
 10
10.7087024644
 20
8.0420638144
 11
10.7058454477
 21
8.030936469
  0
LINE
  5
28D
100
AcDbEntity
  8
0
100
AcDbLine
 62
7
  6
CONTINUOUS
 10
11.4275504853
 20
10.5550037165
 11
11.4301214236
 21
10.5650168601
  0
LINE
  5
28E
100
AcDbEntity
  8
0
100
AcDbLine
 62
7
  6
CONTINUOUS
 10
10.562517998
 20
8.0786477334
 11
10.5582886183
 21
8.0679655395
  0
LINE
  5
28F
100
AcDbEntity
  8
0
100
AcDbLine
 62
9
  6
CONTINUOUS
 10
11.5054974166
 20
10.4388488688
 11
11.5091891426
 21
10.4481731044
  0
LINE
  5
290
100
AcDbEntity
  8
0
100
AcDbLine
 62
7
  6
CONTINUOUS
 10
11.5976627801
 20
10.4766386561
 11
11.6014709776
 21
10.486257065
  0
LINE
  5
291
100
AcDbEntity
  8
0
100
AcDbLine
 62
9
  6
CONTINUOUS
 10
11.6211065874
 20
10.3601085468
 11
11.6260479532
 21
10.3690968578
  0
LINE
  5
292
100
AcDbEntity
  8
0
100
AcDbLine
 62
7
  6
CONTINUOUS
 10
10.4111008624
 20
8.1375159379
 11
10.4055663458
 21
8.1274486896
  0
LINE
  5
293
100
AcDbEntity
  8
0
100
AcDbLine
 62
7
  6
CONTINUOUS
 10
11.7323076915
 20
10.3927369787
 11
11.7372880265
 21
10.4017961746
  0
LINE
  5
294
100
AcDbEntity
  8
0
100
AcDbLine
 62
7
  6
CONTINUOUS
 10
10.2786071005
 20
8.2093051042
 11
10.2718540409
 21
8.200010315
  0
LINE
  5
295
100
AcDbEntity
  8
0
100
AcDbLine
 62
9
  6
CONTINUOUS
 10
11.7789192406
 20
10.2608467356
 11
11.7848138274
 21
10.2689599383
  0
LINE
  5
296
100
AcDbEntity
  8
0
100
AcDbLine
 62
7
  6
CONTINUOUS
 10
11.8775869977
 20
10.2745286934
 11
11.8836675547
 21
10.2828978621
  0
LINE
  5
297
100
AcDbEntity
  8
0
100
AcDbLine
 62
9
  6
CONTINUOUS
 10
11.8713144149
 20
10.155829354
 11
11.8783358407
 21
10.163306413
  0
LINE
  5
298
100
AcDbEntity
  8
0
100
AcDbLine
 62
7
  6
CONTINUOUS
 10
10.1465869397
 20
8.3039797661
 11
10.1387226773
 21
8.2956051773
  0
LINE
  5
299
100
AcDbEntity
  8
0
100
AcDbLine
 62
7
  6
CONTINUOUS
 10
11.9871362929
 20
10.1597781137
 11
11.994213092
 21
10.1673141393
  0
LINE
  5
29A
100
AcDbEntity
  8
0
100
AcDbLine
 62
7
  6
CONTINUOUS
 10
10.0361089526
 20
8.4064634024
 11
10.0272565328
 21
8.3991400439
  0
LINE
  5
29B
100
AcDbEntity
  8
0
100
AcDbLine
 62
9
  6
CONTINUOUS
 10
11.9994836848
 20
10.0204396242
 11
12.0072107538
 21
10.0268320116
  0
LINE
  5
29C
100
AcDbEntity
  8
0
100
AcDbLine
 62
7
  6
CONTINUOUS
 10
12.0984541774
 20
10.0091540647
 11
12.1064250302
 21
10.0157481276
  0
LINE
  5
29D
100
AcDbEntity
  8
0
100
AcDbLine
 62
9
  6
CONTINUOUS
 10
12.062859334
 20
9.8957438112
 11
12.0715196378
 21
9.9012398071
  0
LINE
  5
29E
100
AcDbEntity
  8
0
100
AcDbLine
 62
7
  6
CONTINUOUS
 10
9.9317810789
 20
8.5309957647
 11
9.9220812113
 21
8.5248400415
  0
LINE
  5
29F
100
AcDbEntity
  8
0
100
AcDbLine
 62
7
  6
CONTINUOUS
 10
12.1760244713
 20
9.8707647836
 11
12.1847530732
 21
9.8763041228
  0
LINE
  5
2A0
100
AcDbEntity
  8
0
100
AcDbLine
 62
7
  6
CONTINUOUS
 10
9.850260605
 20
8.6577344473
 11
9.8398650549
 21
8.6528426728
  0
LINE
  5
2A1
100
AcDbEntity
  8
0
100
AcDbLine
 62
9
  6
CONTINUOUS
 10
12.153331874
 20
9.7327331975
 11
12.162405905
 21
9.7370031124
  0
LINE
  5
2A2
100
AcDbEntity
  8
0
100
AcDbLine
 62
7
  6
CONTINUOUS
 10
12.2463864221
 20
9.697189234
 11
12.2557467326
 21
9.7015938618
  0
LINE
  5
2A3
100
AcDbEntity
  8
0
100
AcDbLine
 62
9
  6
CONTINUOUS
 10
12.183705873
 20
9.5961940498
 11
12.193460896
 21
9.5993636489
  0
LINE
  5
2A4
100
AcDbEntity
  8
0
100
AcDbLine
 62
7
  6
CONTINUOUS
 10
9.7801803224
 20
8.8042996835
 11
9.7692543278
 21
8.8007496127
  0
LINE
  5
2A5
100
AcDbEntity
  8
0
100
AcDbLine
 62
7
  6
CONTINUOUS
 10
12.2871036879
 20
9.543856759
 11
12.2969356423
 21
9.5470513546
  0
LINE
  5
2A6
100
AcDbEntity
  8
0
100
AcDbLine
 62
9
  6
CONTINUOUS
 10
9.6603289575
 20
9.0979023735
 11
9.6502535996
 21
9.0959803962
  0
LINE
  5
2A7
100
AcDbEntity
  8
0
100
AcDbLine
 62
7
  6
CONTINUOUS
 10
12.1441526728
 20
9.582310787
 11
12.1554374545
 21
9.5844634742
  0
LINE
  5
2A8
100
AcDbEntity
  8
0
100
AcDbLine
 62
7
  6
CONTINUOUS
 10
12.1732928718
 20
9.434462452
 11
12.1847591921
 21
9.4351838518
  0
LINE
  5
2A9
100
AcDbEntity
  8
0
100
AcDbLine
 62
7
  6
CONTINUOUS
 10
10.461741715
 20
9.3926695021
 11
9.633741715
 21
9.3926695021
  0
LINE
  5
2AA
100
AcDbEntity
  8
0
100
AcDbLine
 62
7
  6
CONTINUOUS
 10
11.4136429704
 20
9.3926695021
 11
12.2416429704
 21
9.3926695021
  0
LINE
  5
2AB
100
AcDbEntity
  8
0
100
AcDbLine
 62
9
  6
CONTINUOUS
 10
9.6582403091
 20
9.4209032762
 11
9.6480035108
 21
9.421547321
  0
LINE
  5
2AC
100
AcDbEntity
  8
0
100
AcDbLine
 62
7
  6
CONTINUOUS
 10
9.5813700938
 20
9.5076285328
 11
9.5710525648
 21
9.5082776567
  0
LINE
  5
2AD
100
AcDbEntity
  8
0
100
AcDbLine
 62
7
  6
CONTINUOUS
 10
12.1759539289
 20
9.1219409886
 11
12.1872394185
 21
9.1197881664
  0
LINE
  5
2AE
100
AcDbEntity
  8
0
100
AcDbLine
 62
9
  6
CONTINUOUS
 10
9.6808617214
 20
9.6059600577
 11
9.6710108831
 21
9.6078392056
  0
LINE
  5
2AF
100
AcDbEntity
  8
0
100
AcDbLine
 62
7
  6
CONTINUOUS
 10
9.6264712282
 20
9.6894118193
 11
9.6163096026
 21
9.691350253
  0
LINE
  5
2B0
100
AcDbEntity
  8
0
100
AcDbLine
 62
9
  6
CONTINUOUS
 10
9.7365443374
 20
9.7342759373
 11
9.7267893144
 21
9.7374455364
  0
LINE
  5
2B1
100
AcDbEntity
  8
0
100
AcDbLine
 62
7
  6
CONTINUOUS
 10
12.1465011841
 20
8.9621750652
 11
12.1574271787
 21
8.9586249944
  0
LINE
  5
2B2
100
AcDbEntity
  8
0
100
AcDbLine
 62
7
  6
CONTINUOUS
 10
9.6836568357
 20
9.8373934057
 11
9.6738248813
 21
9.8405880013
  0
LINE
  5
2B3
100
AcDbEntity
  8
0
100
AcDbLine
 62
7
  6
CONTINUOUS
 10
12.1008104566
 20
8.8185761837
 11
12.1112060066
 21
8.8136844092
  0
LINE
  5
2B4
100
AcDbEntity
  8
0
100
AcDbLine
 62
9
  6
CONTINUOUS
 10
9.8044768066
 20
9.9078931032
 11
9.7954027756
 21
9.9121630181
  0
LINE
  5
2B5
100
AcDbEntity
  8
0
100
AcDbLine
 62
7
  6
CONTINUOUS
 10
9.7725486999
 20
10.0022494399
 11
9.7631883894
 21
10.0066540677
  0
LINE
  5
2B6
100
AcDbEntity
  8
0
100
AcDbLine
 62
9
  6
CONTINUOUS
 10
9.8903209125
 20
10.01833
 11
9.8816606087
 21
10.0238259959
  0
LINE
  5
2B7
100
AcDbEntity
  8
0
100
AcDbLine
 62
7
  6
CONTINUOUS
 10
12.0325508545
 20
8.6711542003
 11
12.0422507222
 21
8.6649984771
  0
LINE
  5
2B8
100
AcDbEntity
  8
0
100
AcDbLine
 62
7
  6
CONTINUOUS
 10
9.8647392404
 20
10.1313604303
 11
9.8560106386
 21
10.1368997695
  0
LINE
  5
2B9
100
AcDbEntity
  8
0
100
AcDbLine
 62
7
  6
CONTINUOUS
 10
11.9525839956
 20
8.5434295636
 11
11.9614364154
 21
8.536106205
  0
LINE
  5
2BA
100
AcDbEntity
  8
0
100
AcDbLine
 62
9
  6
CONTINUOUS
 10
9.9992959916
 20
10.1695985453
 11
9.9915689226
 21
10.1759909327
  0
LINE
  5
2BB
100
AcDbEntity
  8
0
100
AcDbLine
 62
7
  6
CONTINUOUS
 10
9.9918364318
 20
10.2689307014
 11
9.9838655791
 21
10.2755247643
  0
LINE
  5
2BC
100
AcDbEntity
  8
0
100
AcDbLine
 62
9
  6
CONTINUOUS
 10
10.1099076865
 20
10.2552173029
 11
10.1028862607
 21
10.262694362
  0
LINE
  5
2BD
100
AcDbEntity
  8
0
100
AcDbLine
 62
7
  6
CONTINUOUS
 10
11.8498065379
 20
8.4176145857
 11
11.8576708003
 21
8.4092399969
  0
LINE
  5
2BE
100
AcDbEntity
  8
0
100
AcDbLine
 62
7
  6
CONTINUOUS
 10
10.1132392346
 20
10.3710585776
 11
10.1061624355
 21
10.3785946032
  0
LINE
  5
2BF
100
AcDbEntity
  8
0
100
AcDbLine
 62
7
  6
CONTINUOUS
 10
11.7405881595
 20
8.3137896025
 11
11.747341219
 21
8.3044948134
  0
LINE
  5
2C0
100
AcDbEntity
  8
0
100
AcDbLine
 62
9
  6
CONTINUOUS
 10
10.2530780706
 20
10.3746324686
 11
10.2471834838
 21
10.3827456713
  0
LINE
  5
2C1
100
AcDbEntity
  8
0
100
AcDbLine
 62
7
  6
CONTINUOUS
 10
10.2705557692
 20
10.4726990394
 11
10.2644752122
 21
10.4810682081
  0
LINE
  5
2C2
100
AcDbEntity
  8
0
100
AcDbLine
 62
9
  6
CONTINUOUS
 10
10.3815072148
 20
10.4300533456
 11
10.376565849
 21
10.4390416566
  0
LINE
  5
2C3
100
AcDbEntity
  8
0
100
AcDbLine
 62
7
  6
CONTINUOUS
 10
11.609750732
 20
8.2174870478
 11
11.6152852485
 21
8.2074197995
  0
LINE
  5
2C4
100
AcDbEntity
  8
0
100
AcDbLine
 62
7
  6
CONTINUOUS
 10
10.4135426497
 20
10.5414267312
 11
10.4085623146
 21
10.5504859271
  0
LINE
  5
2C5
100
AcDbEntity
  8
0
100
AcDbLine
 62
7
  6
CONTINUOUS
 10
11.4781434263
 20
8.1440854235
 11
11.4823728061
 21
8.1334032297
  0
LINE
  5
2C6
100
AcDbEntity
  8
0
100
AcDbLine
 62
9
  6
CONTINUOUS
 10
10.5498769821
 20
10.5101118375
 11
10.546185256
 21
10.5194360732
  0
LINE
  5
2C7
100
AcDbEntity
  8
0
100
AcDbLine
 62
7
  6
CONTINUOUS
 10
10.5911937511
 20
10.6007509398
 11
10.5873855536
 21
10.6103693487
  0
LINE
  5
2C8
100
AcDbEntity
  8
0
100
AcDbLine
 62
9
  6
CONTINUOUS
 10
10.6880539002
 20
10.5318525364
 11
10.6855030785
 21
10.5417873308
  0
LINE
  5
2C9
100
AcDbEntity
  8
0
100
AcDbLine
 62
7
  6
CONTINUOUS
 10
11.3274670258
 20
8.0833463357
 11
11.3303240425
 21
8.0722189903
  0
LINE
  5
2CA
100
AcDbEntity
  8
0
100
AcDbLine
 62
7
  6
CONTINUOUS
 10
10.7467803178
 20
10.6317600336
 11
10.7442093795
 21
10.6417731772
  0
LINE
  5
2CB
100
AcDbEntity
  8
0
100
AcDbLine
 62
7
  6
CONTINUOUS
 10
11.181740164
 20
8.0449801645
 11
11.1831801164
 21
8.0335817674
  0
LINE
  5
2CC
100
AcDbEntity
  8
0
100
AcDbLine
 62
9
  6
CONTINUOUS
 10
10.871043759
 20
10.5675239852
 11
10.8697868584
 21
10.5774733777
  0
LINE
  5
2CD
100
AcDbEntity
  8
0
100
AcDbLine
 62
7
  6
CONTINUOUS
 10
10.9336035138
 20
10.6450404307
 11
10.9323069589
 21
10.6553037198
  0
LINE
  5
2CE
100
AcDbEntity
  8
0
100
AcDbLine
 62
7
  6
CONTINUOUS
 10
11.4136429704
 20
9.4036695021
 11
11.4136429704
 21
9.1316695021
  0
LINE
  5
2CF
100
AcDbEntity
  8
0
100
AcDbLine
 62
7
  6
CONTINUOUS
 10
9.2693883147
 20
9.7676695021
 11
8.9980951154
 21
9.7676695021
  0
LINE
  5
2D0
100
AcDbEntity
  8
0
100
AcDbLine
 62
7
  6
CONTINUOUS
 10
12.6059963708
 20
9.7676695021
 11
12.8772895701
 21
9.7676695021
  0
LINE
  5
2D1
100
AcDbEntity
  8
0
100
AcDbLine
 62
9
  6
CONTINUOUS
 10
12.2416429704
 20
9.3926695021
 11
12.2416429704
 21
9.1426695021
  0
ARC
  5
2D2
100
AcDbEntity
  8
0
100
AcDbCircle
 62
7
  6
CONTINUOUS
 10
9.633741715
 20
9.7676695021
 40
0.625
100
AcDbArc
 50
180.0
 51
270.0
  0
ARC
  5
2D3
100
AcDbEntity
  8
0
100
AcDbCircle
 62
7
  6
CONTINUOUS
 10
9.633741715
 20
9.7676695021
 40
0.375
100
AcDbArc
 50
180.0
 51
270.0
  0
ARC
  5
2D4
100
AcDbEntity
  8
0
100
AcDbCircle
 62
7
  6
CONTINUOUS
 10
10.935432738
 20
9.2578435389
 40
1.3776718853
100
AcDbArc
 50
248.5609129682
 51
253.7769046533
  0
ARC
  5
2D5
100
AcDbEntity
  8
0
100
AcDbCircle
 62
7
  6
CONTINUOUS
 10
10.93306011
 20
9.2587141804
 40
1.3776718853
100
AcDbArc
 50
234.1609129682
 51
239.3769046533
  0
ARC
  5
2D6
100
AcDbEntity
  8
0
100
AcDbCircle
 62
7
  6
CONTINUOUS
 10
10.9309785421
 20
9.2601475178
 40
1.3776718853
100
AcDbArc
 50
219.7609129682
 51
224.9769046533
  0
ARC
  5
2D7
100
AcDbEntity
  8
0
100
AcDbCircle
 62
7
  6
CONTINUOUS
 10
10.9293188271
 20
9.262053489
 40
1.3776718853
100
AcDbArc
 50
205.3609129682
 51
210.5769046533
  0
ARC
  5
2D8
100
AcDbEntity
  8
0
100
AcDbCircle
 62
7
  6
CONTINUOUS
 10
10.9281852508
 20
9.2643123351
 40
1.3776718853
100
AcDbArc
 50
190.9609129682
 51
196.1769046533
  0
ARC
  5
2D9
100
AcDbEntity
  8
0
100
AcDbCircle
 62
7
  6
CONTINUOUS
 10
10.9361760917
 20
9.2776372677
 40
1.3776718853
100
AcDbArc
 50
90.1609129682
 51
95.3769046533
  0
ARC
  5
2DA
100
AcDbEntity
  8
0
100
AcDbCircle
 62
7
  6
CONTINUOUS
 10
10.933744845
 20
9.2769470357
 40
1.3776718853
100
AcDbArc
 50
104.5609129682
 51
109.7769046533
  0
ARC
  5
2DB
100
AcDbEntity
  8
0
100
AcDbCircle
 62
7
  6
CONTINUOUS
 10
10.9315616342
 20
9.2756738622
 40
1.3776718853
100
AcDbArc
 50
118.9609129682
 51
124.1769046533
  0
ARC
  5
2DC
100
AcDbEntity
  8
0
100
AcDbCircle
 62
7
  6
CONTINUOUS
 10
10.927743887
 20
9.2693076707
 40
1.3776718853
100
AcDbArc
 50
162.1609129682
 51
167.3769046533
  0
ARC
  5
2DD
100
AcDbEntity
  8
0
100
AcDbCircle
 62
7
  6
CONTINUOUS
 10
10.9297636382
 20
9.2738977453
 40
1.3776718853
100
AcDbArc
 50
133.3609129682
 51
138.5769046533
  0
ARC
  5
2DE
100
AcDbEntity
  8
0
100
AcDbCircle
 62
7
  6
CONTINUOUS
 10
10.928463832
 20
9.2717302849
 40
1.3776718853
100
AcDbArc
 50
147.7609129682
 51
152.9769046533
  0
ARC
  5
2DF
100
AcDbEntity
  8
0
100
AcDbCircle
 62
7
  6
CONTINUOUS
 10
10.9272859205
 20
9.2680811994
 40
1.3773391933
100
AcDbArc
 50
169.9567420313
 51
174.4567171723
  0
ARC
  5
2E0
100
AcDbEntity
  8
0
100
AcDbCircle
 62
7
  6
CONTINUOUS
 10
10.9365466047
 20
9.2569144488
 40
1.376936116
100
AcDbArc
 50
256.3561576458
 51
261.1964076876
  0
ARC
  5
2E1
100
AcDbEntity
  8
0
100
AcDbCircle
 62
7
  6
CONTINUOUS
 10
10.9339079272
 20
9.2575372721
 40
1.376936116
100
AcDbArc
 50
241.9561576458
 51
246.7964076876
  0
ARC
  5
2E2
100
AcDbEntity
  8
0
100
AcDbCircle
 62
7
  6
CONTINUOUS
 10
10.9315070384
 20
9.2587967406
 40
1.376936116
100
AcDbArc
 50
227.5561576458
 51
232.3964076876
  0
ARC
  5
2E3
100
AcDbEntity
  8
0
100
AcDbCircle
 62
7
  6
CONTINUOUS
 10
10.929494795
 20
9.2606137174
 40
1.376936116
100
AcDbArc
 50
213.1561576458
 51
217.9964076876
  0
ARC
  5
2E4
100
AcDbEntity
  8
0
100
AcDbCircle
 62
7
  6
CONTINUOUS
 10
10.9279976337
 20
9.262874035
 40
1.376936116
100
AcDbArc
 50
198.7561576458
 51
203.5964076876
  0
ARC
  5
2E5
100
AcDbEntity
  8
0
100
AcDbCircle
 62
7
  6
CONTINUOUS
 10
10.9374810807
 20
9.2784833477
 40
1.376936116
100
AcDbArc
 50
83.5561576458
 51
88.3964076876
  0
ARC
  5
2E6
100
AcDbEntity
  8
0
100
AcDbCircle
 62
7
  6
CONTINUOUS
 10
10.9347984238
 20
9.2780910721
 40
1.376936116
100
AcDbArc
 50
97.9561576458
 51
102.7964076876
  0
ARC
  5
2E7
100
AcDbEntity
  8
0
100
AcDbCircle
 62
7
  6
CONTINUOUS
 10
10.9322976026
 20
9.277043971
 40
1.376936116
100
AcDbArc
 50
112.3561576458
 51
117.1964076876
  0
ARC
  5
2E8
100
AcDbEntity
  8
0
100
AcDbCircle
 62
7
  6
CONTINUOUS
 10
10.9301357527
 20
9.2754078375
 40
1.376936116
100
AcDbArc
 50
126.7561576458
 51
131.5964076876
  0
ARC
  5
2E9
100
AcDbEntity
  8
0
100
AcDbCircle
 62
7
  6
CONTINUOUS
 10
10.9284487111
 20
9.2732854759
 40
1.376936116
100
AcDbArc
 50
141.1561576458
 51
145.9964076876
  0
ARC
  5
2EA
100
AcDbEntity
  8
0
100
AcDbCircle
 62
7
  6
CONTINUOUS
 10
10.9273424809
 20
9.270810242
 40
1.376936116
100
AcDbArc
 50
155.5561576458
 51
160.3964076876
  0
ARC
  5
2EB
100
AcDbEntity
  8
0
100
AcDbCircle
 62
7
  6
CONTINUOUS
 10
10.9267302354
 20
9.2653805817
 40
1.3765527972
100
AcDbArc
 50
184.8275590671
 51
189.1966680081
  0
ARC
  5
2EC
100
AcDbEntity
  8
0
100
AcDbCircle
 62
7
  6
CONTINUOUS
 10
10.9118221396
 20
9.266357794
 40
1.2324545789
100
AcDbArc
 50
185.7601850716
 51
187.476213804
  0
ARC
  5
2ED
100
AcDbEntity
  8
0
100
AcDbCircle
 62
7
  6
CONTINUOUS
 10
10.9376245207
 20
9.2374874119
 40
1.2281688208
100
AcDbArc
 50
270.0031639936
 51
274.7202919309
  0
ARC
  5
2EE
100
AcDbEntity
  8
0
100
AcDbCircle
 62
7
  6
CONTINUOUS
 10
10.9136823411
 20
9.2478755092
 40
1.2272337201
100
AcDbArc
 50
219.6024752175
 51
223.7556441724
  0
ARC
  5
2EF
100
AcDbEntity
  8
0
100
AcDbCircle
 62
7
  6
CONTINUOUS
 10
10.9095140935
 20
9.2544684185
 40
1.2272337201
100
AcDbArc
 50
205.2024752175
 51
209.3556441724
  0
ARC
  5
2F0
100
AcDbEntity
  8
0
100
AcDbCircle
 62
7
  6
CONTINUOUS
 10
10.907116389
 20
9.2618908004
 40
1.2272337201
100
AcDbArc
 50
190.8024752175
 51
194.9556441724
  0
ARC
  5
2F1
100
AcDbEntity
  8
0
100
AcDbCircle
 62
7
  6
CONTINUOUS
 10
10.9337397254
 20
9.2368043251
 40
1.2272337201
100
AcDbArc
 50
262.8024752175
 51
266.9556441724
  0
ARC
  5
2F2
100
AcDbEntity
  8
0
100
AcDbCircle
 62
7
  6
CONTINUOUS
 10
10.9261880467
 20
9.2387569873
 40
1.2272337201
100
AcDbArc
 50
248.4024752175
 51
252.5556441724
  0
ARC
  5
2F3
100
AcDbEntity
  8
0
100
AcDbCircle
 62
7
  6
CONTINUOUS
 10
10.9300051639
 20
9.2978222735
 40
1.2272337201
100
AcDbArc
 50
104.4024752175
 51
108.5556441724
  0
ARC
  5
2F4
100
AcDbEntity
  8
0
100
AcDbCircle
 62
7
  6
CONTINUOUS
 10
10.9227479815
 20
9.2949632451
 40
1.2272337201
100
AcDbArc
 50
118.8024752175
 51
122.9556441724
  0
ARC
  5
2F5
100
AcDbEntity
  8
0
100
AcDbCircle
 62
7
  6
CONTINUOUS
 10
10.9193592253
 20
9.2425263292
 40
1.2272337201
100
AcDbArc
 50
234.0024752175
 51
238.1556441724
  0
ARC
  5
2F6
100
AcDbEntity
  8
0
100
AcDbCircle
 62
7
  6
CONTINUOUS
 10
10.9164298082
 20
9.2903892505
 40
1.2272337201
100
AcDbArc
 50
133.2024752175
 51
137.3556441724
  0
ARC
  5
2F7
100
AcDbEntity
  8
0
100
AcDbCircle
 62
7
  6
CONTINUOUS
 10
10.9081145195
 20
9.2773356652
 40
1.2272337201
100
AcDbArc
 50
162.0024752175
 51
166.1556441724
  0
ARC
  5
2F8
100
AcDbEntity
  8
0
100
AcDbCircle
 62
7
  6
CONTINUOUS
 10
10.9114476382
 20
9.2843876905
 40
1.2272337201
100
AcDbArc
 50
147.6024752175
 51
151.7556441724
  0
ARC
  5
2F9
100
AcDbEntity
  8
0
100
AcDbCircle
 62
7
  6
CONTINUOUS
 10
10.9110062881
 20
9.2507890232
 40
1.2267741159
100
AcDbArc
 50
212.4021691122
 51
216.2816048803
  0
ARC
  5
2FA
100
AcDbEntity
  8
0
100
AcDbCircle
 62
7
  6
CONTINUOUS
 10
10.9076466752
 20
9.2579559064
 40
1.2267741159
100
AcDbArc
 50
198.0021691122
 51
201.8816048803
  0
ARC
  5
2FB
100
AcDbEntity
  8
0
100
AcDbCircle
 62
7
  6
CONTINUOUS
 10
10.9297945291
 20
9.2370963011
 40
1.226774116
100
AcDbArc
 50
255.6021691122
 51
259.4816048803
  0
ARC
  5
2FC
100
AcDbEntity
  8
0
100
AcDbCircle
 62
7
  6
CONTINUOUS
 10
10.9224394075
 20
9.2400209208
 40
1.226774116
100
AcDbArc
 50
241.2021691122
 51
245.0816048803
  0
ARC
  5
2FD
100
AcDbEntity
  8
0
100
AcDbCircle
 62
7
  6
CONTINUOUS
 10
10.9337807982
 20
9.2990031247
 40
1.2267741159
100
AcDbArc
 50
97.2021691122
 51
101.0816048803
  0
ARC
  5
2FE
100
AcDbEntity
  8
0
100
AcDbCircle
 62
7
  6
CONTINUOUS
 10
10.9066835631
 20
9.2736320241
 40
1.2267741159
100
AcDbArc
 50
169.2021691122
 51
173.0816048803
  0
ARC
  5
2FF
100
AcDbEntity
  8
0
100
AcDbCircle
 62
7
  6
CONTINUOUS
 10
10.9261113315
 20
9.2970459597
 40
1.226774116
100
AcDbArc
 50
111.6021691122
 51
115.4816048803
  0
ARC
  5
300
100
AcDbEntity
  8
0
100
AcDbCircle
 62
7
  6
CONTINUOUS
 10
10.9191695424
 20
9.2932429639
 40
1.226774116
100
AcDbArc
 50
126.0021691122
 51
129.8816048803
  0
ARC
  5
301
100
AcDbEntity
  8
0
100
AcDbCircle
 62
7
  6
CONTINUOUS
 10
10.9133916089
 20
9.2878330935
 40
1.2267741159
100
AcDbArc
 50
140.4021691122
 51
144.2816048803
  0
ARC
  5
302
100
AcDbEntity
  8
0
100
AcDbCircle
 62
7
  6
CONTINUOUS
 10
10.9160426839
 20
9.2446828026
 40
1.2267741159
100
AcDbArc
 50
226.8021691122
 51
230.6816048803
  0
ARC
  5
303
100
AcDbEntity
  8
0
100
AcDbCircle
 62
7
  6
CONTINUOUS
 10
10.9091405799
 20
9.2811562704
 40
1.226774116
100
AcDbArc
 50
154.8021691122
 51
158.6816048803
  0
ARC
  5
304
100
AcDbEntity
  8
0
100
AcDbCircle
 62
7
  6
CONTINUOUS
 10
9.133741715
 20
9.9776695021
 40
0.25
100
AcDbArc
 50
302.8598803789
 51
237.1401196211
  0
ARC
  5
305
100
AcDbEntity
  8
0
100
AcDbCircle
 62
7
  6
CONTINUOUS
 10
10.7290729624
 20
10.6801194374
 40
0.1976865861
100
AcDbArc
 50
321.5384266883
 51
323.5258908931
  0
ARC
  5
306
100
AcDbEntity
  8
0
100
AcDbCircle
 62
7
  6
CONTINUOUS
 10
10.9376923427
 20
9.2676695021
 40
1.4225
100
AcDbArc
 50
184.606800911
 51
355.393199089
  0
ARC
  5
307
100
AcDbEntity
  8
0
100
AcDbCircle
 62
7
  6
CONTINUOUS
 10
10.9376923427
 20
9.2676695021
 40
1.4225
100
AcDbArc
 50
5.7823840429
 51
174.2176159571
  0
ARC
  5
308
100
AcDbEntity
  8
0
100
AcDbCircle
 62
7
  6
CONTINUOUS
 10
10.9376923427
 20
9.2676695021
 40
1.396644547
100
AcDbArc
 50
184.8268920466
 51
355.1731079534
  0
ARC
  5
309
100
AcDbEntity
  8
0
100
AcDbCircle
 62
7
  6
CONTINUOUS
 10
10.9376923427
 20
9.2676695021
 40
1.396644547
100
AcDbArc
 50
5.5792708705
 51
174.4207291295
  0
ARC
  5
30A
100
AcDbEntity
  8
0
100
AcDbCircle
 62
9
  6
CONTINUOUS
 10
10.9376923427
 20
9.2676695021
 40
1.3825
100
AcDbArc
 50
276.0115014159
 51
277.3600388777
  0
ARC
  5
30B
100
AcDbEntity
  8
0
100
AcDbCircle
 62
9
  6
CONTINUOUS
 10
10.9376923427
 20
9.2676695021
 40
1.3825
100
AcDbArc
 50
283.0238481312
 51
285.1600894876
  0
ARC
  5
30C
100
AcDbEntity
  8
0
100
AcDbCircle
 62
9
  6
CONTINUOUS
 10
10.9376923427
 20
9.2676695021
 40
1.3825
100
AcDbArc
 50
290.43580737
 51
291.7691362725
  0
ARC
  5
30D
100
AcDbEntity
  8
0
100
AcDbCircle
 62
9
  6
CONTINUOUS
 10
10.9376923427
 20
9.2676695021
 40
1.3825
100
AcDbArc
 50
297.3584399725
 51
299.5683150661
  0
ARC
  5
30E
100
AcDbEntity
  8
0
100
AcDbCircle
 62
9
  6
CONTINUOUS
 10
10.9376923427
 20
9.2676695021
 40
1.3825
100
AcDbArc
 50
304.6961503272
 51
306.1774533379
  0
ARC
  5
30F
100
AcDbEntity
  8
0
100
AcDbCircle
 62
9
  6
CONTINUOUS
 10
10.9376923427
 20
9.2676695021
 40
1.3825
100
AcDbArc
 50
311.7235235201
 51
314.0018953109
  0
ARC
  5
310
100
AcDbEntity
  8
0
100
AcDbCircle
 62
9
  6
CONTINUOUS
 10
10.9376923427
 20
9.2676695021
 40
1.3825
100
AcDbArc
 50
319.1988223996
 51
320.5870207643
  0
ARC
  5
311
100
AcDbEntity
  8
0
100
AcDbCircle
 62
9
  6
CONTINUOUS
 10
10.9376923427
 20
9.2676695021
 40
1.3825
100
AcDbArc
 50
326.2209554947
 51
328.3588186975
  0
ARC
  5
312
100
AcDbEntity
  8
0
100
AcDbCircle
 62
9
  6
CONTINUOUS
 10
10.9376923427
 20
9.2676695021
 40
1.3825
100
AcDbArc
 50
333.6409098372
 51
334.9681703053
  0
ARC
  5
313
100
AcDbEntity
  8
0
100
AcDbCircle
 62
9
  6
CONTINUOUS
 10
10.9376923427
 20
9.2676695021
 40
1.3825
100
AcDbArc
 50
340.5759708638
 51
342.7673613117
  0
ARC
  5
314
100
AcDbEntity
  8
0
100
AcDbCircle
 62
9
  6
CONTINUOUS
 10
10.9376923427
 20
9.2676695021
 40
1.3825
100
AcDbArc
 50
347.9240439216
 51
349.3762421607
  0
ARC
  5
315
100
AcDbEntity
  8
0
100
AcDbCircle
 62
9
  6
CONTINUOUS
 10
10.9376923427
 20
9.2676695021
 40
1.3825
100
AcDbArc
 50
9.4158484482
 51
11.557453212
  0
ARC
  5
316
100
AcDbEntity
  8
0
100
AcDbCircle
 62
9
  6
CONTINUOUS
 10
10.9376923427
 20
9.2676695021
 40
1.3825
100
AcDbArc
 50
16.8435413263
 51
18.1671799007
  0
ARC
  5
317
100
AcDbEntity
  8
0
100
AcDbCircle
 62
9
  6
CONTINUOUS
 10
10.9376923427
 20
9.2676695021
 40
1.3825
100
AcDbArc
 50
23.7906526214
 51
25.9664107721
  0
ARC
  5
318
100
AcDbEntity
  8
0
100
AcDbCircle
 62
9
  6
CONTINUOUS
 10
10.9376923427
 20
9.2676695021
 40
1.3825
100
AcDbArc
 50
31.1487679039
 51
32.5751044732
  0
ARC
  5
319
100
AcDbEntity
  8
0
100
AcDbCircle
 62
9
  6
CONTINUOUS
 10
10.9376923427
 20
9.2676695021
 40
1.3825
100
AcDbArc
 50
38.0807517081
 51
40.3747906431
  0
ARC
  5
31A
100
AcDbEntity
  8
0
100
AcDbCircle
 62
9
  6
CONTINUOUS
 10
10.9376923427
 20
9.2676695021
 40
1.3825
100
AcDbArc
 50
45.5677401098
 51
46.9944039442
  0
ARC
  5
31B
100
AcDbEntity
  8
0
100
AcDbCircle
 62
9
  6
CONTINUOUS
 10
10.9376923427
 20
9.2676695021
 40
1.3825
100
AcDbArc
 50
52.6085944543
 51
54.7816025867
  0
ARC
  5
31C
100
AcDbEntity
  8
0
100
AcDbCircle
 62
9
  6
CONTINUOUS
 10
10.9376923427
 20
9.2676695021
 40
1.3825
100
AcDbArc
 50
60.0437625258
 51
61.3661528172
  0
ARC
  5
31D
100
AcDbEntity
  8
0
100
AcDbCircle
 62
9
  6
CONTINUOUS
 10
10.9376923427
 20
9.2676695021
 40
1.3825
100
AcDbArc
 50
67.0025848411
 51
69.1654512045
  0
ARC
  5
31E
100
AcDbEntity
  8
0
100
AcDbCircle
 62
9
  6
CONTINUOUS
 10
10.9376923427
 20
9.2676695021
 40
1.3825
100
AcDbArc
 50
74.3704201057
 51
75.7740280392
  0
ARC
  5
31F
100
AcDbEntity
  8
0
100
AcDbCircle
 62
9
  6
CONTINUOUS
 10
10.9376923427
 20
9.2676695021
 40
1.3825
100
AcDbArc
 50
81.2569100186
 51
83.5735605337
  0
ARC
  5
320
100
AcDbEntity
  8
0
100
AcDbCircle
 62
9
  6
CONTINUOUS
 10
10.9376923427
 20
9.2676695021
 40
1.3825
100
AcDbArc
 50
268.0661050462
 51
270.8008663173
  0
ARC
  5
321
100
AcDbEntity
  8
0
100
AcDbCircle
 62
9
  6
CONTINUOUS
 10
10.9376923427
 20
9.2676695021
 40
1.3825
100
AcDbArc
 50
261.4649858645
 51
262.8797859106
  0
ARC
  5
322
100
AcDbEntity
  8
0
100
AcDbCircle
 62
9
  6
CONTINUOUS
 10
10.9376923427
 20
9.2676695021
 40
1.3825
100
AcDbArc
 50
254.1380091771
 51
256.3692842784
  0
ARC
  5
323
100
AcDbEntity
  8
0
100
AcDbCircle
 62
9
  6
CONTINUOUS
 10
10.9376923427
 20
9.2676695021
 40
1.3825
100
AcDbArc
 50
247.228156208
 51
248.5700900448
  0
ARC
  5
324
100
AcDbEntity
  8
0
100
AcDbCircle
 62
9
  6
CONTINUOUS
 10
10.9376923427
 20
9.2676695021
 40
1.3825
100
AcDbArc
 50
239.8244421892
 51
241.9612778138
  0
ARC
  5
325
100
AcDbEntity
  8
0
100
AcDbCircle
 62
9
  6
CONTINUOUS
 10
10.9376923427
 20
9.2676695021
 40
1.3825
100
AcDbArc
 50
232.8221915083
 51
234.1614329179
  0
ARC
  5
326
100
AcDbEntity
  8
0
100
AcDbCircle
 62
9
  6
CONTINUOUS
 10
10.9376923427
 20
9.2676695021
 40
1.3825
100
AcDbArc
 50
225.3593908122
 51
227.5807222403
  0
ARC
  5
327
100
AcDbEntity
  8
0
100
AcDbCircle
 62
9
  6
CONTINUOUS
 10
10.9376923427
 20
9.2676695021
 40
1.3825
100
AcDbArc
 50
218.2842835163
 51
219.7801450933
  0
ARC
  5
328
100
AcDbEntity
  8
0
100
AcDbCircle
 62
9
  6
CONTINUOUS
 10
10.9376923427
 20
9.2676695021
 40
1.3825
100
AcDbArc
 50
210.9145470779
 51
213.1702811907
  0
ARC
  5
329
100
AcDbEntity
  8
0
100
AcDbCircle
 62
9
  6
CONTINUOUS
 10
10.9376923427
 20
9.2676695021
 40
1.3825
100
AcDbArc
 50
204.0178761262
 51
205.371043865
  0
ARC
  5
32A
100
AcDbEntity
  8
0
100
AcDbCircle
 62
9
  6
CONTINUOUS
 10
10.9376923427
 20
9.2676695021
 40
1.3825
100
AcDbArc
 50
196.6227099452
 51
198.7623959106
  0
ARC
  5
32B
100
AcDbEntity
  8
0
100
AcDbCircle
 62
9
  6
CONTINUOUS
 10
10.9376923427
 20
9.2676695021
 40
1.3825
100
AcDbArc
 50
189.6308298264
 51
190.9627290999
  0
ARC
  5
32C
100
AcDbEntity
  8
0
100
AcDbCircle
 62
9
  6
CONTINUOUS
 10
10.9376923427
 20
9.2676695021
 40
1.3825
100
AcDbArc
 50
167.6879708292
 51
169.9713180444
  0
ARC
  5
32D
100
AcDbEntity
  8
0
100
AcDbCircle
 62
9
  6
CONTINUOUS
 10
10.9376923427
 20
9.2676695021
 40
1.3825
100
AcDbArc
 50
160.8048842797
 51
162.172009976
  0
ARC
  5
32E
100
AcDbEntity
  8
0
100
AcDbCircle
 62
9
  6
CONTINUOUS
 10
10.9376923427
 20
9.2676695021
 40
1.3825
100
AcDbArc
 50
153.4185335496
 51
155.563456015
  0
ARC
  5
32F
100
AcDbEntity
  8
0
100
AcDbCircle
 62
9
  6
CONTINUOUS
 10
10.9376923427
 20
9.2676695021
 40
1.3825
100
AcDbArc
 50
146.4373373776
 51
147.7639396542
  0
ARC
  5
330
100
AcDbEntity
  8
0
100
AcDbCircle
 62
9
  6
CONTINUOUS
 10
10.9376923427
 20
9.2676695021
 40
1.3825
100
AcDbArc
 50
138.9879056834
 51
141.1882289357
  0
ARC
  5
331
100
AcDbEntity
  8
0
100
AcDbCircle
 62
9
  6
CONTINUOUS
 10
10.9376923427
 20
9.2676695021
 40
1.3825
100
AcDbArc
 50
131.9294128734
 51
133.4076594642
  0
ARC
  5
332
100
AcDbEntity
  8
0
100
AcDbCircle
 62
9
  6
CONTINUOUS
 10
10.9376923427
 20
9.2676695021
 40
1.3825
100
AcDbArc
 50
124.458181331
 51
126.7724070794
  0
ARC
  5
333
100
AcDbEntity
  8
0
100
AcDbCircle
 62
9
  6
CONTINUOUS
 10
10.9376923427
 20
9.2676695021
 40
1.3825
100
AcDbArc
 50
117.5890817585
 51
118.9730006202
  0
ARC
  5
334
100
AcDbEntity
  8
0
100
AcDbCircle
 62
9
  6
CONTINUOUS
 10
10.9376923427
 20
9.2676695021
 40
1.3825
100
AcDbArc
 50
110.2118514084
 51
112.3644703661
  0
ARC
  5
335
100
AcDbEntity
  8
0
100
AcDbCircle
 62
9
  6
CONTINUOUS
 10
10.9376923427
 20
9.2676695021
 40
1.3825
100
AcDbArc
 50
103.241690325
 51
104.5650768146
  0
ARC
  5
336
100
AcDbEntity
  8
0
100
AcDbCircle
 62
9
  6
CONTINUOUS
 10
10.9376923427
 20
9.2676695021
 40
1.3825
100
AcDbArc
 50
95.7992590013
 51
97.984662663
  0
ARC
  5
337
100
AcDbEntity
  8
0
100
AcDbCircle
 62
9
  6
CONTINUOUS
 10
10.9376923427
 20
9.2676695021
 40
1.3825
100
AcDbArc
 50
88.7494429958
 51
90.2068573559
  0
ARC
  5
338
100
AcDbEntity
  8
0
100
AcDbCircle
 62
7
  6
CONTINUOUS
 10
10.9380032168
 20
9.258263849
 40
1.3783473539
100
AcDbArc
 50
262.8627545156
 51
267.6609220962
  0
ARC
  5
339
100
AcDbEntity
  8
0
100
AcDbCircle
 62
7
  6
CONTINUOUS
 10
10.94044593
 20
9.257970372
 40
1.3776718853
100
AcDbArc
 50
277.3609129682
 51
282.5769046533
  0
ARC
  5
33A
100
AcDbEntity
  8
0
100
AcDbCircle
 62
7
  6
CONTINUOUS
 10
10.9427714965
 20
9.2589598773
 40
1.3776718853
100
AcDbArc
 50
291.7609129682
 51
296.9769046533
  0
ARC
  5
33B
100
AcDbEntity
  8
0
100
AcDbCircle
 62
7
  6
CONTINUOUS
 10
10.9447779212
 20
9.2604966404
 40
1.3776718853
100
AcDbArc
 50
306.1609129682
 51
311.3769046533
  0
ARC
  5
33C
100
AcDbEntity
  8
0
100
AcDbCircle
 62
7
  6
CONTINUOUS
 10
10.9463391329
 20
9.2624841007
 40
1.3776718853
100
AcDbArc
 50
320.5609129682
 51
325.7769046533
  0
ARC
  5
33D
100
AcDbEntity
  8
0
100
AcDbCircle
 62
7
  6
CONTINUOUS
 10
10.947357035
 20
9.2647973789
 40
1.3776718853
100
AcDbArc
 50
334.9609129682
 51
340.1769046533
  0
ARC
  5
33E
100
AcDbEntity
  8
0
100
AcDbCircle
 62
7
  6
CONTINUOUS
 10
10.9477676689
 20
9.2672911232
 40
1.3776718853
100
AcDbArc
 50
349.3609129682
 51
354.5769046533
  0
ARC
  5
33F
100
AcDbEntity
  8
0
100
AcDbCircle
 62
7
  6
CONTINUOUS
 10
10.9467037038
 20
9.2721917515
 40
1.3776718853
100
AcDbArc
 50
18.1609129682
 51
23.3769046533
  0
ARC
  5
340
100
AcDbEntity
  8
0
100
AcDbCircle
 62
7
  6
CONTINUOUS
 10
10.9452959576
 20
9.2742907111
 40
1.3776718853
100
AcDbArc
 50
32.5609129682
 51
37.7769046533
  0
ARC
  5
341
100
AcDbEntity
  8
0
100
AcDbCircle
 62
7
  6
CONTINUOUS
 10
10.9434104484
 20
9.2759736358
 40
1.3776718853
100
AcDbArc
 50
46.9609129682
 51
52.1769046533
  0
ARC
  5
342
100
AcDbEntity
  8
0
100
AcDbCircle
 62
7
  6
CONTINUOUS
 10
10.9411656495
 20
9.2771347812
 40
1.3776718853
100
AcDbArc
 50
61.3609129682
 51
66.5769046533
  0
ARC
  5
343
100
AcDbEntity
  8
0
100
AcDbCircle
 62
7
  6
CONTINUOUS
 10
10.93870261
 20
9.2777011883
 40
1.3776718853
100
AcDbArc
 50
75.7609129682
 51
80.9769046533
  0
ARC
  5
344
100
AcDbEntity
  8
0
100
AcDbCircle
 62
7
  6
CONTINUOUS
 10
10.9480536484
 20
9.269894012
 40
1.3771563766
100
AcDbArc
 50
5.4682412027
 51
8.9766969342
  0
ARC
  5
345
100
AcDbEntity
  8
0
100
AcDbCircle
 62
7
  6
CONTINUOUS
 10
10.9392572731
 20
9.2569674051
 40
1.376936116
100
AcDbArc
 50
270.7561576458
 51
275.5964076876
  0
ARC
  5
346
100
AcDbEntity
  8
0
100
AcDbCircle
 62
7
  6
CONTINUOUS
 10
10.9418696113
 20
9.2576928136
 40
1.376936116
100
AcDbArc
 50
285.1561576458
 51
289.9964076876
  0
ARC
  5
347
100
AcDbEntity
  8
0
100
AcDbCircle
 62
7
  6
CONTINUOUS
 10
10.9442194763
 20
9.259045094
 40
1.376936116
100
AcDbArc
 50
299.5561576458
 51
304.3964076876
  0
ARC
  5
348
100
AcDbEntity
  8
0
100
AcDbCircle
 62
7
  6
CONTINUOUS
 10
10.9461592174
 20
9.2609392778
 40
1.376936116
100
AcDbArc
 50
313.9561576458
 51
318.7964076876
  0
ARC
  5
349
100
AcDbEntity
  8
0
100
AcDbCircle
 62
7
  6
CONTINUOUS
 10
10.9475669537
 20
9.2632563463
 40
1.376936116
100
AcDbArc
 50
328.3561576458
 51
333.1964076876
  0
ARC
  5
34A
100
AcDbEntity
  8
0
100
AcDbCircle
 62
7
  6
CONTINUOUS
 10
10.9483542319
 20
9.2658507096
 40
1.376936116
100
AcDbArc
 50
342.7561576458
 51
347.5964076876
  0
ARC
  5
34B
100
AcDbEntity
  8
0
100
AcDbCircle
 62
7
  6
CONTINUOUS
 10
10.9479116375
 20
9.2712120863
 40
1.376936116
100
AcDbArc
 50
11.5561576458
 51
16.3964076876
  0
ARC
  5
34C
100
AcDbEntity
  8
0
100
AcDbCircle
 62
7
  6
CONTINUOUS
 10
10.9467095747
 20
9.2736422248
 40
1.376936116
100
AcDbArc
 50
25.9561576458
 51
30.7964076876
  0
ARC
  5
34D
100
AcDbEntity
  8
0
100
AcDbCircle
 62
7
  6
CONTINUOUS
 10
10.944940926
 20
9.2756970751
 40
1.376936116
100
AcDbArc
 50
40.3561576458
 51
45.1964076876
  0
ARC
  5
34E
100
AcDbEntity
  8
0
100
AcDbCircle
 62
7
  6
CONTINUOUS
 10
10.9427168222
 20
9.2772475235
 40
1.376936116
100
AcDbArc
 50
54.7561576458
 51
59.5964076876
  0
ARC
  5
34F
100
AcDbEntity
  8
0
100
AcDbCircle
 62
7
  6
CONTINUOUS
 10
10.9401770119
 20
9.2781961496
 40
1.376936116
100
AcDbArc
 50
69.1561576458
 51
73.9964076876
  0
ARC
  5
350
100
AcDbEntity
  8
0
100
AcDbCircle
 62
7
  6
CONTINUOUS
 10
10.9376923427
 20
9.2676695021
 40
1.2468515589
100
AcDbArc
 50
154.8
 51
158.6169833824
  0
ARC
  5
351
100
AcDbEntity
  8
0
100
AcDbCircle
 62
7
  6
CONTINUOUS
 10
10.9376923427
 20
9.2676695021
 40
1.2468515589
100
AcDbArc
 50
54.0
 51
57.8169833824
  0
ARC
  5
352
100
AcDbEntity
  8
0
100
AcDbCircle
 62
7
  6
CONTINUOUS
 10
10.9376923427
 20
9.2676695021
 40
1.2468515589
100
AcDbArc
 50
68.4
 51
72.2169833824
  0
ARC
  5
353
100
AcDbEntity
  8
0
100
AcDbCircle
 62
7
  6
CONTINUOUS
 10
10.9376923427
 20
9.2676695021
 40
1.2468515589
100
AcDbArc
 50
82.8
 51
86.6169833824
  0
ARC
  5
354
100
AcDbEntity
  8
0
100
AcDbCircle
 62
7
  6
CONTINUOUS
 10
10.9376923427
 20
9.2676695021
 40
1.2468515589
100
AcDbArc
 50
169.2
 51
173.0169833824
  0
ARC
  5
355
100
AcDbEntity
  8
0
100
AcDbCircle
 62
7
  6
CONTINUOUS
 10
10.9376923427
 20
9.2676695021
 40
1.2468515589
100
AcDbArc
 50
185.7535802313
 51
187.4169833824
  0
ARC
  5
356
100
AcDbEntity
  8
0
100
AcDbCircle
 62
7
  6
CONTINUOUS
 10
10.9376923427
 20
9.2676695021
 40
1.2468515589
100
AcDbArc
 50
198.0
 51
201.8169833824
  0
ARC
  5
357
100
AcDbEntity
  8
0
100
AcDbCircle
 62
7
  6
CONTINUOUS
 10
10.9376923427
 20
9.2676695021
 40
1.2468515589
100
AcDbArc
 50
111.6
 51
115.4169833824
  0
ARC
  5
358
100
AcDbEntity
  8
0
100
AcDbCircle
 62
7
  6
CONTINUOUS
 10
10.9376923427
 20
9.2676695021
 40
1.2468515589
100
AcDbArc
 50
212.4
 51
216.2169833824
  0
ARC
  5
359
100
AcDbEntity
  8
0
100
AcDbCircle
 62
7
  6
CONTINUOUS
 10
10.9376923427
 20
9.2676695021
 40
1.2468515589
100
AcDbArc
 50
226.8
 51
230.6169833824
  0
ARC
  5
35A
100
AcDbEntity
  8
0
100
AcDbCircle
 62
7
  6
CONTINUOUS
 10
10.9376923427
 20
9.2676695021
 40
1.2468515589
100
AcDbArc
 50
241.2
 51
245.0169833824
  0
ARC
  5
35B
100
AcDbEntity
  8
0
100
AcDbCircle
 62
7
  6
CONTINUOUS
 10
10.9376923427
 20
9.2676695021
 40
1.2468515589
100
AcDbArc
 50
255.6
 51
259.4169833824
  0
ARC
  5
35C
100
AcDbEntity
  8
0
100
AcDbCircle
 62
7
  6
CONTINUOUS
 10
10.9376923427
 20
9.2676695021
 40
1.2468515589
100
AcDbArc
 50
284.4
 51
288.2169833824
  0
ARC
  5
35D
100
AcDbEntity
  8
0
100
AcDbCircle
 62
7
  6
CONTINUOUS
 10
10.9376923427
 20
9.2676695021
 40
1.2468515589
100
AcDbArc
 50
126.0
 51
129.8169833824
  0
ARC
  5
35E
100
AcDbEntity
  8
0
100
AcDbCircle
 62
7
  6
CONTINUOUS
 10
10.9376923427
 20
9.2676695021
 40
1.2468515589
100
AcDbArc
 50
298.8
 51
302.6169833824
  0
ARC
  5
35F
100
AcDbEntity
  8
0
100
AcDbCircle
 62
7
  6
CONTINUOUS
 10
10.9376923427
 20
9.2676695021
 40
1.2468515589
100
AcDbArc
 50
313.2
 51
317.0169833824
  0
ARC
  5
360
100
AcDbEntity
  8
0
100
AcDbCircle
 62
7
  6
CONTINUOUS
 10
10.9376923427
 20
9.2676695021
 40
1.2468515589
100
AcDbArc
 50
97.2
 51
101.0169833824
  0
ARC
  5
361
100
AcDbEntity
  8
0
100
AcDbCircle
 62
7
  6
CONTINUOUS
 10
10.9376923427
 20
9.2676695021
 40
1.2468515589
100
AcDbArc
 50
327.6
 51
331.4169833824
  0
ARC
  5
362
100
AcDbEntity
  8
0
100
AcDbCircle
 62
7
  6
CONTINUOUS
 10
10.9376923427
 20
9.2676695021
 40
1.2468515589
100
AcDbArc
 50
342.0
 51
345.8169833824
  0
ARC
  5
363
100
AcDbEntity
  8
0
100
AcDbCircle
 62
7
  6
CONTINUOUS
 10
10.9376923427
 20
9.2676695021
 40
1.2468515589
100
AcDbArc
 50
140.4
 51
144.2169833824
  0
ARC
  5
364
100
AcDbEntity
  8
0
100
AcDbCircle
 62
7
  6
CONTINUOUS
 10
10.9376923427
 20
9.2676695021
 40
1.2468515589
100
AcDbArc
 50
10.8
 51
14.6169833824
  0
ARC
  5
365
100
AcDbEntity
  8
0
100
AcDbCircle
 62
7
  6
CONTINUOUS
 10
10.9376923427
 20
9.2676695021
 40
1.2468515589
100
AcDbArc
 50
25.2
 51
29.0169833824
  0
ARC
  5
366
100
AcDbEntity
  8
0
100
AcDbCircle
 62
7
  6
CONTINUOUS
 10
10.9376923427
 20
9.2676695021
 40
1.2468515589
100
AcDbArc
 50
39.6
 51
43.4169833824
  0
ARC
  5
367
100
AcDbEntity
  8
0
100
AcDbCircle
 62
7
  6
CONTINUOUS
 10
10.9376923427
 20
9.2676695021
 40
1.2468493495
100
AcDbArc
 50
46.8
 51
50.8878502036
  0
ARC
  5
368
100
AcDbEntity
  8
0
100
AcDbCircle
 62
7
  6
CONTINUOUS
 10
10.9376923427
 20
9.2676695021
 40
1.2468493495
100
AcDbArc
 50
61.2
 51
65.2878502036
  0
ARC
  5
369
100
AcDbEntity
  8
0
100
AcDbCircle
 62
7
  6
CONTINUOUS
 10
10.9376923427
 20
9.2676695021
 40
1.2468493495
100
AcDbArc
 50
104.4
 51
108.4878502036
  0
ARC
  5
36A
100
AcDbEntity
  8
0
100
AcDbCircle
 62
7
  6
CONTINUOUS
 10
10.9376923427
 20
9.2676695021
 40
1.2468493495
100
AcDbArc
 50
75.6
 51
79.6878502036
  0
ARC
  5
36B
100
AcDbEntity
  8
0
100
AcDbCircle
 62
7
  6
CONTINUOUS
 10
10.9376923427
 20
9.2676695021
 40
1.2468493495
100
AcDbArc
 50
162.0
 51
166.0878502036
  0
ARC
  5
36C
100
AcDbEntity
  8
0
100
AcDbCircle
 62
7
  6
CONTINUOUS
 10
10.9376923427
 20
9.2676695021
 40
1.2468493495
100
AcDbArc
 50
190.8
 51
194.8878502036
  0
ARC
  5
36D
100
AcDbEntity
  8
0
100
AcDbCircle
 62
7
  6
CONTINUOUS
 10
10.9376923427
 20
9.2676695021
 40
1.2468493495
100
AcDbArc
 50
90.0
 51
94.0878502036
  0
ARC
  5
36E
100
AcDbEntity
  8
0
100
AcDbCircle
 62
7
  6
CONTINUOUS
 10
10.9376923427
 20
9.2676695021
 40
1.2468493495
100
AcDbArc
 50
205.2
 51
209.2878502036
  0
ARC
  5
36F
100
AcDbEntity
  8
0
100
AcDbCircle
 62
7
  6
CONTINUOUS
 10
10.9376923427
 20
9.2676695021
 40
1.2468493495
100
AcDbArc
 50
219.6
 51
223.6878502036
  0
ARC
  5
370
100
AcDbEntity
  8
0
100
AcDbCircle
 62
7
  6
CONTINUOUS
 10
10.9376923427
 20
9.2676695021
 40
1.2468493495
100
AcDbArc
 50
234.0
 51
238.0878502036
  0
ARC
  5
371
100
AcDbEntity
  8
0
100
AcDbCircle
 62
7
  6
CONTINUOUS
 10
10.9376923427
 20
9.2676695021
 40
1.2468493495
100
AcDbArc
 50
248.4
 51
252.4878502036
  0
ARC
  5
372
100
AcDbEntity
  8
0
100
AcDbCircle
 62
7
  6
CONTINUOUS
 10
10.9376923427
 20
9.2676695021
 40
1.2468493495
100
AcDbArc
 50
262.8
 51
266.8878502036
  0
ARC
  5
373
100
AcDbEntity
  8
0
100
AcDbCircle
 62
7
  6
CONTINUOUS
 10
10.9376923427
 20
9.2676695021
 40
1.2468493495
100
AcDbArc
 50
118.8
 51
122.8878502036
  0
ARC
  5
374
100
AcDbEntity
  8
0
100
AcDbCircle
 62
7
  6
CONTINUOUS
 10
10.9376923427
 20
9.2676695021
 40
1.2468493495
100
AcDbArc
 50
277.2
 51
281.2878502036
  0
ARC
  5
375
100
AcDbEntity
  8
0
100
AcDbCircle
 62
7
  6
CONTINUOUS
 10
10.9376923427
 20
9.2676695021
 40
1.2468493495
100
AcDbArc
 50
291.6
 51
295.6878502036
  0
ARC
  5
376
100
AcDbEntity
  8
0
100
AcDbCircle
 62
7
  6
CONTINUOUS
 10
10.9376923427
 20
9.2676695021
 40
1.2468493495
100
AcDbArc
 50
306.0
 51
310.0878502036
  0
ARC
  5
377
100
AcDbEntity
  8
0
100
AcDbCircle
 62
7
  6
CONTINUOUS
 10
10.9376923427
 20
9.2676695021
 40
1.2468493495
100
AcDbArc
 50
320.4
 51
324.4878502036
  0
ARC
  5
378
100
AcDbEntity
  8
0
100
AcDbCircle
 62
7
  6
CONTINUOUS
 10
10.9376923427
 20
9.2676695021
 40
1.2468493495
100
AcDbArc
 50
133.2
 51
137.2878502036
  0
ARC
  5
379
100
AcDbEntity
  8
0
100
AcDbCircle
 62
7
  6
CONTINUOUS
 10
10.9376923427
 20
9.2676695021
 40
1.2468493495
100
AcDbArc
 50
334.8
 51
338.8878502036
  0
ARC
  5
37A
100
AcDbEntity
  8
0
100
AcDbCircle
 62
7
  6
CONTINUOUS
 10
10.9376923427
 20
9.2676695021
 40
1.2468493495
100
AcDbArc
 50
349.2
 51
353.2878502036
  0
ARC
  5
37B
100
AcDbEntity
  8
0
100
AcDbCircle
 62
7
  6
CONTINUOUS
 10
10.9376923427
 20
9.2676695021
 40
1.2468493495
100
AcDbArc
 50
5.7535418023
 51
7.6878502036
  0
ARC
  5
37C
100
AcDbEntity
  8
0
100
AcDbCircle
 62
7
  6
CONTINUOUS
 10
10.9376923427
 20
9.2676695021
 40
1.2468493495
100
AcDbArc
 50
147.6
 51
151.6878502036
  0
ARC
  5
37D
100
AcDbEntity
  8
0
100
AcDbCircle
 62
7
  6
CONTINUOUS
 10
10.9376923427
 20
9.2676695021
 40
1.2468493495
100
AcDbArc
 50
18.0
 51
22.0878502036
  0
ARC
  5
37E
100
AcDbEntity
  8
0
100
AcDbCircle
 62
7
  6
CONTINUOUS
 10
10.9376923427
 20
9.2676695021
 40
1.2468493495
100
AcDbArc
 50
32.4
 51
36.4878502036
  0
ARC
  5
37F
100
AcDbEntity
  8
0
100
AcDbCircle
 62
7
  6
CONTINUOUS
 10
10.9376923427
 20
9.2676695021
 40
1.2468444326
100
AcDbArc
 50
270.0
 51
274.6465007733
  0
ARC
  5
380
100
AcDbEntity
  8
0
100
AcDbCircle
 62
9
  6
CONTINUOUS
 10
10.9376923427
 20
9.2676695021
 40
1.2345731497
100
AcDbArc
 50
185.825098234
 51
354.174901766
  0
ARC
  5
381
100
AcDbEntity
  8
0
100
AcDbCircle
 62
9
  6
CONTINUOUS
 10
10.9376923427
 20
9.2676695021
 40
1.2345731497
100
AcDbArc
 50
5.825098234
 51
174.174901766
  0
ARC
  5
382
100
AcDbEntity
  8
0
100
AcDbCircle
 62
7
  6
CONTINUOUS
 10
10.9630354966
 20
9.2689220308
 40
1.2329849071
100
AcDbArc
 50
5.7605530172
 51
7.7496557357
  0
ARC
  5
383
100
AcDbEntity
  8
0
100
AcDbCircle
 62
7
  6
CONTINUOUS
 10
10.9415397615
 20
9.2367910354
 40
1.2272337201
100
AcDbArc
 50
277.2024752175
 51
281.3556441724
  0
ARC
  5
384
100
AcDbEntity
  8
0
100
AcDbCircle
 62
7
  6
CONTINUOUS
 10
10.9490980502
 20
9.2387179534
 40
1.2272337201
100
AcDbArc
 50
291.6024752175
 51
295.7556441724
  0
ARC
  5
385
100
AcDbEntity
  8
0
100
AcDbCircle
 62
7
  6
CONTINUOUS
 10
10.9559396763
 20
9.2424640036
 40
1.2272337201
100
AcDbArc
 50
306.0024752175
 51
310.1556441724
  0
ARC
  5
386
100
AcDbEntity
  8
0
100
AcDbCircle
 62
7
  6
CONTINUOUS
 10
10.9616347554
 20
9.247793808
 40
1.2272337201
100
AcDbArc
 50
320.4024752175
 51
324.5556441724
  0
ARC
  5
387
100
AcDbEntity
  8
0
100
AcDbCircle
 62
7
  6
CONTINUOUS
 10
10.9658254446
 20
9.2543724754
 40
1.2272337201
100
AcDbArc
 50
334.8024752175
 51
338.9556441724
  0
ARC
  5
388
100
AcDbEntity
  8
0
100
AcDbCircle
 62
7
  6
CONTINUOUS
 10
10.9682484275
 20
9.2617866439
 40
1.2272337201
100
AcDbArc
 50
349.2024752175
 51
353.3556441724
  0
ARC
  5
389
100
AcDbEntity
  8
0
100
AcDbCircle
 62
7
  6
CONTINUOUS
 10
10.9673029325
 20
9.2772348202
 40
1.2272337201
100
AcDbArc
 50
18.0024752175
 51
22.1556441724
  0
ARC
  5
38A
100
AcDbEntity
  8
0
100
AcDbCircle
 62
7
  6
CONTINUOUS
 10
10.9639938635
 20
9.2842981624
 40
1.2272337201
100
AcDbArc
 50
32.4024752175
 51
36.5556441724
  0
ARC
  5
38B
100
AcDbEntity
  8
0
100
AcDbCircle
 62
7
  6
CONTINUOUS
 10
10.9590321732
 20
9.2903166647
 40
1.2272337201
100
AcDbArc
 50
46.8024752175
 51
50.9556441724
  0
ARC
  5
38C
100
AcDbEntity
  8
0
100
AcDbCircle
 62
7
  6
CONTINUOUS
 10
10.9527296229
 20
9.2949121625
 40
1.2272337201
100
AcDbArc
 50
61.2024752175
 51
65.3556441724
  0
ARC
  5
38D
100
AcDbEntity
  8
0
100
AcDbCircle
 62
7
  6
CONTINUOUS
 10
10.945482225
 20
9.2977959037
 40
1.2272337201
100
AcDbArc
 50
75.6024752175
 51
79.7556441724
  0
ARC
  5
38E
100
AcDbEntity
  8
0
100
AcDbCircle
 62
7
  6
CONTINUOUS
 10
10.9377453601
 20
9.2987866924
 40
1.2272337201
100
AcDbArc
 50
90.0024752175
 51
94.1556441724
  0
ARC
  5
38F
100
AcDbEntity
  8
0
100
AcDbCircle
 62
7
  6
CONTINUOUS
 10
10.9455001878
 20
9.2370732011
 40
1.2267741159
100
AcDbArc
 50
284.4021691122
 51
288.2816048803
  0
ARC
  5
390
100
AcDbEntity
  8
0
100
AcDbCircle
 62
7
  6
CONTINUOUS
 10
10.9528638806
 20
9.2399761723
 40
1.2267741159
100
AcDbArc
 50
298.8021691122
 51
302.6816048803
  0
ARC
  5
391
100
AcDbEntity
  8
0
100
AcDbCircle
 62
7
  6
CONTINUOUS
 10
10.95927429
 20
9.2446192172
 40
1.2267741159
100
AcDbArc
 50
313.2021691122
 51
317.0816048803
  0
ARC
  5
392
100
AcDbEntity
  8
0
100
AcDbCircle
 62
7
  6
CONTINUOUS
 10
10.9643286262
 20
9.2507105963
 40
1.2267741159
100
AcDbArc
 50
327.6021691122
 51
331.4816048803
  0
ARC
  5
393
100
AcDbEntity
  8
0
100
AcDbCircle
 62
7
  6
CONTINUOUS
 10
10.9677093067
 20
9.2578675658
 40
1.226774116
100
AcDbArc
 50
342.0021691122
 51
345.8816048802
  0
ARC
  5
394
100
AcDbEntity
  8
0
100
AcDbCircle
 62
7
  6
CONTINUOUS
 10
10.9687185276
 20
9.2735407826
 40
1.226774116
100
AcDbArc
 50
10.8021691122
 51
14.6816048803
  0
ARC
  5
395
100
AcDbEntity
  8
0
100
AcDbCircle
 62
7
  6
CONTINUOUS
 10
10.9662836549
 20
9.2810722239
 40
1.2267741159
100
AcDbArc
 50
25.2021691122
 51
29.0816048803
  0
ARC
  5
396
100
AcDbEntity
  8
0
100
AcDbCircle
 62
7
  6
CONTINUOUS
 10
10.9620522849
 20
9.287761523
 40
1.2267741159
100
AcDbArc
 50
39.6021691122
 51
43.4816048803
  0
ARC
  5
397
100
AcDbEntity
  8
0
100
AcDbCircle
 62
7
  6
CONTINUOUS
 10
10.9562902901
 20
9.2931883664
 40
1.2267741159
100
AcDbArc
 50
54.0021691122
 51
57.8816048803
  0
ARC
  5
398
100
AcDbEntity
  8
0
100
AcDbCircle
 62
7
  6
CONTINUOUS
 10
10.9493597179
 20
9.2970117658
 40
1.226774116
100
AcDbArc
 50
68.4021691122
 51
72.2816048803
  0
ARC
  5
399
100
AcDbEntity
  8
0
100
AcDbCircle
 62
7
  6
CONTINUOUS
 10
10.9416960416
 20
9.2989914829
 40
1.226774116
100
AcDbArc
 50
82.8021691122
 51
86.6816048803
  0
ARC
  5
39A
100
AcDbEntity
  8
0
100
AcDbCircle
 62
7
  6
CONTINUOUS
 10
10.9376923427
 20
9.2676695021
 40
1.2175
100
AcDbArc
 50
185.9093577647
 51
354.0906422353
  0
ARC
  5
39B
100
AcDbEntity
  8
0
100
AcDbCircle
 62
7
  6
CONTINUOUS
 10
10.9376923427
 20
9.2676695021
 40
1.2175
100
AcDbArc
 50
5.9093577647
 51
174.0906422353
  0
ARC
  5
39C
100
AcDbEntity
  8
0
100
AcDbCircle
 62
7
  6
CONTINUOUS
 10
10.9376923427
 20
9.2676695021
 40
1.1825
100
AcDbArc
 50
6.0844442053
 51
173.9155557947
  0
ARC
  5
39D
100
AcDbEntity
  8
0
100
AcDbCircle
 62
7
  6
CONTINUOUS
 10
10.9376923427
 20
9.2676695021
 40
1.1825
100
AcDbArc
 50
186.0844442053
 51
353.9155557947
  0
ARC
  5
39E
100
AcDbEntity
  8
0
100
AcDbCircle
 62
7
  6
CONTINUOUS
 10
10.9376923427
 20
9.2676695021
 40
1.175
100
AcDbArc
 50
186.1204339355
 51
353.8795660645
  0
ARC
  5
39F
100
AcDbEntity
  8
0
100
AcDbCircle
 62
7
  6
CONTINUOUS
 10
10.9376923427
 20
9.2676695021
 40
1.175
100
AcDbArc
 50
6.1204339355
 51
173.8795660645
  0
ARC
  5
3A0
100
AcDbEntity
  8
0
100
AcDbCircle
 62
7
  6
CONTINUOUS
 10
10.9376923427
 20
9.2676695021
 40
1.115
100
AcDbArc
 50
186.4496918554
 51
353.5503081446
  0
ARC
  5
3A1
100
AcDbEntity
  8
0
100
AcDbCircle
 62
7
  6
CONTINUOUS
 10
10.9376923427
 20
9.2676695021
 40
1.115
100
AcDbArc
 50
6.4496918554
 51
173.5503081446
  0
ARC
  5
3A2
100
AcDbEntity
  8
0
100
AcDbCircle
 62
9
  6
CONTINUOUS
 10
10.9376923427
 20
9.2676695021
 40
1.0327644376
100
AcDbArc
 50
186.9633593222
 51
353.0366406778
  0
ARC
  5
3A3
100
AcDbEntity
  8
0
100
AcDbCircle
 62
9
  6
CONTINUOUS
 10
10.9376923427
 20
9.2676695021
 40
1.0327644376
100
AcDbArc
 50
6.9633593222
 51
173.0366406778
  0
ARC
  5
3A4
100
AcDbEntity
  8
0
100
AcDbCircle
 62
9
  6
CONTINUOUS
 10
10.9376923427
 20
9.2676695021
 40
0.545
100
AcDbArc
 50
193.3089821447
 51
346.6910178553
  0
ARC
  5
3A5
100
AcDbEntity
  8
0
100
AcDbCircle
 62
9
  6
CONTINUOUS
 10
10.9376923427
 20
9.2676695021
 40
0.545
100
AcDbArc
 50
13.3089821447
 51
166.6910178553
  0
ARC
  5
3A6
100
AcDbEntity
  8
0
100
AcDbCircle
 62
7
  6
CONTINUOUS
 10
10.9376923427
 20
9.2676695021
 40
0.495
100
AcDbArc
 50
195.9469658766
 51
344.0530341234
  0
ARC
  5
3A7
100
AcDbEntity
  8
0
100
AcDbCircle
 62
7
  6
CONTINUOUS
 10
10.9376923427
 20
9.2676695021
 40
0.495
100
AcDbArc
 50
15.9469658766
 51
164.0530341234
  0
CIRCLE
  5
3A8
100
AcDbEntity
  8
0
100
AcDbCircle
 62
7
  6
CONTINUOUS
 10
10.9376923427
 20
9.2676695021
 40
0.3305
  0
CIRCLE
  5
3A9
100
AcDbEntity
  8
0
100
AcDbCircle
 62
9
  6
CONTINUOUS
 10
10.9376923427
 20
9.2676695021
 40
0.2955
  0
CIRCLE
  5
3AA
100
AcDbEntity
  8
0
100
AcDbCircle
 62
7
  6
CONTINUOUS
 10
10.9376923427
 20
9.2676695021
 40
0.2725
  0
CIRCLE
  5
3AB
100
AcDbEntity
  8
0
100
AcDbCircle
 62
9
  6
CONTINUOUS
 10
10.9376923427
 20
9.2676695021
 40
0.236
  0
CIRCLE
  5
3AC
100
AcDbEntity
  8
0
100
AcDbCircle
 62
7
  6
CONTINUOUS
 10
10.9376923427
 20
9.2676695021
 40
0.18
  0
ARC
  5
3AD
100
AcDbEntity
  8
0
100
AcDbCircle
 62
7
  6
CONTINUOUS
 10
10.9376923427
 20
9.2676695021
 40
0.18
100
AcDbArc
 50
270.0
 51
270.3845366806
  0
CIRCLE
  5
3AE
100
AcDbEntity
  8
0
100
AcDbCircle
 62
7
  6
CONTINUOUS
 10
10.9376923427
 20
9.2676695021
 40
0.17
  0
ARC
  5
3AF
100
AcDbEntity
  8
0
100
AcDbCircle
 62
7
  6
CONTINUOUS
 10
11.8833733877
 20
8.8667947494
 40
0.633083683
100
AcDbArc
 50
56.1877801621
 51
57.131872681
  0
ARC
  5
3B0
100
AcDbEntity
  8
0
100
AcDbCircle
 62
7
  6
CONTINUOUS
 10
12.0140217153
 20
9.0033375339
 40
0.4659624524
100
AcDbArc
 50
59.6501003233
 51
62.2755121631
  0
ARC
  5
3B1
100
AcDbEntity
  8
0
100
AcDbCircle
 62
7
  6
CONTINUOUS
 10
12.0412246055
 20
9.0500906104
 40
0.4118715802
100
AcDbArc
 50
56.8955094056
 51
59.6294461544
  0
ARC
  5
3B2
100
AcDbEntity
  8
0
100
AcDbCircle
 62
7
  6
CONTINUOUS
 10
12.2416429704
 20
9.7676695021
 40
0.625
100
AcDbArc
 50
270.0
 51
360.0
  0
ARC
  5
3B3
100
AcDbEntity
  8
0
100
AcDbCircle
 62
7
  6
CONTINUOUS
 10
12.2416429704
 20
9.7676695021
 40
0.375
100
AcDbArc
 50
270.0
 51
360.0
  0
ARC
  5
3B4
100
AcDbEntity
  8
0
100
AcDbCircle
 62
7
  6
CONTINUOUS
 10
12.7416429704
 20
9.9776695021
 40
0.25
100
AcDbArc
 50
302.8598803789
 51
237.1401196211
  0
SPLINE
  5
3B5
100
AcDbEntity
  8
0
100
AcDbSpline
 62
7
  6
CONTINUOUS
 70
0
 71
3
 72
12
 73
8
 74
0
 42
0.0000001
 43
0.0000001
 44
0.0000000001
 40
0.0
 40
0.0
 40
0.0
 40
0.0
 40
0.2744839308
 40
0.5347594342
 40
0.7776027209
 40
0.8915859868
 40
1.0
 40
1.0
 40
1.0
 40
1.0
 10
10.9622839197
 20
7.9603461182
 30
0.0
 10
10.9558009642
 20
7.9522521367
 30
0.0
 10
10.9427627916
 20
7.9368029345
 30
0.0
 10
10.9225510162
 20
7.9154598943
 30
0.0
 10
10.9054267543
 20
7.899603677
 30
0.0
 10
10.8918262639
 20
7.8884620517
 30
0.0
 10
10.8850923104
 20
7.8834302904
 30
0.0
 10
10.8817483517
 20
7.8810649461
 30
0.0
  0
SPLINE
  5
3B6
100
AcDbEntity
  8
0
100
AcDbSpline
 62
7
  6
CONTINUOUS
 70
0
 71
3
 72
13
 73
9
 74
0
 42
0.0000001
 43
0.0000001
 44
0.0000000001
 40
0.0
 40
0.0
 40
0.0
 40
0.0
 40
0.2758026701
 40
0.5370684408
 40
0.660960648
 40
0.7797725453
 40
0.8929798291
 40
1.0
 40
1.0
 40
1.0
 40
1.0
 10
10.8880378006
 20
10.5626027726
 30
0.0
 10
10.8950283021
 20
10.5720605168
 30
0.0
 10
10.9091479371
 20
10.5901095451
 30
0.0
 10
10.9278355054
 20
10.6112370594
 30
0.0
 10
10.9429163686
 20
10.6265534245
 30
0.0
 10
10.9539781117
 20
10.6369507764
 30
0.0
 10
10.9649308845
 20
10.6463944283
 30
0.0
 10
10.9723367252
 20
10.652177247
 30
0.0
 10
10.9760136904
 20
10.6548802038
 30
0.0
  0
SPLINE
  5
3B7
100
AcDbEntity
  8
0
100
AcDbSpline
 62
7
  6
CONTINUOUS
 70
0
 71
3
 72
10
 73
6
 74
0
 42
0.0000001
 43
0.0000001
 44
0.0000000001
 40
0.0
 40
0.0
 40
0.0
 40
0.0
 40
0.5045906682
 40
0.7540588598
 40
1.0
 40
1.0
 40
1.0
 40
1.0
 10
10.8685625271
 20
8.0113025762
 30
0.0
 10
10.8603872859
 20
8.0066092629
 30
0.0
 10
10.8486978506
 20
7.9986255079
 30
0.0
 10
10.8344588615
 20
7.9865197575
 30
0.0
 10
10.8278297255
 20
7.9800472661
 30
0.0
 10
10.8246571699
 20
7.976723803
 30
0.0
  0
SPLINE
  5
3B8
100
AcDbEntity
  8
0
100
AcDbSpline
 62
7
  6
CONTINUOUS
 70
0
 71
3
 72
13
 73
9
 74
0
 42
0.0000001
 43
0.0000001
 44
0.0000000001
 40
0.0
 40
0.0
 40
0.0
 40
0.0
 40
0.2758028316
 40
0.5370687923
 40
0.6609609326
 40
0.7797726793
 40
0.8929798629
 40
1.0
 40
1.0
 40
1.0
 40
1.0
 10
10.8246571699
 20
7.976723803
 30
0.0
 10
10.8165364162
 20
7.9682167731
 30
0.0
 10
10.800265964
 20
7.9520797166
 30
0.0
 10
10.7790777633
 20
7.9334609653
 30
0.0
 10
10.7621961679
 20
7.9201555093
 30
0.0
 10
10.7499185268
 20
7.911226556
 30
0.0
 10
10.7378685259
 20
7.9032301242
 30
0.0
 10
10.7297963078
 20
7.8984211061
 30
0.0
 10
10.7258095674
 20
7.8962003096
 30
0.0
  0
SPLINE
  5
3B9
100
AcDbEntity
  8
0
100
AcDbSpline
 62
7
  6
CONTINUOUS
 70
0
 71
3
 72
10
 73
6
 74
0
 42
0.0000001
 43
0.0000001
 44
0.0000000001
 40
0.0
 40
0.0
 40
0.0
 40
0.0
 40
0.5045875532
 40
0.7540450213
 40
1.0
 40
1.0
 40
1.0
 40
1.0
 10
10.7058454477
 20
8.030936469
 30
0.0
 10
10.6972750718
 20
8.0273134941
 30
0.0
 10
10.6848617283
 20
8.0209046113
 30
0.0
 10
10.6694350218
 20
8.010788641
 30
0.0
 10
10.6621454887
 20
8.0052667112
 30
0.0
 10
10.6586274051
 20
8.0024042891
 30
0.0
  0
SPLINE
  5
3BA
100
AcDbEntity
  8
0
100
AcDbSpline
 62
7
  6
CONTINUOUS
 70
0
 71
3
 72
13
 73
9
 74
0
 42
0.0000001
 43
0.0000001
 44
0.0000000001
 40
0.0
 40
0.0
 40
0.0
 40
0.0
 40
0.2759431843
 40
0.5372636248
 40
0.6611453547
 40
0.779920824
 40
0.8930660617
 40
1.0
 40
1.0
 40
1.0
 40
1.0
 10
10.6586274051
 20
8.0024042891
 30
0.0
 10
10.6495090416
 20
7.9949853055
 30
0.0
 10
10.6313540971
 20
7.9810250598
 30
0.0
 10
10.6080096031
 20
7.9652285788
 30
0.0
 10
10.5896042363
 20
7.954166158
 30
0.0
 10
10.5763154428
 20
7.9468665584
 30
0.0
 10
10.5633714731
 20
7.9404662684
 30
0.0
 10
10.5547697221
 20
7.9367237069
 30
0.0
 10
10.5505412906
 20
7.9350289649
 30
0.0
  0
SPLINE
  5
3BB
100
AcDbEntity
  8
0
100
AcDbSpline
 62
7
  6
CONTINUOUS
 70
0
 71
3
 72
10
 73
6
 74
0
 42
0.0000001
 43
0.0000001
 44
0.0000000001
 40
0.0
 40
0.0
 40
0.0
 40
0.0
 40
0.5045906682
 40
0.7540588598
 40
1.0
 40
1.0
 40
1.0
 40
1.0
 10
10.5582886183
 20
8.0679655395
 30
0.0
 10
10.5492030378
 20
8.0654527751
 30
0.0
 10
10.5358953685
 20
8.0606268888
 30
0.0
 10
10.5190931457
 20
8.0524425554
 30
0.0
 10
10.511062633
 20
8.0478220083
 30
0.0
 10
10.5071632375
 20
8.0453919404
 30
0.0
  0
SPLINE
  5
3BC
100
AcDbEntity
  8
0
100
AcDbSpline
 62
7
  6
CONTINUOUS
 70
0
 71
3
 72
13
 73
9
 74
0
 42
0.0000001
 43
0.0000001
 44
0.0000000001
 40
0.0
 40
0.0
 40
0.0
 40
0.0
 40
0.2758028316
 40
0.5370687923
 40
0.6609609326
 40
0.7797726793
 40
0.8929798629
 40
1.0
 40
1.0
 40
1.0
 40
1.0
 10
10.5071632375
 20
8.0453919404
 30
0.0
 10
10.4971819999
 20
8.0391717238
 30
0.0
 10
10.4774095911
 20
8.0275879396
 30
0.0
 10
10.4522567615
 20
8.0148234218
 30
0.0
 10
10.4325966001
 20
8.0061342632
 30
0.0
 10
10.4184841433
 20
8.0005391546
 30
0.0
 10
10.4048240837
 20
7.9957906587
 30
0.0
 10
10.3958095149
 20
7.9931402038
 30
0.0
 10
10.3913957357
 20
7.9919806398
 30
0.0
  0
SPLINE
  5
3BD
100
AcDbEntity
  8
0
100
AcDbSpline
 62
7
  6
CONTINUOUS
 70
0
 71
3
 72
10
 73
6
 74
0
 42
0.0000001
 43
0.0000001
 44
0.0000000001
 40
0.0
 40
0.0
 40
0.0
 40
0.0
 40
0.5045875532
 40
0.7540450213
 40
1.0
 40
1.0
 40
1.0
 40
1.0
 10
10.4055663458
 20
8.1274486896
 30
0.0
 10
10.3963642267
 20
8.126070903
 30
0.0
 10
10.3827470469
 20
8.1229504399
 30
0.0
 10
10.3652892593
 20
8.1169887474
 30
0.0
 10
10.3568554922
 20
8.1134531323
 30
0.0
 10
10.3527360802
 20
8.1115555503
 30
0.0
  0
SPLINE
  5
3BE
100
AcDbEntity
  8
0
100
AcDbSpline
 62
7
  6
CONTINUOUS
 70
0
 71
3
 72
13
 73
9
 74
0
 42
0.0000001
 43
0.0000001
 44
0.0000000001
 40
0.0
 40
0.0
 40
0.0
 40
0.0
 40
0.2759430219
 40
0.5372632714
 40
0.6611450691
 40
0.7799206894
 40
0.8930660276
 40
1.0
 40
1.0
 40
1.0
 40
1.0
 10
10.3527360802
 20
8.1115555503
 30
0.0
 10
10.342059167
 20
8.1066372954
 30
0.0
 10
10.3210028359
 20
8.0976305922
 30
0.0
 10
10.2944633389
 20
8.0881359293
 30
0.0
 10
10.2738850975
 20
8.081998282
 30
0.0
 10
10.2591984462
 20
8.0782327975
 30
0.0
 10
10.2450694361
 20
8.075252615
 30
0.0
 10
10.2358071821
 20
8.0737668
 30
0.0
 10
10.231290128
 20
8.0731768694
 30
0.0
  0
SPLINE
  5
3BF
100
AcDbEntity
  8
0
100
AcDbSpline
 62
7
  6
CONTINUOUS
 70
0
 71
3
 72
10
 73
6
 74
0
 42
0.0000001
 43
0.0000001
 44
0.0000000001
 40
0.0
 40
0.0
 40
0.0
 40
0.0
 40
0.5045906682
 40
0.7540588598
 40
1.0
 40
1.0
 40
1.0
 40
1.0
 10
10.2718540409
 20
8.200010315
 30
0.0
 10
10.2624290015
 20
8.1998359857
 30
0.0
 10
10.248339268
 20
8.1984711963
 30
0.0
 10
10.2300295569
 20
8.1947225316
 30
0.0
 10
10.2211022542
 20
8.1922442548
 30
0.0
 10
10.2167210321
 20
8.1908602722
 30
0.0
  0
SPLINE
  5
3C0
100
AcDbEntity
  8
0
100
AcDbSpline
 62
7
  6
CONTINUOUS
 70
0
 71
3
 72
13
 73
9
 74
0
 42
0.0000001
 43
0.0000001
 44
0.0000000001
 40
0.0
 40
0.0
 40
0.0
 40
0.0
 40
0.2758028316
 40
0.5370687923
 40
0.6609609326
 40
0.7797726793
 40
0.8929798629
 40
1.0
 40
1.0
 40
1.0
 40
1.0
 10
10.2167210321
 20
8.1908602722
 30
0.0
 10
10.2055064685
 20
8.187317708
 30
0.0
 10
10.1834744763
 20
8.1810150478
 30
0.0
 10
10.1559374626
 20
8.1749068052
 30
0.0
 10
10.1347340554
 20
8.1713799158
 30
0.0
 10
10.1196735205
 20
8.1694702131
 30
0.0
 10
10.1052617138
 20
8.1682680187
 30
0.0
 10
10.095871213
 20
8.1679426647
 30
0.0
 10
10.091307729
 20
8.1679171928
 30
0.0
  0
SPLINE
  5
3C1
100
AcDbEntity
  8
0
100
AcDbSpline
 62
7
  6
CONTINUOUS
 70
0
 71
3
 72
10
 73
6
 74
0
 42
0.0000001
 43
0.0000001
 44
0.0000000001
 40
0.0
 40
0.0
 40
0.0
 40
0.0
 40
0.5045875532
 40
0.7540450213
 40
1.0
 40
1.0
 40
1.0
 40
1.0
 10
10.1387226773
 20
8.2956051773
 30
0.0
 10
10.1294670181
 20
8.2965591503
 30
0.0
 10
10.1155016195
 20
8.2969231773
 30
0.0
 10
10.0971096876
 20
8.2954903575
 30
0.0
 10
10.0880616112
 20
8.2941632128
 30
0.0
 10
10.0835997086
 20
8.293349703
 30
0.0
  0
SPLINE
  5
3C2
100
AcDbEntity
  8
0
100
AcDbSpline
 62
7
  6
CONTINUOUS
 70
0
 71
3
 72
13
 73
9
 74
0
 42
0.0000001
 43
0.0000001
 44
0.0000000001
 40
0.0
 40
0.0
 40
0.0
 40
0.0
 40
0.2759431843
 40
0.5372636248
 40
0.6611453547
 40
0.779920824
 40
0.8930660617
 40
1.0
 40
1.0
 40
1.0
 40
1.0
 10
10.0835997086
 20
8.293349703
 30
0.0
 10
10.0720351032
 20
8.2912412032
 30
0.0
 10
10.0494004044
 20
8.2877539578
 30
0.0
 10
10.0213334556
 20
8.2851576918
 30
0.0
 10
9.9998753478
 20
8.2843304716
 30
0.0
 10
9.9847136804
 20
8.2843357088
 30
0.0
 10
9.9702874301
 20
8.2849628969
 30
0.0
 10
9.9609466654
 20
8.2858271904
 30
0.0
 10
9.9564248145
 20
8.286379139
 30
0.0
  0
SPLINE
  5
3C3
100
AcDbEntity
  8
0
100
AcDbSpline
 62
7
  6
CONTINUOUS
 70
0
 71
3
 72
10
 73
6
 74
0
 42
0.0000001
 43
0.0000001
 44
0.0000000001
 40
0.0
 40
0.0
 40
0.0
 40
0.0
 40
0.5045906682
 40
0.7540588598
 40
1.0
 40
1.0
 40
1.0
 40
1.0
 10
10.0272565328
 20
8.3991400439
 30
0.0
 10
10.0180842444
 20
8.4013151034
 30
0.0
 10
10.0040977564
 20
8.4034971656
 30
0.0
 10
9.9854310236
 20
8.4044197121
 30
0.0
 10
9.9761678662
 20
8.4042394248
 30
0.0
 10
9.9715801057
 20
8.4039884882
 30
0.0
  0
SPLINE
  5
3C4
100
AcDbEntity
  8
0
100
AcDbSpline
 62
7
  6
CONTINUOUS
 70
0
 71
3
 72
13
 73
9
 74
0
 42
0.0000001
 43
0.0000001
 44
0.0000000001
 40
0.0
 40
0.0
 40
0.0
 40
0.0
 40
0.2758028316
 40
0.5370687923
 40
0.6609609326
 40
0.7797726793
 40
0.8929798629
 40
1.0
 40
1.0
 40
1.0
 40
1.0
 10
9.9715801057
 20
8.4039884882
 30
0.0
 10
9.9598368683
 20
8.4033461687
 30
0.0
 10
9.9369296438
 20
8.4027206518
 30
0.0
 10
9.9087386979
 20
8.4036524877
 30
0.0
 10
9.887324333
 20
8.405509475
 30
0.0
 10
9.8722620287
 20
8.4074051718
 30
0.0
 10
9.8580040219
 20
8.4098248171
 30
0.0
 10
9.8488276287
 20
8.4118450074
 30
0.0
 10
9.8444011803
 20
8.412955228
 30
0.0
  0
SPLINE
  5
3C5
100
AcDbEntity
  8
0
100
AcDbSpline
 62
7
  6
CONTINUOUS
 70
0
 71
3
 72
10
 73
6
 74
0
 42
0.0000001
 43
0.0000001
 44
0.0000000001
 40
0.0
 40
0.0
 40
0.0
 40
0.0
 40
0.5045875532
 40
0.7540450213
 40
1.0
 40
1.0
 40
1.0
 40
1.0
 10
9.9220812113
 20
8.5248400415
 30
0.0
 10
9.9133535791
 20
8.5280658325
 30
0.0
 10
9.8999174589
 20
8.5318914763
 30
0.0
 10
9.8817470157
 20
8.5350775587
 30
0.0
 10
9.8726531537
 20
8.5360422738
 30
0.0
 10
9.8681291183
 20
8.5363639519
 30
0.0
  0
SPLINE
  5
3C6
100
AcDbEntity
  8
0
100
AcDbSpline
 62
7
  6
CONTINUOUS
 70
0
 71
3
 72
13
 73
9
 74
0
 42
0.0000001
 43
0.0000001
 44
0.0000000001
 40
0.0
 40
0.0
 40
0.0
 40
0.0
 40
0.2759431843
 40
0.5372636248
 40
0.6611453547
 40
0.779920824
 40
0.8930660617
 40
1.0
 40
1.0
 40
1.0
 40
1.0
 10
9.8681291183
 20
8.5363639519
 30
0.0
 10
9.8564034737
 20
8.5371976949
 30
0.0
 10
9.8336126429
 20
8.5394490285
 30
0.0
 10
9.8057818038
 20
8.5439142952
 30
0.0
 10
9.7847921207
 20
8.5484494782
 30
0.0
 10
9.7701080873
 20
8.5522251042
 30
0.0
 10
9.7562910396
 20
8.5564202506
 30
0.0
 10
9.7474586732
 20
8.5595803444
 30
0.0
 10
9.7432161486
 20
8.5612394911
 30
0.0
  0
SPLINE
  5
3C7
100
AcDbEntity
  8
0
100
AcDbSpline
 62
7
  6
CONTINUOUS
 70
0
 71
3
 72
12
 73
8
 74
0
 42
0.0000001
 43
0.0000001
 44
0.0000000001
 40
0.0
 40
0.0
 40
0.0
 40
0.0
 40
0.253692468
 40
0.5063372386
 40
0.6318055425
 40
0.7563329206
 40
1.0
 40
1.0
 40
1.0
 40
1.0
 10
11.0386923427
 20
8.0134841653
 30
0.0
 10
11.0310350517
 20
8.0112269535
 30
0.0
 10
11.0161541533
 20
8.0052617081
 30
0.0
 10
10.9991008748
 20
7.9948881133
 30
0.0
 10
10.9865689711
 20
7.9852182612
 30
0.0
 10
10.9749546396
 20
7.9748893639
 30
0.0
 10
10.9670773202
 20
7.9663306874
 30
0.0
 10
10.9622839197
 20
7.9603461182
 30
0.0
  0
SPLINE
  5
3C8
100
AcDbEntity
  8
0
100
AcDbSpline
 62
7
  6
CONTINUOUS
 70
0
 71
3
 72
13
 73
9
 74
0
 42
0.0000001
 43
0.0000001
 44
0.0000000001
 40
0.0
 40
0.0
 40
0.0
 40
0.0
 40
0.2758028316
 40
0.5370687923
 40
0.6609609326
 40
0.7797726793
 40
0.8929798629
 40
1.0
 40
1.0
 40
1.0
 40
1.0
 10
11.149253518
 20
7.9891705316
 30
0.0
 10
11.143503505
 20
7.9789112164
 30
0.0
 10
11.1317573418
 20
7.9592348383
 30
0.0
 10
11.1158651024
 20
7.9359317381
 30
0.0
 10
11.1028228057
 20
7.9188460154
 30
0.0
 10
11.0931514297
 20
7.9071442564
 30
0.0
 10
11.0834686335
 20
7.8964023338
 30
0.0
 10
11.0768459731
 20
7.8897369209
 30
0.0
 10
11.0735367732
 20
7.8865944328
 30
0.0
  0
SPLINE
  5
3C9
100
AcDbEntity
  8
0
100
AcDbSpline
 62
7
  6
CONTINUOUS
 70
0
 71
3
 72
10
 73
6
 74
0
 42
0.0000001
 43
0.0000001
 44
0.0000000001
 40
0.0
 40
0.0
 40
0.0
 40
0.0
 40
0.5045906682
 40
0.7540588598
 40
1.0
 40
1.0
 40
1.0
 40
1.0
 10
11.1831801164
 20
8.0335817674
 30
0.0
 10
11.176428895
 20
8.0270028034
 30
0.0
 10
11.167092184
 20
8.0163628284
 30
0.0
 10
11.1563111166
 20
8.0010963097
 30
0.0
 10
11.1514998902
 20
7.9931785645
 30
0.0
 10
11.149253518
 20
7.9891705316
 30
0.0
  0
SPLINE
  5
3CA
100
AcDbEntity
  8
0
100
AcDbSpline
 62
7
  6
CONTINUOUS
 70
0
 71
3
 72
13
 73
9
 74
0
 42
0.0000001
 43
0.0000001
 44
0.0000000001
 40
0.0
 40
0.0
 40
0.0
 40
0.0
 40
0.2759431843
 40
0.5372636248
 40
0.6611453547
 40
0.779920824
 40
0.8930660617
 40
1.0
 40
1.0
 40
1.0
 40
1.0
 10
11.3026920388
 20
8.0244685849
 30
0.0
 10
11.2982756786
 20
8.0135744749
 30
0.0
 10
11.2890917791
 20
7.9925948071
 30
0.0
 10
11.2762448558
 20
7.9675059495
 30
0.0
 10
11.2654454718
 20
7.9489450232
 30
0.0
 10
11.2573170222
 20
7.9361464102
 30
0.0
 10
11.2490574983
 20
7.9243019884
 30
0.0
 10
11.2433227192
 20
7.9168784316
 30
0.0
 10
11.2404337647
 20
7.9133562554
 30
0.0
  0
SPLINE
  5
3CB
100
AcDbEntity
  8
0
100
AcDbSpline
 62
7
  6
CONTINUOUS
 70
0
 71
3
 72
10
 73
6
 74
0
 42
0.0000001
 43
0.0000001
 44
0.0000000001
 40
0.0
 40
0.0
 40
0.0
 40
0.0
 40
0.5045875532
 40
0.7540450213
 40
1.0
 40
1.0
 40
1.0
 40
1.0
 10
11.3303240425
 20
8.0722189903
 30
0.0
 10
11.3245591462
 20
8.0649153431
 30
0.0
 10
11.3167687533
 20
8.0533190224
 30
0.0
 10
11.3081236332
 20
8.0370224575
 30
0.0
 10
11.3043959766
 20
8.0286717942
 30
0.0
 10
11.3026920388
 20
8.0244685849
 30
0.0
  0
SPLINE
  5
3CC
100
AcDbEntity
  8
0
100
AcDbSpline
 62
7
  6
CONTINUOUS
 70
0
 71
3
 72
13
 73
9
 74
0
 42
0.0000001
 43
0.0000001
 44
0.0000000001
 40
0.0
 40
0.0
 40
0.0
 40
0.0
 40
0.2758028316
 40
0.5370687923
 40
0.6609609326
 40
0.7797726793
 40
0.8929798629
 40
1.0
 40
1.0
 40
1.0
 40
1.0
 10
11.4605566993
 20
8.0819500526
 30
0.0
 10
11.4575387216
 20
8.0705830826
 30
0.0
 10
11.4510549019
 20
8.0486037221
 30
0.0
 10
11.4414571918
 20
8.0220804924
 30
0.0
 10
11.4330736893
 20
8.0022880617
 30
0.0
 10
11.4266162665
 20
7.9885487616
 30
0.0
 10
11.4199090807
 20
7.9757363028
 30
0.0
 10
11.4151521041
 20
7.9676333074
 30
0.0
 10
11.4127283738
 20
7.9637665818
 30
0.0
  0
SPLINE
  5
3CD
100
AcDbEntity
  8
0
100
AcDbSpline
 62
7
  6
CONTINUOUS
 70
0
 71
3
 72
10
 73
6
 74
0
 42
0.0000001
 43
0.0000001
 44
0.0000000001
 40
0.0
 40
0.0
 40
0.0
 40
0.0
 40
0.5045906682
 40
0.7540588598
 40
1.0
 40
1.0
 40
1.0
 40
1.0
 10
11.4823728061
 20
8.1334032297
 30
0.0
 10
11.4774698085
 20
8.1253519954
 30
0.0
 10
11.4710724816
 20
8.1127243492
 30
0.0
 10
11.4644267501
 20
8.0952563138
 30
0.0
 10
11.4617357404
 20
8.0863908158
 30
0.0
 10
11.4605566993
 20
8.0819500526
 30
0.0
  0
SPLINE
  5
3CE
100
AcDbEntity
  8
0
100
AcDbSpline
 62
7
  6
CONTINUOUS
 70
0
 71
3
 72
13
 73
9
 74
0
 42
0.0000001
 43
0.0000001
 44
0.0000000001
 40
0.0
 40
0.0
 40
0.0
 40
0.0
 40
0.2759430229
 40
0.537263272
 40
0.6611450689
 40
0.7799206889
 40
0.8930660274
 40
1.0
 40
1.0
 40
1.0
 40
1.0
 10
11.600396398
 20
8.154297761
 30
0.0
 10
11.5988280418
 20
8.1426476123
 30
0.0
 10
11.5951501063
 20
8.120043131
 30
0.0
 10
11.5889461418
 20
8.0925475977
 30
0.0
 10
11.5831019557
 20
8.0718840981
 30
0.0
 10
11.5784117581
 20
8.0574661008
 30
0.0
 10
11.5733573072
 20
8.0439397214
 30
0.0
 10
11.5696488585
 20
8.0353232021
 30
0.0
 10
11.5677265947
 20
8.0311932266
 30
0.0
  0
SPLINE
  5
3CF
100
AcDbEntity
  8
0
100
AcDbSpline
 62
7
  6
CONTINUOUS
 70
0
 71
3
 72
10
 73
6
 74
0
 42
0.0000001
 43
0.0000001
 44
0.0000000001
 40
0.0
 40
0.0
 40
0.0
 40
0.0
 40
0.5045906682
 40
0.7540588598
 40
1.0
 40
1.0
 40
1.0
 40
1.0
 10
9.8398650549
 20
8.6528426728
 30
0.0
 10
9.8315218462
 20
8.6572304542
 30
0.0
 10
9.8185174263
 20
8.6628222609
 30
0.0
 10
9.8006665711
 20
8.6683580516
 30
0.0
 10
9.7916495972
 20
8.670487082
 30
0.0
 10
9.7871435643
 20
8.6713849587
 30
0.0
  0
SPLINE
  5
3D0
100
AcDbEntity
  8
0
100
AcDbSpline
 62
7
  6
CONTINUOUS
 70
0
 71
3
 72
10
 73
6
 74
0
 42
0.0000001
 43
0.0000001
 44
0.0000000001
 40
0.0
 40
0.0
 40
0.0
 40
0.0
 40
0.5045875532
 40
0.7540450213
 40
1.0
 40
1.0
 40
1.0
 40
1.0
 10
11.6152852485
 20
8.2074197995
 30
0.0
 10
11.6115178103
 20
8.1989119384
 30
0.0
 10
11.6068560546
 20
8.1857425455
 30
0.0
 10
11.6025353277
 20
8.1678080132
 30
0.0
 10
11.6010015078
 20
8.1587926709
 30
0.0
 10
11.600396398
 20
8.154297761
 30
0.0
  0
SPLINE
  5
3D1
100
AcDbEntity
  8
0
100
AcDbSpline
 62
7
  6
CONTINUOUS
 70
0
 71
3
 72
13
 73
9
 74
0
 42
0.0000001
 43
0.0000001
 44
0.0000000001
 40
0.0
 40
0.0
 40
0.0
 40
0.0
 40
0.2758028316
 40
0.5370687923
 40
0.6609609326
 40
0.7797726793
 40
0.8929798629
 40
1.0
 40
1.0
 40
1.0
 40
1.0
 10
9.7871435643
 20
8.6713849587
 30
0.0
 10
9.775609524
 20
8.6736832432
 30
0.0
 10
9.7532664123
 20
8.6787741731
 30
0.0
 10
9.7261928749
 20
8.6866875369
 30
0.0
 10
9.7059130957
 20
8.6938117194
 30
0.0
 10
9.691795442
 20
8.6993937022
 30
0.0
 10
9.678587118
 20
8.705283152
 30
0.0
 10
9.6702014189
 20
8.7095219505
 30
0.0
 10
9.6661901361
 20
8.7116981044
 30
0.0
  0
SPLINE
  5
3D2
100
AcDbEntity
  8
0
100
AcDbSpline
 62
7
  6
CONTINUOUS
 70
0
 71
3
 72
13
 73
9
 74
0
 42
0.0000001
 43
0.0000001
 44
0.0000000001
 40
0.0
 40
0.0
 40
0.0
 40
0.0
 40
0.2758028316
 40
0.5370687923
 40
0.6609609326
 40
0.7797726793
 40
0.8929798629
 40
1.0
 40
1.0
 40
1.0
 40
1.0
 10
11.7390063902
 20
8.2492326873
 30
0.0
 10
11.7389100783
 20
8.237472291
 30
0.0
 10
11.7380960043
 20
8.2145709921
 30
0.0
 10
11.735395883
 20
8.186494185
 30
0.0
 10
11.732197941
 20
8.1652386778
 30
0.0
 10
11.729360215
 20
8.1503251272
 30
0.0
 10
11.7260500767
 20
8.1362471861
 30
0.0
 10
11.7234576823
 20
8.1272157492
 30
0.0
 10
11.7220717135
 20
8.1228677467
 30
0.0
  0
SPLINE
  5
3D3
100
AcDbEntity
  8
0
100
AcDbSpline
 62
7
  6
CONTINUOUS
 70
0
 71
3
 72
10
 73
6
 74
0
 42
0.0000001
 43
0.0000001
 44
0.0000000001
 40
0.0
 40
0.0
 40
0.0
 40
0.0
 40
0.5045906682
 40
0.7540588598
 40
1.0
 40
1.0
 40
1.0
 40
1.0
 10
11.747341219
 20
8.3044948134
 30
0.0
 10
11.7445945187
 20
8.2954771975
 30
0.0
 10
11.7415385435
 20
8.2816553215
 30
0.0
 10
11.7394457236
 20
8.2630833504
 30
0.0
 10
11.7390440166
 20
8.2538271514
 30
0.0
 10
11.7390063902
 20
8.2492326873
 30
0.0
  0
SPLINE
  5
3D4
100
AcDbEntity
  8
0
100
AcDbSpline
 62
7
  6
CONTINUOUS
 70
0
 71
3
 72
13
 73
9
 74
0
 42
0.0000001
 43
0.0000001
 44
0.0000000001
 40
0.0
 40
0.0
 40
0.0
 40
0.0
 40
0.2759431843
 40
0.5372636248
 40
0.6611453547
 40
0.779920824
 40
0.8930660617
 40
1.0
 40
1.0
 40
1.0
 40
1.0
 10
11.8564606241
 20
8.3540841783
 30
0.0
 10
11.8578388157
 20
8.3424099993
 30
0.0
 10
11.8598979353
 20
8.3196009989
 30
0.0
 10
11.8607267399
 20
8.2914264129
 30
0.0
 10
11.860204962
 20
8.2699587062
 30
0.0
 10
11.8592477261
 20
8.2548272857
 30
0.0
 10
11.8577159439
 20
8.2404688838
 30
0.0
 10
11.8562668445
 20
8.2312008204
 30
0.0
 10
11.8554320556
 20
8.2267225495
 30
0.0
  0
SPLINE
  5
3D5
100
AcDbEntity
  8
0
100
AcDbSpline
 62
7
  6
CONTINUOUS
 70
0
 71
3
 72
10
 73
6
 74
0
 42
0.0000001
 43
0.0000001
 44
0.0000000001
 40
0.0
 40
0.0
 40
0.0
 40
0.0
 40
0.5045875532
 40
0.7540450213
 40
1.0
 40
1.0
 40
1.0
 40
1.0
 10
11.8576708003
 20
8.4092399969
 30
0.0
 10
11.8561375421
 20
8.4000625021
 30
0.0
 10
11.8548973388
 20
8.3861475184
 30
0.0
 10
11.8551724923
 20
8.3677019113
 30
0.0
 10
11.8559288847
 20
8.3585883571
 30
0.0
 10
11.8564606241
 20
8.3540841783
 30
0.0
  0
SPLINE
  5
3D6
100
AcDbEntity
  8
0
100
AcDbSpline
 62
7
  6
CONTINUOUS
 70
0
 71
3
 72
13
 73
9
 74
0
 42
0.0000001
 43
0.0000001
 44
0.0000000001
 40
0.0
 40
0.0
 40
0.0
 40
0.0
 40
0.2758028316
 40
0.5370687923
 40
0.6609609326
 40
0.7797726793
 40
0.8929798629
 40
1.0
 40
1.0
 40
1.0
 40
1.0
 10
11.9671065725
 20
8.4805074527
 30
0.0
 10
11.969937978
 20
8.469092579
 30
0.0
 10
11.9748448011
 20
8.4467083146
 30
0.0
 10
11.979211927
 20
8.4188420992
 30
0.0
 10
11.981400484
 20
8.3974590769
 30
0.0
 10
11.9823607595
 20
8.3823083493
 30
0.0
 10
11.9826556569
 20
8.3678494946
 30
0.0
 10
11.9823907344
 20
8.3584570947
 30
0.0
 10
11.9821296125
 20
8.3539010162
 30
0.0
  0
SPLINE
  5
3D7
100
AcDbEntity
  8
0
100
AcDbSpline
 62
7
  6
CONTINUOUS
 70
0
 71
3
 72
10
 73
6
 74
0
 42
0.0000001
 43
0.0000001
 44
0.0000000001
 40
0.0
 40
0.0
 40
0.0
 40
0.0
 40
0.5045906682
 40
0.7540588598
 40
1.0
 40
1.0
 40
1.0
 40
1.0
 10
11.9614364154
 20
8.536106205
 30
0.0
 10
11.9610185976
 20
8.5266888176
 30
0.0
 10
11.9614959923
 20
8.5125411911
 30
0.0
 10
11.9640875835
 20
8.4940322295
 30
0.0
 10
11.96600042
 20
8.4849669305
 30
0.0
 10
11.9671065725
 20
8.4805074527
 30
0.0
  0
SPLINE
  5
3D8
100
AcDbEntity
  8
0
100
AcDbSpline
 62
7
  6
CONTINUOUS
 70
0
 71
3
 72
13
 73
9
 74
0
 42
0.0000001
 43
0.0000001
 44
0.0000000001
 40
0.0
 40
0.0
 40
0.0
 40
0.0
 40
0.2759431843
 40
0.5372636248
 40
0.6611453547
 40
0.779920824
 40
0.8930660617
 40
1.0
 40
1.0
 40
1.0
 40
1.0
 10
12.0547952602
 20
8.6112745215
 30
0.0
 10
12.0590334036
 20
8.6003098505
 30
0.0
 10
12.0667001999
 20
8.5787295191
 30
0.0
 10
12.0745097007
 20
8.5516462048
 30
0.0
 10
12.0793431169
 20
8.5307231847
 30
0.0
 10
12.0821789857
 20
8.5158290907
 30
0.0
 10
12.0842661165
 20
8.5015408457
 30
0.0
 10
12.0851674169
 20
8.4922035792
 30
0.0
 10
12.0854725551
 20
8.4876583978
 30
0.0
  0
SPLINE
  5
3D9
100
AcDbEntity
  8
0
100
AcDbSpline
 62
7
  6
CONTINUOUS
 70
0
 71
3
 72
10
 73
6
 74
0
 42
0.0000001
 43
0.0000001
 44
0.0000000001
 40
0.0
 40
0.0
 40
0.0
 40
0.0
 40
0.5045875438
 40
0.7540450174
 40
1.0
 40
1.0
 40
1.0
 40
1.0
 10
12.0422507222
 20
8.6649984771
 30
0.0
 10
12.0430479842
 20
8.6557280046
 30
0.0
 10
12.0453072599
 20
8.6419417597
 30
0.0
 10
12.0501610048
 20
8.6241440832
 30
0.0
 10
12.0531600826
 20
8.615504955
 30
0.0
 10
12.0547952602
 20
8.6112745215
 30
0.0
  0
SPLINE
  5
3DA
100
AcDbEntity
  8
0
100
AcDbSpline
 62
7
  6
CONTINUOUS
 70
0
 71
3
 72
13
 73
9
 74
0
 42
0.0000001
 43
0.0000001
 44
0.0000000001
 40
0.0
 40
0.0
 40
0.0
 40
0.0
 40
0.2758028316
 40
0.5370687923
 40
0.6609609326
 40
0.7797726793
 40
0.8929798629
 40
1.0
 40
1.0
 40
1.0
 40
1.0
 10
12.1305248727
 20
8.7612425046
 30
0.0
 10
12.1361060881
 20
8.7508903921
 30
0.0
 10
12.1464254945
 20
8.7304296478
 30
0.0
 10
12.1575854651
 20
8.7045249608
 30
0.0
 10
12.1650230059
 20
8.6843579975
 30
0.0
 10
12.1697209454
 20
8.6699220686
 30
0.0
 10
12.1736023489
 20
8.6559908035
 30
0.0
 10
12.1756815443
 20
8.6468275995
 30
0.0
 10
12.1765616768
 20
8.6423497203
 30
0.0
  0
SPLINE
  5
3DB
100
AcDbEntity
  8
0
100
AcDbSpline
 62
7
  6
CONTINUOUS
 70
0
 71
3
 72
10
 73
6
 74
0
 42
0.0000001
 43
0.0000001
 44
0.0000000001
 40
0.0
 40
0.0
 40
0.0
 40
0.0
 40
0.5045875532
 40
0.7540450213
 40
1.0
 40
1.0
 40
1.0
 40
1.0
 10
9.7692543278
 20
8.8007496127
 30
0.0
 10
9.7616031118
 20
8.8060445334
 30
0.0
 10
9.749540511
 20
8.8130914148
 30
0.0
 10
9.7327332721
 20
8.8206962059
 30
0.0
 10
9.7241650254
 20
8.8238921643
 30
0.0
 10
9.719863119
 20
8.8253288182
 30
0.0
  0
SPLINE
  5
3DC
100
AcDbEntity
  8
0
100
AcDbSpline
 62
7
  6
CONTINUOUS
 70
0
 71
3
 72
10
 73
6
 74
0
 42
0.0000001
 43
0.0000001
 44
0.0000000001
 40
0.0
 40
0.0
 40
0.0
 40
0.0
 40
0.5045906682
 40
0.7540588598
 40
1.0
 40
1.0
 40
1.0
 40
1.0
 10
12.1112060066
 20
8.8136844092
 30
0.0
 10
12.1131433244
 20
8.8044589792
 30
0.0
 10
12.1171240924
 20
8.7908745497
 30
0.0
 10
12.1242372557
 20
8.7735915836
 30
0.0
 10
12.1283444451
 20
8.7652867908
 30
0.0
 10
12.1305248727
 20
8.7612425046
 30
0.0
  0
SPLINE
  5
3DD
100
AcDbEntity
  8
0
100
AcDbSpline
 62
7
  6
CONTINUOUS
 70
0
 71
3
 72
13
 73
9
 74
0
 42
0.0000001
 43
0.0000001
 44
0.0000000001
 40
0.0
 40
0.0
 40
0.0
 40
0.0
 40
0.2759431843
 40
0.5372636248
 40
0.6611453547
 40
0.779920824
 40
0.8930660617
 40
1.0
 40
1.0
 40
1.0
 40
1.0
 10
9.719863119
 20
8.8253288182
 30
0.0
 10
9.7087132006
 20
8.8290524168
 30
0.0
 10
9.6871982695
 20
8.8369008697
 30
0.0
 10
9.6613522541
 20
8.8481471002
 30
0.0
 10
9.6421498546
 20
8.8577597239
 30
0.0
 10
9.6288661071
 20
8.8650685023
 30
0.0
 10
9.6165264378
 20
8.8725680105
 30
0.0
 10
9.6087574399
 20
8.8778253443
 30
0.0
 10
9.605060815
 20
8.8804874389
 30
0.0
  0
SPLINE
  5
3DE
100
AcDbEntity
  8
0
100
AcDbSpline
 62
7
  6
CONTINUOUS
 70
0
 71
3
 72
13
 73
9
 74
0
 42
0.0000001
 43
0.0000001
 44
0.0000000001
 40
0.0
 40
0.0
 40
0.0
 40
0.0
 40
0.2759431843
 40
0.5372636248
 40
0.6611453547
 40
0.779920824
 40
0.8930660617
 40
1.0
 40
1.0
 40
1.0
 40
1.0
 10
12.1829382115
 20
8.9097085753
 30
0.0
 10
12.1897700086
 20
8.900142363
 30
0.0
 10
12.2025627486
 20
8.8811466721
 30
0.0
 10
12.2168622459
 20
8.8568563738
 30
0.0
 10
12.226747155
 20
8.8377927107
 30
0.0
 10
12.2331979403
 20
8.8240717939
 30
0.0
 10
12.2387728422
 20
8.8107514887
 30
0.0
 10
12.2419679102
 20
8.8019317138
 30
0.0
 10
12.2433938026
 20
8.7976052125
 30
0.0
  0
SPLINE
  5
3DF
100
AcDbEntity
  8
0
100
AcDbSpline
 62
7
  6
CONTINUOUS
 70
0
 71
3
 72
10
 73
6
 74
0
 42
0.0000001
 43
0.0000001
 44
0.0000000001
 40
0.0
 40
0.0
 40
0.0
 40
0.0
 40
0.5045875532
 40
0.7540450213
 40
1.0
 40
1.0
 40
1.0
 40
1.0
 10
12.1574271787
 20
8.9586249944
 30
0.0
 10
12.1605048661
 20
8.9498440416
 30
0.0
 10
12.1661216622
 20
8.9370527759
 30
0.0
 10
12.1752490201
 20
8.9210213235
 30
0.0
 10
12.18030234
 20
8.9133994498
 30
0.0
 10
12.1829382115
 20
8.9097085753
 30
0.0
  0
SPLINE
  5
3E0
100
AcDbEntity
  8
0
100
AcDbSpline
 62
7
  6
CONTINUOUS
 70
0
 71
3
 72
13
 73
9
 74
0
 42
0.0000001
 43
0.0000001
 44
0.0000000001
 40
0.0
 40
0.0
 40
0.0
 40
0.0
 40
0.2758028316
 40
0.5370687923
 40
0.6609609326
 40
0.7797726793
 40
0.8929798629
 40
1.0
 40
1.0
 40
1.0
 40
1.0
 10
12.2189931182
 20
9.0737982273
 30
0.0
 10
12.2269734551
 20
9.0651593372
 30
0.0
 10
12.2420570386
 20
9.0479077369
 30
0.0
 10
12.2593086319
 20
9.0255922651
 30
0.0
 10
12.2715278285
 20
9.0079085252
 30
0.0
 10
12.2796682431
 20
8.9950944576
 30
0.0
 10
12.28689227
 20
8.9825661346
 30
0.0
 10
12.2911849398
 20
8.9742078844
 30
0.0
 10
12.2931510245
 20
8.970089566
 30
0.0
  0
SPLINE
  5
3E1
100
AcDbEntity
  8
0
100
AcDbSpline
 62
7
  6
CONTINUOUS
 70
0
 71
3
 72
10
 73
6
 74
0
 42
0.0000001
 43
0.0000001
 44
0.0000000001
 40
0.0
 40
0.0
 40
0.0
 40
0.0
 40
0.5045906682
 40
0.7540588598
 40
1.0
 40
1.0
 40
1.0
 40
1.0
 10
12.1872394185
 20
9.1197881664
 30
0.0
 10
12.191410143
 20
9.1113343616
 30
0.0
 10
12.1986441581
 20
9.0991666886
 30
0.0
 10
12.2098319471
 20
9.0841956705
 30
0.0
 10
12.2158754196
 20
9.0771732045
 30
0.0
 10
12.2189931182
 20
9.0737982273
 30
0.0
  0
LINE
  5
3E2
100
AcDbEntity
  8
0
100
AcDbLine
 62
7
  6
CONTINUOUS
 10
12.311490929
 20
9.1485272581
 11
12.3192730254
 21
9.1370878953
  0
SPLINE
  5
3E3
100
AcDbEntity
  8
0
100
AcDbSpline
 62
7
  6
CONTINUOUS
 70
0
 71
3
 72
10
 73
6
 74
0
 42
0.0000001
 43
0.0000001
 44
0.0000000001
 40
0.0
 40
0.0
 40
0.0
 40
0.0
 40
0.5045906682
 40
0.7540588598
 40
1.0
 40
1.0
 40
1.0
 40
1.0
 10
12.1847591921
 20
9.4351838518
 30
0.0
 10
12.1909012613
 20
9.4280328558
 30
0.0
 10
12.2009339838
 20
9.4180464791
 30
0.0
 10
12.2154934287
 20
9.406328093
 30
0.0
 10
12.2230934506
 20
9.4010292011
 30
0.0
 10
12.2269525237
 20
9.3985355952
 30
0.0
  0
SPLINE
  5
3E4
100
AcDbEntity
  8
0
100
AcDbSpline
 62
7
  6
CONTINUOUS
 70
0
 71
3
 72
13
 73
9
 74
0
 42
0.0000001
 43
0.0000001
 44
0.0000000001
 40
0.0
 40
0.0
 40
0.0
 40
0.0
 40
0.2759431843
 40
0.5372636248
 40
0.6611453547
 40
0.779920824
 40
0.8930660617
 40
1.0
 40
1.0
 40
1.0
 40
1.0
 10
12.2013586075
 20
9.5538877232
 30
0.0
 10
12.2119539149
 20
9.5487960309
 30
0.0
 10
12.2323155223
 20
9.5383129295
 30
0.0
 10
12.2565482077
 20
9.5239160142
 30
0.0
 10
12.2743944094
 20
9.5119724901
 30
0.0
 10
12.2866573777
 20
9.5030564486
 30
0.0
 10
12.2979598074
 20
9.4940695056
 30
0.0
 10
12.3050086258
 20
9.4878799138
 30
0.0
 10
12.3083424528
 20
9.4847755007
 30
0.0
  0
SPLINE
  5
3E5
100
AcDbEntity
  8
0
100
AcDbSpline
 62
7
  6
CONTINUOUS
 70
0
 71
3
 72
10
 73
6
 74
0
 42
0.0000001
 43
0.0000001
 44
0.0000000001
 40
0.0
 40
0.0
 40
0.0
 40
0.0
 40
0.5045906682
 40
0.7540588598
 40
1.0
 40
1.0
 40
1.0
 40
1.0
 10
9.7214541031
 20
8.9451771325
 30
0.0
 10
9.7144642084
 20
8.9515019354
 30
0.0
 10
9.7032589721
 20
8.960152133
 30
0.0
 10
9.6873456296
 20
8.9699533338
 30
0.0
 10
9.6791414088
 20
8.9742579069
 30
0.0
 10
9.675000234
 20
8.97624818
 30
0.0
  0
SPLINE
  5
3E6
100
AcDbEntity
  8
0
100
AcDbSpline
 62
7
  6
CONTINUOUS
 70
0
 71
3
 72
10
 73
6
 74
0
 42
0.0000001
 43
0.0000001
 44
0.0000000001
 40
0.0
 40
0.0
 40
0.0
 40
0.0
 40
0.5045875532
 40
0.7540450213
 40
1.0
 40
1.0
 40
1.0
 40
1.0
 10
12.1554374545
 20
9.5844634742
 30
0.0
 10
12.1623647088
 20
9.5782513539
 30
0.0
 10
12.173448984
 20
9.5697481945
 30
0.0
 10
12.1891705597
 20
9.5600968638
 30
0.0
 10
12.1972706834
 20
9.5558522204
 30
0.0
 10
12.2013586075
 20
9.5538877232
 30
0.0
  0
SPLINE
  5
3E7
100
AcDbEntity
  8
0
100
AcDbSpline
 62
7
  6
CONTINUOUS
 70
0
 71
3
 72
13
 73
9
 74
0
 42
0.0000001
 43
0.0000001
 44
0.0000000001
 40
0.0
 40
0.0
 40
0.0
 40
0.0
 40
0.2758028316
 40
0.5370687923
 40
0.6609609326
 40
0.7797726793
 40
0.8929798629
 40
1.0
 40
1.0
 40
1.0
 40
1.0
 10
9.675000234
 20
8.97624818
 30
0.0
 10
9.6644001169
 20
8.9813426589
 30
0.0
 10
9.644025018
 20
8.9918301538
 30
0.0
 10
9.6197700191
 20
9.0062278196
 30
0.0
 10
9.6018990786
 20
9.0181715589
 30
0.0
 10
9.5896131396
 20
9.0270890911
 30
0.0
 10
9.578284426
 20
9.0360782896
 30
0.0
 10
9.5712163254
 20
9.042269357
 30
0.0
 10
9.5678722519
 20
9.0453747085
 30
0.0
  0
SPLINE
  5
3E8
100
AcDbEntity
  8
0
100
AcDbSpline
 62
7
  6
CONTINUOUS
 70
0
 71
3
 72
13
 73
9
 74
0
 42
0.0000001
 43
0.0000001
 44
0.0000000001
 40
0.0
 40
0.0
 40
0.0
 40
0.0
 40
0.2758028316
 40
0.5370687923
 40
0.6609609326
 40
0.7797726793
 40
0.8929798629
 40
1.0
 40
1.0
 40
1.0
 40
1.0
 10
12.1539029704
 20
9.7150501651
 30
0.0
 10
12.1650580099
 20
9.7113244047
 30
0.0
 10
12.1865868768
 20
9.7034732838
 30
0.0
 10
12.2124551237
 20
9.6922291053
 30
0.0
 10
12.231682094
 20
9.6826193688
 30
0.0
 10
12.2449888179
 20
9.6753119904
 30
0.0
 10
12.2573548465
 20
9.6678135387
 30
0.0
 10
12.2651431595
 20
9.6625571577
 30
0.0
 10
12.2688500677
 20
9.6598954163
 30
0.0
  0
SPLINE
  5
3E9
100
AcDbEntity
  8
0
100
AcDbSpline
 62
7
  6
CONTINUOUS
 70
0
 71
3
 72
10
 73
6
 74
0
 42
0.0000001
 43
0.0000001
 44
0.0000000001
 40
0.0
 40
0.0
 40
0.0
 40
0.0
 40
0.5045906682
 40
0.7540588598
 40
1.0
 40
1.0
 40
1.0
 40
1.0
 10
12.1039211691
 20
9.7400539945
 30
0.0
 10
12.1116486543
 20
9.7346551307
 30
0.0
 10
12.1238496913
 20
9.727477531
 30
0.0
 10
12.1408659685
 20
9.7197480862
 30
0.0
 10
12.1495450026
 20
9.7165057175
 30
0.0
 10
12.1539029704
 20
9.7150501651
 30
0.0
  0
SPLINE
  5
3EA
100
AcDbEntity
  8
0
100
AcDbSpline
 62
7
  6
CONTINUOUS
 70
0
 71
3
 72
13
 73
9
 74
0
 42
0.0000001
 43
0.0000001
 44
0.0000000001
 40
0.0
 40
0.0
 40
0.0
 40
0.0
 40
0.2759431843
 40
0.5372636248
 40
0.6611453547
 40
0.779920824
 40
0.8930660617
 40
1.0
 40
1.0
 40
1.0
 40
1.0
 10
12.090478631
 20
9.8591566723
 30
0.0
 10
12.1020073197
 20
9.8568598906
 30
0.0
 10
12.1243362711
 20
9.851769861
 30
0.0
 10
12.1513880094
 20
9.8438516751
 30
0.0
 10
12.1716437734
 20
9.8367215486
 30
0.0
 10
12.1857388074
 20
9.8311352972
 30
0.0
 10
12.1989211124
 20
9.8252414955
 30
0.0
 10
12.2072877681
 20
9.8209993309
 30
0.0
 10
12.2112888928
 20
9.8188215377
 30
0.0
  0
SPLINE
  5
3EB
100
AcDbEntity
  8
0
100
AcDbSpline
 62
7
  6
CONTINUOUS
 70
0
 71
3
 72
10
 73
6
 74
0
 42
0.0000001
 43
0.0000001
 44
0.0000000001
 40
0.0
 40
0.0
 40
0.0
 40
0.0
 40
0.5045875532
 40
0.7540450213
 40
1.0
 40
1.0
 40
1.0
 40
1.0
 10
12.0383962954
 20
9.8773517035
 30
0.0
 10
12.0466508087
 20
9.8730574864
 30
0.0
 10
12.0595015008
 20
9.8675780165
 30
0.0
 10
12.0771293427
 20
9.862139697
 30
0.0
 10
12.0860305859
 20
9.8600428258
 30
0.0
 10
12.090478631
 20
9.8591566723
 30
0.0
  0
SPLINE
  5
3EC
100
AcDbEntity
  8
0
100
AcDbSpline
 62
7
  6
CONTINUOUS
 70
0
 71
3
 72
13
 73
9
 74
0
 42
0.0000001
 43
0.0000001
 44
0.0000000001
 40
0.0
 40
0.0
 40
0.0
 40
0.0
 40
0.2758028316
 40
0.5370687923
 40
0.6609609326
 40
0.7797726793
 40
0.8929798629
 40
1.0
 40
1.0
 40
1.0
 40
1.0
 10
12.0044344305
 20
10.0034541627
 30
0.0
 10
12.0161655729
 20
10.0026195994
 30
0.0
 10
12.0389705651
 20
10.0003691474
 30
0.0
 10
12.066822427
 20
9.9959113968
 30
0.0
 10
12.087835191
 20
9.9913851209
 30
0.0
 10
12.1025411307
 20
9.9876165649
 30
0.0
 10
12.1163834469
 20
9.9834289971
 30
0.0
 10
12.1252342846
 20
9.9802746296
 30
0.0
 10
12.1294866816
 20
9.9786183824
 30
0.0
  0
SPLINE
  5
3ED
100
AcDbEntity
  8
0
100
AcDbSpline
 62
7
  6
CONTINUOUS
 70
0
 71
3
 72
10
 73
6
 74
0
 42
0.0000001
 43
0.0000001
 44
0.0000000001
 40
0.0
 40
0.0
 40
0.0
 40
0.0
 40
0.5045906682
 40
0.7540588598
 40
1.0
 40
1.0
 40
1.0
 40
1.0
 10
11.9498046999
 20
10.0152424822
 30
0.0
 10
11.9586320548
 20
10.0119349811
 30
0.0
 10
11.9722347702
 20
10.0080171534
 30
0.0
 10
11.9906386845
 20
10.0047623194
 30
0.0
 10
11.9998513952
 20
10.0037802036
 30
0.0
 10
12.0044344305
 20
10.0034541627
 30
0.0
  0
SPLINE
  5
3EE
100
AcDbEntity
  8
0
100
AcDbSpline
 62
7
  6
CONTINUOUS
 70
0
 71
3
 72
13
 73
9
 74
0
 42
0.0000001
 43
0.0000001
 44
0.0000000001
 40
0.0
 40
0.0
 40
0.0
 40
0.0
 40
0.2759431843
 40
0.5372636248
 40
0.6611453547
 40
0.779920824
 40
0.8930660617
 40
1.0
 40
1.0
 40
1.0
 40
1.0
 10
11.9071648523
 20
10.1272603071
 30
0.0
 10
11.9189025324
 20
10.1279027513
 30
0.0
 10
11.9417958176
 20
10.1285256188
 30
0.0
 10
11.9699668486
 20
10.127583691
 30
0.0
 10
11.9913594309
 20
10.1257149742
 30
0.0
 10
12.0064008877
 20
10.1238095175
 30
0.0
 10
12.0206347752
 20
10.1213791864
 30
0.0
 10
12.0297935605
 20
10.1193509999
 30
0.0
 10
12.0342105777
 20
10.1182366654
 30
0.0
  0
SPLINE
  5
3EF
100
AcDbEntity
  8
0
100
AcDbSpline
 62
7
  6
CONTINUOUS
 70
0
 71
3
 72
10
 73
6
 74
0
 42
0.0000001
 43
0.0000001
 44
0.0000000001
 40
0.0
 40
0.0
 40
0.0
 40
0.0
 40
0.5045875532
 40
0.7540450213
 40
1.0
 40
1.0
 40
1.0
 40
1.0
 10
11.8521938588
 20
10.1319313578
 30
0.0
 10
11.8612569698
 20
10.1298248654
 30
0.0
 10
11.8750666224
 20
10.1277133803
 30
0.0
 10
11.8934931083
 20
10.1268297817
 30
0.0
 10
11.9026361734
 20
10.1270124367
 30
0.0
 10
11.9071648523
 20
10.1272603071
 30
0.0
  0
SPLINE
  5
3F0
100
AcDbEntity
  8
0
100
AcDbSpline
 62
7
  6
CONTINUOUS
 70
0
 71
3
 72
13
 73
9
 74
0
 42
0.0000001
 43
0.0000001
 44
0.0000000001
 40
0.0
 40
0.0
 40
0.0
 40
0.0
 40
0.2758028316
 40
0.5370687923
 40
0.6609609326
 40
0.7797726793
 40
0.8929798629
 40
1.0
 40
1.0
 40
1.0
 40
1.0
 10
11.787938562
 20
10.245626104
 30
0.0
 10
11.7995086964
 20
10.2477351765
 30
0.0
 10
11.8221568926
 20
10.2512267976
 30
0.0
 10
11.8502423345
 20
10.2538355718
 30
0.0
 10
11.8717205829
 20
10.2546771591
 30
0.0
 10
11.8869017103
 20
10.2546842177
 30
0.0
 10
11.9013505504
 20
10.2540706541
 30
0.0
 10
11.910707782
 20
10.2532165007
 30
0.0
 10
11.9152384741
 20
10.2526698156
 30
0.0
  0
SPLINE
  5
3F1
100
AcDbEntity
  8
0
100
AcDbSpline
 62
7
  6
CONTINUOUS
 70
0
 71
3
 72
10
 73
6
 74
0
 42
0.0000001
 43
0.0000001
 44
0.0000000001
 40
0.0
 40
0.0
 40
0.0
 40
0.0
 40
0.5045875532
 40
0.7540450213
 40
1.0
 40
1.0
 40
1.0
 40
1.0
 10
9.689844702
 20
9.1059974777
 30
0.0
 10
9.6837506563
 20
9.1130288288
 30
0.0
 10
9.6738195124
 20
9.1228541663
 30
0.0
 10
9.6594315385
 20
9.1343998293
 30
0.0
 10
9.6519272816
 20
9.1396262171
 30
0.0
 10
9.6481178088
 20
9.1420875764
 30
0.0
  0
SPLINE
  5
3F2
100
AcDbEntity
  8
0
100
AcDbSpline
 62
7
  6
CONTINUOUS
 70
0
 71
3
 72
10
 73
6
 74
0
 42
0.0000001
 43
0.0000001
 44
0.0000000001
 40
0.0
 40
0.0
 40
0.0
 40
0.0
 40
0.5045906682
 40
0.7540588598
 40
1.0
 40
1.0
 40
1.0
 40
1.0
 10
11.732093489
 20
10.2434582103
 30
0.0
 10
11.7414660584
 20
10.2424498943
 30
0.0
 10
11.7556157436
 20
10.2420380101
 30
0.0
 10
11.7742509094
 20
10.2434623001
 30
0.0
 10
11.7834184281
 20
10.2448021472
 30
0.0
 10
11.787938562
 20
10.245626104
 30
0.0
  0
SPLINE
  5
3F3
100
AcDbEntity
  8
0
100
AcDbSpline
 62
7
  6
CONTINUOUS
 70
0
 71
3
 72
13
 73
9
 74
0
 42
0.0000001
 43
0.0000001
 44
0.0000000001
 40
0.0
 40
0.0
 40
0.0
 40
0.0
 40
0.2759431843
 40
0.5372636248
 40
0.6611453547
 40
0.779920824
 40
0.8930660617
 40
1.0
 40
1.0
 40
1.0
 40
1.0
 10
11.6629355504
 20
10.3413526903
 30
0.0
 10
11.6741447003
 20
10.3448939933
 30
0.0
 10
11.69616385
 20
10.3511906207
 30
0.0
 10
11.7236840842
 20
10.3572841359
 30
0.0
 10
11.7448693102
 20
10.3607942472
 30
0.0
 10
11.7599120797
 20
10.3626893121
 30
0.0
 10
11.7743031822
 20
10.3638751582
 30
0.0
 10
11.7836786169
 20
10.3641883881
 30
0.0
 10
11.7882339892
 20
10.36420753
 30
0.0
  0
SPLINE
  5
3F4
100
AcDbEntity
  8
0
100
AcDbSpline
 62
7
  6
CONTINUOUS
 70
0
 71
3
 72
10
 73
6
 74
0
 42
0.0000001
 43
0.0000001
 44
0.0000000001
 40
0.0
 40
0.0
 40
0.0
 40
0.0
 40
0.5045875532
 40
0.7540450213
 40
1.0
 40
1.0
 40
1.0
 40
1.0
 10
11.6085299286
 20
10.3322062611
 30
0.0
 10
11.6178321687
 20
10.3324198522
 30
0.0
 10
11.6317330707
 20
10.3338090243
 30
0.0
 10
11.6498003967
 20
10.3375356661
 30
0.0
 10
11.6586107911
 20
10.3399863705
 30
0.0
 10
11.6629355504
 20
10.3413526903
 30
0.0
  0
SPLINE
  5
3F5
100
AcDbEntity
  8
0
100
AcDbSpline
 62
7
  6
CONTINUOUS
 70
0
 71
3
 72
13
 73
9
 74
0
 42
0.0000001
 43
0.0000001
 44
0.0000000001
 40
0.0
 40
0.0
 40
0.0
 40
0.0
 40
0.2758026699
 40
0.5370684409
 40
0.6609606483
 40
0.7797725455
 40
0.8929798292
 40
1.0
 40
1.0
 40
1.0
 40
1.0
 10
11.5180185965
 20
10.4263494353
 30
0.0
 10
11.5287007227
 20
10.43126962
 30
0.0
 10
11.5497690389
 20
10.440283918
 30
0.0
 10
11.5763233374
 20
10.4497952953
 30
0.0
 10
11.5969175137
 20
10.4559518671
 30
0.0
 10
11.6116199557
 20
10.4597341006
 30
0.0
 10
11.6257674576
 20
10.4627330974
 30
0.0
 10
11.6350431394
 20
10.464232829
 30
0.0
 10
11.639567448
 20
10.4648300566
 30
0.0
  0
SPLINE
  5
3F6
100
AcDbEntity
  8
0
100
AcDbSpline
 62
7
  6
CONTINUOUS
 70
0
 71
3
 72
10
 73
6
 74
0
 42
0.0000001
 43
0.0000001
 44
0.0000000001
 40
0.0
 40
0.0
 40
0.0
 40
0.0
 40
0.5045906682
 40
0.7540588598
 40
1.0
 40
1.0
 40
1.0
 40
1.0
 10
11.4644671324
 20
10.4103615451
 30
0.0
 10
11.4737960033
 20
10.4117157704
 30
0.0
 10
11.4876035816
 20
10.4148357099
 30
0.0
 10
11.5052990829
 20
10.4208496305
 30
0.0
 10
11.5138453806
 20
10.4244272531
 30
0.0
 10
11.5180185965
 20
10.4263494353
 30
0.0
  0
SPLINE
  5
3F7
100
AcDbEntity
  8
0
100
AcDbSpline
 62
7
  6
CONTINUOUS
 70
0
 71
3
 72
13
 73
9
 74
0
 42
0.0000001
 43
0.0000001
 44
0.0000000001
 40
0.0
 40
0.0
 40
0.0
 40
0.0
 40
0.2759431843
 40
0.5372636248
 40
0.6611453547
 40
0.779920824
 40
0.8930660617
 40
1.0
 40
1.0
 40
1.0
 40
1.0
 10
11.3731365505
 20
10.4879816101
 30
0.0
 10
11.3831128581
 20
10.4941992588
 30
0.0
 10
11.4028743282
 20
10.5057740059
 30
0.0
 10
11.428014568
 20
10.518520086
 30
0.0
 10
11.4476612919
 20
10.5271884721
 30
0.0
 10
11.4617601818
 20
10.5327649848
 30
0.0
 10
11.4754042534
 20
10.537492497
 30
0.0
 10
11.4844072444
 20
10.540127462
 30
0.0
 10
11.4888147409
 20
10.5412788775
 30
0.0
  0
SPLINE
  5
3F8
100
AcDbEntity
  8
0
100
AcDbSpline
 62
7
  6
CONTINUOUS
 70
0
 71
3
 72
10
 73
6
 74
0
 42
0.0000001
 43
0.0000001
 44
0.0000000001
 40
0.0
 40
0.0
 40
0.0
 40
0.0
 40
0.5045875532
 40
0.7540450213
 40
1.0
 40
1.0
 40
1.0
 40
1.0
 10
11.3227148058
 20
10.4655924049
 30
0.0
 10
11.331671681
 20
10.4681126586
 30
0.0
 10
11.3447903875
 20
10.472915201
 30
0.0
 10
11.3613633171
 20
10.4810179248
 30
0.0
 10
11.3692874514
 20
10.4855826918
 30
0.0
 10
11.3731365505
 20
10.4879816101
 30
0.0
  0
SPLINE
  5
3F9
100
AcDbEntity
  8
0
100
AcDbSpline
 62
7
  6
CONTINUOUS
 70
0
 71
3
 72
13
 73
9
 74
0
 42
0.0000001
 43
0.0000001
 44
0.0000000001
 40
0.0
 40
0.0
 40
0.0
 40
0.0
 40
0.2758028316
 40
0.5370687923
 40
0.6609609326
 40
0.7797726793
 40
0.8929798629
 40
1.0
 40
1.0
 40
1.0
 40
1.0
 10
11.2116345983
 20
10.5342686451
 30
0.0
 10
11.220757531
 20
10.5416907943
 30
0.0
 10
11.2389221952
 20
10.5556613768
 30
0.0
 10
11.262276869
 20
10.571477728
 30
0.0
 10
11.2806929638
 20
10.5825624416
 30
0.0
 10
11.2939928866
 20
10.589882191
 30
0.0
 10
11.3069500883
 20
10.5963053029
 30
0.0
 10
11.3155613844
 20
10.6000646833
 30
0.0
 10
11.3197950277
 20
10.6017682971
 30
0.0
  0
SPLINE
  5
3FA
100
AcDbEntity
  8
0
100
AcDbSpline
 62
7
  6
CONTINUOUS
 70
0
 71
3
 72
10
 73
6
 74
0
 42
0.0000001
 43
0.0000001
 44
0.0000000001
 40
0.0
 40
0.0
 40
0.0
 40
0.0
 40
0.5045906682
 40
0.7540588598
 40
1.0
 40
1.0
 40
1.0
 40
1.0
 10
11.1637415785
 20
10.5054653363
 30
0.0
 10
11.1724405836
 20
10.509097012
 30
0.0
 10
11.185038474
 20
10.515552738
 30
0.0
 10
11.2006824374
 20
10.5257784124
 30
0.0
 10
11.2080705189
 20
10.5313690152
 30
0.0
 10
11.2116345983
 20
10.5342686451
 30
0.0
  0
SPLINE
  5
3FB
100
AcDbEntity
  8
0
100
AcDbSpline
 62
7
  6
CONTINUOUS
 70
0
 71
3
 72
13
 73
9
 74
0
 42
0.0000001
 43
0.0000001
 44
0.0000000001
 40
0.0
 40
0.0
 40
0.0
 40
0.0
 40
0.2759431843
 40
0.5372636248
 40
0.6611453547
 40
0.779920824
 40
0.8930660617
 40
1.0
 40
1.0
 40
1.0
 40
1.0
 10
11.0559769896
 20
10.5579338321
 30
0.0
 10
11.0640936068
 20
10.5664371487
 30
0.0
 10
11.0803557114
 20
10.5825627317
 30
0.0
 10
11.1015363031
 20
10.6011604936
 30
0.0
 10
11.1184100491
 20
10.614442488
 30
0.0
 10
11.1306791741
 20
10.6233500556
 30
0.0
 10
11.1427189076
 20
10.6313221869
 30
0.0
 10
11.150783764
 20
10.6361133225
 30
0.0
 10
11.1547664454
 20
10.638324664
 30
0.0
  0
SPLINE
  5
3FC
100
AcDbEntity
  8
0
100
AcDbSpline
 62
7
  6
CONTINUOUS
 70
0
 71
3
 72
10
 73
6
 74
0
 42
0.0000001
 43
0.0000001
 44
0.0000000001
 40
0.0
 40
0.0
 40
0.0
 40
0.0
 40
0.5045875532
 40
0.7540450213
 40
1.0
 40
1.0
 40
1.0
 40
1.0
 10
11.0127073056
 20
10.5237086469
 30
0.0
 10
11.0207560225
 20
10.5283772065
 30
0.0
 10
11.032268237
 20
10.5362913579
 30
0.0
 10
11.0463054321
 20
10.5482610398
 30
0.0
 10
11.0528454037
 20
10.5546530482
 30
0.0
 10
11.0559769896
 20
10.5579338321
 30
0.0
  0
SPLINE
  5
3FD
100
AcDbEntity
  8
0
100
AcDbSpline
 62
7
  6
CONTINUOUS
 70
0
 71
3
 72
9
 73
5
 74
0
 42
0.0000001
 43
0.0000001
 44
0.0000000001
 40
0.0
 40
0.0
 40
0.0
 40
0.0
 40
0.5036461232
 40
1.0
 40
1.0
 40
1.0
 40
1.0
 10
10.8488125198
 20
10.5227938629
 30
0.0
 10
10.8554021397
 20
10.5277702613
 30
0.0
 10
10.8678183273
 20
10.5385589423
 30
0.0
 10
10.8788049935
 20
10.5507880284
 30
0.0
 10
10.8838665971
 20
10.5571604322
 30
0.0
  0
SPLINE
  5
3FE
100
AcDbEntity
  8
0
100
AcDbSpline
 62
7
  6
CONTINUOUS
 70
0
 71
3
 72
13
 73
9
 74
0
 42
0.0000001
 43
0.0000001
 44
0.0000000001
 40
0.0
 40
0.0
 40
0.0
 40
0.0
 40
0.2759431843
 40
0.5372636248
 40
0.6611453547
 40
0.779920824
 40
0.8930660617
 40
1.0
 40
1.0
 40
1.0
 40
1.0
 10
10.7313851693
 20
10.546814001
 30
0.0
 10
10.7371320991
 20
10.5570686909
 30
0.0
 10
10.7488730304
 20
10.57673188
 30
0.0
 10
10.7647631195
 20
10.600012758
 30
0.0
 10
10.7778036481
 20
10.6170738041
 30
0.0
 10
10.787472094
 20
10.6287527314
 30
0.0
 10
10.7971509888
 20
10.6394685636
 30
0.0
 10
10.8037709658
 20
10.646114825
 30
0.0
 10
10.8070785858
 20
10.6492471457
 30
0.0
  0
SPLINE
  5
3FF
100
AcDbEntity
  8
0
100
AcDbSpline
 62
7
  6
CONTINUOUS
 70
0
 71
3
 72
10
 73
6
 74
0
 42
0.0000001
 43
0.0000001
 44
0.0000000001
 40
0.0
 40
0.0
 40
0.0
 40
0.0
 40
0.5045875532
 40
0.7540450213
 40
1.0
 40
1.0
 40
1.0
 40
1.0
 10
10.6979863394
 20
10.5029033302
 30
0.0
 10
10.7046211675
 20
10.5094268529
 30
0.0
 10
10.7138035352
 20
10.5199553379
 30
0.0
 10
10.7244229871
 20
10.5350398787
 30
0.0
 10
10.7291678656
 20
10.5428574953
 30
0.0
 10
10.7313851693
 20
10.546814001
 30
0.0
  0
SPLINE
  5
400
100
AcDbEntity
  8
0
100
AcDbSpline
 62
7
  6
CONTINUOUS
 70
0
 71
3
 72
13
 73
9
 74
0
 42
0.0000001
 43
0.0000001
 44
0.0000000001
 40
0.0
 40
0.0
 40
0.0
 40
0.0
 40
0.2758028316
 40
0.5370687923
 40
0.6609609326
 40
0.7797726793
 40
0.8929798629
 40
1.0
 40
1.0
 40
1.0
 40
1.0
 10
10.5675609805
 20
10.5095714802
 30
0.0
 10
10.5719798197
 20
10.5204705654
 30
0.0
 10
10.5811672569
 20
10.541463974
 30
0.0
 10
10.5940135283
 20
10.566575148
 30
0.0
 10
10.6048115737
 20
10.5851607779
 30
0.0
 10
10.6129400687
 20
10.5979824099
 30
0.0
 10
10.6212001932
 20
10.6098532053
 30
0.0
 10
10.6269352342
 20
10.617296099
 30
0.0
 10
10.629824482
 20
10.6208285603
 30
0.0
  0
SPLINE
  5
401
100
AcDbEntity
  8
0
100
AcDbSpline
 62
7
  6
CONTINUOUS
 70
0
 71
3
 72
10
 73
6
 74
0
 42
0.0000001
 43
0.0000001
 44
0.0000000001
 40
0.0
 40
0.0
 40
0.0
 40
0.0
 40
0.5045906682
 40
0.7540588598
 40
1.0
 40
1.0
 40
1.0
 40
1.0
 10
10.5394681072
 20
10.46125831
 30
0.0
 10
10.5453415304
 20
10.4686315494
 30
0.0
 10
10.5532710762
 20
10.4803578251
 30
0.0
 10
10.5620537295
 20
10.4968551888
 30
0.0
 10
10.5658346613
 20
10.5053135068
 30
0.0
 10
10.5675609805
 20
10.5095714802
 30
0.0
  0
SPLINE
  5
402
100
AcDbEntity
  8
0
100
AcDbSpline
 62
7
  6
CONTINUOUS
 70
0
 71
3
 72
13
 73
9
 74
0
 42
0.0000001
 43
0.0000001
 44
0.0000000001
 40
0.0
 40
0.0
 40
0.0
 40
0.0
 40
0.2759431843
 40
0.5372636248
 40
0.6611453547
 40
0.779920824
 40
0.8930660617
 40
1.0
 40
1.0
 40
1.0
 40
1.0
 10
10.4197563874
 20
10.4553208167
 30
0.0
 10
10.4227725292
 20
10.46668254
 30
0.0
 10
10.4292545613
 20
10.4886478247
 30
0.0
 10
10.4388557151
 20
10.5151489956
 30
0.0
 10
10.4472436419
 20
10.5349170852
 30
0.0
 10
10.4537039047
 20
10.5486335422
 30
0.0
 10
10.4604138001
 20
10.56141976
 30
0.0
 10
10.4651729403
 20
10.5695035383
 30
0.0
 10
10.4675976689
 20
10.573360023
 30
0.0
  0
SPLINE
  5
403
100
AcDbEntity
  8
0
100
AcDbSpline
 62
7
  6
CONTINUOUS
 70
0
 71
3
 72
10
 73
6
 74
0
 42
0.0000001
 43
0.0000001
 44
0.0000000001
 40
0.0
 40
0.0
 40
0.0
 40
0.0
 40
0.5045875532
 40
0.7540450213
 40
1.0
 40
1.0
 40
1.0
 40
1.0
 10
10.398326983
 20
10.4044837291
 30
0.0
 10
10.4031310316
 20
10.412452318
 30
0.0
 10
10.4094065906
 20
10.4249335933
 30
0.0
 10
10.4159410402
 20
10.4421851758
 30
0.0
 10
10.4185926874
 20
10.4509371909
 30
0.0
 10
10.4197563874
 20
10.4553208167
 30
0.0
  0
SPLINE
  5
404
100
AcDbEntity
  8
0
100
AcDbSpline
 62
7
  6
CONTINUOUS
 70
0
 71
3
 72
13
 73
9
 74
0
 42
0.0000001
 43
0.0000001
 44
0.0000000001
 40
0.0
 40
0.0
 40
0.0
 40
0.0
 40
0.275802671
 40
0.5370684414
 40
0.660960648
 40
0.779772545
 40
0.892979829
 40
1.0
 40
1.0
 40
1.0
 40
1.0
 10
10.2703408751
 20
10.3785069191
 30
0.0
 10
10.2719103951
 20
10.3901625034
 30
0.0
 10
10.27558834
 20
10.4127811735
 30
0.0
 10
10.2817861232
 20
10.4402981601
 30
0.0
 10
10.2876228692
 20
10.4609852543
 30
0.0
 10
10.2923073861
 20
10.4754255587
 30
0.0
 10
10.29735586
 20
10.4889776324
 30
0.0
 10
10.3010597536
 20
10.4976129461
 30
0.0
 10
10.3029797434
 20
10.5017529567
 30
0.0
  0
SPLINE
  5
405
100
AcDbEntity
  8
0
100
AcDbSpline
 62
7
  6
CONTINUOUS
 70
0
 71
3
 72
10
 73
6
 74
0
 42
0.0000001
 43
0.0000001
 44
0.0000000001
 40
0.0
 40
0.0
 40
0.0
 40
0.0
 40
0.5045875532
 40
0.7540450213
 40
1.0
 40
1.0
 40
1.0
 40
1.0
 10
9.6888419328
 20
9.4214037906
 30
0.0
 10
9.6846879686
 20
9.4297297664
 30
0.0
 10
9.677512292
 20
9.4417161979
 30
0.0
 10
9.6664476323
 20
9.4564772763
 30
0.0
 10
9.6604788852
 20
9.4634057003
 30
0.0
 10
9.6574012091
 20
9.4667371088
 30
0.0
  0
SPLINE
  5
406
100
AcDbEntity
  8
0
100
AcDbSpline
 62
7
  6
CONTINUOUS
 70
0
 71
3
 72
10
 73
6
 74
0
 42
0.0000001
 43
0.0000001
 44
0.0000000001
 40
0.0
 40
0.0
 40
0.0
 40
0.0
 40
0.5045906682
 40
0.7540588598
 40
1.0
 40
1.0
 40
1.0
 40
1.0
 10
10.2551455879
 20
10.3247251825
 30
0.0
 10
10.2590008366
 20
10.333327439
 30
0.0
 10
10.2637650549
 20
10.3466573101
 30
0.0
 10
10.2681690576
 20
10.3648205358
 30
0.0
 10
10.2697277063
 20
10.3739533997
 30
0.0
 10
10.2703408751
 20
10.3785069191
 30
0.0
  0
SPLINE
  5
407
100
AcDbEntity
  8
0
100
AcDbSpline
 62
7
  6
CONTINUOUS
 70
0
 71
3
 72
13
 73
9
 74
0
 42
0.0000001
 43
0.0000001
 44
0.0000000001
 40
0.0
 40
0.0
 40
0.0
 40
0.0
 40
0.2759431843
 40
0.5372636248
 40
0.6611453547
 40
0.779920824
 40
0.8930660617
 40
1.0
 40
1.0
 40
1.0
 40
1.0
 10
9.6574012091
 20
9.4667371088
 30
0.0
 10
9.6494243185
 20
9.4753716374
 30
0.0
 10
9.6343516617
 20
9.4926141862
 30
0.0
 10
9.6171205385
 20
9.514920746
 30
0.0
 10
9.6049242644
 20
9.5325951789
 30
0.0
 10
9.5968046586
 20
9.5453994043
 30
0.0
 10
9.5896042396
 20
9.5579159545
 30
0.0
 10
9.5853289547
 20
9.5662657345
 30
0.0
 10
9.5833720514
 20
9.5703794084
 30
0.0
  0
SPLINE
  5
408
100
AcDbEntity
  8
0
100
AcDbSpline
 62
7
  6
CONTINUOUS
 70
0
 71
3
 72
13
 73
9
 74
0
 42
0.0000001
 43
0.0000001
 44
0.0000000001
 40
0.0
 40
0.0
 40
0.0
 40
0.0
 40
0.2759431843
 40
0.5372636248
 40
0.6611453547
 40
0.779920824
 40
0.8930660617
 40
1.0
 40
1.0
 40
1.0
 40
1.0
 10
10.1406714264
 20
10.2892031324
 30
0.0
 10
10.1407672649
 20
10.3009579903
 30
0.0
 10
10.1415831079
 20
10.323845211
 30
0.0
 10
10.1442920506
 20
10.3519015087
 30
0.0
 10
10.1475003313
 20
10.37313454
 30
0.0
 10
10.1503464889
 20
10.3880266713
 30
0.0
 10
10.1536657775
 20
10.4020798697
 30
0.0
 10
10.1562650467
 20
10.4110932313
 30
0.0
 10
10.1576545292
 20
10.4154315629
 30
0.0
  0
SPLINE
  5
409
100
AcDbEntity
  8
0
100
AcDbSpline
 62
7
  6
CONTINUOUS
 70
0
 71
3
 72
10
 73
6
 74
0
 42
0.0000001
 43
0.0000001
 44
0.0000000001
 40
0.0
 40
0.0
 40
0.0
 40
0.0
 40
0.5045875532
 40
0.7540450213
 40
1.0
 40
1.0
 40
1.0
 40
1.0
 10
10.1325579358
 20
10.2346339093
 30
0.0
 10
10.1352293489
 20
10.2435468686
 30
0.0
 10
10.1382037827
 20
10.2571966898
 30
0.0
 10
10.1402426464
 20
10.2755313336
 30
0.0
 10
10.1406344496
 20
10.2846678259
 30
0.0
 10
10.1406714264
 20
10.2892031324
 30
0.0
  0
SPLINE
  5
40A
100
AcDbEntity
  8
0
100
AcDbSpline
 62
7
  6
CONTINUOUS
 70
0
 71
3
 72
13
 73
9
 74
0
 42
0.0000001
 43
0.0000001
 44
0.0000000001
 40
0.0
 40
0.0
 40
0.0
 40
0.0
 40
0.2758028316
 40
0.5370687923
 40
0.6609609326
 40
0.7797726793
 40
0.8929798629
 40
1.0
 40
1.0
 40
1.0
 40
1.0
 10
10.0150529167
 20
10.1776443578
 30
0.0
 10
10.0136745007
 20
10.189324091
 30
0.0
 10
10.0116118615
 20
10.2121468368
 30
0.0
 10
10.0107717346
 20
10.2403406648
 30
0.0
 10
10.0112804384
 20
10.2618293745
 30
0.0
 10
10.0122266246
 20
10.2769809886
 30
0.0
 10
10.0137462276
 20
10.2913627913
 30
0.0
 10
10.015186241
 20
10.3006479257
 30
0.0
 10
10.0160163318
 20
10.3051353509
 30
0.0
  0
SPLINE
  5
40B
100
AcDbEntity
  8
0
100
AcDbSpline
 62
7
  6
CONTINUOUS
 70
0
 71
3
 72
10
 73
6
 74
0
 42
0.0000001
 43
0.0000001
 44
0.0000000001
 40
0.0
 40
0.0
 40
0.0
 40
0.0
 40
0.5045906682
 40
0.7540588598
 40
1.0
 40
1.0
 40
1.0
 40
1.0
 10
10.0137099914
 20
10.1217733591
 30
0.0
 10
10.0153048262
 20
10.1310641212
 30
0.0
 10
10.0166043638
 20
10.1451600228
 30
0.0
 10
10.016352996
 20
10.1638478483
 30
0.0
 10
10.015591426
 20
10.1730814066
 30
0.0
 10
10.0150529167
 20
10.1776443578
 30
0.0
  0
SPLINE
  5
40C
100
AcDbEntity
  8
0
100
AcDbSpline
 62
7
  6
CONTINUOUS
 70
0
 71
3
 72
13
 73
9
 74
0
 42
0.0000001
 43
0.0000001
 44
0.0000000001
 40
0.0
 40
0.0
 40
0.0
 40
0.0
 40
0.2759431843
 40
0.5372636248
 40
0.6611453547
 40
0.779920824
 40
0.8930660617
 40
1.0
 40
1.0
 40
1.0
 40
1.0
 10
9.9116662209
 20
10.0588987332
 30
0.0
 10
9.9088357342
 20
10.0703081247
 30
0.0
 10
9.9039341256
 20
10.0926791931
 30
0.0
 10
9.8995806444
 20
10.1205277373
 30
0.0
 10
9.8974076908
 20
10.1418915608
 30
0.0
 10
9.8964609087
 20
10.1570236391
 30
0.0
 10
9.8961810274
 20
10.1714608039
 30
0.0
 10
9.896457104
 20
10.1808374062
 30
0.0
 10
9.8967240341
 20
10.1853849914
 30
0.0
  0
SPLINE
  5
40D
100
AcDbEntity
  8
0
100
AcDbSpline
 62
7
  6
CONTINUOUS
 70
0
 71
3
 72
10
 73
6
 74
0
 42
0.0000001
 43
0.0000001
 44
0.0000000001
 40
0.0
 40
0.0
 40
0.0
 40
0.0
 40
0.5045875532
 40
0.7540450213
 40
1.0
 40
1.0
 40
1.0
 40
1.0
 10
9.9173784444
 20
10.0040261595
 30
0.0
 10
9.9177493673
 20
10.0133234552
 30
0.0
 10
9.9172357813
 20
10.0272841538
 30
0.0
 10
9.9146509499
 20
10.0455498258
 30
0.0
 10
9.9127582907
 20
10.0544967159
 30
0.0
 10
9.9116662209
 20
10.0588987332
 30
0.0
  0
SPLINE
  5
40E
100
AcDbEntity
  8
0
100
AcDbSpline
 62
7
  6
CONTINUOUS
 70
0
 71
3
 72
13
 73
9
 74
0
 42
0.0000001
 43
0.0000001
 44
0.0000000001
 40
0.0
 40
0.0
 40
0.0
 40
0.0
 40
0.2758026704
 40
0.537068441
 40
0.6609606481
 40
0.7797725452
 40
0.8929798291
 40
1.0
 40
1.0
 40
1.0
 40
1.0
 10
9.8177377867
 20
9.9196047296
 30
0.0
 10
9.8134980471
 20
9.930574718
 30
0.0
 10
9.8058244273
 20
9.9521674732
 30
0.0
 10
9.7979991768
 20
9.9792665972
 30
0.0
 10
9.7931478726
 20
10.0002067099
 30
0.0
 10
9.7902962764
 20
10.0151176283
 30
0.0
 10
9.7881915265
 20
10.0294255219
 30
0.0
 10
9.787277179
 20
10.0387770693
 30
0.0
 10
9.7869652137
 20
10.0433299504
 30
0.0
  0
SPLINE
  5
40F
100
AcDbEntity
  8
0
100
AcDbSpline
 62
7
  6
CONTINUOUS
 70
0
 71
3
 72
10
 73
6
 74
0
 42
0.0000001
 43
0.0000001
 44
0.0000000001
 40
0.0
 40
0.0
 40
0.0
 40
0.0
 40
0.5045906557
 40
0.7540588542
 40
1.0
 40
1.0
 40
1.0
 40
1.0
 10
9.8303316043
 20
9.8651550492
 30
0.0
 10
9.8295658158
 20
9.8745505439
 30
0.0
 10
9.8273190179
 20
9.8885267786
 30
0.0
 10
9.8224280741
 20
9.9065649791
 30
0.0
 10
9.8193941376
 20
9.9153190537
 30
0.0
 10
9.8177377867
 20
9.9196047296
 30
0.0
  0
SPLINE
  5
410
100
AcDbEntity
  8
0
100
AcDbSpline
 62
7
  6
CONTINUOUS
 70
0
 71
3
 72
13
 73
9
 74
0
 42
0.0000001
 43
0.0000001
 44
0.0000000001
 40
0.0
 40
0.0
 40
0.0
 40
0.0
 40
0.2759431843
 40
0.5372636248
 40
0.6611453547
 40
0.779920824
 40
0.8930660617
 40
1.0
 40
1.0
 40
1.0
 40
1.0
 10
9.7471300101
 20
9.7788784915
 30
0.0
 10
9.741551048
 20
9.7892255225
 30
0.0
 10
9.7312399739
 20
9.8096747822
 30
0.0
 10
9.7200976141
 20
9.8355657465
 30
0.0
 10
9.712679961
 20
9.8557179946
 30
0.0
 10
9.7079997289
 20
9.8701392156
 30
0.0
 10
9.7041382638
 20
9.8840532067
 30
0.0
 10
9.7020738007
 20
9.8932038832
 30
0.0
 10
9.7012014062
 20
9.8976749805
 30
0.0
  0
SPLINE
  5
411
100
AcDbEntity
  8
0
100
AcDbSpline
 62
7
  6
CONTINUOUS
 70
0
 71
3
 72
10
 73
6
 74
0
 42
0.0000001
 43
0.0000001
 44
0.0000000001
 40
0.0
 40
0.0
 40
0.0
 40
0.0
 40
0.5045906682
 40
0.7540588598
 40
1.0
 40
1.0
 40
1.0
 40
1.0
 10
9.7165327649
 20
9.5709945249
 30
0.0
 10
9.7134544705
 20
9.5799043993
 30
0.0
 10
9.7078025115
 20
9.592882789
 30
0.0
 10
9.6985793077
 20
9.609137958
 30
0.0
 10
9.6934636381
 20
9.6168624977
 30
0.0
 10
9.6907935204
 20
9.6206016135
 30
0.0
  0
SPLINE
  5
412
100
AcDbEntity
  8
0
100
AcDbSpline
 62
7
  6
CONTINUOUS
 70
0
 71
3
 72
10
 73
6
 74
0
 42
0.0000001
 43
0.0000001
 44
0.0000000001
 40
0.0
 40
0.0
 40
0.0
 40
0.0
 40
0.5045875532
 40
0.7540450213
 40
1.0
 40
1.0
 40
1.0
 40
1.0
 10
9.7663090277
 20
9.7271504128
 30
0.0
 10
9.764356154
 20
9.7362478616
 30
0.0
 10
9.7603868187
 20
9.7496422355
 30
0.0
 10
9.7533407066
 20
9.7666912365
 30
0.0
 10
9.7492825076
 20
9.7748863583
 30
0.0
 10
9.7471300101
 20
9.7788784915
 30
0.0
  0
SPLINE
  5
413
100
AcDbEntity
  8
0
100
AcDbSpline
 62
7
  6
CONTINUOUS
 70
0
 71
3
 72
13
 73
9
 74
0
 42
0.0000001
 43
0.0000001
 44
0.0000000001
 40
0.0
 40
0.0
 40
0.0
 40
0.0
 40
0.2758028316
 40
0.5370687923
 40
0.6609609326
 40
0.7797726793
 40
0.8929798629
 40
1.0
 40
1.0
 40
1.0
 40
1.0
 10
9.6907935204
 20
9.6206016135
 30
0.0
 10
9.6839588508
 20
9.6301725847
 30
0.0
 10
9.6711564047
 20
9.6491786253
 30
0.0
 10
9.6568377156
 20
9.6734803309
 30
0.0
 10
9.6469312314
 20
9.6925561007
 30
0.0
 10
9.6404610349
 20
9.70628939
 30
0.0
 10
9.6348641869
 20
9.7196243341
 30
0.0
 10
9.6316529326
 20
9.7284546912
 30
0.0
 10
9.6302185131
 20
9.7327869512
 30
0.0
  0
SPLINE
  5
414
100
AcDbEntity
  8
0
100
AcDbSpline
 62
7
  6
CONTINUOUS
 70
0
 71
3
 72
13
 73
9
 74
0
 42
0.0000001
 43
0.0000001
 44
0.0000000001
 40
0.0
 40
0.0
 40
0.0
 40
0.0
 40
0.1059102147
 40
0.218181063
 40
0.3363331803
 40
0.4599159054
 40
0.7217919242
 40
1.0
 40
1.0
 40
1.0
 40
1.0
 10
9.7767472037
 20
8.5075359935
 30
0.0
 10
9.7807006813
 20
8.506417472
 30
0.0
 10
9.7889158703
 20
8.5043590323
 30
0.0
 10
9.8017213659
 20
8.5018335387
 30
0.0
 10
9.8153054094
 20
8.4997853439
 30
0.0
 10
9.834731171
 20
8.4976619441
 30
0.0
 10
9.8604641242
 20
8.4963138918
 30
0.0
 10
9.8814290316
 20
8.4965544032
 30
0.0
 10
9.8922130296
 20
8.4969888471
 30
0.0
  0
SPLINE
  5
415
100
AcDbEntity
  8
0
100
AcDbSpline
 62
7
  6
CONTINUOUS
 70
0
 71
3
 72
14
 73
10
 74
0
 42
0.0000001
 43
0.0000001
 44
0.0000000001
 40
0.0
 40
0.0
 40
0.0
 40
0.0
 40
0.1262646377
 40
0.2526796156
 40
0.3788774712
 40
0.5048179619
 40
0.7547540186
 40
0.8783806724
 40
1.0
 40
1.0
 40
1.0
 40
1.0
 10
11.7912321025
 20
10.1765970277
 30
0.0
 10
11.7938600346
 20
10.1741292352
 30
0.0
 10
11.7994865761
 20
10.1695680825
 30
0.0
 10
11.8087779229
 20
10.1639665694
 30
0.0
 10
11.8187265879
 20
10.1596631012
 30
0.0
 10
11.8325027612
 20
10.155604778
 30
0.0
 10
11.8467908574
 20
10.1539065713
 30
0.0
 10
11.8609358244
 20
10.1543332644
 30
0.0
 10
11.867895802
 20
10.1552207088
 30
0.0
 10
11.8713144149
 20
10.155829354
 30
0.0
  0
SPLINE
  5
416
100
AcDbEntity
  8
0
100
AcDbSpline
 62
7
  6
CONTINUOUS
 70
0
 71
3
 72
13
 73
9
 74
0
 42
0.0000001
 43
0.0000001
 44
0.0000000001
 40
0.0
 40
0.0
 40
0.0
 40
0.0
 40
0.2805936693
 40
0.5437139682
 40
0.6672593725
 40
0.7848437805
 40
0.8959415994
 40
1.0
 40
1.0
 40
1.0
 40
1.0
 10
11.8713144149
 20
10.155829354
 30
0.0
 10
11.8820338031
 20
10.1577378192
 30
0.0
 10
11.9029266256
 20
10.1607905563
 30
0.0
 10
11.9287691038
 20
10.1627670637
 30
0.0
 10
11.9483389388
 20
10.1630551294
 30
0.0
 10
11.9620056422
 20
10.1626442181
 30
0.0
 10
11.9748812427
 20
10.1616113525
 30
0.0
 10
11.9831580053
 20
10.1604688454
 30
0.0
 10
11.9871362929
 20
10.1597781137
 30
0.0
  0
SPLINE
  5
417
100
AcDbEntity
  8
0
100
AcDbSpline
 62
7
  6
CONTINUOUS
 70
0
 71
3
 72
14
 73
10
 74
0
 42
0.0000001
 43
0.0000001
 44
0.0000000001
 40
0.0
 40
0.0
 40
0.0
 40
0.0
 40
0.1211398344
 40
0.2444272305
 40
0.4941650716
 40
0.6202295682
 40
0.7466672739
 40
0.8733901847
 40
1.0
 40
1.0
 40
1.0
 40
1.0
 10
9.8922130296
 20
8.4969888471
 30
0.0
 10
9.8956422528
 20
8.4971269967
 30
0.0
 10
9.9025814515
 20
8.4970543989
 30
0.0
 10
9.9165123265
 20
8.4955255874
 30
0.0
 10
9.9302976066
 20
8.4918462936
 30
0.0
 10
9.9432643559
 20
8.4859256402
 30
0.0
 10
9.9524607281
 20
8.4803135724
 30
0.0
 10
9.9608654077
 20
8.4735494635
 30
0.0
 10
9.9658298796
 20
8.4683302565
 30
0.0
 10
9.9681163032
 20
8.4655664451
 30
0.0
  0
SPLINE
  5
418
100
AcDbEntity
  8
0
100
AcDbSpline
 62
7
  6
CONTINUOUS
 70
0
 71
3
 72
14
 73
10
 74
0
 42
0.0000001
 43
0.0000001
 44
0.0000000001
 40
0.0
 40
0.0
 40
0.0
 40
0.0
 40
0.1268214152
 40
0.2537889841
 40
0.3805145769
 40
0.5069202174
 40
0.7571070422
 40
0.8800643778
 40
1.0
 40
1.0
 40
1.0
 40
1.0
 10
11.6705828607
 20
10.2764067607
 30
0.0
 10
11.6744479938
 20
10.2735985771
 30
0.0
 10
11.6826006714
 20
10.2685332206
 30
0.0
 10
11.6957323026
 20
10.2626840993
 30
0.0
 10
11.7095009181
 20
10.2586114685
 30
0.0
 10
11.7282204119
 20
10.2553983526
 30
0.0
 10
11.747189409
 20
10.2552077727
 30
0.0
 10
11.765622437
 20
10.2576233066
 30
0.0
 10
11.7745646557
 20
10.2596419801
 30
0.0
 10
11.7789192406
 20
10.2608467356
 30
0.0
  0
SPLINE
  5
419
100
AcDbEntity
  8
0
100
AcDbSpline
 62
7
  6
CONTINUOUS
 70
0
 71
3
 72
12
 73
8
 74
0
 42
0.0000001
 43
0.0000001
 44
0.0000000001
 40
0.0
 40
0.0
 40
0.0
 40
0.0
 40
0.2794694415
 40
0.541535521
 40
0.7826905117
 40
0.8945401391
 40
1.0
 40
1.0
 40
1.0
 40
1.0
 10
11.7789192406
 20
10.2608467356
 30
0.0
 10
11.7878967292
 20
10.2633304807
 30
0.0
 10
11.8054360861
 20
10.2676479681
 30
0.0
 10
11.831133151
 20
10.2722464467
 30
0.0
 10
11.8515525801
 20
10.2743486512
 30
0.0
 10
11.8668302682
 20
10.2748453912
 30
0.0
 10
11.8740764349
 20
10.2747049396
 30
0.0
 10
11.8775869977
 20
10.2745286934
 30
0.0
  0
SPLINE
  5
41A
100
AcDbEntity
  8
0
100
AcDbSpline
 62
7
  6
CONTINUOUS
 70
0
 71
3
 72
14
 73
10
 74
0
 42
0.0000001
 43
0.0000001
 44
0.0000000001
 40
0.0
 40
0.0
 40
0.0
 40
0.0
 40
0.1268214153
 40
0.2537889844
 40
0.3805145771
 40
0.5069202175
 40
0.7571070422
 40
0.8800643778
 40
1.0
 40
1.0
 40
1.0
 40
1.0
 10
9.8094926056
 20
9.7985600005
 30
0.0
 10
9.8115267948
 20
9.8028828726
 30
0.0
 10
9.8149747705
 20
9.811840297
 30
0.0
 10
9.8182596655
 20
9.825835347
 30
0.0
 10
9.8196801776
 20
9.8401232174
 30
0.0
 10
9.8193286969
 20
9.8591132154
 30
0.0
 10
9.8159614655
 20
9.8777819305
 30
0.0
 10
9.8101347124
 20
9.8954358329
 30
0.0
 10
9.8064761904
 20
9.9038413987
 30
0.0
 10
9.8044768066
 20
9.9078931032
 30
0.0
  0
SPLINE
  5
41B
100
AcDbEntity
  8
0
100
AcDbSpline
 62
7
  6
CONTINUOUS
 70
0
 71
3
 72
12
 73
8
 74
0
 42
0.0000001
 43
0.0000001
 44
0.0000000001
 40
0.0
 40
0.0
 40
0.0
 40
0.0
 40
0.2794693508
 40
0.5415353586
 40
0.782690466
 40
0.894540129
 40
1.0
 40
1.0
 40
1.0
 40
1.0
 10
9.8044768066
 20
9.9078931032
 30
0.0
 10
9.8003548432
 20
9.9162461657
 30
0.0
 10
9.792827284
 20
9.9326658306
 30
0.0
 10
9.783495108
 20
9.9570460595
 30
0.0
 10
9.7776039185
 20
9.9767098929
 30
0.0
 10
9.7742532222
 20
9.9916238966
 30
0.0
 10
9.7730333894
 20
9.9987680332
 30
0.0
 10
9.7725486999
 20
10.0022494399
 30
0.0
  0
SPLINE
  5
41C
100
AcDbEntity
  8
0
100
AcDbSpline
 62
7
  6
CONTINUOUS
 70
0
 71
3
 72
14
 73
10
 74
0
 42
0.0000001
 43
0.0000001
 44
0.0000000001
 40
0.0
 40
0.0
 40
0.0
 40
0.0
 40
0.1262655792
 40
0.2526830788
 40
0.378881902
 40
0.5048237372
 40
0.7547582035
 40
0.878382007
 40
1.0
 40
1.0
 40
1.0
 40
1.0
 10
11.5383754976
 20
10.3603081046
 30
0.0
 10
11.5415346069
 20
10.3585713696
 30
0.0
 10
11.5481188215
 20
10.3555528253
 30
0.0
 10
11.5585113937
 20
10.3524378383
 30
0.0
 10
11.5692178812
 20
10.3507437085
 30
0.0
 10
11.583570538
 20
10.3502390487
 30
0.0
 10
11.5978319805
 20
10.3521474605
 30
0.0
 10
11.611426273
 20
10.35607846
 30
0.0
 10
11.6179467752
 20
10.3586688647
 30
0.0
 10
11.6211065874
 20
10.3601085468
 30
0.0
  0
SPLINE
  5
41D
100
AcDbEntity
  8
0
100
AcDbSpline
 62
7
  6
CONTINUOUS
 70
0
 71
3
 72
13
 73
9
 74
0
 42
0.0000001
 43
0.0000001
 44
0.0000000001
 40
0.0
 40
0.0
 40
0.0
 40
0.0
 40
0.2805936693
 40
0.5437139682
 40
0.6672593725
 40
0.7848437805
 40
0.8959415994
 40
1.0
 40
1.0
 40
1.0
 40
1.0
 10
11.6211065874
 20
10.3601085468
 30
0.0
 10
11.6310145903
 20
10.3646228575
 30
0.0
 10
11.6504918415
 20
10.372775521
 30
0.0
 10
11.6750308933
 20
10.3811166957
 30
0.0
 10
11.6939142669
 20
10.3862625313
 30
0.0
 10
11.7072537952
 20
10.3892633005
 30
0.0
 10
11.7199817483
 20
10.3914649159
 30
0.0
 10
11.7282826111
 20
10.39241665
 30
0.0
 10
11.7323076915
 20
10.3927369787
 30
0.0
  0
SPLINE
  5
41E
100
AcDbEntity
  8
0
100
AcDbSpline
 62
7
  6
CONTINUOUS
 70
0
 71
3
 72
12
 73
8
 74
0
 42
0.0000001
 43
0.0000001
 44
0.0000000001
 40
0.0
 40
0.0
 40
0.0
 40
0.0
 40
0.1072433657
 40
0.2202549132
 40
0.4620965198
 40
0.7229995224
 40
1.0
 40
1.0
 40
1.0
 40
1.0
 10
9.6844163485
 20
8.671970747
 30
0.0
 10
9.6877067389
 20
8.6705601582
 30
0.0
 10
9.6945429701
 20
8.6678437106
 30
0.0
 10
9.7091291153
 20
8.6628114106
 30
0.0
 10
9.7289647235
 20
8.6573361528
 30
0.0
 10
9.7544851712
 20
8.6521351904
 30
0.0
 10
9.7722733725
 20
8.6496007124
 30
0.0
 10
9.7814591117
 20
8.6485394167
 30
0.0
  0
SPLINE
  5
41F
100
AcDbEntity
  8
0
100
AcDbSpline
 62
7
  6
CONTINUOUS
 70
0
 71
3
 72
14
 73
10
 74
0
 42
0.0000001
 43
0.0000001
 44
0.0000000001
 40
0.0
 40
0.0
 40
0.0
 40
0.0
 40
0.1268214152
 40
0.2537889842
 40
0.380514577
 40
0.5069202174
 40
0.7571070422
 40
0.8800643778
 40
1.0
 40
1.0
 40
1.0
 40
1.0
 10
11.3966950024
 20
10.426977885
 30
0.0
 10
11.4011370721
 20
10.4252191452
 30
0.0
 10
11.4102933212
 20
10.4223404146
 30
0.0
 10
11.4244670154
 20
10.4199407581
 30
0.0
 10
11.4388158866
 20
10.4194201919
 30
0.0
 10
11.4577463426
 20
10.4209633708
 30
0.0
 10
11.476166789
 20
10.425496176
 30
0.0
 10
11.4934199907
 20
10.4324199291
 30
0.0
 10
11.5015792495
 20
10.4365990217
 30
0.0
 10
11.5054974166
 20
10.4388488688
 30
0.0
  0
SPLINE
  5
420
100
AcDbEntity
  8
0
100
AcDbSpline
 62
7
  6
CONTINUOUS
 70
0
 71
3
 72
12
 73
8
 74
0
 42
0.0000001
 43
0.0000001
 44
0.0000000001
 40
0.0
 40
0.0
 40
0.0
 40
0.0
 40
0.2794694415
 40
0.541535521
 40
0.7826905117
 40
0.8945401391
 40
1.0
 40
1.0
 40
1.0
 40
1.0
 10
11.5054974166
 20
10.4388488688
 30
0.0
 10
11.5135751785
 20
10.4434871931
 30
0.0
 10
11.5294897889
 20
10.4520308993
 30
0.0
 10
11.553235938
 20
10.4628755085
 30
0.0
 10
11.5724910563
 20
10.4699897739
 30
0.0
 10
11.5871652335
 20
10.4742703144
 30
0.0
 10
11.5942186774
 20
10.4759363238
 30
0.0
 10
11.5976627801
 20
10.4766386561
 30
0.0
  0
SPLINE
  5
421
100
AcDbEntity
  8
0
100
AcDbSpline
 62
7
  6
CONTINUOUS
 70
0
 71
3
 72
14
 73
10
 74
0
 42
0.0000001
 43
0.0000001
 44
0.0000000001
 40
0.0
 40
0.0
 40
0.0
 40
0.0
 40
0.1195089679
 40
0.2421252412
 40
0.4920777434
 40
0.6185935153
 40
0.7455551177
 40
0.872831493
 40
1.0
 40
1.0
 40
1.0
 40
1.0
 10
9.7814591117
 20
8.6485394167
 30
0.0
 10
9.7859019286
 20
8.6480261055
 30
0.0
 10
9.7948584799
 20
8.6465415983
 30
0.0
 10
9.8126786219
 20
8.6418329018
 30
0.0
 10
9.8300074696
 20
8.6344635345
 30
0.0
 10
9.845975115
 20
8.624405891
 30
0.0
 10
9.8571018501
 20
8.6154450501
 30
0.0
 10
9.8670180917
 20
8.6051265349
 30
0.0
 10
9.8726815228
 20
8.597429536
 30
0.0
 10
9.8752315301
 20
8.5934113675
 30
0.0
  0
SPLINE
  5
422
100
AcDbEntity
  8
0
100
AcDbSpline
 62
7
  6
CONTINUOUS
 70
0
 71
3
 72
14
 73
10
 74
0
 42
0.0000001
 43
0.0000001
 44
0.0000000001
 40
0.0
 40
0.0
 40
0.0
 40
0.0
 40
0.1262646377
 40
0.2526796158
 40
0.3788774714
 40
0.5048179619
 40
0.7547540183
 40
0.8783806723
 40
1.0
 40
1.0
 40
1.0
 40
1.0
 10
11.247775761
 20
10.4753646797
 30
0.0
 10
11.2512675036
 20
10.4744681526
 30
0.0
 10
11.2583954315
 20
10.473181791
 30
0.0
 10
11.2692360503
 20
10.4727492882
 30
0.0
 10
11.2800273435
 20
10.4737709361
 30
0.0
 10
11.2940546083
 20
10.4768513226
 30
0.0
 10
11.3073934797
 20
10.4822465155
 30
0.0
 10
11.3195832478
 20
10.4894348193
 30
0.0
 10
11.3252547931
 20
10.4935654876
 30
0.0
 10
11.3279573294
 20
10.4957457767
 30
0.0
  0
SPLINE
  5
423
100
AcDbEntity
  8
0
100
AcDbSpline
 62
7
  6
CONTINUOUS
 70
0
 71
3
 72
13
 73
9
 74
0
 42
0.0000001
 43
0.0000001
 44
0.0000000001
 40
0.0
 40
0.0
 40
0.0
 40
0.0
 40
0.2805936693
 40
0.5437139682
 40
0.6672593725
 40
0.7848437805
 40
0.8959415994
 40
1.0
 40
1.0
 40
1.0
 40
1.0
 10
11.3279573294
 20
10.4957457767
 30
0.0
 10
11.3364313907
 20
10.5025822822
 30
0.0
 10
11.3532692434
 20
10.5153226102
 30
0.0
 10
11.37496299
 20
10.5295043456
 30
0.0
 10
11.3919733904
 20
10.5391846194
 30
0.0
 10
11.4041475719
 20
10.5454085197
 30
0.0
 10
11.4159281334
 20
10.5507062805
 30
0.0
 10
11.4237315227
 20
10.5536924547
 30
0.0
 10
11.4275504853
 20
10.5550037165
 30
0.0
  0
SPLINE
  5
424
100
AcDbEntity
  8
0
100
AcDbSpline
 62
7
  6
CONTINUOUS
 70
0
 71
3
 72
14
 73
10
 74
0
 42
0.0000001
 43
0.0000001
 44
0.0000000001
 40
0.0
 40
0.0
 40
0.0
 40
0.0
 40
0.1262646378
 40
0.2526796161
 40
0.3788774717
 40
0.5048179619
 40
0.7547540177
 40
0.8783806721
 40
1.0
 40
1.0
 40
1.0
 40
1.0
 10
9.7518505747
 20
9.6529728492
 30
0.0
 10
9.752964581
 20
9.6564014082
 30
0.0
 10
9.7546959705
 20
9.6634344995
 30
0.0
 10
9.755808308
 20
9.6742265698
 30
0.0
 10
9.755466267
 20
9.6850607186
 30
0.0
 10
9.7532727382
 20
9.6992537228
 30
0.0
 10
9.7487257462
 20
9.7129050401
 30
0.0
 10
9.7423170286
 20
9.7255221117
 30
0.0
 10
9.7385506306
 20
9.7314418324
 30
0.0
 10
9.7365443374
 20
9.7342759373
 30
0.0
  0
SPLINE
  5
425
100
AcDbEntity
  8
0
100
AcDbSpline
 62
7
  6
CONTINUOUS
 70
0
 71
3
 72
12
 73
8
 74
0
 42
0.0000001
 43
0.0000001
 44
0.0000000001
 40
0.0
 40
0.0
 40
0.0
 40
0.0
 40
0.2503894182
 40
0.3758279189
 40
0.5011117628
 40
0.7510846157
 40
1.0
 40
1.0
 40
1.0
 40
1.0
 10
11.0939663188
 20
10.5047054
 30
0.0
 10
11.0994512614
 20
10.5040124906
 30
0.0
 10
11.1077899173
 20
10.5036633917
 30
0.0
 10
11.1188298025
 20
10.5045022864
 30
0.0
 10
11.1297657348
 20
10.5061923157
 30
0.0
 10
11.1431177535
 20
10.5097894687
 30
0.0
 10
11.1533212806
 20
10.5140228314
 30
0.0
 10
11.1582640356
 20
10.5164259718
 30
0.0
  0
SPLINE
  5
426
100
AcDbEntity
  8
0
100
AcDbSpline
 62
7
  6
CONTINUOUS
 70
0
 71
3
 72
10
 73
6
 74
0
 42
0.0000001
 43
0.0000001
 44
0.0000000001
 40
0.0
 40
0.0
 40
0.0
 40
0.0
 40
0.5073255117
 40
0.7564345966
 40
1.0
 40
1.0
 40
1.0
 40
1.0
 10
11.1582640356
 20
10.5164259718
 30
0.0
 10
11.1653806902
 20
10.5198860502
 30
0.0
 10
11.1755756568
 20
10.5259623189
 30
0.0
 10
11.1879551246
 20
10.5354652857
 30
0.0
 10
11.1936776893
 20
10.5406098092
 30
0.0
 10
11.1963983115
 20
10.5432614951
 30
0.0
  0
SPLINE
  5
427
100
AcDbEntity
  8
0
100
AcDbSpline
 62
7
  6
CONTINUOUS
 70
0
 71
3
 72
12
 73
8
 74
0
 42
0.0000001
 43
0.0000001
 44
0.0000000001
 40
0.0
 40
0.0
 40
0.0
 40
0.0
 40
0.2794694415
 40
0.541535521
 40
0.7826905117
 40
0.8945401391
 40
1.0
 40
1.0
 40
1.0
 40
1.0
 10
11.1963983115
 20
10.5432614951
 30
0.0
 10
11.2030687914
 20
10.5497629556
 30
0.0
 10
11.2163586816
 20
10.5619960483
 30
0.0
 10
11.2366618572
 20
10.5784053812
 30
0.0
 10
11.2535427947
 20
10.5900846921
 30
0.0
 10
11.2666914285
 20
10.5978800711
 30
0.0
 10
11.2731089558
 20
10.6012478598
 30
0.0
 10
11.2762701927
 20
10.6027846406
 30
0.0
  0
SPLINE
  5
428
100
AcDbEntity
  8
0
100
AcDbSpline
 62
7
  6
CONTINUOUS
 70
0
 71
3
 72
13
 73
9
 74
0
 42
0.0000001
 43
0.0000001
 44
0.0000000001
 40
0.0
 40
0.0
 40
0.0
 40
0.0
 40
0.2805936693
 40
0.5437139682
 40
0.6672593725
 40
0.7848437805
 40
0.8959415994
 40
1.0
 40
1.0
 40
1.0
 40
1.0
 10
9.7365443374
 20
9.7342759373
 30
0.0
 10
9.7302534129
 20
9.7431625448
 30
0.0
 10
9.7185954826
 20
9.7607671436
 30
0.0
 10
9.7058038932
 20
9.783308561
 30
0.0
 10
9.6972108132
 20
9.8008932247
 30
0.0
 10
9.6917636175
 20
9.8134341852
 30
0.0
 10
9.6872160182
 20
9.8255241496
 30
0.0
 10
9.6847257154
 20
9.8334996441
 30
0.0
 10
9.6836568357
 20
9.8373934057
 30
0.0
  0
SPLINE
  5
429
100
AcDbEntity
  8
0
100
AcDbSpline
 62
7
  6
CONTINUOUS
 70
0
 71
3
 72
14
 73
10
 74
0
 42
0.0000001
 43
0.0000001
 44
0.0000000001
 40
0.0
 40
0.0
 40
0.0
 40
0.0
 40
0.1262646378
 40
0.252679616
 40
0.3788774715
 40
0.5048179619
 40
0.7547540179
 40
0.8783806722
 40
1.0
 40
1.0
 40
1.0
 40
1.0
 10
10.6276089245
 20
10.4753646797
 30
0.0
 10
10.6311006671
 20
10.4762612068
 30
0.0
 10
10.6379666274
 20
10.4785678651
 30
0.0
 10
10.6476746939
 20
10.4834113679
 30
0.0
 10
10.6566389936
 20
10.4895053899
 30
0.0
 10
10.6674471919
 20
10.4989624395
 30
0.0
 10
10.67653698
 20
10.5101163334
 30
0.0
 10
10.6837559634
 20
10.5222879577
 30
0.0
 10
10.6867360119
 20
10.5286399776
 30
0.0
 10
10.6880539002
 20
10.5318525364
 30
0.0
  0
SPLINE
  5
42A
100
AcDbEntity
  8
0
100
AcDbSpline
 62
7
  6
CONTINUOUS
 70
0
 71
3
 72
12
 73
8
 74
0
 42
0.0000001
 43
0.0000001
 44
0.0000000001
 40
0.0
 40
0.0
 40
0.0
 40
0.0
 40
0.2503894516
 40
0.3758290395
 40
0.5011136974
 40
0.7510857182
 40
1.0
 40
1.0
 40
1.0
 40
1.0
 10
9.7129099768
 20
9.5013092339
 30
0.0
 10
9.7139458437
 20
9.5067394386
 30
0.0
 10
9.7148177573
 20
9.5150391178
 30
0.0
 10
9.71467392
 20
9.5261091029
 30
0.0
 10
9.7136742904
 20
9.5371288
 30
0.0
 10
9.7109230902
 20
9.5506793536
 30
0.0
 10
9.7073393772
 20
9.5611278407
 30
0.0
 10
9.7052516929
 20
9.566211411
 30
0.0
  0
SPLINE
  5
42B
100
AcDbEntity
  8
0
100
AcDbSpline
 62
7
  6
CONTINUOUS
 70
0
 71
3
 72
10
 73
6
 74
0
 42
0.0000001
 43
0.0000001
 44
0.0000000001
 40
0.0
 40
0.0
 40
0.0
 40
0.0
 40
0.507324055
 40
0.7564335254
 40
1.0
 40
1.0
 40
1.0
 40
1.0
 10
9.7052516929
 20
9.566211411
 30
0.0
 10
9.7022452643
 20
9.5735321497
 30
0.0
 10
9.6968208347
 20
9.5840897926
 30
0.0
 10
9.6881131629
 20
9.5970430056
 30
0.0
 10
9.6833376188
 20
9.6030779853
 30
0.0
 10
9.6808617214
 20
9.6059600577
 30
0.0
  0
SPLINE
  5
42C
100
AcDbEntity
  8
0
100
AcDbSpline
 62
7
  6
CONTINUOUS
 70
0
 71
3
 72
14
 73
10
 74
0
 42
0.0000001
 43
0.0000001
 44
0.0000000001
 40
0.0
 40
0.0
 40
0.0
 40
0.0
 40
0.1197162074
 40
0.2424265685
 40
0.4923762074
 40
0.6188329268
 40
0.745721138
 40
0.8729127862
 40
1.0
 40
1.0
 40
1.0
 40
1.0
 10
10.841057446
 20
7.9604989549
 30
0.0
 10
10.8439022934
 20
7.963928097
 30
0.0
 10
10.8500025426
 20
7.9705990528
 30
0.0
 10
10.8635782952
 20
7.9829320628
 30
0.0
 10
10.8790789578
 20
7.9934373125
 30
0.0
 10
10.8960752166
 20
8.0013836061
 30
0.0
 10
10.9095408161
 20
8.0058881312
 30
0.0
 10
10.9234877361
 20
8.0086749222
 30
0.0
 10
10.9329624322
 20
8.009318593
 30
0.0
 10
10.9376923427
 20
8.009318593
 30
0.0
  0
SPLINE
  5
42D
100
AcDbEntity
  8
0
100
AcDbSpline
 62
7
  6
CONTINUOUS
 70
0
 71
3
 72
12
 73
8
 74
0
 42
0.0000001
 43
0.0000001
 44
0.0000000001
 40
0.0
 40
0.0
 40
0.0
 40
0.0
 40
0.1075159306
 40
0.2207266733
 40
0.4627306754
 40
0.7234755697
 40
1.0
 40
1.0
 40
1.0
 40
1.0
 10
10.7667483517
 20
7.8905967846
 30
0.0
 10
10.769805593
 20
7.8926235432
 30
0.0
 10
10.7759707212
 20
7.8969541073
 30
0.0
 10
10.7884578514
 20
7.9066196674
 30
0.0
 10
10.804244496
 20
7.9205247115
 30
0.0
 10
10.8229473943
 20
7.9394422123
 30
0.0
 10
10.8350339445
 20
7.9532383044
 30
0.0
 10
10.841057446
 20
7.9604989549
 30
0.0
  0
SPLINE
  5
42E
100
AcDbEntity
  8
0
100
AcDbSpline
 62
7
  6
CONTINUOUS
 70
0
 71
3
 72
12
 73
8
 74
0
 42
0.0000001
 43
0.0000001
 44
0.0000000001
 40
0.0
 40
0.0
 40
0.0
 40
0.0
 40
0.2794694414
 40
0.541535521
 40
0.7826905117
 40
0.8945401391
 40
1.0
 40
1.0
 40
1.0
 40
1.0
 10
9.6808617214
 20
9.6059600577
 30
0.0
 10
9.6747919329
 20
9.613025605
 30
0.0
 10
9.6634174586
 20
9.627057393
 30
0.0
 10
9.6483153526
 20
9.6483508554
 30
0.0
 10
9.6377190511
 20
9.6659318322
 30
0.0
 10
9.630764664
 20
9.6795439961
 30
0.0
 10
9.6278064807
 20
9.6861603251
 30
0.0
 10
9.6264712282
 20
9.6894118193
 30
0.0
  0
SPLINE
  5
42F
100
AcDbEntity
  8
0
100
AcDbSpline
 62
7
  6
CONTINUOUS
 70
0
 71
3
 72
13
 73
9
 74
0
 42
0.0000001
 43
0.0000001
 44
0.0000000001
 40
0.0
 40
0.0
 40
0.0
 40
0.0
 40
0.1059102147
 40
0.218181063
 40
0.3363331803
 40
0.4599159054
 40
0.7217919242
 40
1.0
 40
1.0
 40
1.0
 40
1.0
 10
9.6241829136
 20
8.8201323011
 30
0.0
 10
9.6277340204
 20
8.8180657302
 30
0.0
 10
9.635179201
 20
8.8140289257
 30
0.0
 10
9.6469543237
 20
8.8083981778
 30
0.0
 10
9.6596022342
 20
8.8030361165
 30
0.0
 10
9.6778896317
 20
8.7961484368
 30
0.0
 10
9.7024788899
 20
8.7884432108
 30
0.0
 10
9.7228449589
 20
8.7834624057
 30
0.0
 10
9.7333981996
 20
8.7812013295
 30
0.0
  0
SPLINE
  5
430
100
AcDbEntity
  8
0
100
AcDbSpline
 62
7
  6
CONTINUOUS
 70
0
 71
3
 72
14
 73
10
 74
0
 42
0.0000001
 43
0.0000001
 44
0.0000000001
 40
0.0
 40
0.0
 40
0.0
 40
0.0
 40
0.1211398344
 40
0.2444272305
 40
0.4941650716
 40
0.6202295682
 40
0.7466672739
 40
0.8733901847
 40
1.0
 40
1.0
 40
1.0
 40
1.0
 10
11.0282037119
 20
7.9719907772
 30
0.0
 10
11.029924538
 20
7.9749601903
 30
0.0
 10
11.0337040429
 20
7.9807802497
 30
0.0
 10
11.0424593972
 20
7.9917232984
 30
0.0
 10
11.0529524502
 20
8.0013911311
 30
0.0
 10
11.064899355
 20
8.0091668749
 30
0.0
 10
11.0745654431
 20
8.0139245325
 30
0.0
 10
11.0847800217
 20
8.0173964474
 30
0.0
 10
11.091846841
 20
8.0187914986
 30
0.0
 10
11.0954055311
 20
8.0192410658
 30
0.0
  0
SPLINE
  5
431
100
AcDbEntity
  8
0
100
AcDbSpline
 62
7
  6
CONTINUOUS
 70
0
 71
3
 72
13
 73
9
 74
0
 42
0.0000001
 43
0.0000001
 44
0.0000000001
 40
0.0
 40
0.0
 40
0.0
 40
0.0
 40
0.1059102147
 40
0.218181063
 40
0.3363331803
 40
0.4599159054
 40
0.7217919242
 40
1.0
 40
1.0
 40
1.0
 40
1.0
 10
10.9574287782
 20
7.8801511996
 30
0.0
 10
10.9604915563
 20
7.8828898973
 30
0.0
 10
10.9666314729
 20
7.8887232436
 30
0.0
 10
10.9756253453
 20
7.898182054
 30
0.0
 10
10.9846333879
 20
7.9085539637
 30
0.0
 10
10.9968350772
 20
7.9238179022
 30
0.0
 10
11.0117616812
 20
7.9448226306
 30
0.0
 10
11.0227921699
 20
7.9626527599
 30
0.0
 10
11.0282037119
 20
7.9719907772
 30
0.0
  0
SPLINE
  5
432
100
AcDbEntity
  8
0
100
AcDbSpline
 62
7
  6
CONTINUOUS
 70
0
 71
3
 72
9
 73
5
 74
0
 42
0.0000001
 43
0.0000001
 44
0.0000000001
 40
0.0
 40
0.0
 40
0.0
 40
0.0
 40
0.5049657438
 40
1.0
 40
1.0
 40
1.0
 40
1.0
 10
9.6815789711
 20
9.3929959811
 30
0.0
 10
9.6785152353
 20
9.3983239588
 30
0.0
 10
9.6714595472
 20
9.4083294523
 30
0.0
 10
9.6628351759
 20
9.4170058681
 30
0.0
 10
9.6582403091
 20
9.4209032762
 30
0.0
  0
SPLINE
  5
433
100
AcDbEntity
  8
0
100
AcDbSpline
 62
7
  6
CONTINUOUS
 70
0
 71
3
 72
13
 73
9
 74
0
 42
0.0000001
 43
0.0000001
 44
0.0000000001
 40
0.0
 40
0.0
 40
0.0
 40
0.0
 40
0.2805936693
 40
0.5437139682
 40
0.6672593725
 40
0.7848437805
 40
0.8959415994
 40
1.0
 40
1.0
 40
1.0
 40
1.0
 10
9.6582403091
 20
9.4209032762
 30
0.0
 10
9.6499370161
 20
9.4279462052
 30
0.0
 10
9.6342672554
 20
9.4420985138
 30
0.0
 10
9.6162717148
 20
9.4607506123
 30
0.0
 10
9.6035754741
 20
9.4756458093
 30
0.0
 10
9.595180602
 20
9.48643811
 30
0.0
 10
9.587769222
 20
9.497017304
 30
0.0
 10
9.5833737318
 20
9.5041229206
 30
0.0
 10
9.5813700938
 20
9.5076285328
 30
0.0
  0
SPLINE
  5
434
100
AcDbEntity
  8
0
100
AcDbSpline
 62
7
  6
CONTINUOUS
 70
0
 71
3
 72
13
 73
9
 74
0
 42
0.0000001
 43
0.0000001
 44
0.0000000001
 40
0.0
 40
0.0
 40
0.0
 40
0.0
 40
0.2805936693
 40
0.5437139682
 40
0.6672593725
 40
0.7848437805
 40
0.8959415994
 40
1.0
 40
1.0
 40
1.0
 40
1.0
 10
10.6880539002
 20
10.5318525364
 30
0.0
 10
10.6921862651
 20
10.541925822
 30
0.0
 10
10.7008036881
 20
10.5612019538
 30
0.0
 10
10.71298196
 20
10.5840805454
 30
0.0
 10
10.72322478
 20
10.6007582569
 30
0.0
 10
10.7308947098
 20
10.612077259
 30
0.0
 10
10.7386658788
 20
10.622395051
 30
0.0
 10
10.7440654406
 20
10.6287711668
 30
0.0
 10
10.7467803178
 20
10.6317600336
 30
0.0
  0
SPLINE
  5
435
100
AcDbEntity
  8
0
100
AcDbSpline
 62
7
  6
CONTINUOUS
 70
0
 71
3
 72
14
 73
10
 74
0
 42
0.0000001
 43
0.0000001
 44
0.0000000001
 40
0.0
 40
0.0
 40
0.0
 40
0.0
 40
0.1211398344
 40
0.2444272305
 40
0.4941650716
 40
0.6202295682
 40
0.7466672739
 40
0.8733901847
 40
1.0
 40
1.0
 40
1.0
 40
1.0
 10
9.7333981996
 20
8.7812013295
 30
0.0
 10
9.7367540438
 20
8.7804823257
 30
0.0
 10
9.7434571805
 20
8.7786863002
 30
0.0
 10
9.7565701915
 20
8.7737410514
 30
0.0
 10
9.7690073785
 20
8.7667490896
 30
0.0
 10
9.7800943469
 20
8.757789745
 30
0.0
 10
9.7876061337
 20
8.7500669459
 30
0.0
 10
9.7940645993
 20
8.7414251851
 30
0.0
 10
9.7975751392
 20
8.7351353351
 30
0.0
 10
9.7991023986
 20
8.7318897435
 30
0.0
  0
SPLINE
  5
436
100
AcDbEntity
  8
0
100
AcDbSpline
 62
7
  6
CONTINUOUS
 70
0
 71
3
 72
14
 73
10
 74
0
 42
0.0000001
 43
0.0000001
 44
0.0000000001
 40
0.0
 40
0.0
 40
0.0
 40
0.0
 40
0.1195097608
 40
0.2421276323
 40
0.4920798276
 40
0.6185952534
 40
0.7455567694
 40
0.8728320183
 40
1.0
 40
1.0
 40
1.0
 40
1.0
 10
11.1692243271
 20
7.9767046353
 30
0.0
 10
11.1710854334
 20
7.9807714103
 30
0.0
 10
11.1752650694
 20
7.9888309301
 30
0.0
 10
11.1852500961
 20
8.0043238736
 30
0.0
 10
11.197613689
 20
8.0185273837
 30
0.0
 10
11.2121134106
 20
8.0306054199
 30
0.0
 10
11.2240739669
 20
8.0384184963
 30
0.0
 10
11.2369516667
 20
8.0446608291
 30
0.0
 10
11.2460220065
 20
8.047668487
 30
0.0
 10
11.2506314884
 20
8.0488520007
 30
0.0
  0
SPLINE
  5
437
100
AcDbEntity
  8
0
100
AcDbSpline
 62
7
  6
CONTINUOUS
 70
0
 71
3
 72
12
 73
8
 74
0
 42
0.0000001
 43
0.0000001
 44
0.0000000001
 40
0.0
 40
0.0
 40
0.0
 40
0.0
 40
0.1072433657
 40
0.2202549132
 40
0.4620965198
 40
0.7229995224
 40
1.0
 40
1.0
 40
1.0
 40
1.0
 10
11.1169519447
 20
7.8916521623
 30
0.0
 10
11.1193102809
 20
7.8943456135
 30
0.0
 10
11.1240062877
 20
7.9000078273
 30
0.0
 10
11.1332996562
 20
7.9123250095
 30
0.0
 10
11.1446364758
 20
7.9294978463
 30
0.0
 10
11.157469137
 20
7.9521620486
 30
0.0
 10
11.1653764253
 20
7.9682964365
 30
0.0
 10
11.1692243271
 20
7.9767046353
 30
0.0
  0
SPLINE
  5
438
100
AcDbEntity
  8
0
100
AcDbSpline
 62
7
  6
CONTINUOUS
 70
0
 71
3
 72
14
 73
10
 74
0
 42
0.0000001
 43
0.0000001
 44
0.0000000001
 40
0.0
 40
0.0
 40
0.0
 40
0.0
 40
0.1211398344
 40
0.2444272305
 40
0.4941650716
 40
0.6202295682
 40
0.7466672739
 40
0.8733901847
 40
1.0
 40
1.0
 40
1.0
 40
1.0
 10
11.3475823267
 20
8.0352061691
 30
0.0
 10
11.3485106269
 20
8.0385102447
 30
0.0
 10
11.3507240017
 20
8.0450873809
 30
0.0
 10
11.356482865
 20
8.0578640016
 30
0.0
 10
11.3642419672
 20
8.0698376177
 30
0.0
 10
11.3738797891
 20
8.0803401467
 30
0.0
 10
11.382059018
 20
8.0873521921
 30
0.0
 10
11.3910892567
 20
8.0932552928
 30
0.0
 10
11.3975871238
 20
8.0963639624
 30
0.0
 10
11.4009222083
 20
8.0976844158
 30
0.0
  0
SPLINE
  5
439
100
AcDbEntity
  8
0
100
AcDbSpline
 62
7
  6
CONTINUOUS
 70
0
 71
3
 72
13
 73
9
 74
0
 42
0.0000001
 43
0.0000001
 44
0.0000000001
 40
0.0
 40
0.0
 40
0.0
 40
0.0
 40
0.1059102147
 40
0.218181063
 40
0.3363331803
 40
0.4599159054
 40
0.7217919242
 40
1.0
 40
1.0
 40
1.0
 40
1.0
 10
11.3018704919
 20
7.9286508905
 30
0.0
 10
11.3041559608
 20
7.9320652289
 30
0.0
 10
11.3086522863
 20
7.9392422451
 30
0.0
 10
11.3150112892
 20
7.9506405747
 30
0.0
 10
11.3211569386
 20
7.9629268408
 30
0.0
 10
11.3291793022
 20
7.9807456713
 30
0.0
 10
11.338413296
 20
8.0048025931
 30
0.0
 10
11.3446630687
 20
8.024815727
 30
0.0
 10
11.3475823267
 20
8.0352061691
 30
0.0
  0
SPLINE
  5
43A
100
AcDbEntity
  8
0
100
AcDbSpline
 62
7
  6
CONTINUOUS
 70
0
 71
3
 72
14
 73
10
 74
0
 42
0.0000001
 43
0.0000001
 44
0.0000000001
 40
0.0
 40
0.0
 40
0.0
 40
0.0
 40
0.1262646379
 40
0.2526796164
 40
0.3788774719
 40
0.5048179619
 40
0.7547540173
 40
0.8783806719
 40
1.0
 40
1.0
 40
1.0
 40
1.0
 10
9.7129099768
 20
9.0340297703
 30
0.0
 10
9.7122344671
 20
9.0375709162
 30
0.0
 10
9.7103634777
 20
9.0445681643
 30
0.0
 10
9.706139107
 20
9.0545612002
 30
0.0
 10
9.7006199831
 20
9.0638904578
 30
0.0
 10
9.6918602473
 20
9.0752711416
 30
0.0
 10
9.6812991156
 20
9.0850433519
 30
0.0
 10
9.669604793
 20
9.0930123529
 30
0.0
 10
9.663452426
 20
9.0963853676
 30
0.0
 10
9.6603289575
 20
9.0979023735
 30
0.0
  0
SPLINE
  5
43B
100
AcDbEntity
  8
0
100
AcDbSpline
 62
7
  6
CONTINUOUS
 70
0
 71
3
 72
11
 73
7
 74
0
 42
0.0000001
 43
0.0000001
 44
0.0000000001
 40
0.0
 40
0.0
 40
0.0
 40
0.0
 40
0.2706467878
 40
0.529384408
 40
0.7732200541
 40
1.0
 40
1.0
 40
1.0
 40
1.0
 10
9.6603289575
 20
9.0979023735
 30
0.0
 10
9.6527583894
 20
9.1015792464
 30
0.0
 10
9.6381210994
 20
9.1091301945
 30
0.0
 10
9.6173420465
 20
9.1212518486
 30
0.0
 10
9.5984269097
 20
9.1337900098
 30
0.0
 10
9.5867723684
 20
9.1426662001
 30
0.0
 10
9.5813400088
 20
9.147163062
 30
0.0
  0
SPLINE
  5
43C
100
AcDbEntity
  8
0
100
AcDbSpline
 62
7
  6
CONTINUOUS
 70
0
 71
3
 72
14
 73
10
 74
0
 42
0.0000001
 43
0.0000001
 44
0.0000000001
 40
0.0
 40
0.0
 40
0.0
 40
0.0
 40
0.1195097608
 40
0.2421276323
 40
0.4920798276
 40
0.6185952534
 40
0.7455567694
 40
0.8728320183
 40
1.0
 40
1.0
 40
1.0
 40
1.0
 10
11.4830002312
 20
8.0748423335
 30
0.0
 10
11.4837915015
 20
8.0792441817
 30
0.0
 10
11.4858355055
 20
8.0880899301
 30
0.0
 10
11.4916538958
 20
8.1055793094
 30
0.0
 10
11.5000967944
 20
8.1224112906
 30
0.0
 10
11.5111372952
 20
8.1377158072
 30
0.0
 10
11.5207790555
 20
8.1482578909
 30
0.0
 10
11.5316997737
 20
8.157506663
 30
0.0
 10
11.539737178
 20
8.1626755316
 30
0.0
 10
11.5439075165
 20
8.1649681946
 30
0.0
  0
SPLINE
  5
43D
100
AcDbEntity
  8
0
100
AcDbSpline
 62
7
  6
CONTINUOUS
 70
0
 71
3
 72
12
 73
8
 74
0
 42
0.0000001
 43
0.0000001
 44
0.0000000001
 40
0.0
 40
0.0
 40
0.0
 40
0.0
 40
0.1072433657
 40
0.2202549132
 40
0.4620965198
 40
0.7229995224
 40
1.0
 40
1.0
 40
1.0
 40
1.0
 10
11.4535217717
 20
7.9794623275
 30
0.0
 10
11.4551361823
 20
7.9826576534
 30
0.0
 10
11.4582765201
 20
7.9893098278
 30
0.0
 10
11.4642147617
 20
8.0035512098
 30
0.0
 10
11.4709247035
 20
8.0230038827
 30
0.0
 10
11.4777178451
 20
8.0481474005
 30
0.0
 10
11.4813642523
 20
8.0657413596
 30
0.0
 10
11.4830002312
 20
8.0748423335
 30
0.0
  0
SPLINE
  5
43E
100
AcDbEntity
  8
0
100
AcDbSpline
 62
7
  6
CONTINUOUS
 70
0
 71
3
 72
12
 73
8
 74
0
 42
0.0000001
 43
0.0000001
 44
0.0000000001
 40
0.0
 40
0.0
 40
0.0
 40
0.0
 40
0.2503899116
 40
0.3758307473
 40
0.5011160861
 40
0.7510864764
 40
1.0
 40
1.0
 40
1.0
 40
1.0
 10
9.7518505747
 20
8.8823661551
 30
0.0
 10
9.7501424007
 20
8.887623374
 30
0.0
 10
9.7469082287
 20
8.895315991
 30
0.0
 10
9.7414496664
 20
8.9049468881
 30
0.0
 10
9.7352655664
 20
8.9141215185
 30
0.0
 10
9.7263274254
 20
8.9246699774
 30
0.0
 10
9.7181541787
 20
8.9320992713
 30
0.0
 10
9.7138761081
 20
8.9355481904
 30
0.0
  0
SPLINE
  5
43F
100
AcDbEntity
  8
0
100
AcDbSpline
 62
7
  6
CONTINUOUS
 70
0
 71
3
 72
10
 73
6
 74
0
 42
0.0000001
 43
0.0000001
 44
0.0000000001
 40
0.0
 40
0.0
 40
0.0
 40
0.0
 40
0.5073236691
 40
0.7564329541
 40
1.0
 40
1.0
 40
1.0
 40
1.0
 10
9.7138761081
 20
8.9355481904
 30
0.0
 10
9.707714354
 20
8.9405157081
 30
0.0
 10
9.6978739419
 20
8.947155065
 30
0.0
 10
9.6840018662
 20
8.9543119088
 30
0.0
 10
9.676908991
 20
8.9573000718
 30
0.0
 10
9.6733505555
 20
8.9586330062
 30
0.0
  0
SPLINE
  5
440
100
AcDbEntity
  8
0
100
AcDbSpline
 62
7
  6
CONTINUOUS
 70
0
 71
3
 72
12
 73
8
 74
0
 42
0.0000001
 43
0.0000001
 44
0.0000000001
 40
0.0
 40
0.0
 40
0.0
 40
0.0
 40
0.2794694414
 40
0.541535521
 40
0.7826905117
 40
0.8945401391
 40
1.0
 40
1.0
 40
1.0
 40
1.0
 10
9.6733505555
 20
8.9586330062
 30
0.0
 10
9.6646277059
 20
8.9619004496
 30
0.0
 10
9.6479003127
 20
8.9687169043
 30
0.0
 10
9.6244080326
 20
8.9801010127
 30
0.0
 10
9.6066527226
 20
8.9904025329
 30
0.0
 10
9.5940008368
 20
8.9989806615
 30
0.0
 10
9.5882211203
 20
9.0033534791
 30
0.0
 10
9.5854846102
 20
9.0055595224
 30
0.0
  0
SPLINE
  5
441
100
AcDbEntity
  8
0
100
AcDbSpline
 62
7
  6
CONTINUOUS
 70
0
 71
3
 72
12
 73
8
 74
0
 42
0.0000001
 43
0.0000001
 44
0.0000000001
 40
0.0
 40
0.0
 40
0.0
 40
0.0
 40
0.2503893407
 40
0.375819826
 40
0.5010981959
 40
0.7510723538
 40
1.0
 40
1.0
 40
1.0
 40
1.0
 10
10.9376923427
 20
8.0208016791
 30
0.0
 10
10.9321532542
 20
8.0208016791
 30
0.0
 10
10.9238210928
 20
8.0201065569
 30
0.0
 10
10.9129502648
 20
8.0179001626
 30
0.0
 10
10.9022872653
 20
8.0148653436
 30
0.0
 10
10.8894546024
 20
8.0096442965
 30
0.0
 10
10.8798269266
 20
8.0041846998
 30
0.0
 10
10.8752050712
 20
8.0011909092
 30
0.0
  0
SPLINE
  5
442
100
AcDbEntity
  8
0
100
AcDbSpline
 62
7
  6
CONTINUOUS
 70
0
 71
3
 72
9
 73
5
 74
0
 42
0.0000001
 43
0.0000001
 44
0.0000000001
 40
0.0
 40
0.0
 40
0.0
 40
0.0
 40
0.5071950709
 40
1.0
 40
1.0
 40
1.0
 40
1.0
 10
10.8752050712
 20
8.0011909092
 30
0.0
 10
10.8686746319
 20
7.9969608399
 30
0.0
 10
10.8564760873
 20
7.9875390207
 30
0.0
 10
10.8458367722
 20
7.9763980644
 30
0.0
 10
10.841057446
 20
7.9705404532
 30
0.0
  0
SPLINE
  5
443
100
AcDbEntity
  8
0
100
AcDbSpline
 62
7
  6
CONTINUOUS
 70
0
 71
3
 72
12
 73
8
 74
0
 42
0.0000001
 43
0.0000001
 44
0.0000000001
 40
0.0
 40
0.0
 40
0.0
 40
0.0
 40
0.2503894183
 40
0.375827919
 40
0.5011117629
 40
0.7510846158
 40
1.0
 40
1.0
 40
1.0
 40
1.0
 10
10.4786896831
 20
10.426977885
 30
0.0
 10
10.4838299866
 20
10.4290130751
 30
0.0
 10
10.4913053861
 20
10.4327243356
 30
0.0
 10
10.5005755706
 20
10.4387779699
 30
0.0
 10
10.5093446233
 20
10.4455273793
 30
0.0
 10
10.5193121449
 20
10.4551119726
 30
0.0
 10
10.5262141258
 20
10.4637372833
 30
0.0
 10
10.5293877733
 20
10.4682243616
 30
0.0
  0
SPLINE
  5
444
100
AcDbEntity
  8
0
100
AcDbSpline
 62
7
  6
CONTINUOUS
 70
0
 71
3
 72
10
 73
6
 74
0
 42
0.0000001
 43
0.0000001
 44
0.0000000001
 40
0.0
 40
0.0
 40
0.0
 40
0.0
 40
0.5073255117
 40
0.7564345966
 40
1.0
 40
1.0
 40
1.0
 40
1.0
 10
10.5293877733
 20
10.4682243616
 30
0.0
 10
10.5339572398
 20
10.474684926
 30
0.0
 10
10.5399638923
 20
10.4849210635
 30
0.0
 10
10.5462340135
 20
10.4992124309
 30
0.0
 10
10.5487703421
 20
10.5064774777
 30
0.0
 10
10.5498769821
 20
10.5101118375
 30
0.0
  0
SPLINE
  5
445
100
AcDbEntity
  8
0
100
AcDbSpline
 62
7
  6
CONTINUOUS
 70
0
 71
3
 72
14
 73
10
 74
0
 42
0.0000001
 43
0.0000001
 44
0.0000000001
 40
0.0
 40
0.0
 40
0.0
 40
0.0
 40
0.1262646379
 40
0.2526796164
 40
0.3788774719
 40
0.5048179619
 40
0.7547540173
 40
0.8783806719
 40
1.0
 40
1.0
 40
1.0
 40
1.0
 10
9.8094926056
 20
8.7367790038
 30
0.0
 10
9.8079576711
 20
8.7400409056
 30
0.0
 10
9.8044053174
 20
8.7463530261
 30
0.0
 10
9.7978284961
 20
8.7549815542
 30
0.0
 10
9.7901626737
 20
8.7626451656
 30
0.0
 10
9.7788478801
 20
8.7714898466
 30
0.0
 10
9.7661882959
 20
8.7783285983
 30
0.0
 10
9.7528795619
 20
8.7831389788
 30
0.0
 10
9.7460816483
 20
8.7848759925
 30
0.0
 10
9.7426790452
 20
8.7855685639
 30
0.0
  0
SPLINE
  5
446
100
AcDbEntity
  8
0
100
AcDbSpline
 62
7
  6
CONTINUOUS
 70
0
 71
3
 72
14
 73
10
 74
0
 42
0.0000001
 43
0.0000001
 44
0.0000000001
 40
0.0
 40
0.0
 40
0.0
 40
0.0
 40
0.1211398344
 40
0.2444272305
 40
0.4941650716
 40
0.6202295682
 40
0.7466672739
 40
0.8733901847
 40
1.0
 40
1.0
 40
1.0
 40
1.0
 10
11.6412060463
 20
8.1758617649
 30
0.0
 10
11.6412834921
 20
8.1792928958
 30
0.0
 10
11.6417916624
 20
8.1862138431
 30
0.0
 10
11.6441921841
 20
8.2000212338
 30
0.0
 10
11.6487298026
 20
8.213548287
 30
0.0
 10
11.6554529618
 20
8.2261176886
 30
0.0
 10
11.6616314005
 20
8.2349435292
 30
0.0
 10
11.6689098961
 20
8.2429069021
 30
0.0
 10
11.674430526
 20
8.247533861
 30
0.0
 10
11.6773324494
 20
8.2496422317
 30
0.0
  0
SPLINE
  5
447
100
AcDbEntity
  8
0
100
AcDbSpline
 62
7
  6
CONTINUOUS
 70
0
 71
3
 72
13
 73
9
 74
0
 42
0.0000001
 43
0.0000001
 44
0.0000000001
 40
0.0
 40
0.0
 40
0.0
 40
0.0
 40
0.1059102416
 40
0.2181811641
 40
0.3363333857
 40
0.4599161616
 40
0.721792039
 40
1.0
 40
1.0
 40
1.0
 40
1.0
 10
11.6234295531
 20
8.0612860452
 30
0.0
 10
11.6247941087
 20
8.0651614899
 30
0.0
 10
11.6273643233
 20
8.0732312215
 30
0.0
 10
11.6306888983
 20
8.0858528793
 30
0.0
 10
11.6335860024
 20
8.0992815193
 30
0.0
 10
11.6369249648
 20
8.1185356199
 30
0.0
 10
11.6398861413
 20
8.1441331422
 30
0.0
 10
11.6409625002
 20
8.1650717722
 30
0.0
 10
11.6412060463
 20
8.1758617649
 30
0.0
  0
SPLINE
  5
448
100
AcDbEntity
  8
0
100
AcDbSpline
 62
7
  6
CONTINUOUS
 70
0
 71
3
 72
13
 73
9
 74
0
 42
0.0000001
 43
0.0000001
 44
0.0000000001
 40
0.0
 40
0.0
 40
0.0
 40
0.0
 40
0.2805936693
 40
0.5437139682
 40
0.6672593725
 40
0.7848437805
 40
0.8959415994
 40
1.0
 40
1.0
 40
1.0
 40
1.0
 10
9.7426790452
 20
8.7855685639
 30
0.0
 10
9.7320098572
 20
8.7877401878
 30
0.0
 10
9.7114604146
 20
8.7925929856
 30
0.0
 10
9.6867050851
 20
8.8002685262
 30
0.0
 10
9.6684034687
 20
8.8072048262
 30
0.0
 10
9.6558477557
 20
8.812617931
 30
0.0
 10
9.6442565483
 20
8.8183180898
 30
0.0
 10
9.636981594
 20
8.8224272455
 30
0.0
 10
9.6335369511
 20
8.824533977
 30
0.0
  0
SPLINE
  5
449
100
AcDbEntity
  8
0
100
AcDbSpline
 62
7
  6
CONTINUOUS
 70
0
 71
3
 72
12
 73
8
 74
0
 42
0.0000001
 43
0.0000001
 44
0.0000000001
 40
0.0
 40
0.0
 40
0.0
 40
0.0
 40
0.2794694415
 40
0.541535521
 40
0.7826905117
 40
0.8945401391
 40
1.0
 40
1.0
 40
1.0
 40
1.0
 10
10.5498769821
 20
10.5101118375
 30
0.0
 10
10.5525902656
 20
10.519022639
 30
0.0
 10
10.5583429479
 20
10.5361450333
 30
0.0
 10
10.5682294999
 20
10.5603057708
 30
0.0
 10
10.5773958272
 20
10.5786728826
 30
0.0
 10
10.5851626104
 20
10.5918384279
 30
0.0
 10
10.5891638879
 20
10.597881311
 30
0.0
 10
10.5911937511
 20
10.6007509398
 30
0.0
  0
SPLINE
  5
44A
100
AcDbEntity
  8
0
100
AcDbSpline
 62
7
  6
CONTINUOUS
 70
0
 71
3
 72
12
 73
8
 74
0
 42
0.0000001
 43
0.0000001
 44
0.0000000001
 40
0.0
 40
0.0
 40
0.0
 40
0.0
 40
0.1072433657
 40
0.2202549132
 40
0.4620965198
 40
0.7229995224
 40
1.0
 40
1.0
 40
1.0
 40
1.0
 10
9.5756460623
 20
9.0023627844
 30
0.0
 10
9.5784822798
 20
9.000178225
 30
0.0
 10
9.5844281852
 20
8.9958470181
 30
0.0
 10
9.5973045977
 20
8.9873453902
 30
0.0
 10
9.6151553926
 20
8.9771092325
 30
0.0
 10
9.6385806418
 20
8.9657249907
 30
0.0
 10
9.6551796949
 20
8.9588463922
 30
0.0
 10
9.6638129137
 20
8.9555340386
 30
0.0
  0
SPLINE
  5
44B
100
AcDbEntity
  8
0
100
AcDbSpline
 62
7
  6
CONTINUOUS
 70
0
 71
3
 72
14
 73
10
 74
0
 42
0.0000001
 43
0.0000001
 44
0.0000000001
 40
0.0
 40
0.0
 40
0.0
 40
0.0
 40
0.1195097608
 40
0.2421276323
 40
0.4920798276
 40
0.6185952534
 40
0.7455567694
 40
0.8728320183
 40
1.0
 40
1.0
 40
1.0
 40
1.0
 10
11.7625124351
 20
8.2479297497
 30
0.0
 10
11.7621841511
 20
8.2523900867
 30
0.0
 10
11.7619640907
 20
8.2614662527
 30
0.0
 10
11.7632502539
 20
8.2798531459
 30
0.0
 10
11.7672419598
 20
8.2982559829
 30
0.0
 10
11.7741295244
 20
8.3158253409
 30
0.0
 10
11.7808466615
 20
8.3284340339
 30
0.0
 10
11.7891242091
 20
8.340108111
 30
0.0
 10
11.7956236582
 20
8.3471134112
 30
0.0
 10
11.7990928158
 20
8.3503711671
 30
0.0
  0
SPLINE
  5
44C
100
AcDbEntity
  8
0
100
AcDbSpline
 62
7
  6
CONTINUOUS
 70
0
 71
3
 72
12
 73
8
 74
0
 42
0.0000001
 43
0.0000001
 44
0.0000000001
 40
0.0
 40
0.0
 40
0.0
 40
0.0
 40
0.1072433657
 40
0.2202549132
 40
0.4620965198
 40
0.7229995224
 40
1.0
 40
1.0
 40
1.0
 40
1.0
 10
11.7576801385
 20
8.1482152872
 30
0.0
 10
11.7584491843
 20
8.1517117137
 30
0.0
 10
11.7598365341
 20
8.158935868
 30
0.0
 10
11.7620465272
 20
8.1742066115
 30
0.0
 10
11.7637079808
 20
8.1947168375
 30
0.0
 10
11.7640347647
 20
8.2207598111
 30
0.0
 10
11.7631911736
 20
8.2387078482
 30
0.0
 10
11.7625124351
 20
8.2479297497
 30
0.0
  0
SPLINE
  5
44D
100
AcDbEntity
  8
0
100
AcDbSpline
 62
7
  6
CONTINUOUS
 70
0
 71
3
 72
12
 73
8
 74
0
 42
0.0000001
 43
0.0000001
 44
0.0000000001
 40
0.0
 40
0.0
 40
0.0
 40
0.0
 40
0.2503894516
 40
0.3758290396
 40
0.5011136975
 40
0.7510857182
 40
1.0
 40
1.0
 40
1.0
 40
1.0
 10
9.8849270203
 20
8.5995643128
 30
0.0
 10
9.881964904
 20
8.6042318613
 30
0.0
 10
9.8769189802
 20
8.6108789329
 30
0.0
 10
9.8692362011
 20
8.6188501413
 30
0.0
 10
9.8609640008
 20
8.6261988612
 30
0.0
 10
9.8496824701
 20
8.6341934635
 30
0.0
 10
9.8399175742
 20
8.6393568625
 30
0.0
 10
9.8349157744
 20
8.6416335075
 30
0.0
  0
SPLINE
  5
44E
100
AcDbEntity
  8
0
100
AcDbSpline
 62
7
  6
CONTINUOUS
 70
0
 71
3
 72
10
 73
6
 74
0
 42
0.0000001
 43
0.0000001
 44
0.0000000001
 40
0.0
 40
0.0
 40
0.0
 40
0.0
 40
0.507324055
 40
0.7564335253
 40
1.0
 40
1.0
 40
1.0
 40
1.0
 10
9.8349157744
 20
8.6416335075
 30
0.0
 10
9.8277127918
 20
8.6449120543
 30
0.0
 10
9.8165313488
 20
8.6488949673
 30
0.0
 10
9.8013166447
 20
8.6523766417
 30
0.0
 10
9.7937041949
 20
8.6535068676
 30
0.0
 10
9.789926429
 20
8.6539129396
 30
0.0
  0
SPLINE
  5
44F
100
AcDbEntity
  8
0
100
AcDbSpline
 62
7
  6
CONTINUOUS
 70
0
 71
3
 72
12
 73
8
 74
0
 42
0.0000001
 43
0.0000001
 44
0.0000000001
 40
0.0
 40
0.0
 40
0.0
 40
0.0
 40
0.2794694414
 40
0.541535521
 40
0.7826905117
 40
0.8945401391
 40
1.0
 40
1.0
 40
1.0
 40
1.0
 10
9.789926429
 20
8.6539129396
 30
0.0
 10
9.7806650437
 20
8.6549084458
 30
0.0
 10
9.7627679889
 20
8.6573508155
 30
0.0
 10
9.7371826494
 20
8.6625349787
 30
0.0
 10
9.7174232712
 20
8.6680972916
 30
0.0
 10
9.7030355738
 20
8.6732595265
 30
0.0
 10
9.6963499622
 20
8.676057607
 30
0.0
 10
9.693150804
 20
8.677513801
 30
0.0
  0
SPLINE
  5
450
100
AcDbEntity
  8
0
100
AcDbSpline
 62
7
  6
CONTINUOUS
 70
0
 71
3
 72
14
 73
10
 74
0
 42
0.0000001
 43
0.0000001
 44
0.0000000001
 40
0.0
 40
0.0
 40
0.0
 40
0.0
 40
0.1195097608
 40
0.2421276323
 40
0.4920798276
 40
0.6185952534
 40
0.7455567694
 40
0.8728320183
 40
1.0
 40
1.0
 40
1.0
 40
1.0
 10
9.6638129137
 20
8.9555340386
 30
0.0
 10
9.6679885238
 20
8.9539319597
 30
0.0
 10
9.6762945815
 20
8.9502666327
 30
0.0
 10
9.6923839182
 20
8.9412741191
 30
0.0
 10
9.7073357173
 20
8.9298267687
 30
0.0
 10
9.7203003653
 20
8.9161140451
 30
0.0
 10
9.7288490339
 20
8.9046676774
 30
0.0
 10
9.7358876463
 20
8.8922073481
 30
0.0
 10
9.7394589006
 20
8.883343759
 30
0.0
 10
9.7409295108
 20
8.8788176863
 30
0.0
  0
SPLINE
  5
451
100
AcDbEntity
  8
0
100
AcDbSpline
 62
7
  6
CONTINUOUS
 70
0
 71
3
 72
14
 73
10
 74
0
 42
0.0000001
 43
0.0000001
 44
0.0000000001
 40
0.0
 40
0.0
 40
0.0
 40
0.0
 40
0.1211398344
 40
0.2444272305
 40
0.4941650716
 40
0.6202295682
 40
0.7466672739
 40
0.8733901847
 40
1.0
 40
1.0
 40
1.0
 40
1.0
 10
11.8906254127
 20
8.3851196562
 30
0.0
 10
11.8898471377
 20
8.3884622518
 30
0.0
 10
11.8886181734
 20
8.3952921416
 30
0.0
 10
11.8875095198
 20
8.4092627333
 30
0.0
 10
11.8885405393
 20
8.4234932691
 30
0.0
 10
11.8919265951
 20
8.4373397614
 30
0.0
 10
11.8957160294
 20
8.4474248372
 30
0.0
 10
11.9007854474
 20
8.4569481144
 30
0.0
 10
11.9049819587
 20
8.4628026338
 30
0.0
 10
11.9072683823
 20
8.4655664451
 30
0.0
  0
SPLINE
  5
452
100
AcDbEntity
  8
0
100
AcDbSpline
 62
7
  6
CONTINUOUS
 70
0
 71
3
 72
13
 73
9
 74
0
 42
0.0000001
 43
0.0000001
 44
0.0000000001
 40
0.0
 40
0.0
 40
0.0
 40
0.0
 40
0.1059102147
 40
0.218181063
 40
0.3363331803
 40
0.4599159054
 40
0.7217919242
 40
1.0
 40
1.0
 40
1.0
 40
1.0
 10
11.9019012235
 20
8.2697227094
 30
0.0
 10
11.902259125
 20
8.27381575
 30
0.0
 10
11.9027417312
 20
8.2822711386
 30
0.0
 10
11.9028229808
 20
8.295323044
 30
0.0
 10
11.9022895005
 20
8.3090502702
 30
0.0
 10
11.9007352643
 20
8.3285298335
 30
0.0
 10
11.8972375642
 20
8.3540595852
 30
0.0
 10
11.893072881
 20
8.3746080792
 30
0.0
 10
11.8906254127
 20
8.3851196562
 30
0.0
  0
SPLINE
  5
453
100
AcDbEntity
  8
0
100
AcDbSpline
 62
7
  6
CONTINUOUS
 70
0
 71
3
 72
14
 73
10
 74
0
 42
0.0000001
 43
0.0000001
 44
0.0000000001
 40
0.0
 40
0.0
 40
0.0
 40
0.0
 40
0.1262646379
 40
0.2526796164
 40
0.3788774719
 40
0.5048179619
 40
0.7547540173
 40
0.8783806719
 40
1.0
 40
1.0
 40
1.0
 40
1.0
 10
9.9769641731
 20
8.4728860397
 30
0.0
 10
9.9746662594
 20
8.4756637402
 30
0.0
 10
9.9696557489
 20
8.4808941194
 30
0.0
 10
9.9611397229
 20
8.4876159775
 30
0.0
 10
9.9518088737
 20
8.4931324099
 30
0.0
 10
9.9386499724
 20
8.4988853443
 30
0.0
 10
9.9246873839
 20
8.5023609334
 30
0.0
 10
9.9106004754
 20
8.5037104394
 30
0.0
 10
9.9035841529
 20
8.5037023093
 30
0.0
 10
9.9001162133
 20
8.5035269293
 30
0.0
  0
SPLINE
  5
454
100
AcDbEntity
  8
0
100
AcDbSpline
 62
7
  6
CONTINUOUS
 70
0
 71
3
 72
13
 73
9
 74
0
 42
0.0000001
 43
0.0000001
 44
0.0000000001
 40
0.0
 40
0.0
 40
0.0
 40
0.0
 40
0.2805936693
 40
0.5437139682
 40
0.6672593725
 40
0.7848437805
 40
0.8959415994
 40
1.0
 40
1.0
 40
1.0
 40
1.0
 10
9.9001162133
 20
8.5035269293
 30
0.0
 10
9.8892421566
 20
8.5029770084
 30
0.0
 10
9.8681314708
 20
8.5025669081
 30
0.0
 10
9.8422450462
 20
8.5038449074
 30
0.0
 10
9.822793421
 20
8.5060118639
 30
0.0
 10
9.8092859844
 20
8.5081324271
 30
0.0
 10
9.7966413643
 20
8.5107708889
 30
0.0
 10
9.7885730606
 20
8.5129417404
 30
0.0
 10
9.7847127146
 20
8.5141256372
 30
0.0
  0
SPLINE
  5
455
100
AcDbEntity
  8
0
100
AcDbSpline
 62
7
  6
CONTINUOUS
 70
0
 71
3
 72
14
 73
10
 74
0
 42
0.0000001
 43
0.0000001
 44
0.0000000001
 40
0.0
 40
0.0
 40
0.0
 40
0.0
 40
0.1195097608
 40
0.2421276323
 40
0.4920798276
 40
0.6185952534
 40
0.7455567694
 40
0.8728320183
 40
1.0
 40
1.0
 40
1.0
 40
1.0
 10
11.9901981591
 20
8.4850911649
 30
0.0
 10
11.988770948
 20
8.4893297313
 30
0.0
 10
11.9863006506
 20
8.4980660261
 30
0.0
 10
11.9829737722
 20
8.516195117
 30
0.0
 10
11.9822634719
 20
8.5350124919
 30
0.0
 10
11.9845653293
 20
8.5537427439
 30
0.0
 10
11.9879357807
 20
8.5676257957
 30
0.0
 10
11.9930500491
 20
8.5809916525
 30
0.0
 10
11.9976031587
 20
8.5893932157
 30
0.0
 10
12.0001531554
 20
8.5934113675
 30
0.0
  0
SPLINE
  5
456
100
AcDbEntity
  8
0
100
AcDbSpline
 62
7
  6
CONTINUOUS
 70
0
 71
3
 72
12
 73
8
 74
0
 42
0.0000001
 43
0.0000001
 44
0.0000000001
 40
0.0
 40
0.0
 40
0.0
 40
0.0
 40
0.1072433657
 40
0.2202549132
 40
0.4620965198
 40
0.7229995224
 40
1.0
 40
1.0
 40
1.0
 40
1.0
 10
12.0103156565
 20
8.3873076723
 30
0.0
 10
12.0101910153
 20
8.390885506
 30
0.0
 10
12.0097382049
 20
8.3982277201
 30
0.0
 10
12.0080810875
 20
8.413568308
 30
0.0
 10
12.0045896576
 20
8.4338473543
 30
0.0
 10
11.9984295509
 20
8.4591534079
 30
0.0
 10
11.9931489675
 20
8.4763277818
 30
0.0
 10
11.9901981591
 20
8.4850911649
 30
0.0
  0
SPLINE
  5
457
100
AcDbEntity
  8
0
100
AcDbSpline
 62
7
  6
CONTINUOUS
 70
0
 71
3
 72
14
 73
10
 74
0
 42
0.0000001
 43
0.0000001
 44
0.0000000001
 40
0.0
 40
0.0
 40
0.0
 40
0.0
 40
0.1268220136
 40
0.2537913239
 40
0.3805174633
 40
0.5069232344
 40
0.7571081448
 40
0.8800645823
 40
1.0
 40
1.0
 40
1.0
 40
1.0
 10
10.084152583
 20
8.3587419766
 30
0.0
 10
10.08066987
 20
8.3620124618
 30
0.0
 10
10.0732162115
 20
8.3680596621
 30
0.0
 10
10.0609211699
 20
8.3755086127
 30
0.0
 10
10.0477714666
 20
8.3812748277
 30
0.0
 10
10.0296022928
 20
8.3868086143
 30
0.0
 10
10.0108068758
 20
8.3893751762
 30
0.0
 10
9.9922165627
 20
8.3892889302
 30
0.0
 10
9.9830918918
 20
8.3884069354
 30
0.0
 10
9.9786206561
 20
8.3877574551
 30
0.0
  0
SPLINE
  5
458
100
AcDbEntity
  8
0
100
AcDbSpline
 62
7
  6
CONTINUOUS
 70
0
 71
3
 72
12
 73
8
 74
0
 42
0.0000001
 43
0.0000001
 44
0.0000000001
 40
0.0
 40
0.0
 40
0.0
 40
0.0
 40
0.2794694414
 40
0.541535521
 40
0.7826905117
 40
0.8945401391
 40
1.0
 40
1.0
 40
1.0
 40
1.0
 10
9.9786206561
 20
8.3877574551
 30
0.0
 10
9.9694026619
 20
8.3864184727
 30
0.0
 10
9.9514604833
 20
8.3843332944
 30
0.0
 10
9.9253897053
 20
8.3829917723
 30
0.0
 10
9.9048678134
 20
8.3834653775
 30
0.0
 10
9.8896483364
 20
8.3848873564
 30
0.0
 10
9.8824769112
 20
8.385934886
 30
0.0
 10
9.8790161197
 20
8.3865497327
 30
0.0
  0
SPLINE
  5
459
100
AcDbEntity
  8
0
100
AcDbSpline
 62
7
  6
CONTINUOUS
 70
0
 71
3
 72
14
 73
10
 74
0
 42
0.0000001
 43
0.0000001
 44
0.0000000001
 40
0.0
 40
0.0
 40
0.0
 40
0.0
 40
0.1211398344
 40
0.2444272305
 40
0.4941650716
 40
0.6202295682
 40
0.7466672739
 40
0.8733901847
 40
1.0
 40
1.0
 40
1.0
 40
1.0
 10
12.0801684895
 20
8.6498314002
 30
0.0
 10
12.0785833958
 20
8.6528754328
 30
0.0
 10
12.0756945171
 20
8.6591851181
 30
0.0
 10
12.071146349
 20
8.672441087
 30
0.0
 10
12.0686059869
 20
8.6864809485
 30
0.0
 10
12.0684421809
 20
8.7007345057
 30
0.0
 10
12.0696045068
 20
8.7114451343
 30
0.0
 10
12.072146317
 20
8.7219299332
 30
0.0
 10
12.0747550274
 20
8.7286441519
 30
0.0
 10
12.0762822868
 20
8.7318897435
 30
0.0
  0
SPLINE
  5
45A
100
AcDbEntity
  8
0
100
AcDbSpline
 62
7
  6
CONTINUOUS
 70
0
 71
3
 72
13
 73
9
 74
0
 42
0.0000001
 43
0.0000001
 44
0.0000000001
 40
0.0
 40
0.0
 40
0.0
 40
0.0
 40
0.1059102412
 40
0.2181811628
 40
0.336333384
 40
0.4599161606
 40
0.7217920394
 40
1.0
 40
1.0
 40
1.0
 40
1.0
 10
12.1197881037
 20
8.5408640407
 30
0.0
 10
12.1191168631
 20
8.5449174985
 30
0.0
 10
12.1174815365
 20
8.5532272684
 30
0.0
 10
12.1143143539
 20
8.5658893376
 30
0.0
 10
12.1103838088
 20
8.5790526351
 30
0.0
 10
12.1040340302
 20
8.5975336896
 30
0.0
 10
12.0942972285
 20
8.621391527
 30
0.0
 10
12.0851531871
 20
8.6402587282
 30
0.0
 10
12.0801684895
 20
8.6498314002
 30
0.0
  0
SPLINE
  5
45B
100
AcDbEntity
  8
0
100
AcDbSpline
 62
7
  6
CONTINUOUS
 70
0
 71
3
 72
14
 73
10
 74
0
 42
0.0000001
 43
0.0000001
 44
0.0000000001
 40
0.0
 40
0.0
 40
0.0
 40
0.0
 40
0.1262651306
 40
0.2526812843
 40
0.3788791835
 40
0.5048195708
 40
0.7547549089
 40
0.8783809362
 40
1.0
 40
1.0
 40
1.0
 40
1.0
 10
10.2048018248
 20
8.2589322436
 30
0.0
 10
10.201885307
 20
8.2610512178
 30
0.0
 10
10.1957314016
 20
8.264871193
 30
0.0
 10
10.1858112417
 20
8.2692640842
 30
0.0
 10
10.1754016211
 20
8.2722867246
 30
0.0
 10
10.1612254453
 20
8.274586353
 30
0.0
 10
10.1468372196
 20
8.2744804203
 30
0.0
 10
10.132857315
 20
8.2722842514
 30
0.0
 10
10.126063471
 20
8.2705314922
 30
0.0
 10
10.1227481056
 20
8.2694991828
 30
0.0
  0
SPLINE
  5
45C
100
AcDbEntity
  8
0
100
AcDbSpline
 62
7
  6
CONTINUOUS
 70
0
 71
3
 72
13
 73
9
 74
0
 42
0.0000001
 43
0.0000001
 44
0.0000000001
 40
0.0
 40
0.0
 40
0.0
 40
0.0
 40
0.2805936693
 40
0.5437139682
 40
0.6672593725
 40
0.7848437805
 40
0.8959415994
 40
1.0
 40
1.0
 40
1.0
 40
1.0
 10
10.1227481056
 20
8.2694991828
 30
0.0
 10
10.1123524371
 20
8.2662622708
 30
0.0
 10
10.0920069701
 20
8.2606150404
 30
0.0
 10
10.0666159897
 20
8.2554151971
 30
0.0
 10
10.0472365729
 20
8.2526766522
 30
0.0
 10
10.0336261347
 20
8.2513714311
 30
0.0
 10
10.0207226098
 20
8.2507824116
 30
0.0
 10
10.0123679178
 20
8.2508785563
 30
0.0
 10
10.0083344286
 20
8.2510652298
 30
0.0
  0
SPLINE
  5
45D
100
AcDbEntity
  8
0
100
AcDbSpline
 62
7
  6
CONTINUOUS
 70
0
 71
3
 72
12
 73
8
 74
0
 42
0.0000001
 43
0.0000001
 44
0.0000000001
 40
0.0
 40
0.0
 40
0.0
 40
0.0
 40
0.2789344527
 40
0.5408219793
 40
0.7821597859
 40
0.8942338049
 40
1.0
 40
1.0
 40
1.0
 40
1.0
 10
10.841057446
 20
7.9705404532
 30
0.0
 10
10.8350498161
 20
7.9631774154
 30
0.0
 10
10.8229833482
 20
7.9492343794
 30
0.0
 10
10.8042590362
 20
7.9302479621
 30
0.0
 10
10.7884384497
 20
7.9164525887
 30
0.0
 10
10.7759477994
 20
7.9070253832
 30
0.0
 10
10.7697948237
 20
7.9028671618
 30
0.0
 10
10.7667483517
 20
7.9009428628
 30
0.0
  0
SPLINE
  5
45E
100
AcDbEntity
  8
0
100
AcDbSpline
 62
7
  6
CONTINUOUS
 70
0
 71
3
 72
14
 73
10
 74
0
 42
0.0000001
 43
0.0000001
 44
0.0000000001
 40
0.0
 40
0.0
 40
0.0
 40
0.0
 40
0.1268220136
 40
0.2537913239
 40
0.3805174633
 40
0.5069232344
 40
0.7571081448
 40
0.8800645823
 40
1.0
 40
1.0
 40
1.0
 40
1.0
 10
10.3370091879
 20
8.1750308997
 30
0.0
 10
10.3328225542
 20
8.177332521
 30
0.0
 10
10.3240991885
 20
8.1813360879
 30
0.0
 10
10.3103379395
 20
8.1854933635
 30
0.0
 10
10.296167359
 20
8.1878082241
 30
0.0
 10
10.2771928064
 20
8.1886496668
 30
0.0
 10
10.2583496039
 20
8.1864613654
 30
0.0
 10
10.2403647883
 20
8.181754606
 30
0.0
 10
10.2317461289
 20
8.1786311073
 30
0.0
 10
10.2275768844
 20
8.1768900805
 30
0.0
  0
SPLINE
  5
45F
100
AcDbEntity
  8
0
100
AcDbSpline
 62
7
  6
CONTINUOUS
 70
0
 71
3
 72
14
 73
10
 74
0
 42
0.0000001
 43
0.0000001
 44
0.0000000001
 40
0.0
 40
0.0
 40
0.0
 40
0.0
 40
0.1195097608
 40
0.2421276323
 40
0.4920798276
 40
0.6185952534
 40
0.7455567694
 40
0.8728320183
 40
1.0
 40
1.0
 40
1.0
 40
1.0
 10
12.1517510718
 20
8.7714248552
 30
0.0
 10
12.1493146106
 20
8.7751753262
 30
0.0
 10
12.144749294
 20
8.7830228163
 30
0.0
 10
12.137018414
 20
8.7997549874
 30
0.0
 10
12.1316507382
 20
8.8178045354
 30
0.0
 10
12.1292222543
 20
8.8365187907
 30
0.0
 10
12.1290342422
 20
8.8508038781
 30
0.0
 10
12.130663883
 20
8.8650216888
 30
0.0
 10
12.1329845645
 20
8.8742916137
 30
0.0
 10
12.1344551747
 20
8.8788176863
 30
0.0
  0
SPLINE
  5
460
100
AcDbEntity
  8
0
100
AcDbSpline
 62
7
  6
CONTINUOUS
 70
0
 71
3
 72
12
 73
8
 74
0
 42
0.0000001
 43
0.0000001
 44
0.0000000001
 40
0.0
 40
0.0
 40
0.0
 40
0.0
 40
0.1072433657
 40
0.2202549132
 40
0.4620965198
 40
0.7229995224
 40
1.0
 40
1.0
 40
1.0
 40
1.0
 10
12.1955543068
 20
8.681716429
 30
0.0
 10
12.1945438104
 20
8.6851508614
 30
0.0
 10
12.1922792914
 20
8.692149797
 30
0.0
 10
12.1868591864
 20
8.7065963238
 30
0.0
 10
12.1784342525
 20
8.7253699833
 30
0.0
 10
12.1661743172
 20
8.7483490444
 30
0.0
 10
12.1567885399
 20
8.763670626
 30
0.0
 10
12.1517510718
 20
8.7714248552
 30
0.0
  0
SPLINE
  5
461
100
AcDbEntity
  8
0
100
AcDbSpline
 62
7
  6
CONTINUOUS
 70
0
 71
3
 72
12
 73
8
 74
0
 42
0.0000001
 43
0.0000001
 44
0.0000000001
 40
0.0
 40
0.0
 40
0.0
 40
0.0
 40
0.2794693502
 40
0.5415353528
 40
0.7826904615
 40
0.8945401275
 40
1.0
 40
1.0
 40
1.0
 40
1.0
 10
10.2275768844
 20
8.1768900805
 30
0.0
 10
10.2189814846
 20
8.173300744
 30
0.0
 10
10.202121561
 20
8.1668190382
 30
0.0
 10
10.1772034689
 20
8.1590361243
 30
0.0
 10
10.1572085267
 20
8.154391262
 30
0.0
 10
10.1421135603
 20
8.1519836355
 30
0.0
 10
10.1349069269
 20
8.1512147938
 30
0.0
 10
10.1314019561
 20
8.1509496601
 30
0.0
  0
SPLINE
  5
462
100
AcDbEntity
  8
0
100
AcDbSpline
 62
7
  6
CONTINUOUS
 70
0
 71
3
 72
11
 73
7
 74
0
 42
0.0000001
 43
0.0000001
 44
0.0000000001
 40
0.0
 40
0.0
 40
0.0
 40
0.0
 40
0.2267030643
 40
0.4704276518
 40
0.7291143683
 40
1.0
 40
1.0
 40
1.0
 40
1.0
 10
9.567944466
 20
9.1483330626
 30
0.0
 10
9.5735978083
 20
9.1435783858
 30
0.0
 10
9.5857293285
 20
9.1341831133
 30
0.0
 10
9.6054298069
 20
9.1208809099
 30
0.0
 10
9.6270890061
 20
9.1079817555
 30
0.0
 10
9.6423538732
 20
9.0999178549
 30
0.0
 10
9.6502535996
 20
9.0959803962
 30
0.0
  0
SPLINE
  5
463
100
AcDbEntity
  8
0
100
AcDbSpline
 62
7
  6
CONTINUOUS
 70
0
 71
3
 72
14
 73
10
 74
0
 42
0.0000001
 43
0.0000001
 44
0.0000000001
 40
0.0
 40
0.0
 40
0.0
 40
0.0
 40
0.1211398344
 40
0.2444272305
 40
0.4941650716
 40
0.6202295682
 40
0.7466672739
 40
0.8733901847
 40
1.0
 40
1.0
 40
1.0
 40
1.0
 10
12.1979255884
 20
8.9533641843
 30
0.0
 10
12.1956332732
 20
8.9559183863
 30
0.0
 10
12.191265999
 20
8.9613114063
 30
0.0
 10
12.1835640946
 20
8.9730198312
 30
0.0
 10
12.177611971
 20
8.9859868422
 30
0.0
 10
12.1739085957
 20
8.9997518608
 30
0.0
 10
12.17237078
 20
9.010415054
 30
0.0
 10
12.1722252711
 20
9.0212025761
 30
0.0
 10
12.1730822658
 20
9.0283546153
 30
0.0
 10
12.1737543977
 20
9.0318780546
 30
0.0
  0
SPLINE
  5
464
100
AcDbEntity
  8
0
100
AcDbSpline
 62
7
  6
CONTINUOUS
 70
0
 71
3
 72
13
 73
9
 74
0
 42
0.0000001
 43
0.0000001
 44
0.0000000001
 40
0.0
 40
0.0
 40
0.0
 40
0.0
 40
0.1059102147
 40
0.218181063
 40
0.3363331803
 40
0.4599159054
 40
0.7217919242
 40
1.0
 40
1.0
 40
1.0
 40
1.0
 10
12.2633995598
 20
8.8576732322
 30
0.0
 10
12.261741354
 20
8.8614324114
 30
0.0
 10
12.2580908505
 20
8.8690744222
 30
0.0
 10
12.2518742467
 20
8.8805510364
 30
0.0
 10
12.2447936127
 20
8.8923232903
 30
0.0
 10
12.2340472739
 20
8.9086446028
 30
0.0
 10
12.2186831643
 20
8.9293314649
 30
0.0
 10
12.2051343122
 20
8.945331896
 30
0.0
 10
12.1979255884
 20
8.9533641843
 30
0.0
  0
SPLINE
  5
465
100
AcDbEntity
  8
0
100
AcDbSpline
 62
7
  6
CONTINUOUS
 70
0
 71
3
 72
14
 73
10
 74
0
 42
0.0000001
 43
0.0000001
 44
0.0000000001
 40
0.0
 40
0.0
 40
0.0
 40
0.0
 40
0.1262646379
 40
0.2526796164
 40
0.3788774719
 40
0.5048179619
 40
0.7547540173
 40
0.8783806719
 40
1.0
 40
1.0
 40
1.0
 40
1.0
 10
10.4786896831
 20
8.1083611193
 30
0.0
 10
10.4753378386
 20
8.1096882084
 30
0.0
 10
10.4684273403
 20
8.1118577928
 30
0.0
 10
10.45772641
 20
8.1136455751
 30
0.0
 10
10.4468921629
 20
8.1139844908
 30
0.0
 10
10.4325894326
 20
8.1126864766
 30
0.0
 10
10.4186795452
 20
8.1090056303
 30
0.0
 10
10.4056849637
 20
8.1034017914
 30
0.0
 10
10.3995404302
 20
8.1000145278
 30
0.0
 10
10.3965859415
 20
8.0981901485
 30
0.0
  0
SPLINE
  5
466
100
AcDbEntity
  8
0
100
AcDbSpline
 62
7
  6
CONTINUOUS
 70
0
 71
3
 72
13
 73
9
 74
0
 42
0.0000001
 43
0.0000001
 44
0.0000000001
 40
0.0
 40
0.0
 40
0.0
 40
0.0
 40
0.2805936693
 40
0.5437139682
 40
0.6672593725
 40
0.7848437805
 40
0.8959415994
 40
1.0
 40
1.0
 40
1.0
 40
1.0
 10
10.3965859415
 20
8.0981901485
 30
0.0
 10
10.3873218593
 20
8.0924696324
 30
0.0
 10
10.3690199917
 20
8.0819401083
 30
0.0
 10
10.345719864
 20
8.0705891475
 30
0.0
 10
10.3276303357
 20
8.0631171741
 30
0.0
 10
10.3147720897
 20
8.0584681806
 30
0.0
 10
10.3024204359
 20
8.0546886901
 30
0.0
 10
10.2943043118
 20
8.0527040868
 30
0.0
 10
10.2903511182
 20
8.0518818076
 30
0.0
  0
SPLINE
  5
467
100
AcDbEntity
  8
0
100
AcDbSpline
 62
7
  6
CONTINUOUS
 70
0
 71
3
 72
14
 73
10
 74
0
 42
0.0000001
 43
0.0000001
 44
0.0000000001
 40
0.0
 40
0.0
 40
0.0
 40
0.0
 40
0.1211398344
 40
0.2444272305
 40
0.4941650716
 40
0.6202295682
 40
0.7466672739
 40
0.8733901847
 40
1.0
 40
1.0
 40
1.0
 40
1.0
 10
9.6502535996
 20
9.0959803962
 30
0.0
 10
9.6533252049
 20
9.0944494168
 30
0.0
 10
9.6593710968
 20
9.0910428144
 30
0.0
 10
9.6708423051
 20
9.0829918565
 30
0.0
 10
9.6811499248
 20
9.0731265573
 30
0.0
 10
9.6896604774
 20
9.0616914701
 30
0.0
 10
9.6950156855
 20
9.0523431915
 30
0.0
 10
9.699122128
 20
9.0423667725
 30
0.0
 10
9.7009581557
 20
9.0354014939
 30
0.0
 10
9.7016302877
 20
9.0318780546
 30
0.0
  0
SPLINE
  5
468
100
AcDbEntity
  8
0
100
AcDbSpline
 62
7
  6
CONTINUOUS
 70
0
 71
3
 72
11
 73
7
 74
0
 42
0.0000001
 43
0.0000001
 44
0.0000000001
 40
0.0
 40
0.0
 40
0.0
 40
0.0
 40
0.2423513549
 40
0.4915677428
 40
0.7446448456
 40
1.0
 40
1.0
 40
1.0
 40
1.0
 10
12.2370202096
 20
9.0889394216
 30
0.0
 10
12.2331411545
 20
9.0925052187
 30
0.0
 10
12.225686283
 20
9.1001994616
 30
0.0
 10
12.2157505719
 20
9.1130221961
 30
0.0
 10
12.2071870317
 20
9.1271354237
 30
0.0
 10
12.2026331971
 20
9.137246929
 30
0.0
 10
12.2006939775
 20
9.1424489065
 30
0.0
  0
SPLINE
  5
469
100
AcDbEntity
  8
0
100
AcDbSpline
 62
7
  6
CONTINUOUS
 70
0
 71
3
 72
12
 73
8
 74
0
 42
0.0000001
 43
0.0000001
 44
0.0000000001
 40
0.0
 40
0.0
 40
0.0
 40
0.0
 40
0.1072433657
 40
0.2202549132
 40
0.4620965198
 40
0.7229995224
 40
1.0
 40
1.0
 40
1.0
 40
1.0
 10
12.3017568638
 20
9.0129427721
 30
0.0
 10
12.2999240054
 20
9.0160180054
 30
0.0
 10
12.295990066
 20
9.0222338935
 30
0.0
 10
12.2871475384
 20
9.0348786308
 30
0.0
 10
12.27431847
 20
9.0509672854
 30
0.0
 10
12.256729043
 20
9.0701754951
 30
0.0
 10
12.2438278148
 20
9.0826815732
 30
0.0
 10
12.2370202096
 20
9.0889394216
 30
0.0
  0
SPLINE
  5
46A
100
AcDbEntity
  8
0
100
AcDbSpline
 62
7
  6
CONTINUOUS
 70
0
 71
3
 72
12
 73
8
 74
0
 42
0.0000001
 43
0.0000001
 44
0.0000000001
 40
0.0
 40
0.0
 40
0.0
 40
0.0
 40
0.2503894516
 40
0.3758290396
 40
0.5011136975
 40
0.7510857182
 40
1.0
 40
1.0
 40
1.0
 40
1.0
 10
10.6276089245
 20
8.0599743246
 30
0.0
 10
10.6222544778
 20
8.0613491128
 30
0.0
 10
10.6140259241
 20
8.062740447
 30
0.0
 10
10.6029687514
 20
8.0632919837
 30
0.0
 10
10.591908032
 20
8.0629862591
 30
0.0
 10
10.5782114682
 20
8.0610913342
 30
0.0
 10
10.5675585756
 20
8.0581707588
 30
0.0
 10
10.5623539498
 20
8.0564063941
 30
0.0
  0
SPLINE
  5
46B
100
AcDbEntity
  8
0
100
AcDbSpline
 62
7
  6
CONTINUOUS
 70
0
 71
3
 72
10
 73
6
 74
0
 42
0.0000001
 43
0.0000001
 44
0.0000000001
 40
0.0
 40
0.0
 40
0.0
 40
0.0
 40
0.507324055
 40
0.7564335253
 40
1.0
 40
1.0
 40
1.0
 40
1.0
 10
10.5623539498
 20
8.0564063941
 30
0.0
 10
10.5548588816
 20
8.0538655709
 30
0.0
 10
10.5439814689
 20
8.0491147651
 30
0.0
 10
10.5305070568
 20
8.0412376149
 30
0.0
 10
10.5241841269
 20
8.0368504336
 30
0.0
 10
10.5211522786
 20
8.0345603887
 30
0.0
  0
SPLINE
  5
46C
100
AcDbEntity
  8
0
100
AcDbSpline
 62
7
  6
CONTINUOUS
 70
0
 71
3
 72
12
 73
8
 74
0
 42
0.0000001
 43
0.0000001
 44
0.0000000001
 40
0.0
 40
0.0
 40
0.0
 40
0.0
 40
0.2794694414
 40
0.541535521
 40
0.7826905117
 40
0.8945401391
 40
1.0
 40
1.0
 40
1.0
 40
1.0
 10
10.5211522786
 20
8.0345603887
 30
0.0
 10
10.5137195484
 20
8.0289462269
 30
0.0
 10
10.4990012398
 20
8.0184752608
 30
0.0
 10
10.4768015261
 20
8.004739983
 30
0.0
 10
10.4585898941
 20
7.9952685094
 30
0.0
 10
10.4445679211
 20
7.9891825601
 30
0.0
 10
10.4377789021
 20
7.9866456569
 30
0.0
 10
10.4344499827
 20
7.9855172021
 30
0.0
  0
SPLINE
  5
46D
100
AcDbEntity
  8
0
100
AcDbSpline
 62
7
  6
CONTINUOUS
 70
0
 71
3
 72
13
 73
9
 74
0
 42
0.0000001
 43
0.0000001
 44
0.0000000001
 40
0.0
 40
0.0
 40
0.0
 40
0.0
 40
0.1059102147
 40
0.218181063
 40
0.3363331803
 40
0.4599159054
 40
0.7217919242
 40
1.0
 40
1.0
 40
1.0
 40
1.0
 10
10.6117469517
 20
7.9188343866
 30
0.0
 10
10.6153945934
 20
7.9207253612
 30
0.0
 10
10.6227923074
 20
7.9248485071
 30
0.0
 10
10.6338559314
 20
7.9317734664
 30
0.0
 10
10.6451603587
 20
7.9395793143
 30
0.0
 10
10.6607746967
 20
7.9513292714
 30
0.0
 10
10.6804560176
 20
7.9679620022
 30
0.0
 10
10.695574136
 20
7.9824887942
 30
0.0
 10
10.7031379349
 20
7.9901876447
 30
0.0
  0
SPLINE
  5
46E
100
AcDbEntity
  8
0
100
AcDbSpline
 62
7
  6
CONTINUOUS
 70
0
 71
3
 72
14
 73
10
 74
0
 42
0.0000001
 43
0.0000001
 44
0.0000000001
 40
0.0
 40
0.0
 40
0.0
 40
0.0
 40
0.1262646379
 40
0.2526796164
 40
0.3788774719
 40
0.5048179619
 40
0.7547540173
 40
0.8783806719
 40
1.0
 40
1.0
 40
1.0
 40
1.0
 10
10.7814183666
 20
8.0306336043
 30
0.0
 10
10.7778417928
 20
8.0310854306
 30
0.0
 10
10.7706088469
 20
8.0314682826
 30
0.0
 10
10.7597995026
 20
8.0305386852
 30
0.0
 10
10.7492213484
 20
8.0281725856
 30
0.0
 10
10.7356907676
 20
8.0233584065
 30
0.0
 10
10.7231332742
 20
8.0163339524
 30
0.0
 10
10.7119405594
 20
8.0076745474
 30
0.0
 10
10.7068314459
 20
8.0028656176
 30
0.0
 10
10.7044234826
 20
8.0003638031
 30
0.0
  0
SPLINE
  5
46F
100
AcDbEntity
  8
0
100
AcDbSpline
 62
7
  6
CONTINUOUS
 70
0
 71
3
 72
13
 73
9
 74
0
 42
0.0000001
 43
0.0000001
 44
0.0000000001
 40
0.0
 40
0.0
 40
0.0
 40
0.0
 40
0.2805936693
 40
0.5437139682
 40
0.6672593725
 40
0.7848437805
 40
0.8959415994
 40
1.0
 40
1.0
 40
1.0
 40
1.0
 10
10.7044234826
 20
8.0003638031
 30
0.0
 10
10.6968730831
 20
7.992519124
 30
0.0
 10
10.6817647885
 20
7.9777689148
 30
0.0
 10
10.6620195463
 20
7.9609800592
 30
0.0
 10
10.646356538
 20
7.9492441488
 30
0.0
 10
10.6350584151
 20
7.9415434962
 30
0.0
 10
10.6240347323
 20
7.934811014
 30
0.0
 10
10.6166671419
 20
7.9308703626
 30
0.0
 10
10.6130426377
 20
7.9290907976
 30
0.0
  0
SPLINE
  5
470
100
AcDbEntity
  8
0
100
AcDbSpline
 62
7
  6
CONTINUOUS
 70
0
 71
3
 72
14
 73
10
 74
0
 42
0.0000001
 43
0.0000001
 44
0.0000000001
 40
0.0
 40
0.0
 40
0.0
 40
0.0
 40
0.1195097608
 40
0.2421276323
 40
0.4920798276
 40
0.6185952534
 40
0.7455567694
 40
0.8728320183
 40
1.0
 40
1.0
 40
1.0
 40
1.0
 10
12.2406477989
 20
9.4176842564
 30
0.0
 10
12.2367059085
 20
9.4197970451
 30
0.0
 10
12.2289247339
 20
9.4244744949
 30
0.0
 10
12.2140893272
 20
9.4354126284
 30
0.0
 10
12.200690161
 20
9.4486436704
 30
0.0
 10
12.1895464031
 20
9.4638731663
 30
0.0
 10
12.1824997535
 20
9.4763007083
 30
0.0
 10
12.177078336
 20
9.4895449562
 30
0.0
 10
12.1746461444
 20
9.4987862502
 30
0.0
 10
12.1737543977
 20
9.5034609497
 30
0.0
  0
SPLINE
  5
471
100
AcDbEntity
  8
0
100
AcDbSpline
 62
7
  6
CONTINUOUS
 70
0
 71
3
 72
9
 73
5
 74
0
 42
0.0000001
 43
0.0000001
 44
0.0000000001
 40
0.0
 40
0.0
 40
0.0
 40
0.0
 40
0.4891927397
 40
1.0
 40
1.0
 40
1.0
 40
1.0
 10
12.2769081596
 20
9.3961644493
 30
0.0
 10
12.2711669547
 20
9.399950942
 30
0.0
 10
12.2592327133
 20
9.4073934637
 30
0.0
 10
12.2469772582
 20
9.4142917698
 30
0.0
 10
12.2406477989
 20
9.4176842564
 30
0.0
  0
SPLINE
  5
472
100
AcDbEntity
  8
0
100
AcDbSpline
 62
7
  6
CONTINUOUS
 70
0
 71
3
 72
14
 73
10
 74
0
 42
0.0000001
 43
0.0000001
 44
0.0000000001
 40
0.0
 40
0.0
 40
0.0
 40
0.0
 40
0.1211398344
 40
0.2444272305
 40
0.4941650716
 40
0.6202295682
 40
0.7466672739
 40
0.8733901847
 40
1.0
 40
1.0
 40
1.0
 40
1.0
 10
10.7031379349
 20
7.9901876447
 30
0.0
 10
10.7055431611
 20
7.9926358163
 30
0.0
 10
10.7106513158
 20
7.9973331031
 30
0.0
 10
10.7218530301
 20
8.0057549877
 30
0.0
 10
10.7344207168
 20
8.0125095715
 30
0.0
 10
10.7479260364
 20
8.0170699517
 30
0.0
 10
10.758471628
 20
8.0192742803
 30
0.0
 10
10.7692287269
 20
8.0200968562
 30
0.0
 10
10.7764204642
 20
8.0196906329
 30
0.0
 10
10.7799791543
 20
8.0192410658
 30
0.0
  0
SPLINE
  5
473
100
AcDbEntity
  8
0
100
AcDbSpline
 62
7
  6
CONTINUOUS
 70
0
 71
3
 72
14
 73
10
 74
0
 42
0.0000001
 43
0.0000001
 44
0.0000000001
 40
0.0
 40
0.0
 40
0.0
 40
0.0
 40
0.1211398344
 40
0.2444272305
 40
0.4941650716
 40
0.6202295682
 40
0.7466672739
 40
0.8733901847
 40
1.0
 40
1.0
 40
1.0
 40
1.0
 10
12.193460896
 20
9.5993636489
 30
0.0
 10
12.1902216286
 20
9.6004975819
 30
0.0
 10
12.1837964499
 20
9.603119571
 30
0.0
 10
12.1714066429
 20
9.6096693211
 30
0.0
 10
12.1599438521
 20
9.6181649421
 30
0.0
 10
12.1500672113
 20
9.6284432051
 30
0.0
 10
12.1435825806
 20
9.6370465842
 30
0.0
 10
12.1382581417
 20
9.6464296625
 30
0.0
 10
12.1355636108
 20
9.6531099025
 30
0.0
 10
12.1344551747
 20
9.656521318
 30
0.0
  0
SPLINE
  5
474
100
AcDbEntity
  8
0
100
AcDbSpline
 62
7
  6
CONTINUOUS
 70
0
 71
3
 72
13
 73
9
 74
0
 42
0.0000001
 43
0.0000001
 44
0.0000000001
 40
0.0
 40
0.0
 40
0.0
 40
0.0
 40
0.1059102147
 40
0.218181063
 40
0.3363331803
 40
0.4599159054
 40
0.7217919242
 40
1.0
 40
1.0
 40
1.0
 40
1.0
 10
12.2969356423
 20
9.5470513546
 30
0.0
 10
12.293671547
 20
9.5495467017
 30
0.0
 10
12.2867910197
 20
9.5544848034
 30
0.0
 10
12.2758144672
 20
9.5615469653
 30
0.0
 10
12.2639383337
 20
9.5684519486
 30
0.0
 10
12.2466583929
 20
9.5775773356
 30
0.0
 10
12.2232287493
 20
9.5883036548
 30
0.0
 10
12.2036475332
 20
9.5957977301
 30
0.0
 10
12.193460896
 20
9.5993636489
 30
0.0
  0
SPLINE
  5
475
100
AcDbEntity
  8
0
100
AcDbSpline
 62
7
  6
CONTINUOUS
 70
0
 71
3
 72
14
 73
10
 74
0
 42
0.0000001
 43
0.0000001
 44
0.0000000001
 40
0.0
 40
0.0
 40
0.0
 40
0.0
 40
0.1262646378
 40
0.252679616
 40
0.3788774715
 40
0.5048179619
 40
0.754754018
 40
0.8783806722
 40
1.0
 40
1.0
 40
1.0
 40
1.0
 10
10.9376923427
 20
10.5145373252
 30
0.0
 10
10.941297343
 20
10.5145373252
 30
0.0
 10
10.9485212391
 20
10.5150640207
 30
0.0
 10
10.959128839
 20
10.517341058
 30
0.0
 10
10.9693270304
 20
10.5210142944
 30
0.0
 10
10.9821475419
 20
10.5274863437
 30
0.0
 10
10.9937256183
 20
10.5360292792
 30
0.0
 10
11.0037447639
 20
10.5460232213
 30
0.0
 10
11.0082108718
 20
10.551434573
 30
0.0
 10
11.010286287
 20
10.5542184578
 30
0.0
  0
SPLINE
  5
476
100
AcDbEntity
  8
0
100
AcDbSpline
 62
7
  6
CONTINUOUS
 70
0
 71
3
 72
13
 73
9
 74
0
 42
0.0000001
 43
0.0000001
 44
0.0000000001
 40
0.0
 40
0.0
 40
0.0
 40
0.0
 40
0.2805936693
 40
0.5437139682
 40
0.6672593725
 40
0.7848437805
 40
0.8959415994
 40
1.0
 40
1.0
 40
1.0
 40
1.0
 10
11.010286287
 20
10.5542184578
 30
0.0
 10
11.0167939504
 20
10.5629475952
 30
0.0
 10
11.0299344202
 20
10.579475066
 30
0.0
 10
11.0474197637
 20
10.5986062716
 30
0.0
 10
11.0614883649
 20
10.6122127363
 30
0.0
 10
11.071732251
 20
10.6212686972
 30
0.0
 10
11.081825205
 20
10.6293297256
 30
0.0
 10
11.0886408052
 20
10.6341627076
 30
0.0
 10
11.0920136904
 20
10.6363825111
 30
0.0
  0
SPLINE
  5
477
100
AcDbEntity
  8
0
100
AcDbSpline
 62
7
  6
CONTINUOUS
 70
0
 71
3
 72
14
 73
10
 74
0
 42
0.0000001
 43
0.0000001
 44
0.0000000001
 40
0.0
 40
0.0
 40
0.0
 40
0.0
 40
0.1195097608
 40
0.2421276323
 40
0.4920798276
 40
0.6185952534
 40
0.7455567694
 40
0.8728320183
 40
1.0
 40
1.0
 40
1.0
 40
1.0
 10
12.162405905
 20
9.7370031124
 30
0.0
 10
12.1580624272
 20
9.7380692157
 30
0.0
 10
12.1493624779
 20
9.7406646154
 30
0.0
 10
12.1322729496
 20
9.7475696917
 30
0.0
 10
12.1160043165
 20
9.757052819
 30
0.0
 10
12.1014232387
 20
9.7690325124
 30
0.0
 10
12.0915073685
 20
9.7793171898
 30
0.0
 10
12.0829625643
 20
9.7907970936
 30
0.0
 10
12.0783085681
 20
9.7991431939
 30
0.0
 10
12.0762822868
 20
9.8034492608
 30
0.0
  0
SPLINE
  5
478
100
AcDbEntity
  8
0
100
AcDbSpline
 62
7
  6
CONTINUOUS
 70
0
 71
3
 72
12
 73
8
 74
0
 42
0.0000001
 43
0.0000001
 44
0.0000000001
 40
0.0
 40
0.0
 40
0.0
 40
0.0
 40
0.1072433657
 40
0.2202549132
 40
0.4620965198
 40
0.7229995224
 40
1.0
 40
1.0
 40
1.0
 40
1.0
 10
12.2557467326
 20
9.7015938618
 30
0.0
 10
12.2526590816
 20
9.7034057229
 30
0.0
 10
12.2462172173
 20
9.7069575575
 30
0.0
 10
12.2323768026
 20
9.7137783051
 30
0.0
 10
12.2133838359
 20
9.7216964497
 30
0.0
 10
12.1887164779
 20
9.7300549612
 30
0.0
 10
12.1713861963
 20
9.7347989068
 30
0.0
 10
12.162405905
 20
9.7370031124
 30
0.0
  0
SPLINE
  5
479
100
AcDbEntity
  8
0
100
AcDbSpline
 62
7
  6
CONTINUOUS
 70
0
 71
3
 72
14
 73
10
 74
0
 42
0.0000001
 43
0.0000001
 44
0.0000000001
 40
0.0
 40
0.0
 40
0.0
 40
0.0
 40
0.1262646378
 40
0.252679616
 40
0.3788774715
 40
0.5048179619
 40
0.7547540179
 40
0.8783806722
 40
1.0
 40
1.0
 40
1.0
 40
1.0
 10
10.3370091879
 20
10.3603081046
 30
0.0
 10
10.3401682737
 20
10.3620448268
 30
0.0
 10
10.3462448846
 20
10.365986512
 30
0.0
 10
10.3544434242
 20
10.3730921452
 30
0.0
 10
10.3616105723
 20
10.381224043
 30
0.0
 10
10.3697273386
 20
10.3930718716
 30
0.0
 10
10.3757576937
 20
10.4061358838
 30
0.0
 10
10.3797229196
 20
10.4197204023
 30
0.0
 10
10.3810296612
 20
10.4266139698
 30
0.0
 10
10.3815072148
 20
10.4300533456
 30
0.0
  0
SPLINE
  5
47A
100
AcDbEntity
  8
0
100
AcDbSpline
 62
7
  6
CONTINUOUS
 70
0
 71
3
 72
13
 73
9
 74
0
 42
0.0000001
 43
0.0000001
 44
0.0000000001
 40
0.0
 40
0.0
 40
0.0
 40
0.0
 40
0.2805936693
 40
0.5437139682
 40
0.6672593725
 40
0.7848437805
 40
0.8959415994
 40
1.0
 40
1.0
 40
1.0
 40
1.0
 10
10.3815072148
 20
10.4300533456
 30
0.0
 10
10.3830046296
 20
10.4408378378
 30
0.0
 10
10.3865575413
 20
10.4616514404
 30
0.0
 10
10.392663536
 20
10.4868398721
 30
0.0
 10
10.3984369809
 20
10.5055409083
 30
0.0
 10
10.4030510243
 20
10.5184117371
 30
0.0
 10
10.4080121172
 20
10.5303379878
 30
0.0
 10
10.4116563663
 20
10.5378566027
 30
0.0
 10
10.4135426497
 20
10.5414267312
 30
0.0
  0
SPLINE
  5
47B
100
AcDbEntity
  8
0
100
AcDbSpline
 62
7
  6
CONTINUOUS
 70
0
 71
3
 72
12
 73
8
 74
0
 42
0.0000001
 43
0.0000001
 44
0.0000000001
 40
0.0
 40
0.0
 40
0.0
 40
0.0
 40
0.2504561251
 40
0.3759115037
 40
0.5011992222
 40
0.7511436031
 40
1.0
 40
1.0
 40
1.0
 40
1.0
 10
11.0939663188
 20
8.0306336043
 30
0.0
 10
11.0893731295
 20
8.0300533495
 30
0.0
 10
11.0825415861
 20
8.0285324181
 30
0.0
 10
11.0738351216
 20
8.0253423726
 30
0.0
 10
11.0654432487
 20
8.021413399
 30
0.0
 10
11.0556263908
 20
8.0152622592
 30
0.0
 10
11.0485850783
 20
8.0092574403
 30
0.0
 10
11.0452921391
 20
8.0060453227
 30
0.0
  0
SPLINE
  5
47C
100
AcDbEntity
  8
0
100
AcDbSpline
 62
7
  6
CONTINUOUS
 70
0
 71
3
 72
9
 73
5
 74
0
 42
0.0000001
 43
0.0000001
 44
0.0000000001
 40
0.0
 40
0.0
 40
0.0
 40
0.0
 40
0.5047638361
 40
1.0
 40
1.0
 40
1.0
 40
1.0
 10
11.0452921391
 20
8.0060453227
 30
0.0
 10
11.0416542987
 20
8.0024967693
 30
0.0
 10
11.0349574259
 20
7.9949270954
 30
0.0
 10
11.029373768
 20
7.9865063321
 30
0.0
 10
11.0269181641
 20
7.9821669355
 30
0.0
  0
SPLINE
  5
47D
100
AcDbEntity
  8
0
100
AcDbSpline
 62
7
  6
CONTINUOUS
 70
0
 71
3
 72
14
 73
10
 74
0
 42
0.0000001
 43
0.0000001
 44
0.0000000001
 40
0.0
 40
0.0
 40
0.0
 40
0.0
 40
0.1211390167
 40
0.2444247196
 40
0.4941618603
 40
0.620227081
 40
0.7466654
 40
0.8733896634
 40
1.0
 40
1.0
 40
1.0
 40
1.0
 10
12.0715196378
 20
9.9012398071
 30
0.0
 10
12.0681001634
 20
9.9015325405
 30
0.0
 10
12.0612248509
 20
9.9024742562
 30
0.0
 10
12.0475955184
 20
9.9057369733
 30
0.0
 10
12.0343801272
 20
9.911114993
 30
0.0
 10
12.0222576203
 20
9.9186140619
 30
0.0
 10
12.0138370716
 20
9.9253345273
 30
0.0
 10
12.0063464154
 20
9.9330987622
 30
0.0
 10
12.0020751604
 20
9.9388990416
 30
0.0
 10
12.0001531554
 20
9.9419276368
 30
0.0
  0
SPLINE
  5
47E
100
AcDbEntity
  8
0
100
AcDbSpline
 62
7
  6
CONTINUOUS
 70
0
 71
3
 72
13
 73
9
 74
0
 42
0.0000001
 43
0.0000001
 44
0.0000000001
 40
0.0
 40
0.0
 40
0.0
 40
0.0
 40
0.1059102147
 40
0.218181063
 40
0.3363331803
 40
0.4599159054
 40
0.7217919242
 40
1.0
 40
1.0
 40
1.0
 40
1.0
 10
12.1847530732
 20
9.8763041228
 30
0.0
 10
12.1809709579
 20
9.8779093265
 30
0.0
 10
12.173078539
 20
9.880981171
 30
0.0
 10
12.1606905468
 20
9.8850917045
 30
0.0
 10
12.1474703244
 20
9.8888262808
 30
0.0
 10
12.1284638733
 20
9.8933676304
 30
0.0
 10
12.1031027879
 20
9.8979302472
 30
0.0
 10
12.0822730509
 20
9.9003192319
 30
0.0
 10
12.0715196378
 20
9.9012398071
 30
0.0
  0
SPLINE
  5
47F
100
AcDbEntity
  8
0
100
AcDbSpline
 62
7
  6
CONTINUOUS
 70
0
 71
3
 72
13
 73
9
 74
0
 42
0.0000001
 43
0.0000001
 44
0.0000000001
 40
0.0
 40
0.0
 40
0.0
 40
0.0
 40
0.2805936692
 40
0.5437139682
 40
0.6672593725
 40
0.7848437805
 40
0.8959415994
 40
1.0
 40
1.0
 40
1.0
 40
1.0
 10
11.0269181641
 20
7.9821669355
 30
0.0
 10
11.0215558667
 20
7.9726910034
 30
0.0
 10
11.0105904547
 20
7.9546469191
 30
0.0
 10
10.9956407643
 20
7.9334750742
 30
0.0
 10
10.9833884404
 20
7.9182126373
 30
0.0
 10
10.9743603432
 20
7.9079441859
 30
0.0
 10
10.96535729
 20
7.8986817386
 30
0.0
 10
10.9592011661
 20
7.8930326449
 30
0.0
 10
10.9561330922
 20
7.8904076106
 30
0.0
  0
SPLINE
  5
480
100
AcDbEntity
  8
0
100
AcDbSpline
 62
7
  6
CONTINUOUS
 70
0
 71
3
 72
12
 73
8
 74
0
 42
0.0000001
 43
0.0000001
 44
0.0000000001
 40
0.0
 40
0.0
 40
0.0
 40
0.0
 40
0.1072433657
 40
0.2202549132
 40
0.4620965198
 40
0.7229995224
 40
1.0
 40
1.0
 40
1.0
 40
1.0
 10
10.4318773203
 20
7.9754973435
 30
0.0
 10
10.4352415261
 20
7.9767214957
 30
0.0
 10
10.4420844606
 20
7.9794210129
 30
0.0
 10
10.4561621492
 20
7.9857375276
 30
0.0
 10
10.4743697572
 20
7.9953246446
 30
0.0
 10
10.4965336667
 20
8.0090032548
 30
0.0
 10
10.5112356769
 20
8.0193325615
 30
0.0
 10
10.5186582995
 20
8.0248469814
 30
0.0
  0
SPLINE
  5
481
100
AcDbEntity
  8
0
100
AcDbSpline
 62
7
  6
CONTINUOUS
 70
0
 71
3
 72
12
 73
8
 74
0
 42
0.0000001
 43
0.0000001
 44
0.0000000001
 40
0.0
 40
0.0
 40
0.0
 40
0.0
 40
0.2503894181
 40
0.3758279185
 40
0.5011117622
 40
0.7510846154
 40
1.0
 40
1.0
 40
1.0
 40
1.0
 10
11.247775761
 20
8.0599743246
 30
0.0
 10
11.2424209134
 20
8.0585994334
 30
0.0
 10
11.2345393152
 20
8.0558543534
 30
0.0
 10
11.2245835073
 20
8.0510103159
 30
0.0
 10
11.2150376758
 20
8.0454131812
 30
0.0
 10
11.203947483
 20
8.037153427
 30
0.0
 10
11.1960188881
 20
8.0294611769
 30
0.0
 10
11.1923078857
 20
8.025407244
 30
0.0
  0
SPLINE
  5
482
100
AcDbEntity
  8
0
100
AcDbSpline
 62
7
  6
CONTINUOUS
 70
0
 71
3
 72
10
 73
6
 74
0
 42
0.0000001
 43
0.0000001
 44
0.0000000001
 40
0.0
 40
0.0
 40
0.0
 40
0.0
 40
0.5073255119
 40
0.7564345967
 40
1.0
 40
1.0
 40
1.0
 40
1.0
 10
11.1923078857
 20
8.025407244
 30
0.0
 10
11.1869647275
 20
8.0195703292
 30
0.0
 10
11.1797225112
 20
8.0101677399
 30
0.0
 10
11.1717106485
 20
7.9967749189
 30
0.0
 10
11.1682837679
 20
7.9898850455
 30
0.0
 10
11.166730348
 20
7.9864180425
 30
0.0
  0
SPLINE
  5
483
100
AcDbEntity
  8
0
100
AcDbSpline
 62
7
  6
CONTINUOUS
 70
0
 71
3
 72
14
 73
10
 74
0
 42
0.0000001
 43
0.0000001
 44
0.0000000001
 40
0.0
 40
0.0
 40
0.0
 40
0.0
 40
0.1195097608
 40
0.2421276323
 40
0.4920798276
 40
0.6185952534
 40
0.7455567694
 40
0.8728320183
 40
1.0
 40
1.0
 40
1.0
 40
1.0
 10
12.0072107538
 20
10.0268320116
 30
0.0
 10
12.0027386052
 20
10.0267844422
 30
0.0
 10
11.9936665312
 20
10.0271347133
 30
0.0
 10
11.9753966792
 20
10.0295728611
 30
0.0
 10
11.9572807972
 20
10.034712214
 30
0.0
 10
11.9401785821
 20
10.0426893767
 30
0.0
 10
11.928016542
 20
10.0501849655
 30
0.0
 10
11.9168852526
 20
10.0591792006
 30
0.0
 10
11.9103018795
 20
10.066105691
 30
0.0
 10
11.9072683823
 20
10.0697725592
 30
0.0
  0
SPLINE
  5
484
100
AcDbEntity
  8
0
100
AcDbSpline
 62
7
  6
CONTINUOUS
 70
0
 71
3
 72
12
 73
8
 74
0
 42
0.0000001
 43
0.0000001
 44
0.0000000001
 40
0.0
 40
0.0
 40
0.0
 40
0.0
 40
0.1072433657
 40
0.2202549132
 40
0.4620965198
 40
0.7229995224
 40
1.0
 40
1.0
 40
1.0
 40
1.0
 10
12.1064250302
 20
10.0157481276
 30
0.0
 10
12.1029837919
 20
10.0167351982
 30
0.0
 10
12.0958610052
 20
10.0185734188
 30
0.0
 10
12.0807591617
 20
10.0217379089
 30
0.0
 10
12.0603937314
 20
10.0246839317
 30
0.0
 10
12.0344226666
 20
10.0266453227
 30
0.0
 10
12.0164570764
 20
10.0269303628
 30
0.0
 10
12.0072107538
 20
10.0268320116
 30
0.0
  0
SPLINE
  5
485
100
AcDbEntity
  8
0
100
AcDbSpline
 62
7
  6
CONTINUOUS
 70
0
 71
3
 72
12
 73
8
 74
0
 42
0.0000001
 43
0.0000001
 44
0.0000000001
 40
0.0
 40
0.0
 40
0.0
 40
0.0
 40
0.2794694415
 40
0.5415355211
 40
0.7826905117
 40
0.894540139
 40
1.0
 40
1.0
 40
1.0
 40
1.0
 10
11.166730348
 20
7.9864180425
 30
0.0
 10
11.1629216399
 20
7.9779175699
 30
0.0
 10
11.1550683142
 20
7.9616511931
 30
0.0
 10
11.1422315773
 20
7.9389200838
 30
0.0
 10
11.1308355197
 20
7.9218466476
 30
0.0
 10
11.1214798996
 20
7.9097583526
 30
0.0
 10
11.1167527993
 20
7.9042646125
 30
0.0
 10
11.1143792823
 20
7.9016720209
 30
0.0
  0
SPLINE
  5
486
100
AcDbEntity
  8
0
100
AcDbSpline
 62
7
  6
CONTINUOUS
 70
0
 71
3
 72
14
 73
10
 74
0
 42
0.0000001
 43
0.0000001
 44
0.0000000001
 40
0.0
 40
0.0
 40
0.0
 40
0.0
 40
0.1195097608
 40
0.2421276323
 40
0.4920798276
 40
0.6185952534
 40
0.7455567694
 40
0.8728320183
 40
1.0
 40
1.0
 40
1.0
 40
1.0
 10
10.5186582995
 20
8.0248469814
 30
0.0
 10
10.5222483832
 20
8.0275141288
 30
0.0
 10
10.5297937294
 20
8.0325631849
 30
0.0
 10
10.5460074575
 20
8.0413294315
 30
0.0
 10
10.5636843497
 20
8.0478198559
 30
0.0
 10
10.5822091909
 20
8.0514186255
 30
0.0
 10
10.5964542846
 20
8.0525032346
 30
0.0
 10
10.6107463657
 20
8.0517695533
 30
0.0
 10
10.6201437153
 20
8.0500355145
 30
0.0
 10
10.6247531971
 20
8.0488520007
 30
0.0
  0
SPLINE
  5
487
100
AcDbEntity
  8
0
100
AcDbSpline
 62
7
  6
CONTINUOUS
 70
0
 71
3
 72
14
 73
10
 74
0
 42
0.0000001
 43
0.0000001
 44
0.0000000001
 40
0.0
 40
0.0
 40
0.0
 40
0.0
 40
0.1262646376
 40
0.2526796152
 40
0.3788774708
 40
0.5048179619
 40
0.7547540192
 40
0.8783806727
 40
1.0
 40
1.0
 40
1.0
 40
1.0
 10
11.3966950024
 20
8.1083611193
 30
0.0
 10
11.3933431578
 20
8.1070340301
 30
0.0
 10
11.3868204387
 20
8.1038850276
 30
0.0
 10
11.3777959751
 20
8.0978629739
 30
0.0
 10
11.369666145
 20
8.0906934803
 30
0.0
 10
11.3601284551
 20
8.079956376
 30
0.0
 10
11.3525082963
 20
8.0677511813
 30
0.0
 10
11.3468717457
 20
8.0547707554
 30
0.0
 10
11.3447113151
 20
8.0480953239
 30
0.0
 10
11.3438064591
 20
8.044742922
 30
0.0
  0
SPLINE
  5
488
100
AcDbEntity
  8
0
100
AcDbSpline
 62
7
  6
CONTINUOUS
 70
0
 71
3
 72
13
 73
9
 74
0
 42
0.0000001
 43
0.0000001
 44
0.0000000001
 40
0.0
 40
0.0
 40
0.0
 40
0.0
 40
0.2805936692
 40
0.5437139682
 40
0.6672593725
 40
0.7848437805
 40
0.8959415994
 40
1.0
 40
1.0
 40
1.0
 40
1.0
 10
11.3438064591
 20
8.044742922
 30
0.0
 10
11.3409691966
 20
8.0342311446
 30
0.0
 10
11.3348356645
 20
8.0140269613
 30
0.0
 10
11.3256208698
 20
7.989802432
 30
0.0
 10
11.3175490889
 20
7.9719724635
 30
0.0
 10
11.311358286
 20
7.959781418
 30
0.0
 10
11.3049415572
 20
7.9485709992
 30
0.0
 10
11.3003837118
 20
7.9415684164
 30
0.0
 10
11.2980648466
 20
7.9382628534
 30
0.0
  0
SPLINE
  5
489
100
AcDbEntity
  8
0
100
AcDbSpline
 62
7
  6
CONTINUOUS
 70
0
 71
3
 72
14
 73
10
 74
0
 42
0.0000001
 43
0.0000001
 44
0.0000000001
 40
0.0
 40
0.0
 40
0.0
 40
0.0
 40
0.1211398344
 40
0.2444272305
 40
0.4941650716
 40
0.6202295682
 40
0.7466672739
 40
0.8733901847
 40
1.0
 40
1.0
 40
1.0
 40
1.0
 10
11.8783358407
 20
10.163306413
 30
0.0
 10
11.8749509727
 20
10.1627395571
 30
0.0
 10
11.8680573927
 20
10.1619418702
 30
0.0
 10
11.8540447559
 20
10.161712625
 30
0.0
 10
11.8399070391
 20
10.1636351528
 30
0.0
 10
11.8263004818
 20
10.1678839554
 30
0.0
 10
11.8164732472
 20
10.1722991593
 30
0.0
 10
11.8072870734
 20
10.1779565455
 30
0.0
 10
11.8017076077
 20
10.1825123842
 30
0.0
 10
11.7990928158
 20
10.1849678372
 30
0.0
  0
SPLINE
  5
48A
100
AcDbEntity
  8
0
100
AcDbSpline
 62
7
  6
CONTINUOUS
 70
0
 71
3
 72
13
 73
9
 74
0
 42
0.0000001
 43
0.0000001
 44
0.0000000001
 40
0.0
 40
0.0
 40
0.0
 40
0.0
 40
0.1059102147
 40
0.218181063
 40
0.3363331803
 40
0.4599159054
 40
0.7217919242
 40
1.0
 40
1.0
 40
1.0
 40
1.0
 10
11.994213092
 20
10.1673141393
 30
0.0
 10
11.9901506009
 20
10.1679283387
 30
0.0
 10
11.9817422002
 20
10.1689409109
 30
0.0
 10
11.9687211515
 20
10.1698415361
 30
0.0
 10
11.9549875153
 20
10.1701710481
 30
0.0
 10
11.9354487991
 20
10.1698430107
 30
0.0
 10
11.9097498021
 20
10.167955239
 30
0.0
 10
11.8889803533
 20
10.1650890245
 30
0.0
 10
11.8783358407
 20
10.163306413
 30
0.0
  0
SPLINE
  5
48B
100
AcDbEntity
  8
0
100
AcDbSpline
 62
7
  6
CONTINUOUS
 70
0
 71
3
 72
14
 73
10
 74
0
 42
0.0000001
 43
0.0000001
 44
0.0000000001
 40
0.0
 40
0.0
 40
0.0
 40
0.0
 40
0.1268214153
 40
0.2537889844
 40
0.3805145771
 40
0.5069202175
 40
0.7571070422
 40
0.8800643778
 40
1.0
 40
1.0
 40
1.0
 40
1.0
 10
10.2048018248
 20
10.2764067607
 30
0.0
 10
10.2086669579
 20
10.2792149443
 30
0.0
 10
10.2160037142
 20
10.2854033202
 30
0.0
 10
10.2256244564
 20
10.2960847657
 30
0.0
 10
10.2337524946
 20
10.3079209851
 30
0.0
 10
10.2425929911
 20
10.3247313743
 30
0.0
 10
10.2486359858
 20
10.3427130701
 30
0.0
 10
10.2520347955
 20
10.3609903625
 30
0.0
 10
10.2528782204
 20
10.3701187224
 30
0.0
 10
10.2530780706
 20
10.3746324686
 30
0.0
  0
SPLINE
  5
48C
100
AcDbEntity
  8
0
100
AcDbSpline
 62
7
  6
CONTINUOUS
 70
0
 71
3
 72
12
 73
8
 74
0
 42
0.0000001
 43
0.0000001
 44
0.0000000001
 40
0.0
 40
0.0
 40
0.0
 40
0.0
 40
0.2503894181
 40
0.3758279185
 40
0.5011117622
 40
0.7510846154
 40
1.0
 40
1.0
 40
1.0
 40
1.0
 10
11.5383754976
 20
8.1750308997
 30
0.0
 10
11.5335308039
 20
8.1723675068
 30
0.0
 10
11.5265794943
 20
8.1677485947
 30
0.0
 10
11.5181411295
 20
8.1605808329
 30
0.0
 10
11.5102871487
 20
8.1527855907
 30
0.0
 10
11.501599492
 20
8.142027313
 30
0.0
 10
11.4958329734
 20
8.1326049678
 30
0.0
 10
11.493246731
 20
8.1277555078
 30
0.0
  0
SPLINE
  5
48D
100
AcDbEntity
  8
0
100
AcDbSpline
 62
7
  6
CONTINUOUS
 70
0
 71
3
 72
10
 73
6
 74
0
 42
0.0000001
 43
0.0000001
 44
0.0000000001
 40
0.0
 40
0.0
 40
0.0
 40
0.0
 40
0.5073255119
 40
0.7564345967
 40
1.0
 40
1.0
 40
1.0
 40
1.0
 10
11.493246731
 20
8.1277555078
 30
0.0
 10
11.4895230197
 20
8.120773181
 30
0.0
 10
11.4848466597
 20
8.1098649254
 30
0.0
 10
11.4804171636
 20
8.0949003954
 30
0.0
 10
11.4788113866
 20
8.0873747494
 30
0.0
 10
11.4781689789
 20
8.0836303488
 30
0.0
  0
SPLINE
  5
48E
100
AcDbEntity
  8
0
100
AcDbSpline
 62
7
  6
CONTINUOUS
 70
0
 71
3
 72
12
 73
8
 74
0
 42
0.0000001
 43
0.0000001
 44
0.0000000001
 40
0.0
 40
0.0
 40
0.0
 40
0.0
 40
0.2794694415
 40
0.5415355211
 40
0.7826905117
 40
0.894540139
 40
1.0
 40
1.0
 40
1.0
 40
1.0
 10
11.4781689789
 20
8.0836303488
 30
0.0
 10
11.4765939099
 20
8.0744497471
 30
0.0
 10
11.4730325943
 20
8.0567413657
 30
0.0
 10
11.4662521441
 20
8.0315320293
 30
0.0
 10
11.4594601055
 20
8.0121609023
 30
0.0
 10
11.4534046461
 20
7.9981257352
 30
0.0
 10
11.450192294
 20
7.9916290089
 30
0.0
 10
11.4485380967
 20
7.9885275987
 30
0.0
  0
SPLINE
  5
48F
100
AcDbEntity
  8
0
100
AcDbSpline
 62
7
  6
CONTINUOUS
 70
0
 71
3
 72
12
 73
8
 74
0
 42
0.0000001
 43
0.0000001
 44
0.0000000001
 40
0.0
 40
0.0
 40
0.0
 40
0.0
 40
0.2794693506
 40
0.5415353533
 40
0.7826904616
 40
0.8945401275
 40
1.0
 40
1.0
 40
1.0
 40
1.0
 10
10.2530780706
 20
10.3746324686
 30
0.0
 10
10.253490085
 20
10.383938084
 30
0.0
 10
10.2548038686
 20
10.4019531752
 30
0.0
 10
10.2583712851
 20
10.4278135425
 30
0.0
 10
10.2626819204
 20
10.4478831933
 30
0.0
 10
10.2669305589
 20
10.4625666448
 30
0.0
 10
10.2693033254
 20
10.4694147585
 30
0.0
 10
10.2705557692
 20
10.4726990394
 30
0.0
  0
SPLINE
  5
490
100
AcDbEntity
  8
0
100
AcDbSpline
 62
7
  6
CONTINUOUS
 70
0
 71
3
 72
14
 73
10
 74
0
 42
0.0000001
 43
0.0000001
 44
0.0000000001
 40
0.0
 40
0.0
 40
0.0
 40
0.0
 40
0.1195097608
 40
0.2421276323
 40
0.4920798276
 40
0.6185952534
 40
0.7455567694
 40
0.8728320183
 40
1.0
 40
1.0
 40
1.0
 40
1.0
 10
11.7848138274
 20
10.2689599383
 30
0.0
 10
11.7804940096
 20
10.2678016853
 30
0.0
 10
11.7716198426
 20
10.2658848189
 30
0.0
 10
11.7533176289
 20
10.2637028404
 30
0.0
 10
11.7344927856
 20
10.2641754944
 30
0.0
 10
11.7159440283
 20
10.267648892
 30
0.0
 10
11.702300004
 20
10.2718844166
 30
0.0
 10
11.6892816491
 20
10.2778278422
 30
0.0
 10
11.6811825567
 20
10.2828995058
 30
0.0
 10
11.6773324494
 20
10.2856967725
 30
0.0
  0
SPLINE
  5
491
100
AcDbEntity
  8
0
100
AcDbSpline
 62
7
  6
CONTINUOUS
 70
0
 71
3
 72
12
 73
8
 74
0
 42
0.0000001
 43
0.0000001
 44
0.0000000001
 40
0.0
 40
0.0
 40
0.0
 40
0.0
 40
0.1072433657
 40
0.2202549132
 40
0.4620965198
 40
0.7229995224
 40
1.0
 40
1.0
 40
1.0
 40
1.0
 10
11.8836675547
 20
10.2828978621
 30
0.0
 10
11.8800889547
 20
10.2829981209
 30
0.0
 10
11.8727327967
 20
10.2830072255
 30
0.0
 10
11.8573184286
 20
10.2823166215
 30
0.0
 10
11.8368601697
 20
10.280105413
 30
0.0
 10
11.8112172556
 20
10.2755464422
 30
0.0
 10
11.7937452008
 20
10.2713546666
 30
0.0
 10
11.7848138274
 20
10.2689599383
 30
0.0
  0
SPLINE
  5
492
100
AcDbEntity
  8
0
100
AcDbSpline
 62
7
  6
CONTINUOUS
 70
0
 71
3
 72
14
 73
10
 74
0
 42
0.0000001
 43
0.0000001
 44
0.0000000001
 40
0.0
 40
0.0
 40
0.0
 40
0.0
 40
0.1262646376
 40
0.2526796152
 40
0.3788774708
 40
0.5048179619
 40
0.7547540192
 40
0.8783806727
 40
1.0
 40
1.0
 40
1.0
 40
1.0
 10
11.6705828607
 20
8.2589322436
 30
0.0
 10
11.6676663542
 20
8.2568132775
 30
0.0
 10
11.6621316833
 20
8.2521410724
 30
0.0
 10
11.6548883637
 20
8.2440639198
 30
0.0
 10
11.6487969277
 20
8.2350978625
 30
0.0
 10
11.6422290912
 20
8.222326157
 30
0.0
 10
11.6378836421
 20
8.2086093545
 30
0.0
 10
11.6356522748
 20
8.1946349794
 30
0.0
 10
11.6352198304
 20
8.1876319916
 30
0.0
 10
11.6351771106
 20
8.1841598831
 30
0.0
  0
SPLINE
  5
493
100
AcDbEntity
  8
0
100
AcDbSpline
 62
7
  6
CONTINUOUS
 70
0
 71
3
 72
13
 73
9
 74
0
 42
0.0000001
 43
0.0000001
 44
0.0000000001
 40
0.0
 40
0.0
 40
0.0
 40
0.0
 40
0.1059102147
 40
0.218181063
 40
0.3363331803
 40
0.4599159054
 40
0.7217919242
 40
1.0
 40
1.0
 40
1.0
 40
1.0
 10
9.5710525648
 20
9.5082776567
 30
0.0
 10
9.5731688453
 20
9.5047559481
 30
0.0
 10
9.5777483613
 20
9.4976317262
 30
0.0
 10
9.5853543465
 20
9.4870247557
 30
0.0
 10
9.5938546023
 20
9.4762327682
 30
0.0
 10
9.6065618059
 20
9.4613870275
 30
0.0
 10
9.6243975162
 20
9.442788921
 30
0.0
 10
9.6398449173
 20
9.4286127796
 30
0.0
 10
9.6480035108
 20
9.421547321
 30
0.0
  0
SPLINE
  5
494
100
AcDbEntity
  8
0
100
AcDbSpline
 62
7
  6
CONTINUOUS
 70
0
 71
3
 72
13
 73
9
 74
0
 42
0.0000001
 43
0.0000001
 44
0.0000000001
 40
0.0
 40
0.0
 40
0.0
 40
0.0
 40
0.2805935536
 40
0.5437137952
 40
0.6672592757
 40
0.7848437531
 40
0.8959415968
 40
1.0
 40
1.0
 40
1.0
 40
1.0
 10
11.6351771106
 20
8.1841598831
 30
0.0
 10
11.6350431587
 20
8.1732727585
 30
0.0
 10
11.6341269008
 20
8.152177986
 30
0.0
 10
11.6312260008
 20
8.1264228924
 30
0.0
 10
11.6278419431
 20
8.1071457113
 30
0.0
 10
11.6248774245
 20
8.0937980733
 30
0.0
 10
11.6214502061
 20
8.0813440711
 30
0.0
 10
11.6187770249
 20
8.0734279963
 30
0.0
 10
11.6173530711
 20
8.0696496052
 30
0.0
  0
SPLINE
  5
495
100
AcDbEntity
  8
0
100
AcDbSpline
 62
7
  6
CONTINUOUS
 70
0
 71
3
 72
14
 73
10
 74
0
 42
0.0000001
 43
0.0000001
 44
0.0000000001
 40
0.0
 40
0.0
 40
0.0
 40
0.0
 40
0.1211389889
 40
0.244424656
 40
0.4941618765
 40
0.6202271057
 40
0.7466654055
 40
0.8733896611
 40
1.0
 40
1.0
 40
1.0
 40
1.0
 10
11.6260479532
 20
10.3690968578
 30
0.0
 10
11.6229104203
 20
10.3677060381
 30
0.0
 10
11.6164318649
 20
10.3652190628
 30
0.0
 10
11.6029165634
 20
10.3615122222
 30
0.0
 10
11.5887449456
 20
10.3598584539
 30
0.0
 10
11.5745092058
 20
10.360589875
 30
0.0
 10
11.5638926144
 20
10.3624224342
 30
0.0
 10
11.5535880543
 20
10.3656176338
 30
0.0
 10
11.5470508192
 20
10.3686427644
 30
0.0
 10
11.5439075165
 20
10.3703708097
 30
0.0
  0
SPLINE
  5
496
100
AcDbEntity
  8
0
100
AcDbSpline
 62
7
  6
CONTINUOUS
 70
0
 71
3
 72
13
 73
9
 74
0
 42
0.0000001
 43
0.0000001
 44
0.0000000001
 40
0.0
 40
0.0
 40
0.0
 40
0.0
 40
0.1059102147
 40
0.218181063
 40
0.3363331803
 40
0.4599159054
 40
0.7217919242
 40
1.0
 40
1.0
 40
1.0
 40
1.0
 10
11.7372880265
 20
10.4017961746
 30
0.0
 10
11.7332004209
 20
10.4013807774
 30
0.0
 10
11.7248043691
 20
10.4002704535
 30
0.0
 10
11.7119684242
 20
10.3979045808
 30
0.0
 10
11.6985843091
 20
10.3948083242
 30
0.0
 10
11.6797410172
 20
10.3896315115
 30
0.0
 10
11.6553188712
 20
10.381411967
 30
0.0
 10
11.6359147314
 20
10.373470648
 30
0.0
 10
11.6260479532
 20
10.3690968578
 30
0.0
  0
SPLINE
  5
497
100
AcDbEntity
  8
0
100
AcDbSpline
 62
7
  6
CONTINUOUS
 70
0
 71
3
 72
13
 73
9
 74
0
 42
0.0000001
 43
0.0000001
 44
0.0000000001
 40
0.0
 40
0.0
 40
0.0
 40
0.0
 40
0.1059102147
 40
0.218181063
 40
0.3363331803
 40
0.4599159054
 40
0.7217919242
 40
1.0
 40
1.0
 40
1.0
 40
1.0
 10
10.2865454729
 20
8.0422698446
 30
0.0
 10
10.2905487835
 20
8.0431942792
 30
0.0
 10
10.2987394694
 20
8.0453481521
 30
0.0
 10
10.3111776765
 20
8.0493041398
 30
0.0
 10
10.32406819
 20
8.0540534558
 30
0.0
 10
10.3421140703
 20
8.0615511385
 30
0.0
 10
10.3653134582
 20
8.072766776
 30
0.0
 10
10.3835692794
 20
8.0830774589
 30
0.0
 10
10.3928100739
 20
8.0886533956
 30
0.0
  0
SPLINE
  5
498
100
AcDbEntity
  8
0
100
AcDbSpline
 62
7
  6
CONTINUOUS
 70
0
 71
3
 72
14
 73
10
 74
0
 42
0.0000001
 43
0.0000001
 44
0.0000000001
 40
0.0
 40
0.0
 40
0.0
 40
0.0
 40
0.1211398344
 40
0.2444272305
 40
0.4941650716
 40
0.6202295682
 40
0.7466672739
 40
0.8733901847
 40
1.0
 40
1.0
 40
1.0
 40
1.0
 10
10.3928100739
 20
8.0886533956
 30
0.0
 10
10.395748571
 20
8.0904264979
 30
0.0
 10
10.4018644114
 20
8.0937058645
 30
0.0
 10
10.4148086408
 20
8.099077407
 30
0.0
 10
10.4286612872
 20
8.1024943265
 30
0.0
 10
10.4428764328
 20
8.1035527976
 30
0.0
 10
10.4536389094
 20
8.1030652912
 30
0.0
 10
10.4642626206
 20
8.1011868426
 30
0.0
 10
10.4711273926
 20
8.0990048692
 30
0.0
 10
10.4744624772
 20
8.0976844158
 30
0.0
  0
SPLINE
  5
499
100
AcDbEntity
  8
0
100
AcDbSpline
 62
7
  6
CONTINUOUS
 70
0
 71
3
 72
9
 73
5
 74
0
 42
0.0000001
 43
0.0000001
 44
0.0000000001
 40
0.0
 40
0.0
 40
0.0
 40
0.0
 40
0.2457094427
 40
1.0
 40
1.0
 40
1.0
 40
1.0
 10
9.6480035108
 20
9.421547321
 30
0.0
 10
9.6502838811
 20
9.4195724877
 30
0.0
 10
9.6592010607
 20
9.4111270592
 30
0.0
 10
9.6666379239
 20
9.4011002196
 30
0.0
 10
9.6710617235
 20
9.3929645822
 30
0.0
  0
SPLINE
  5
49A
100
AcDbEntity
  8
0
100
AcDbSpline
 62
7
  6
CONTINUOUS
 70
0
 71
3
 72
14
 73
10
 74
0
 42
0.0000001
 43
0.0000001
 44
0.0000000001
 40
0.0
 40
0.0
 40
0.0
 40
0.0
 40
0.1268214151
 40
0.2537889839
 40
0.3805145767
 40
0.5069202172
 40
0.7571070421
 40
0.8800643778
 40
1.0
 40
1.0
 40
1.0
 40
1.0
 10
11.7912321025
 20
8.3587419766
 30
0.0
 10
11.7877494058
 20
8.3554715067
 30
0.0
 10
11.7812461112
 20
8.3484123887
 30
0.0
 10
11.7730399716
 20
8.3366093708
 30
0.0
 10
11.766459497
 20
8.3238477703
 30
0.0
 10
11.7597956109
 20
8.306061928
 30
0.0
 10
11.7560539711
 20
8.2874646352
 30
0.0
 10
11.7549727142
 20
8.2689054808
 30
0.0
 10
11.7552800268
 20
8.2597433917
 30
0.0
 10
11.7556474749
 20
8.2552401898
 30
0.0
  0
SPLINE
  5
49B
100
AcDbEntity
  8
0
100
AcDbSpline
 62
7
  6
CONTINUOUS
 70
0
 71
3
 72
14
 73
10
 74
0
 42
0.0000001
 43
0.0000001
 44
0.0000000001
 40
0.0
 40
0.0
 40
0.0
 40
0.0
 40
0.1195097608
 40
0.2421276323
 40
0.4920798276
 40
0.6185952534
 40
0.7455567694
 40
0.8728320183
 40
1.0
 40
1.0
 40
1.0
 40
1.0
 10
11.5091891426
 20
10.4481731044
 30
0.0
 10
11.5052930856
 20
10.4459769451
 30
0.0
 10
11.4971744222
 20
10.441913385
 30
0.0
 10
11.4799898422
 20
10.4352483819
 30
0.0
 10
11.4616388717
 20
10.4310246385
 30
0.0
 10
11.4428090589
 20
10.4297760245
 30
0.0
 10
11.4285403545
 20
10.4304853514
 30
0.0
 10
11.4144529254
 20
10.4330045202
 30
0.0
 10
11.4053470094
 20
10.4359026858
 30
0.0
 10
11.4009222083
 20
10.4376545885
 30
0.0
  0
SPLINE
  5
49C
100
AcDbEntity
  8
0
100
AcDbSpline
 62
7
  6
CONTINUOUS
 70
0
 71
3
 72
12
 73
8
 74
0
 42
0.0000001
 43
0.0000001
 44
0.0000000001
 40
0.0
 40
0.0
 40
0.0
 40
0.0
 40
0.1072433657
 40
0.2202549132
 40
0.4620965198
 40
0.7229995224
 40
1.0
 40
1.0
 40
1.0
 40
1.0
 10
11.6014709776
 20
10.486257065
 30
0.0
 10
11.5979798726
 20
10.4854642124
 30
0.0
 10
11.5908525575
 20
10.4836436288
 30
0.0
 10
11.5760942064
 20
10.479141324
 30
0.0
 10
11.5568285865
 20
10.4719118226
 30
0.0
 10
11.5331250616
 20
10.4611189467
 30
0.0
 10
11.5172443758
 20
10.4527137402
 30
0.0
 10
11.5091891426
 20
10.4481731044
 30
0.0
  0
SPLINE
  5
49D
100
AcDbEntity
  8
0
100
AcDbSpline
 62
7
  6
CONTINUOUS
 70
0
 71
3
 72
12
 73
8
 74
0
 42
0.0000001
 43
0.0000001
 44
0.0000000001
 40
0.0
 40
0.0
 40
0.0
 40
0.0
 40
0.2794694415
 40
0.5415355211
 40
0.7826905117
 40
0.894540139
 40
1.0
 40
1.0
 40
1.0
 40
1.0
 10
11.7556474749
 20
8.2552401898
 30
0.0
 10
11.7564050125
 20
8.2459563098
 30
0.0
 10
11.7573594775
 20
8.2279186066
 30
0.0
 10
11.7570613546
 20
8.2018150385
 30
0.0
 10
11.7553001038
 20
8.1813633797
 30
0.0
 10
11.7529252919
 20
8.1662632216
 30
0.0
 10
11.7514295319
 20
8.1591717225
 30
0.0
 10
11.7505985935
 20
8.1557563667
 30
0.0
  0
SPLINE
  5
49E
100
AcDbEntity
  8
0
100
AcDbSpline
 62
7
  6
CONTINUOUS
 70
0
 71
3
 72
14
 73
10
 74
0
 42
0.0000001
 43
0.0000001
 44
0.0000000001
 40
0.0
 40
0.0
 40
0.0
 40
0.0
 40
0.1262646376
 40
0.2526796152
 40
0.3788774708
 40
0.5048179619
 40
0.7547540192
 40
0.8783806727
 40
1.0
 40
1.0
 40
1.0
 40
1.0
 10
11.8984205124
 20
8.4728860397
 30
0.0
 10
11.8961225987
 20
8.4701083392
 30
0.0
 10
11.8919237399
 20
8.4642065033
 30
0.0
 10
11.8869166886
 20
8.4545817689
 30
0.0
 10
11.8832463941
 20
8.4443825184
 30
0.0
 10
11.8800610922
 20
8.4303787049
 30
0.0
 10
11.8792633935
 20
8.4160121717
 30
0.0
 10
11.8805774145
 20
8.4019219089
 30
0.0
 10
11.8819001283
 20
8.3950313883
 30
0.0
 10
11.8827222289
 20
8.3916577384
 30
0.0
  0
SPLINE
  5
49F
100
AcDbEntity
  8
0
100
AcDbSpline
 62
7
  6
CONTINUOUS
 70
0
 71
3
 72
14
 73
10
 74
0
 42
0.0000001
 43
0.0000001
 44
0.0000000001
 40
0.0
 40
0.0
 40
0.0
 40
0.0
 40
0.1211398344
 40
0.2444272305
 40
0.4941650716
 40
0.6202295682
 40
0.7466672739
 40
0.8733901847
 40
1.0
 40
1.0
 40
1.0
 40
1.0
 10
11.3305081511
 20
10.5056805712
 30
0.0
 10
11.3278150535
 20
10.503553159
 30
0.0
 10
11.322158452
 20
10.4995331331
 30
0.0
 10
11.3099895245
 20
10.4925816047
 30
0.0
 10
11.2966743639
 20
10.4874554317
 30
0.0
 10
11.2827039706
 20
10.4846236768
 30
0.0
 10
11.2719652586
 20
10.4837584431
 30
0.0
 10
11.2611898865
 20
10.4842905754
 30
0.0
 10
11.2541057714
 20
10.4855949593
 30
0.0
 10
11.2506314884
 20
10.4864870035
 30
0.0
  0
SPLINE
  5
4A0
100
AcDbEntity
  8
0
100
AcDbSpline
 62
7
  6
CONTINUOUS
 70
0
 71
3
 72
13
 73
9
 74
0
 42
0.0000001
 43
0.0000001
 44
0.0000000001
 40
0.0
 40
0.0
 40
0.0
 40
0.0
 40
0.1059102147
 40
0.218181063
 40
0.3363331803
 40
0.4599159054
 40
0.7217919242
 40
1.0
 40
1.0
 40
1.0
 40
1.0
 10
11.4301214236
 20
10.5650168601
 30
0.0
 10
11.4262655426
 20
10.5635979671
 30
0.0
 10
11.4184093946
 20
10.5604345129
 30
0.0
 10
11.4065650831
 20
10.5549507987
 30
0.0
 10
11.3943714624
 20
10.5486233227
 30
0.0
 10
11.3774075881
 20
10.538923013
 30
0.0
 10
11.3557968263
 20
10.5248881598
 30
0.0
 10
11.338977229
 20
10.5123707186
 30
0.0
 10
11.3305081511
 20
10.5056805712
 30
0.0
  0
SPLINE
  5
4A1
100
AcDbEntity
  8
0
100
AcDbSpline
 62
7
  6
CONTINUOUS
 70
0
 71
3
 72
13
 73
9
 74
0
 42
0.0000001
 43
0.0000001
 44
0.0000000001
 40
0.0
 40
0.0
 40
0.0
 40
0.0
 40
0.2805936692
 40
0.5437139682
 40
0.6672593725
 40
0.7848437805
 40
0.8959415994
 40
1.0
 40
1.0
 40
1.0
 40
1.0
 10
11.8827222289
 20
8.3916577384
 30
0.0
 10
11.8853000042
 20
8.381079336
 30
0.0
 10
11.8896585886
 20
8.3604194236
 30
0.0
 10
11.8932538584
 20
8.3347520456
 30
0.0
 10
11.8947701558
 20
8.315238915
 30
0.0
 10
11.8952181948
 20
8.3015733783
 30
0.0
 10
11.8949958329
 20
8.2886583307
 30
0.0
 10
11.8943752826
 20
8.2803261619
 30
0.0
 10
11.8939357126
 20
8.2763123531
 30
0.0
  0
SPLINE
  5
4A2
100
AcDbEntity
  8
0
100
AcDbSpline
 62
7
  6
CONTINUOUS
 70
0
 71
3
 72
14
 73
10
 74
0
 42
0.0000001
 43
0.0000001
 44
0.0000000001
 40
0.0
 40
0.0
 40
0.0
 40
0.0
 40
0.1262646378
 40
0.252679616
 40
0.3788774715
 40
0.5048179619
 40
0.7547540179
 40
0.8783806722
 40
1.0
 40
1.0
 40
1.0
 40
1.0
 10
10.084152583
 20
10.1765970277
 30
0.0
 10
10.0867805151
 20
10.1790648202
 30
0.0
 10
10.0916859609
 20
10.1843938618
 30
0.0
 10
10.0978598291
 20
10.1933151524
 30
0.0
 10
10.1027794873
 20
10.202973969
 30
0.0
 10
10.1076948153
 20
10.2164681339
 30
0.0
 10
10.110286828
 20
10.2306214045
 30
0.0
 10
10.1107491467
 20
10.2447652519
 30
0.0
 10
10.1103004741
 20
10.2517672187
 30
0.0
 10
10.1099076865
 20
10.2552173029
 30
0.0
  0
SPLINE
  5
4A3
100
AcDbEntity
  8
0
100
AcDbSpline
 62
7
  6
CONTINUOUS
 70
0
 71
3
 72
13
 73
9
 74
0
 42
0.0000001
 43
0.0000001
 44
0.0000000001
 40
0.0
 40
0.0
 40
0.0
 40
0.0
 40
0.2805936693
 40
0.5437139682
 40
0.6672593725
 40
0.7848437805
 40
0.8959415994
 40
1.0
 40
1.0
 40
1.0
 40
1.0
 10
10.1099076865
 20
10.2552173029
 30
0.0
 10
10.1086760631
 20
10.2660353724
 30
0.0
 10
10.106941221
 20
10.2870786507
 30
0.0
 10
10.1065912765
 20
10.3129942406
 30
0.0
 10
10.1075325794
 20
10.3325435467
 30
0.0
 10
10.1088008192
 20
10.3461574807
 30
0.0
 10
10.1106401123
 20
10.35894282
 30
0.0
 10
10.1123000671
 20
10.3671315116
 30
0.0
 10
10.1132392346
 20
10.3710585776
 30
0.0
  0
SPLINE
  5
4A4
100
AcDbEntity
  8
0
100
AcDbSpline
 62
7
  6
CONTINUOUS
 70
0
 71
3
 72
14
 73
10
 74
0
 42
0.0000001
 43
0.0000001
 44
0.0000000001
 40
0.0
 40
0.0
 40
0.0
 40
0.0
 40
0.1268214151
 40
0.2537889839
 40
0.3805145767
 40
0.5069202172
 40
0.7571070421
 40
0.8800643778
 40
1.0
 40
1.0
 40
1.0
 40
1.0
 10
11.9904576652
 20
8.5995643128
 30
0.0
 10
11.9878977166
 20
8.5955304793
 30
0.0
 10
11.9833542662
 20
8.5870758328
 30
0.0
 10
11.9783412288
 20
8.5736028445
 30
0.0
 10
11.9751411729
 20
8.5596056756
 30
0.0
 10
11.9731098041
 20
8.5407213672
 30
0.0
 10
11.9741106735
 20
8.5217778345
 30
0.0
 10
11.9776788602
 20
8.5035328525
 30
0.0
 10
11.9802550369
 20
8.4947350327
 30
0.0
 10
11.9817308418
 20
8.4904646879
 30
0.0
  0
SPLINE
  5
4A5
100
AcDbEntity
  8
0
100
AcDbSpline
 62
7
  6
CONTINUOUS
 70
0
 71
3
 72
12
 73
8
 74
0
 42
0.0000001
 43
0.0000001
 44
0.0000000001
 40
0.0
 40
0.0
 40
0.0
 40
0.0
 40
0.2794694415
 40
0.5415355211
 40
0.7826905117
 40
0.894540139
 40
1.0
 40
1.0
 40
1.0
 40
1.0
 10
11.9817308418
 20
8.4904646879
 30
0.0
 10
11.9847733869
 20
8.48166087
 30
0.0
 10
11.99018366
 20
8.4644272202
 30
0.0
 10
11.9963865967
 20
8.4390696035
 30
0.0
 10
11.9997667995
 20
8.418822466
 30
0.0
 10
12.0012218533
 20
8.4036061154
 30
0.0
 10
12.0015366694
 20
8.3963654284
 30
0.0
 10
12.001581201
 20
8.3928507263
 30
0.0
  0
SPLINE
  5
4A6
100
AcDbEntity
  8
0
100
AcDbSpline
 62
7
  6
CONTINUOUS
 70
0
 71
3
 72
14
 73
10
 74
0
 42
0.0000001
 43
0.0000001
 44
0.0000000001
 40
0.0
 40
0.0
 40
0.0
 40
0.0
 40
0.1195097608
 40
0.2421276323
 40
0.4920798276
 40
0.6185952534
 40
0.7455567694
 40
0.8728320183
 40
1.0
 40
1.0
 40
1.0
 40
1.0
 10
11.1976552121
 20
10.5532108877
 30
0.0
 10
11.1944277195
 20
10.5501148147
 30
0.0
 10
11.1875746851
 20
10.5441598894
 30
0.0
 10
11.1725875092
 20
10.5334306483
 30
0.0
 10
11.1558634704
 20
10.5247759008
 30
0.0
 10
11.1379357485
 20
10.5188837303
 30
0.0
 10
11.1239389192
 20
10.5160222899
 30
0.0
 10
11.1096675808
 20
10.5149589132
 30
0.0
 10
11.1001269994
 20
10.5155014784
 30
0.0
 10
11.0954055311
 20
10.5160979385
 30
0.0
  0
SPLINE
  5
4A7
100
AcDbEntity
  8
0
100
AcDbSpline
 62
7
  6
CONTINUOUS
 70
0
 71
3
 72
12
 73
8
 74
0
 42
0.0000001
 43
0.0000001
 44
0.0000000001
 40
0.0
 40
0.0
 40
0.0
 40
0.0
 40
0.1072433657
 40
0.2202549132
 40
0.4620965198
 40
0.7229995224
 40
1.0
 40
1.0
 40
1.0
 40
1.0
 10
11.2775667477
 20
10.6130479297
 30
0.0
 10
11.2743824966
 20
10.6114117835
 30
0.0
 10
11.26793186
 20
10.6078759057
 30
0.0
 10
11.2547568473
 20
10.5998447964
 30
0.0
 10
11.2378943961
 20
10.5880512583
 30
0.0
 10
11.2176196401
 20
10.5717026335
 30
0.0
 10
11.2043281651
 20
10.559612126
 30
0.0
 10
11.1976552121
 20
10.5532108877
 30
0.0
  0
SPLINE
  5
4A8
100
AcDbEntity
  8
0
100
AcDbSpline
 62
7
  6
CONTINUOUS
 70
0
 71
3
 72
12
 73
8
 74
0
 42
0.0000001
 43
0.0000001
 44
0.0000000001
 40
0.0
 40
0.0
 40
0.0
 40
0.0
 40
0.1072433657
 40
0.2202549132
 40
0.4620965198
 40
0.7229995224
 40
1.0
 40
1.0
 40
1.0
 40
1.0
 10
10.126418281
 20
8.1418843888
 30
0.0
 10
10.1299812284
 20
8.1422334381
 30
0.0
 10
10.1372805221
 20
8.1431463764
 30
0.0
 10
10.1524867876
 20
8.1457634673
 30
0.0
 10
10.1725065891
 20
8.1505213395
 30
0.0
 10
10.1973759107
 20
8.1582582709
 30
0.0
 10
10.2141848243
 20
8.1646068222
 30
0.0
 10
10.2227456321
 20
8.1681020652
 30
0.0
  0
SPLINE
  5
4A9
100
AcDbEntity
  8
0
100
AcDbSpline
 62
7
  6
CONTINUOUS
 70
0
 71
3
 72
14
 73
10
 74
0
 42
0.0000001
 43
0.0000001
 44
0.0000000001
 40
0.0
 40
0.0
 40
0.0
 40
0.0
 40
0.1262646376
 40
0.2526796152
 40
0.3788774708
 40
0.5048179619
 40
0.7547540192
 40
0.8783806727
 40
1.0
 40
1.0
 40
1.0
 40
1.0
 10
12.0658920799
 20
8.7367790038
 30
0.0
 10
12.0643571454
 20
8.733517102
 30
0.0
 10
12.0617579283
 20
8.7267564694
 30
0.0
 10
12.0593017569
 20
8.7161889107
 30
0.0
 10
12.058283222
 20
8.7053973232
 30
0.0
 10
12.058680599
 20
8.691041313
 30
0.0
 10
12.0614807729
 20
8.6769277512
 30
0.0
 10
12.0662576174
 20
8.6636069436
 30
0.0
 10
12.0692523785
 20
8.6572618469
 30
0.0
 10
12.0708876439
 20
8.6541986346
 30
0.0
  0
SPLINE
  5
4AA
100
AcDbEntity
  8
0
100
AcDbSpline
 62
7
  6
CONTINUOUS
 70
0
 71
3
 72
13
 73
9
 74
0
 42
0.0000001
 43
0.0000001
 44
0.0000000001
 40
0.0
 40
0.0
 40
0.0
 40
0.0
 40
0.2805935545
 40
0.5437137952
 40
0.6672592747
 40
0.7848437521
 40
0.8959415964
 40
1.0
 40
1.0
 40
1.0
 40
1.0
 10
12.0708876439
 20
8.6541986346
 30
0.0
 10
12.0760151733
 20
8.6445936427
 30
0.0
 10
12.0853747346
 20
8.6256667421
 30
0.0
 10
12.0952402675
 20
8.6016998623
 30
0.0
 10
12.1015616479
 20
8.5831768577
 30
0.0
 10
12.1053940941
 20
8.5700520655
 30
0.0
 10
12.108390561
 20
8.5574874651
 30
0.0
 10
12.1098616326
 20
8.549262741
 30
0.0
 10
12.1104340662
 20
8.5452657167
 30
0.0
  0
SPLINE
  5
4AB
100
AcDbEntity
  8
0
100
AcDbSpline
 62
7
  6
CONTINUOUS
 70
0
 71
3
 72
14
 73
10
 74
0
 42
0.0000001
 43
0.0000001
 44
0.0000000001
 40
0.0
 40
0.0
 40
0.0
 40
0.0
 40
0.1211398344
 40
0.2444272305
 40
0.4941650716
 40
0.6202295682
 40
0.7466672739
 40
0.8733901847
 40
1.0
 40
1.0
 40
1.0
 40
1.0
 10
11.010286287
 20
10.5644754959
 30
0.0
 10
11.008206864
 20
10.5617451742
 30
0.0
 10
11.0037277148
 20
10.5564447053
 30
0.0
 10
10.9936698713
 20
10.5466852827
 30
0.0
 10
10.9820478584
 20
10.538408812
 30
0.0
 10
10.9692205995
 20
10.5321917264
 30
0.0
 10
10.9590344387
 20
10.5286830665
 30
0.0
 10
10.9484652589
 20
10.5265187549
 30
0.0
 10
10.9412793172
 20
10.5260204113
 30
0.0
 10
10.9376923427
 20
10.5260204113
 30
0.0
  0
SPLINE
  5
4AC
100
AcDbEntity
  8
0
100
AcDbSpline
 62
7
  6
CONTINUOUS
 70
0
 71
3
 72
13
 73
9
 74
0
 42
0.0000001
 43
0.0000001
 44
0.0000000001
 40
0.0
 40
0.0
 40
0.0
 40
0.0
 40
0.1059102147
 40
0.218181063
 40
0.3363331803
 40
0.4599159054
 40
0.7217919242
 40
1.0
 40
1.0
 40
1.0
 40
1.0
 10
11.0920136904
 20
10.6467204397
 30
0.0
 10
11.0886318134
 20
10.6443872053
 30
0.0
 10
11.0818091998
 20
10.6393693923
 30
0.0
 10
11.0717007434
 20
10.6311123986
 30
0.0
 10
11.061463787
 20
10.6219512816
 30
0.0
 10
11.0474452329
 20
10.608336981
 30
0.0
 10
11.030003739
 20
10.5893686807
 30
0.0
 10
11.0168255213
 20
10.5730616341
 30
0.0
 10
11.010286287
 20
10.5644754959
 30
0.0
  0
SPLINE
  5
4AD
100
AcDbEntity
  8
0
100
AcDbSpline
 62
7
  6
CONTINUOUS
 70
0
 71
3
 72
14
 73
10
 74
0
 42
0.0000001
 43
0.0000001
 44
0.0000000001
 40
0.0
 40
0.0
 40
0.0
 40
0.0
 40
0.1195088881
 40
0.2421250046
 40
0.4920775708
 40
0.6185934356
 40
0.7455550701
 40
0.8728314788
 40
1.0
 40
1.0
 40
1.0
 40
1.0
 10
10.2227456321
 20
8.1681020652
 30
0.0
 10
10.226886189
 20
8.1697925894
 30
0.0
 10
10.2354500326
 20
8.1728065562
 30
0.0
 10
10.2533343672
 20
8.1772652137
 30
0.0
 10
10.2720699719
 20
8.1791556233
 30
0.0
 10
10.2909078402
 20
8.1780345198
 30
0.0
 10
10.3049751966
 20
8.1755424195
 30
0.0
 10
10.3186358504
 20
8.1712774195
 30
0.0
 10
10.3273068127
 20
8.1672608674
 30
0.0
 10
10.3314771689
 20
8.1649681946
 30
0.0
  0
SPLINE
  5
4AE
100
AcDbEntity
  8
0
100
AcDbSpline
 62
7
  6
CONTINUOUS
 70
0
 71
3
 72
12
 73
8
 74
0
 42
0.0000001
 43
0.0000001
 44
0.0000000001
 40
0.0
 40
0.0
 40
0.0
 40
0.0
 40
0.2503894183
 40
0.375827919
 40
0.5011117629
 40
0.7510846158
 40
1.0
 40
1.0
 40
1.0
 40
1.0
 10
10.7814183666
 20
10.5047054
 30
0.0
 10
10.7869033092
 20
10.5053983094
 30
0.0
 10
10.7950668083
 20
10.5071339174
 30
0.0
 10
10.8055512305
 20
10.5106919646
 30
0.0
 10
10.8157232972
 20
10.5150485542
 30
0.0
 10
10.8277612622
 20
10.521853208
 30
0.0
 10
10.8365914322
 20
10.5284910859
 30
0.0
 10
10.8407812647
 20
10.5320479404
 30
0.0
  0
SPLINE
  5
4AF
100
AcDbEntity
  8
0
100
AcDbSpline
 62
7
  6
CONTINUOUS
 70
0
 71
3
 72
10
 73
6
 74
0
 42
0.0000001
 43
0.0000001
 44
0.0000000001
 40
0.0
 40
0.0
 40
0.0
 40
0.0
 40
0.5073255117
 40
0.7564345966
 40
1.0
 40
1.0
 40
1.0
 40
1.0
 10
10.8407812647
 20
10.5320479404
 30
0.0
 10
10.84681385
 20
10.5371691541
 30
0.0
 10
10.8551774164
 20
10.5455899108
 30
0.0
 10
10.8648046687
 20
10.5578729728
 30
0.0
 10
10.8690680576
 20
10.5642790156
 30
0.0
 10
10.871043759
 20
10.5675239852
 30
0.0
  0
SPLINE
  5
4B0
100
AcDbEntity
  8
0
100
AcDbSpline
 62
7
  6
CONTINUOUS
 70
0
 71
3
 72
12
 73
8
 74
0
 42
0.0000001
 43
0.0000001
 44
0.0000000001
 40
0.0
 40
0.0
 40
0.0
 40
0.0
 40
0.1072433657
 40
0.2202549132
 40
0.4620965198
 40
0.7229995224
 40
1.0
 40
1.0
 40
1.0
 40
1.0
 10
9.6163096026
 20
9.691350253
 30
0.0
 10
9.6177425795
 20
9.6880695508
 30
0.0
 10
9.6208664412
 20
9.6814096235
 30
0.0
 10
9.628054437
 20
9.6677563311
 30
0.0
 10
9.6387659013
 20
9.6501866318
 30
0.0
 10
9.6538092033
 20
9.6289253448
 30
0.0
 10
9.6650412743
 20
9.6149009282
 30
0.0
 10
9.6710108831
 20
9.6078392056
 30
0.0
  0
SPLINE
  5
4B1
100
AcDbEntity
  8
0
100
AcDbSpline
 62
7
  6
CONTINUOUS
 70
0
 71
3
 72
14
 73
10
 74
0
 42
0.0000001
 43
0.0000001
 44
0.0000000001
 40
0.0
 40
0.0
 40
0.0
 40
0.0
 40
0.1268214151
 40
0.2537889839
 40
0.3805145767
 40
0.5069202173
 40
0.7571070421
 40
0.8800643778
 40
1.0
 40
1.0
 40
1.0
 40
1.0
 10
12.1235341108
 20
8.8823661551
 30
0.0
 10
12.1220577613
 20
8.8778224186
 30
0.0
 10
12.1197596369
 20
8.8685034802
 30
0.0
 10
12.1182546892
 20
8.8542070789
 30
0.0
 10
12.1186361233
 20
8.8398538353
 30
0.0
 10
12.1213649102
 20
8.8210576313
 30
0.0
 10
12.1270454004
 20
8.8029581506
 30
0.0
 10
12.1350388285
 20
8.7861737402
 30
0.0
 10
12.1397219987
 20
8.7782929892
 30
0.0
 10
12.14221343
 20
8.7745238228
 30
0.0
  0
SPLINE
  5
4B2
100
AcDbEntity
  8
0
100
AcDbSpline
 62
7
  6
CONTINUOUS
 70
0
 71
3
 72
14
 73
10
 74
0
 42
0.0000001
 43
0.0000001
 44
0.0000000001
 40
0.0
 40
0.0
 40
0.0
 40
0.0
 40
0.1195097608
 40
0.2421276323
 40
0.4920798276
 40
0.6185952534
 40
0.7455567694
 40
0.8728320183
 40
1.0
 40
1.0
 40
1.0
 40
1.0
 10
10.8697868584
 20
10.5774733777
 30
0.0
 10
10.8674307255
 20
10.5736719289
 30
0.0
 10
10.8622739214
 20
10.5661998081
 30
0.0
 10
10.850425849
 20
10.5520804868
 30
0.0
 10
10.8363795748
 20
10.5395385447
 30
0.0
 10
10.8204804085
 20
10.5293730444
 30
0.0
 10
10.8076349266
 20
10.5231206316
 30
0.0
 10
10.7940763996
 20
10.5185415253
 30
0.0
 10
10.7847006226
 20
10.5166943987
 30
0.0
 10
10.7799791543
 20
10.5160979385
 30
0.0
  0
SPLINE
  5
4B3
100
AcDbEntity
  8
0
100
AcDbSpline
 62
7
  6
CONTINUOUS
 70
0
 71
3
 72
12
 73
8
 74
0
 42
0.0000001
 43
0.0000001
 44
0.0000000001
 40
0.0
 40
0.0
 40
0.0
 40
0.0
 40
0.1072433657
 40
0.2202549132
 40
0.4620965198
 40
0.7229995224
 40
1.0
 40
1.0
 40
1.0
 40
1.0
 10
10.9323069589
 20
10.6553037198
 30
0.0
 10
10.9296296399
 20
10.6529270852
 30
0.0
 10
10.924260999
 20
10.6478980853
 30
0.0
 10
10.9134971592
 20
10.6368427957
 30
0.0
 10
10.9000974066
 20
10.6212262522
 30
0.0
 10
10.884525357
 20
10.6003491228
 30
0.0
 10
10.8746582451
 20
10.5853330053
 30
0.0
 10
10.8697868584
 20
10.5774733777
 30
0.0
  0
SPLINE
  5
4B4
100
AcDbEntity
  8
0
100
AcDbSpline
 62
7
  6
CONTINUOUS
 70
0
 71
3
 72
12
 73
8
 74
0
 42
0.0000001
 43
0.0000001
 44
0.0000000001
 40
0.0
 40
0.0
 40
0.0
 40
0.0
 40
0.2794694415
 40
0.5415355211
 40
0.7826905117
 40
0.894540139
 40
1.0
 40
1.0
 40
1.0
 40
1.0
 10
12.14221343
 20
8.7745238228
 30
0.0
 10
12.1473498085
 20
8.7667532433
 30
0.0
 10
12.1568759424
 20
8.7514065005
 30
0.0
 10
12.1691901852
 20
8.7283881476
 30
0.0
 10
12.1774994511
 20
8.7096177333
 30
0.0
 10
12.1826929442
 20
8.6952412896
 30
0.0
 10
12.1847985554
 20
8.6883063737
 30
0.0
 10
12.1857157588
 20
8.684913167
 30
0.0
  0
SPLINE
  5
4B5
100
AcDbEntity
  8
0
100
AcDbSpline
 62
7
  6
CONTINUOUS
 70
0
 71
3
 72
12
 73
8
 74
0
 42
0.0000001
 43
0.0000001
 44
0.0000000001
 40
0.0
 40
0.0
 40
0.0
 40
0.0
 40
0.2794694415
 40
0.541535521
 40
0.7826905117
 40
0.8945401391
 40
1.0
 40
1.0
 40
1.0
 40
1.0
 10
10.871043759
 20
10.5675239852
 30
0.0
 10
10.875887826
 20
10.5754800713
 30
0.0
 10
10.8857179435
 20
10.5906339001
 30
0.0
 10
10.9013024223
 20
10.6115768981
 30
0.0
 10
10.9147484876
 20
10.6270874004
 30
0.0
 10
10.9255454009
 20
10.6379078055
 30
0.0
 10
10.9309237748
 20
10.6427657631
 30
0.0
 10
10.9336035138
 20
10.6450404307
 30
0.0
  0
SPLINE
  5
4B6
100
AcDbEntity
  8
0
100
AcDbSpline
 62
7
  6
CONTINUOUS
 70
0
 71
3
 72
14
 73
10
 74
0
 42
0.0000001
 43
0.0000001
 44
0.0000000001
 40
0.0
 40
0.0
 40
0.0
 40
0.0
 40
0.1195097608
 40
0.2421276323
 40
0.4920798276
 40
0.6185952534
 40
0.7455567694
 40
0.8728320183
 40
1.0
 40
1.0
 40
1.0
 40
1.0
 10
9.6710108831
 20
9.6078392056
 30
0.0
 10
9.6738981907
 20
9.6044236777
 30
0.0
 10
9.6794110598
 20
9.5972102534
 30
0.0
 10
9.6891780766
 20
9.5815789566
 30
0.0
 10
9.6967656349
 20
9.5643444828
 30
0.0
 10
9.7015204876
 20
9.5460821647
 30
0.0
 10
9.7034974133
 20
9.5319332837
 30
0.0
 10
9.703662587
 20
9.5176233365
 30
0.0
 10
9.7025220344
 20
9.5081356492
 30
0.0
 10
9.7016302877
 20
9.5034609497
 30
0.0
  0
SPLINE
  5
4B7
100
AcDbEntity
  8
0
100
AcDbSpline
 62
7
  6
CONTINUOUS
 70
0
 71
3
 72
14
 73
10
 74
0
 42
0.0000001
 43
0.0000001
 44
0.0000000001
 40
0.0
 40
0.0
 40
0.0
 40
0.0
 40
0.1211398344
 40
0.2444272305
 40
0.4941650716
 40
0.6202295682
 40
0.7466672739
 40
0.8733901847
 40
1.0
 40
1.0
 40
1.0
 40
1.0
 10
10.6855030785
 20
10.5417873308
 30
0.0
 10
10.6841679878
 20
10.5386256556
 30
0.0
 10
10.6811477323
 20
10.5323777916
 30
0.0
 10
10.6738329442
 20
10.5204236953
 30
0.0
 10
10.6646343328
 20
10.5095169681
 30
0.0
 10
10.6537561921
 20
10.5003051941
 30
0.0
 10
10.6447626165
 20
10.49437357
 30
0.0
 10
10.6350637293
 20
10.489648806
 30
0.0
 10
10.6282274802
 20
10.4873790478
 30
0.0
 10
10.6247531971
 20
10.4864870035
 30
0.0
  0
SPLINE
  5
4B8
100
AcDbEntity
  8
0
100
AcDbSpline
 62
7
  6
CONTINUOUS
 70
0
 71
3
 72
13
 73
9
 74
0
 42
0.0000001
 43
0.0000001
 44
0.0000000001
 40
0.0
 40
0.0
 40
0.0
 40
0.0
 40
0.1059102147
 40
0.218181063
 40
0.3363331803
 40
0.4599159054
 40
0.7217919242
 40
1.0
 40
1.0
 40
1.0
 40
1.0
 10
10.7442093795
 20
10.6417731772
 30
0.0
 10
10.7415140021
 20
10.638672207
 30
0.0
 10
10.7361536128
 20
10.6321153228
 30
0.0
 10
10.728416163
 20
10.6216038668
 30
0.0
 10
10.7207790965
 20
10.6101847357
 30
0.0
 10
10.7105867
 20
10.5935118807
 30
0.0
 10
10.6984103872
 20
10.5708019813
 30
0.0
 10
10.689701585
 20
10.5517299611
 30
0.0
 10
10.6855030785
 20
10.5417873308
 30
0.0
  0
SPLINE
  5
4B9
100
AcDbEntity
  8
0
100
AcDbSpline
 62
7
  6
CONTINUOUS
 70
0
 71
3
 72
14
 73
10
 74
0
 42
0.0000001
 43
0.0000001
 44
0.0000000001
 40
0.0
 40
0.0
 40
0.0
 40
0.0
 40
0.1262646377
 40
0.2526796155
 40
0.3788774711
 40
0.5048179619
 40
0.7547540188
 40
0.8783806725
 40
1.0
 40
1.0
 40
1.0
 40
1.0
 10
12.1624747087
 20
9.0340297703
 30
0.0
 10
12.161799199
 20
9.0304886245
 30
0.0
 10
12.1609629421
 20
9.0232939906
 30
0.0
 10
12.1612119808
 20
9.0124476062
 30
0.0
 10
12.1629092036
 20
9.001741757
 30
0.0
 10
12.1668642908
 20
8.9879355908
 30
0.0
 10
12.1730863923
 20
8.9749618075
 30
0.0
 10
12.1810259135
 20
8.9632474505
 30
0.0
 10
12.1855045501
 20
8.9578464635
 30
0.0
 10
12.1878502306
 20
8.9552861616
 30
0.0
  0
SPLINE
  5
4BA
100
AcDbEntity
  8
0
100
AcDbSpline
 62
7
  6
CONTINUOUS
 70
0
 71
3
 72
13
 73
9
 74
0
 42
0.0000001
 43
0.0000001
 44
0.0000000001
 40
0.0
 40
0.0
 40
0.0
 40
0.0
 40
0.2805936692
 40
0.5437139682
 40
0.6672593725
 40
0.7848437805
 40
0.8959415994
 40
1.0
 40
1.0
 40
1.0
 40
1.0
 10
12.1878502306
 20
8.9552861616
 30
0.0
 10
12.1952053365
 20
8.9472580896
 30
0.0
 10
12.2089777818
 20
8.9312534344
 30
0.0
 10
12.2244936945
 20
8.910492974
 30
0.0
 10
12.2352229583
 20
8.8941239692
 30
0.0
 10
12.2421990004
 20
8.8823646125
 30
0.0
 10
12.2482260148
 20
8.8709399464
 30
0.0
 10
12.2516962754
 20
8.8633394588
 30
0.0
 10
12.2532447443
 20
8.8596103669
 30
0.0
  0
SPLINE
  5
4BB
100
AcDbEntity
  8
0
100
AcDbSpline
 62
7
  6
CONTINUOUS
 70
0
 71
3
 72
14
 73
10
 74
0
 42
0.0000001
 43
0.0000001
 44
0.0000000001
 40
0.0
 40
0.0
 40
0.0
 40
0.0
 40
0.1268214153
 40
0.2537889844
 40
0.3805145771
 40
0.5069202175
 40
0.7571070422
 40
0.8800643778
 40
1.0
 40
1.0
 40
1.0
 40
1.0
 10
9.9769641731
 20
10.0624529646
 30
0.0
 10
9.9800095091
 20
10.0661341435
 30
0.0
 10
9.9855767812
 20
10.0739526772
 30
0.0
 10
9.9922389025
 20
10.0866911268
 30
0.0
 10
9.9971680355
 20
10.1001768505
 30
0.0
 10
10.0015502177
 20
10.1186576524
 30
0.0
 10
10.0029314947
 20
10.1375772519
 30
0.0
 10
10.0016781468
 20
10.1561255791
 30
0.0
 10
10.0002249432
 20
10.165176906
 30
0.0
 10
9.9992959916
 20
10.1695985453
 30
0.0
  0
SPLINE
  5
4BC
100
AcDbEntity
  8
0
100
AcDbSpline
 62
7
  6
CONTINUOUS
 70
0
 71
3
 72
13
 73
9
 74
0
 42
0.0000001
 43
0.0000001
 44
0.0000000001
 40
0.0
 40
0.0
 40
0.0
 40
0.0
 40
0.1059102147
 40
0.218181063
 40
0.3363331803
 40
0.4599159054
 40
0.7217919242
 40
1.0
 40
1.0
 40
1.0
 40
1.0
 10
10.0022579466
 20
8.2427016698
 30
0.0
 10
10.0063653833
 20
8.2426014787
 30
0.0
 10
10.0148343902
 20
8.242650743
 30
0.0
 10
10.0278656424
 20
8.2433891897
 30
0.0
 10
10.0415322835
 20
8.2447835569
 30
0.0
 10
10.0608758171
 20
8.2475578581
 30
0.0
 10
10.0861355693
 20
8.2526516826
 30
0.0
 10
10.1063820128
 20
8.2580983984
 30
0.0
 10
10.1167191699
 20
8.2612010646
 30
0.0
  0
SPLINE
  5
4BD
100
AcDbEntity
  8
0
100
AcDbSpline
 62
7
  6
CONTINUOUS
 70
0
 71
3
 72
14
 73
10
 74
0
 42
0.0000001
 43
0.0000001
 44
0.0000000001
 40
0.0
 40
0.0
 40
0.0
 40
0.0
 40
0.1195097608
 40
0.2421276323
 40
0.4920798276
 40
0.6185952534
 40
0.7455567694
 40
0.8728320183
 40
1.0
 40
1.0
 40
1.0
 40
1.0
 10
10.546185256
 20
10.5194360732
 30
0.0
 10
10.5448485272
 20
10.5151681074
 30
0.0
 10
10.5417119746
 20
10.506648292
 30
0.0
 10
10.5337474635
 20
10.4900260593
 30
0.0
 10
10.523261533
 20
10.4743849791
 30
0.0
 10
10.5103899254
 20
10.4605848849
 30
0.0
 10
10.4995029198
 20
10.4513343617
 30
0.0
 10
10.4875091363
 20
10.4435272478
 30
0.0
 10
10.4788872783
 20
10.4394064912
 30
0.0
 10
10.4744624772
 20
10.4376545885
 30
0.0
  0
SPLINE
  5
4BE
100
AcDbEntity
  8
0
100
AcDbSpline
 62
7
  6
CONTINUOUS
 70
0
 71
3
 72
12
 73
8
 74
0
 42
0.0000001
 43
0.0000001
 44
0.0000000001
 40
0.0
 40
0.0
 40
0.0
 40
0.0
 40
0.1072433657
 40
0.2202549132
 40
0.4620965198
 40
0.7229995224
 40
1.0
 40
1.0
 40
1.0
 40
1.0
 10
10.5873855536
 20
10.6103693487
 30
0.0
 10
10.5853833925
 20
10.6074015582
 30
0.0
 10
10.5814340787
 20
10.601195427
 30
0.0
 10
10.5737577435
 20
10.5878106015
 30
0.0
 10
10.5646626452
 20
10.5693522974
 30
0.0
 10
10.5547717512
 20
10.5452584502
 30
0.0
 10
10.5489489892
 20
10.5282602407
 30
0.0
 10
10.546185256
 20
10.5194360732
 30
0.0
  0
SPLINE
  5
4BF
100
AcDbEntity
  8
0
100
AcDbSpline
 62
7
  6
CONTINUOUS
 70
0
 71
3
 72
9
 73
5
 74
0
 42
0.0000001
 43
0.0000001
 44
0.0000000001
 40
0.0
 40
0.0
 40
0.0
 40
0.0
 40
0.2506738127
 40
1.0
 40
1.0
 40
1.0
 40
1.0
 10
12.1899095334
 20
9.1424700352
 30
0.0
 10
12.1904729441
 20
9.1410451633
 30
0.0
 10
12.1928245935
 20
9.1354025165
 30
0.0
 10
12.1955770986
 20
9.1299283767
 30
0.0
 10
12.197834488
 20
9.1259431244
 30
0.0
  0
SPLINE
  5
4C0
100
AcDbEntity
  8
0
100
AcDbSpline
 62
7
  6
CONTINUOUS
 70
0
 71
3
 72
10
 73
6
 74
0
 42
0.0000001
 43
0.0000001
 44
0.0000000001
 40
0.0
 40
0.0
 40
0.0
 40
0.0
 40
0.5073255118
 40
0.7564345967
 40
1.0
 40
1.0
 40
1.0
 40
1.0
 10
12.197834488
 20
9.1259431244
 30
0.0
 10
12.2017345972
 20
9.1190577731
 30
0.0
 10
12.2084390231
 20
9.1092644561
 30
0.0
 10
12.2187005511
 20
9.0975061126
 30
0.0
 10
12.2241942458
 20
9.0921178674
 30
0.0
 10
12.2270115285
 20
9.0895691145
 30
0.0
  0
SPLINE
  5
4C1
100
AcDbEntity
  8
0
100
AcDbSpline
 62
7
  6
CONTINUOUS
 70
0
 71
3
 72
12
 73
8
 74
0
 42
0.0000001
 43
0.0000001
 44
0.0000000001
 40
0.0
 40
0.0
 40
0.0
 40
0.0
 40
0.2794694415
 40
0.5415355211
 40
0.7826905117
 40
0.8945401391
 40
1.0
 40
1.0
 40
1.0
 40
1.0
 10
12.2270115285
 20
9.0895691145
 30
0.0
 10
12.2339190027
 20
9.0833200273
 30
0.0
 10
12.2469624353
 20
9.0708244839
 30
0.0
 10
12.2646142351
 20
9.0515917225
 30
0.0
 10
12.2773304623
 20
9.0354774457
 30
0.0
 10
12.2859360685
 20
9.0228442336
 30
0.0
 10
12.2897001715
 20
9.0166508351
 30
0.0
 10
12.2914324155
 20
9.0135923314
 30
0.0
  0
SPLINE
  5
4C2
100
AcDbEntity
  8
0
100
AcDbSpline
 62
7
  6
CONTINUOUS
 70
0
 71
3
 72
14
 73
10
 74
0
 42
0.0000001
 43
0.0000001
 44
0.0000000001
 40
0.0
 40
0.0
 40
0.0
 40
0.0
 40
0.1211398344
 40
0.2444272305
 40
0.4941650716
 40
0.6202295682
 40
0.7466672739
 40
0.8733901847
 40
1.0
 40
1.0
 40
1.0
 40
1.0
 10
10.1167191699
 20
8.2612010646
 30
0.0
 10
10.1200063013
 20
8.2621876871
 30
0.0
 10
10.1267455466
 20
8.2638430787
 30
0.0
 10
10.1406189576
 20
8.2658267654
 30
0.0
 10
10.1548861509
 20
8.265691323
 30
0.0
 10
10.1689179326
 20
8.2631813773
 30
0.0
 10
10.1792210483
 20
8.2600326677
 30
0.0
 10
10.1890438449
 20
8.2555712246
 30
0.0
 10
10.1951503128
 20
8.2517506025
 30
0.0
 10
10.1980522361
 20
8.2496422317
 30
0.0
  0
SPLINE
  5
4C3
100
AcDbEntity
  8
0
100
AcDbSpline
 62
7
  6
CONTINUOUS
 70
0
 71
3
 72
12
 73
8
 74
0
 42
0.0000001
 43
0.0000001
 44
0.0000000001
 40
0.0
 40
0.0
 40
0.0
 40
0.0
 40
0.2794694415
 40
0.541535521
 40
0.7826905117
 40
0.8945401391
 40
1.0
 40
1.0
 40
1.0
 40
1.0
 10
9.9992959916
 20
10.1695985453
 30
0.0
 10
9.9973808488
 20
10.1787142746
 30
0.0
 10
9.9941731864
 20
10.1964901188
 30
0.0
 10
9.9911973138
 20
10.2224252173
 30
0.0
 10
9.9903814041
 20
10.2429363519
 30
0.0
 10
9.9908449383
 20
10.2582150835
 30
0.0
 10
9.9914401033
 20
10.2654381325
 30
0.0
 10
9.9918364318
 20
10.2689307014
 30
0.0
  0
SPLINE
  5
4C4
100
AcDbEntity
  8
0
100
AcDbSpline
 62
7
  6
CONTINUOUS
 70
0
 71
3
 72
14
 73
10
 74
0
 42
0.0000001
 43
0.0000001
 44
0.0000000001
 40
0.0
 40
0.0
 40
0.0
 40
0.0
 40
0.1211398344
 40
0.2444272305
 40
0.4941650716
 40
0.6202295682
 40
0.7466672739
 40
0.8733901847
 40
1.0
 40
1.0
 40
1.0
 40
1.0
 10
10.376565849
 20
10.4390416566
 30
0.0
 10
10.3760589792
 20
10.4356472877
 30
0.0
 10
10.3746873912
 20
10.4288446048
 30
0.0
 10
10.3705752735
 20
10.4154469546
 30
0.0
 10
10.3643780461
 20
10.4025952806
 30
0.0
 10
10.3561325372
 20
10.3909676279
 30
0.0
 10
10.3488966463
 20
10.3829857454
 30
0.0
 10
10.3406774685
 20
10.3759974034
 30
0.0
 10
10.3346204587
 20
10.3720988478
 30
0.0
 10
10.3314771689
 20
10.3703708097
 30
0.0
  0
SPLINE
  5
4C5
100
AcDbEntity
  8
0
100
AcDbSpline
 62
7
  6
CONTINUOUS
 70
0
 71
3
 72
13
 73
9
 74
0
 42
0.0000001
 43
0.0000001
 44
0.0000000001
 40
0.0
 40
0.0
 40
0.0
 40
0.0
 40
0.1059102147
 40
0.218181063
 40
0.3363331803
 40
0.4599159054
 40
0.7217919242
 40
1.0
 40
1.0
 40
1.0
 40
1.0
 10
10.4085623146
 20
10.5504859271
 30
0.0
 10
10.4067227975
 20
10.5468120665
 30
0.0
 10
10.4031614454
 20
10.5391281043
 30
0.0
 10
10.3982811746
 20
10.5270226595
 30
0.0
 10
10.3937238631
 20
10.5140630202
 30
0.0
 10
10.3879980498
 20
10.4953792277
 30
0.0
 10
10.3818520006
 20
10.4703546756
 30
0.0
 10
10.37815982
 20
10.449716047
 30
0.0
 10
10.376565849
 20
10.4390416566
 30
0.0
  0
SPLINE
  5
4C6
100
AcDbEntity
  8
0
100
AcDbSpline
 62
7
  6
CONTINUOUS
 70
0
 71
3
 72
12
 73
8
 74
0
 42
0.0000001
 43
0.0000001
 44
0.0000000001
 40
0.0
 40
0.0
 40
0.0
 40
0.0
 40
0.2503894182
 40
0.3758279187
 40
0.5011117626
 40
0.7510846156
 40
1.0
 40
1.0
 40
1.0
 40
1.0
 10
12.1624747087
 20
9.5013092339
 30
0.0
 10
12.1635106531
 20
9.4958786228
 30
0.0
 10
12.1657554267
 20
9.4878402122
 30
0.0
 10
12.1699647752
 20
9.4775998902
 30
0.0
 10
12.1749514775
 20
9.4677214483
 30
0.0
 10
12.182498574
 20
9.4561345052
 30
0.0
 10
12.1896778045
 20
9.4477385553
 30
0.0
 10
12.1934907221
 20
9.4437803271
 30
0.0
  0
SPLINE
  5
4C7
100
AcDbEntity
  8
0
100
AcDbSpline
 62
7
  6
CONTINUOUS
 70
0
 71
3
 72
10
 73
6
 74
0
 42
0.0000001
 43
0.0000001
 44
0.0000000001
 40
0.0
 40
0.0
 40
0.0
 40
0.0
 40
0.5073255118
 40
0.7564345967
 40
1.0
 40
1.0
 40
1.0
 40
1.0
 10
12.1934907221
 20
9.4437803271
 30
0.0
 10
12.1989806195
 20
9.4380812095
 30
0.0
 10
12.2079099124
 20
9.4302628905
 30
0.0
 10
12.2207732367
 20
9.4214258952
 30
0.0
 10
12.227434339
 20
9.4175731579
 30
0.0
 10
12.2307969607
 20
9.4158051085
 30
0.0
  0
SPLINE
  5
4C8
100
AcDbEntity
  8
0
100
AcDbSpline
 62
7
  6
CONTINUOUS
 70
0
 71
3
 72
14
 73
10
 74
0
 42
0.0000001
 43
0.0000001
 44
0.0000000001
 40
0.0
 40
0.0
 40
0.0
 40
0.0
 40
0.1195097608
 40
0.2421276323
 40
0.4920798276
 40
0.6185952534
 40
0.7455567694
 40
0.8728320183
 40
1.0
 40
1.0
 40
1.0
 40
1.0
 10
10.2471834838
 20
10.3827456713
 30
0.0
 10
10.2469501507
 20
10.3782793606
 30
0.0
 10
10.2460309306
 20
10.3692471819
 30
0.0
 10
10.2424504204
 20
10.3511664739
 30
0.0
 10
10.2361837032
 20
10.3334090421
 30
0.0
 10
10.2271484247
 20
10.3168414645
 30
0.0
 10
10.2189039659
 20
10.3051740753
 30
0.0
 10
10.2092285394
 20
10.2946295036
 30
0.0
 10
10.2019023435
 20
10.2884940393
 30
0.0
 10
10.1980522361
 20
10.2856967725
 30
0.0
  0
SPLINE
  5
4C9
100
AcDbEntity
  8
0
100
AcDbSpline
 62
7
  6
CONTINUOUS
 70
0
 71
3
 72
12
 73
8
 74
0
 42
0.0000001
 43
0.0000001
 44
0.0000000001
 40
0.0
 40
0.0
 40
0.0
 40
0.0
 40
0.1072433793
 40
0.220254964
 40
0.4620966476
 40
0.72299958
 40
1.0
 40
1.0
 40
1.0
 40
1.0
 10
10.2644752122
 20
10.4810682081
 30
0.0
 10
10.2632740121
 20
10.4776957386
 30
0.0
 10
10.2609921749
 20
10.4707024283
 30
0.0
 10
10.2568856759
 20
10.4558290805
 30
0.0
 10
10.2526667103
 20
10.4356888176
 30
0.0
 10
10.2490784535
 20
10.4098921592
 30
0.0
 10
10.2476659079
 20
10.391979922
 30
0.0
 10
10.2471834838
 20
10.3827456713
 30
0.0
  0
SPLINE
  5
4CA
100
AcDbEntity
  8
0
100
AcDbSpline
 62
7
  6
CONTINUOUS
 70
0
 71
3
 72
13
 73
9
 74
0
 42
0.0000001
 43
0.0000001
 44
0.0000000001
 40
0.0
 40
0.0
 40
0.0
 40
0.0
 40
0.1059102147
 40
0.218181063
 40
0.3363331803
 40
0.4599159054
 40
0.7217919242
 40
1.0
 40
1.0
 40
1.0
 40
1.0
 10
9.6738248813
 20
9.8405880013
 30
0.0
 10
9.6749988616
 20
9.836650636
 30
0.0
 10
9.6776627818
 20
9.8286113554
 30
0.0
 10
9.6823919647
 20
9.8164460907
 30
0.0
 10
9.6879413111
 20
9.8038792257
 30
0.0
 10
9.696557309
 20
9.7863397383
 30
0.0
 10
9.7092075166
 20
9.7638903647
 30
0.0
 10
9.7206441463
 20
9.7463179804
 30
0.0
 10
9.7267893144
 20
9.7374455364
 30
0.0
  0
SPLINE
  5
4CB
100
AcDbEntity
  8
0
100
AcDbSpline
 62
7
  6
CONTINUOUS
 70
0
 71
3
 72
14
 73
10
 74
0
 42
0.0000001
 43
0.0000001
 44
0.0000000001
 40
0.0
 40
0.0
 40
0.0
 40
0.0
 40
0.1262646377
 40
0.2526796156
 40
0.3788774712
 40
0.5048179619
 40
0.7547540186
 40
0.8783806724
 40
1.0
 40
1.0
 40
1.0
 40
1.0
 10
12.1235341108
 20
9.6529728492
 30
0.0
 10
12.1246481172
 20
9.6495442902
 30
0.0
 10
12.127381341
 20
9.6428367146
 30
0.0
 10
12.1328248608
 20
9.6334519308
 30
0.0
 10
12.1394697307
 20
9.6248879669
 30
0.0
 10
12.1495867713
 20
9.6146949091
 30
0.0
 10
12.1612894081
 20
9.6063234164
 30
0.0
 10
12.1738902982
 20
9.5998829406
 30
0.0
 10
12.1804169027
 20
9.5973076192
 30
0.0
 10
12.183705873
 20
9.5961940498
 30
0.0
  0
SPLINE
  5
4CC
100
AcDbEntity
  8
0
100
AcDbSpline
 62
7
  6
CONTINUOUS
 70
0
 71
3
 72
14
 73
10
 74
0
 42
0.0000001
 43
0.0000001
 44
0.0000000001
 40
0.0
 40
0.0
 40
0.0
 40
0.0
 40
0.1211398344
 40
0.2444272305
 40
0.4941650716
 40
0.6202295682
 40
0.7466672739
 40
0.8733901847
 40
1.0
 40
1.0
 40
1.0
 40
1.0
 10
10.1028862607
 20
10.262694362
 30
0.0
 10
10.1032394604
 20
10.25928058
 30
0.0
 10
10.1036027218
 20
10.2523505158
 30
0.0
 10
10.1029516539
 20
10.2383511353
 30
0.0
 10
10.1001452052
 20
10.2243620326
 30
0.0
 10
10.0950504238
 20
10.2110491093
 30
0.0
 10
10.0900268751
 20
10.2015184994
 30
0.0
 10
10.0838038479
 20
10.1927056826
 30
0.0
 10
10.0789066615
 20
10.1874232902
 30
0.0
 10
10.0762918696
 20
10.1849678372
 30
0.0
  0
SPLINE
  5
4CD
100
AcDbEntity
  8
0
100
AcDbSpline
 62
7
  6
CONTINUOUS
 70
0
 71
3
 72
13
 73
9
 74
0
 42
0.0000001
 43
0.0000001
 44
0.0000000001
 40
0.0
 40
0.0
 40
0.0
 40
0.0
 40
0.1059102147
 40
0.218181063
 40
0.3363331803
 40
0.4599159054
 40
0.7217919242
 40
1.0
 40
1.0
 40
1.0
 40
1.0
 10
10.1061624355
 20
10.3785946032
 30
0.0
 10
10.1052943621
 20
10.3745786944
 30
0.0
 10
10.1037558202
 20
10.3662504657
 30
0.0
 10
10.1020393738
 20
10.3533116618
 30
0.0
 10
10.1008481698
 20
10.339625816
 30
0.0
 10
10.0999487137
 20
10.3201050574
 30
0.0
 10
10.100219107
 20
10.2943382373
 30
0.0
 10
10.1017755412
 20
10.2734298012
 30
0.0
 10
10.1028862607
 20
10.262694362
 30
0.0
  0
SPLINE
  5
4CE
100
AcDbEntity
  8
0
100
AcDbSpline
 62
7
  6
CONTINUOUS
 70
0
 71
3
 72
13
 73
9
 74
0
 42
0.0000001
 43
0.0000001
 44
0.0000000001
 40
0.0
 40
0.0
 40
0.0
 40
0.0
 40
0.2805936693
 40
0.5437139682
 40
0.6672593725
 40
0.7848437805
 40
0.8959415994
 40
1.0
 40
1.0
 40
1.0
 40
1.0
 10
12.183705873
 20
9.5961940498
 30
0.0
 10
12.1940187546
 20
9.592702346
 30
0.0
 10
12.2137979419
 20
9.5853122858
 30
0.0
 10
12.2373960679
 20
9.5745946036
 30
0.0
 10
12.2546840217
 20
9.5654191976
 30
0.0
 10
12.2664622872
 20
9.5584751287
 30
0.0
 10
12.2772476751
 20
9.5513671539
 30
0.0
 10
12.2839502504
 20
9.5463786065
 30
0.0
 10
12.2871036879
 20
9.543856759
 30
0.0
  0
SPLINE
  5
4CF
100
AcDbEntity
  8
0
100
AcDbSpline
 62
7
  6
CONTINUOUS
 70
0
 71
3
 72
12
 73
8
 74
0
 42
0.0000001
 43
0.0000001
 44
0.0000000001
 40
0.0
 40
0.0
 40
0.0
 40
0.0
 40
0.1072433657
 40
0.2202549132
 40
0.4620965198
 40
0.7229995224
 40
1.0
 40
1.0
 40
1.0
 40
1.0
 10
9.8719345747
 20
8.3790086532
 30
0.0
 10
9.8754723906
 20
8.3784606675
 30
0.0
 10
9.8827694021
 20
8.3775296636
 30
0.0
 10
9.8981487788
 20
8.3762828894
 30
0.0
 10
9.9187228562
 20
8.3759125621
 30
0.0
 10
9.9447349588
 20
8.3772216748
 30
0.0
 10
9.96259461
 20
8.3791905678
 30
0.0
 10
9.9717556959
 20
8.380447015
 30
0.0
  0
SPLINE
  5
4D0
100
AcDbEntity
  8
0
100
AcDbSpline
 62
7
  6
CONTINUOUS
 70
0
 71
3
 72
14
 73
10
 74
0
 42
0.0000001
 43
0.0000001
 44
0.0000000001
 40
0.0
 40
0.0
 40
0.0
 40
0.0
 40
0.1195097608
 40
0.2421276323
 40
0.4920798276
 40
0.6185952534
 40
0.7455567694
 40
0.8728320183
 40
1.0
 40
1.0
 40
1.0
 40
1.0
 10
9.9717556959
 20
8.380447015
 30
0.0
 10
9.9761866183
 20
8.3810547181
 30
0.0
 10
9.9852310569
 20
8.3818442414
 30
0.0
 10
10.0036624266
 20
8.3817151388
 30
0.0
 10
10.0222795911
 20
8.3788868332
 30
0.0
 10
10.0402467537
 20
8.3731160488
 30
0.0
 10
10.0532523389
 20
8.3672038728
 30
0.0
 10
10.0654231313
 20
8.3596756804
 30
0.0
 10
10.072822712
 20
8.3536289229
 30
0.0
 10
10.0762918696
 20
8.3503711671
 30
0.0
  0
SPLINE
  5
4D1
100
AcDbEntity
  8
0
100
AcDbSpline
 62
7
  6
CONTINUOUS
 70
0
 71
3
 72
14
 73
10
 74
0
 42
0.0000001
 43
0.0000001
 44
0.0000000001
 40
0.0
 40
0.0
 40
0.0
 40
0.0
 40
0.1211398344
 40
0.2444272305
 40
0.4941650716
 40
0.6202295682
 40
0.7466672739
 40
0.8733901847
 40
1.0
 40
1.0
 40
1.0
 40
1.0
 10
9.7267893144
 20
9.7374455364
 30
0.0
 10
9.7287434277
 20
9.7346241717
 30
0.0
 10
9.73240034
 20
9.7287263127
 30
0.0
 10
9.7385740578
 20
9.7161449077
 30
0.0
 10
9.7428540497
 20
9.7025341466
 30
0.0
 10
9.7448030085
 20
9.6884135133
 30
0.0
 10
9.7449922456
 20
9.6776416631
 30
0.0
 10
9.7437845721
 20
9.6669209667
 30
0.0
 10
9.7420379469
 20
9.6599327334
 30
0.0
 10
9.7409295108
 20
9.656521318
 30
0.0
  0
SPLINE
  5
4D2
100
AcDbEntity
  8
0
100
AcDbSpline
 62
7
  6
CONTINUOUS
 70
0
 71
3
 72
14
 73
10
 74
0
 42
0.0000001
 43
0.0000001
 44
0.0000000001
 40
0.0
 40
0.0
 40
0.0
 40
0.0
 40
0.1195097608
 40
0.2421276323
 40
0.4920798276
 40
0.6185952534
 40
0.7455567694
 40
0.8728320183
 40
1.0
 40
1.0
 40
1.0
 40
1.0
 10
9.9915689226
 20
10.1759909327
 30
0.0
 10
9.9924536465
 20
10.1716069118
 30
0.0
 10
9.9938095168
 20
10.1626298949
 30
0.0
 10
9.9948379842
 20
10.1442267889
 30
0.0
 10
9.9931842412
 20
10.1254687703
 30
0.0
 10
9.9885530115
 20
10.1071747112
 30
0.0
 10
9.9834691293
 20
10.093823561
 30
0.0
 10
9.9767200025
 20
10.0812040857
 30
0.0
 10
9.9711498004
 20
10.0734394274
 30
0.0
 10
9.9681163032
 20
10.0697725592
 30
0.0
  0
SPLINE
  5
4D3
100
AcDbEntity
  8
0
100
AcDbSpline
 62
7
  6
CONTINUOUS
 70
0
 71
3
 72
12
 73
8
 74
0
 42
0.0000001
 43
0.0000001
 44
0.0000000001
 40
0.0
 40
0.0
 40
0.0
 40
0.0
 40
0.1072433657
 40
0.2202549132
 40
0.4620965198
 40
0.7229995224
 40
1.0
 40
1.0
 40
1.0
 40
1.0
 10
9.9838655791
 20
10.2755247643
 30
0.0
 10
9.9835408159
 20
10.2719595212
 30
0.0
 10
9.9830698324
 20
10.2646184505
 30
0.0
 10
9.9827911974
 20
10.2491911358
 30
0.0
 10
9.9837134578
 20
10.2286344036
 30
0.0
 10
9.9866533007
 20
10.2027558298
 30
0.0
 10
9.9897397254
 20
10.1850550483
 30
0.0
 10
9.9915689226
 20
10.1759909327
 30
0.0
  0
SPLINE
  5
4D4
100
AcDbEntity
  8
0
100
AcDbSpline
 62
7
  6
CONTINUOUS
 70
0
 71
3
 72
12
 73
8
 74
0
 42
0.0000001
 43
0.0000001
 44
0.0000000001
 40
0.0
 40
0.0
 40
0.0
 40
0.0
 40
0.2503894182
 40
0.3758279187
 40
0.5011117626
 40
0.7510846156
 40
1.0
 40
1.0
 40
1.0
 40
1.0
 10
12.0658920799
 20
9.7985600005
 30
0.0
 10
12.0682460163
 20
9.7935576309
 30
0.0
 10
12.0724193377
 20
9.7863300143
 30
0.0
 10
12.0790431062
 20
9.7774582332
 30
0.0
 10
12.0863298107
 20
9.7691302831
 30
0.0
 10
12.0965213569
 20
9.7597842517
 30
0.0
 10
12.1055630265
 20
9.7534374781
 30
0.0
 10
12.1102405256
 20
9.750551839
 30
0.0
  0
SPLINE
  5
4D5
100
AcDbEntity
  8
0
100
AcDbSpline
 62
7
  6
CONTINUOUS
 70
0
 71
3
 72
10
 73
6
 74
0
 42
0.0000001
 43
0.0000001
 44
0.0000000001
 40
0.0
 40
0.0
 40
0.0
 40
0.0
 40
0.5073255118
 40
0.7564345967
 40
1.0
 40
1.0
 40
1.0
 40
1.0
 10
12.1102405256
 20
9.750551839
 30
0.0
 10
12.1169752606
 20
9.7463970516
 30
0.0
 10
12.1275683603
 20
9.7410449842
 30
0.0
 10
12.142225231
 20
9.7356845981
 30
0.0
 10
12.1496351993
 20
9.7336094504
 30
0.0
 10
12.153331874
 20
9.7327331975
 30
0.0
  0
SPLINE
  5
4D6
100
AcDbEntity
  8
0
100
AcDbSpline
 62
7
  6
CONTINUOUS
 70
0
 71
3
 72
12
 73
8
 74
0
 42
0.0000001
 43
0.0000001
 44
0.0000000001
 40
0.0
 40
0.0
 40
0.0
 40
0.0
 40
0.2794694415
 40
0.541535521
 40
0.7826905117
 40
0.8945401391
 40
1.0
 40
1.0
 40
1.0
 40
1.0
 10
12.153331874
 20
9.7327331975
 30
0.0
 10
12.1623954606
 20
9.7305847818
 30
0.0
 10
12.1798452816
 20
9.7259185752
 30
0.0
 10
12.2045791252
 20
9.7175685973
 30
0.0
 10
12.2234855521
 20
9.7095736381
 30
0.0
 10
12.2371127986
 20
9.7026488524
 30
0.0
 10
12.2433949997
 20
9.6990349063
 30
0.0
 10
12.2463864221
 20
9.697189234
 30
0.0
  0
SPLINE
  5
4D7
100
AcDbEntity
  8
0
100
AcDbSpline
 62
7
  6
CONTINUOUS
 70
0
 71
3
 72
14
 73
10
 74
0
 42
0.0000001
 43
0.0000001
 44
0.0000000001
 40
0.0
 40
0.0
 40
0.0
 40
0.0
 40
0.1262646378
 40
0.252679616
 40
0.3788774715
 40
0.5048179619
 40
0.7547540179
 40
0.8783806722
 40
1.0
 40
1.0
 40
1.0
 40
1.0
 10
9.8849270203
 20
9.9357746915
 30
0.0
 10
9.8868586761
 20
9.938818494
 30
0.0
 10
9.8902847295
 20
9.9452000487
 30
0.0
 10
9.8940459996
 20
9.9553764391
 30
0.0
 10
9.8964090477
 20
9.9659552754
 30
0.0
 10
9.8978140892
 20
9.9802478887
 30
0.0
 10
9.8968048938
 20
9.9946011157
 30
0.0
 10
9.8937352561
 20
10.0084155821
 30
0.0
 10
9.891559361
 20
10.0150859889
 30
0.0
 10
9.8903209125
 20
10.01833
 30
0.0
  0
SPLINE
  5
4D8
100
AcDbEntity
  8
0
100
AcDbSpline
 62
7
  6
CONTINUOUS
 70
0
 71
3
 72
13
 73
9
 74
0
 42
0.0000001
 43
0.0000001
 44
0.0000000001
 40
0.0
 40
0.0
 40
0.0
 40
0.0
 40
0.2805936693
 40
0.5437139682
 40
0.6672593725
 40
0.7848437805
 40
0.8959415994
 40
1.0
 40
1.0
 40
1.0
 40
1.0
 10
9.8903209125
 20
10.01833
 30
0.0
 10
9.8864376383
 20
10.0285019077
 30
0.0
 10
9.8795240491
 20
10.048452635
 30
0.0
 10
9.8727401535
 20
10.0734670113
 30
0.0
 10
9.8687901689
 20
10.0926362325
 30
0.0
 10
9.8666329169
 20
10.1061378582
 30
0.0
 10
9.8652348407
 20
10.1189789361
 30
0.0
 10
9.8648062002
 20
10.1273231789
 30
0.0
 10
9.8647392404
 20
10.1313604303
 30
0.0
  0
SPLINE
  5
4D9
100
AcDbEntity
  8
0
100
AcDbSpline
 62
7
  6
CONTINUOUS
 70
0
 71
3
 72
14
 73
10
 74
0
 42
0.0000001
 43
0.0000001
 44
0.0000000001
 40
0.0
 40
0.0
 40
0.0
 40
0.0
 40
0.1211398344
 40
0.2444272305
 40
0.4941650716
 40
0.6202295682
 40
0.7466672739
 40
0.8733901847
 40
1.0
 40
1.0
 40
1.0
 40
1.0
 10
9.8816606087
 20
10.0238259959
 30
0.0
 10
9.882851685
 20
10.0206073014
 30
0.0
 10
9.8849269708
 20
10.0139852974
 30
0.0
 10
9.8877778618
 20
10.0002638191
 30
0.0
 10
9.8885385312
 20
9.9860162744
 30
0.0
 10
9.8869146011
 20
9.9718545804
 30
0.0
 10
9.8844190428
 20
9.9613740864
 30
0.0
 10
9.8805831818
 20
9.9512905365
 30
0.0
 10
9.8771535271
 20
9.9449562195
 30
0.0
 10
9.8752315301
 20
9.9419276368
 30
0.0
  0
SPLINE
  5
4DA
100
AcDbEntity
  8
0
100
AcDbSpline
 62
7
  6
CONTINUOUS
 70
0
 71
3
 72
13
 73
9
 74
0
 42
0.0000001
 43
0.0000001
 44
0.0000000001
 40
0.0
 40
0.0
 40
0.0
 40
0.0
 40
0.1059102147
 40
0.218181063
 40
0.3363331803
 40
0.4599159054
 40
0.7217919242
 40
1.0
 40
1.0
 40
1.0
 40
1.0
 10
9.8560106386
 20
10.1368997695
 30
0.0
 10
9.8561685532
 20
10.1327941468
 30
0.0
 10
9.8567494937
 20
10.1243449449
 30
0.0
 10
9.8583047223
 20
10.1113857744
 30
0.0
 10
9.8605544736
 20
10.0978336543
 30
0.0
 10
9.8645378909
 20
10.0787024905
 30
0.0
 10
9.8712077368
 20
10.0538124266
 30
0.0
 10
9.8779149894
 20
10.0339479369
 30
0.0
 10
9.8816606087
 20
10.0238259959
 30
0.0
  0
SPLINE
  5
4DB
100
AcDbEntity
  8
0
100
AcDbSpline
 62
7
  6
CONTINUOUS
 70
0
 71
3
 72
14
 73
10
 74
0
 42
0.0000001
 43
0.0000001
 44
0.0000000001
 40
0.0
 40
0.0
 40
0.0
 40
0.0
 40
0.1262655487
 40
0.2526829988
 40
0.3788818557
 40
0.5048236933
 40
0.7547580722
 40
0.8783819547
 40
1.0
 40
1.0
 40
1.0
 40
1.0
 10
11.9904576652
 20
9.9357746915
 30
0.0
 10
11.9923893348
 20
9.9327308673
 30
0.0
 10
11.9967049275
 20
9.9269137272
 30
0.0
 10
12.0043113527
 20
9.9191773861
 30
0.0
 10
12.012877366
 20
9.9125349203
 30
0.0
 10
12.0252115694
 20
9.9051782347
 30
0.0
 10
12.038628352
 20
9.8999800882
 30
0.0
 10
12.0524348956
 20
9.8968757478
 30
0.0
 10
12.0593967959
 20
9.8960044595
 30
0.0
 10
12.062859334
 20
9.8957438112
 30
0.0
  0
SPLINE
  5
4DC
100
AcDbEntity
  8
0
100
AcDbSpline
 62
7
  6
CONTINUOUS
 70
0
 71
3
 72
13
 73
9
 74
0
 42
0.0000001
 43
0.0000001
 44
0.0000000001
 40
0.0
 40
0.0
 40
0.0
 40
0.0
 40
0.2805936693
 40
0.5437139682
 40
0.6672593725
 40
0.7848437805
 40
0.8959415994
 40
1.0
 40
1.0
 40
1.0
 40
1.0
 10
12.062859334
 20
9.8957438112
 30
0.0
 10
12.0737165689
 20
9.8949265151
 30
0.0
 10
12.0947121899
 20
9.8926875112
 30
0.0
 10
12.1202343165
 20
9.8881751599
 30
0.0
 10
12.1392609681
 20
9.8835873554
 30
0.0
 10
12.1523961175
 20
9.8797905828
 30
0.0
 10
12.1646103441
 20
9.8755881349
 30
0.0
 10
12.1723429469
 20
9.8724231747
 30
0.0
 10
12.1760244713
 20
9.8707647836
 30
0.0
  0
SPLINE
  5
4DD
100
AcDbEntity
  8
0
100
AcDbSpline
 62
7
  6
CONTINUOUS
 70
0
 71
3
 72
14
 73
10
 74
0
 42
0.0000001
 43
0.0000001
 44
0.0000000001
 40
0.0
 40
0.0
 40
0.0
 40
0.0
 40
0.1268214152
 40
0.2537889841
 40
0.3805145769
 40
0.5069202174
 40
0.7571070422
 40
0.8800643778
 40
1.0
 40
1.0
 40
1.0
 40
1.0
 10
11.8984205124
 20
10.0624529646
 30
0.0
 10
11.9014658484
 20
10.0587717858
 30
0.0
 10
11.9081026916
 20
10.0518380782
 30
0.0
 10
11.9193671512
 20
10.0429070139
 30
0.0
 10
11.9316903782
 20
10.0355382169
 30
0.0
 10
11.9490226953
 20
10.0277706981
 30
0.0
 10
11.9673483511
 20
10.0228687079
 30
0.0
 10
11.9858029905
 20
10.0206242457
 30
0.0
 10
11.9949662967
 20
10.0203556595
 30
0.0
 10
11.9994836848
 20
10.0204396242
 30
0.0
  0
SPLINE
  5
4DE
100
AcDbEntity
  8
0
100
AcDbSpline
 62
7
  6
CONTINUOUS
 70
0
 71
3
 72
14
 73
10
 74
0
 42
0.0000001
 43
0.0000001
 44
0.0000000001
 40
0.0
 40
0.0
 40
0.0
 40
0.0
 40
0.1195097608
 40
0.2421276323
 40
0.4920798276
 40
0.6185952534
 40
0.7455567694
 40
0.8728320183
 40
1.0
 40
1.0
 40
1.0
 40
1.0
 10
9.7954027756
 20
9.9121630181
 30
0.0
 10
9.7973499659
 20
9.9081367511
 30
0.0
 10
9.8008957324
 20
9.899778955
 30
0.0
 10
9.8064685549
 20
9.8822097858
 30
0.0
 10
9.8095316968
 20
9.8636298157
 30
0.0
 10
9.8095955132
 20
9.8447587581
 30
0.0
 10
9.8079916466
 20
9.8305627488
 30
0.0
 10
9.8045928918
 20
9.8166612979
 30
0.0
 10
9.8011286799
 20
9.8077553277
 30
0.0
 10
9.7991023986
 20
9.8034492608
 30
0.0
  0
SPLINE
  5
4DF
100
AcDbEntity
  8
0
100
AcDbSpline
 62
7
  6
CONTINUOUS
 70
0
 71
3
 72
12
 73
8
 74
0
 42
0.0000001
 43
0.0000001
 44
0.0000000001
 40
0.0
 40
0.0
 40
0.0
 40
0.0
 40
0.1072433786
 40
0.2202549619
 40
0.4620966451
 40
0.72299958
 40
1.0
 40
1.0
 40
1.0
 40
1.0
 10
9.7631883894
 20
10.0066540677
 30
0.0
 10
9.7637604692
 20
10.0031200675
 30
0.0
 10
9.765129933
 20
9.9958924996
 30
0.0
 10
9.7686966704
 20
9.9808805647
 30
0.0
 10
9.7747022083
 20
9.9611990156
 30
0.0
 10
9.7839854299
 20
9.9368645755
 30
0.0
 10
9.7913768929
 20
9.9204874633
 30
0.0
 10
9.7954027756
 20
9.9121630181
 30
0.0
  0
SPLINE
  5
4E0
100
AcDbEntity
  8
0
100
AcDbSpline
 62
7
  6
CONTINUOUS
 70
0
 71
3
 72
12
 73
8
 74
0
 42
0.0000001
 43
0.0000001
 44
0.0000000001
 40
0.0
 40
0.0
 40
0.0
 40
0.0
 40
0.2794694415
 40
0.541535521
 40
0.7826905117
 40
0.8945401391
 40
1.0
 40
1.0
 40
1.0
 40
1.0
 10
11.9994836848
 20
10.0204396242
 30
0.0
 10
12.0087968114
 20
10.0206127273
 30
0.0
 10
12.0268588526
 20
10.0204327121
 30
0.0
 10
12.052892192
 20
10.0184961209
 30
0.0
 10
12.0731929043
 20
10.0154541752
 30
0.0
 10
12.0881141499
 20
10.0121359027
 30
0.0
 10
12.095097736
 20
10.0101978153
 30
0.0
 10
12.0984541774
 20
10.0091540647
 30
0.0
  0
ENDSEC
  0
SECTION
  2
OBJECTS
  0
DICTIONARY
  5
C
100
AcDbDictionary
280
0
281
1
  3
ACAD_GROUP
350
D
  3
ACAD_MLINESTYLE
350
17
  3
ACAD_LAYOUT
350
1A
  3
ACAD_PLOTSETTINGS
350
19
  3
ACAD_PLOTSTYLENAME
350
E
  0
DICTIONARY
  5
D
102
{ACAD_REACTORS
330
C
102
}
100
AcDbDictionary
280
0
281
1
  0
ACDBDICTIONARYWDFLT
  5
E
102
{ACAD_REACTORS
330
C
102
}
100
AcDbDictionary
281
1
  3
Normal
350
F
100
AcDbDictionaryWithDefault
340
F
  0
DICTIONARY
  5
17
102
{ACAD_REACTORS
330
C
102
}
100
AcDbDictionary
280
0
281
1
  3
Standard
350
18
  0
DICTIONARY
  5
19
102
{ACAD_REACTORS
330
C
102
}
100
AcDbDictionary
281
1
  0
DICTIONARY
  5
1A
102
{ACAD_REACTORS
330
C
102
}
100
AcDbDictionary
281
1
  3
Model
350
4E1
  3
Layout1
350
4E2
  0
ACDBPLACEHOLDER
  5
F
102
{ACAD_REACTORS
330
E
102
}
  0
MLINESTYLE
  5
18
102
{ACAD_REACTORS
330
17
102
}
100
AcDbMlineStyle
  2
STANDARD
 70
0
  3

 62
256
 51
90.0
 52
90.0
 71
2
 49
0.5
 62
256
  6
BYLAYER
 49
-0.5
 62
256
  6
BYLAYER
  0
LAYOUT
  5
4E1
102
{ACAD_REACTORS
330
1A
102
}
100
AcDbPlotSettings
  1

  2
none_device
  4
ANSI_C_(22.00_x_17.00_Inches)
  6

 40
0.0
 41
0.0
 42
0.0
 43
0.0
 44
558.8
 45
431.8
 46
0.0
 47
0.0
 48
0.0
 49
0.0
140
0.0
141
0.0
142
1.0
143
1.0
 70
1024
 72
0
 73
0
 74
0
  7

 75
0
147
1.0
148
0.0
149
0.0
100
AcDbLayout
  1
Model
 70
0
 71
0
 10
0.0
 20
0.0
 11
22.0
 21
17.0
 12
0.0
 22
0.0
 32
0.0
 14
0.0
 24
0.0
 34
0.0
 15
0.0
 25
0.0
 35
0.0
146
0.0
 13
0.0
 23
0.0
 33
0.0
 16
1.0
 26
0.0
 36
0.0
 17
0.0
 27
1.0
 37
0.0
 76
0
330
205
345
0
346
0
  0
LAYOUT
  5
4E2
102
{ACAD_REACTORS
330
1A
102
}
100
AcDbPlotSettings
  1

  2
none_device
  4
ANSI_C_(22.00_x_17.00_Inches)
  6

 40
0.0
 41
0.0
 42
0.0
 43
0.0
 44
558.8
 45
431.8
 46
0.0
 47
0.0
 48
0.0
 49
0.0
140
0.0
141
0.0
142
1.0
143
1.0
 70
0
 72
0
 73
0
 74
0
  7

 75
0
147
1.0
148
0.0
149
0.0
100
AcDbLayout
  1
Layout1
 70
0
 71
1
 10
0.0
 20
0.0
 11
22.0
 21
17.0
 12
0.0
 22
0.0
 32
0.0
 14
0.0
 24
0.0
 34
0.0
 15
0.0
 25
0.0
 35
0.0
146
0.0
 13
0.0
 23
0.0
 33
0.0
 16
1.0
 26
0.0
 36
0.0
 17
0.0
 27
1.0
 37
0.0
 76
0
330
206
345
0
346
0
  0
ENDSEC
  0
EOF
