999
DXF file: E:\BT Custom\CADOUTPUT\_RIGHT.dxf
999
Pro/ENGINEER 2018400 by Parametric Technology Corporation
  0
SECTION
  2
HEADER
  9
$ACADVER
  1
AC1018
  9
$DWGCODEPAGE
  3
ANSI_1252
  9
$EXTMAX
 10
22.0
 20
17.0
 30
0.0
  9
$EXTMIN
 10
0.0
 20
0.0
 30
0.0
  9
$LIMMIN
 10
0.0
 20
0.0
  9
$LIMMAX
 10
22.0
 20
17.0
  9
$VIEWCTR
 10
11.0
 20
8.5
  9
$VIEWSIZE
 40
17.0
  9
$CLAYER
  8
0
  9
$LTSCALE
 40
1.21
  9
$CELTYPE
  6
BYLAYER
  9
$DIMSCALE
 40
1.0
  9
$DIMASZ
 40
0.1
  9
$DIMEXO
 40
0.0625
  9
$DIMDLI
 40
0.836
  9
$DIMEXE
 40
0.125
  9
$DIMCEN
 40
0.198
  9
$DIMLFAC
 40
1.0
  9
$DIMBLK
  1
_FILLED
  9
$DIMALT
 70
1
  9
$DIMALTD
 70
2
  9
$DIMALTTD
 70
2
  9
$DIMALTF
 40
25.4
  9
$DIMTXT
 40
0.08
  9
$DIMTOL
 70
1
  9
$DIMLIM
 70
0
  9
$DIMTFAC
 40
1.0
  9
$DIMTP
 40
0.001
  9
$DIMTM
 40
0.001
  9
$DIMGAP
 40
0.09
  9
$DIMDSEP
 70
46
  9
$AUNITS
 70
0
  9
$PDMODE
 70
3
  9
$PDSIZE
 40
0.06
  9
$HANDSEED
  5
422
  9
$TILEMODE
 70
1
  9
$MEASUREMENT
 70
0
  9
$INSUNITS
 70
1
  0
ENDSEC
  0
SECTION
  2
CLASSES
  0
CLASS
  1
ACDBDICTIONARYWDFLT
  2
AcDbDictionaryWithDefault
  3
AutoCAD 2000
 90
0
 91
1
280
0
281
0
  0
CLASS
  1
ACDBPLACEHOLDER
  2
AcDbPlaceHolder
  3
AutoCAD 2000
 90
0
 91
1
280
0
281
0
  0
CLASS
  1
LAYOUT
  2
AcDbLayout
  3
AutoCAD 2000
 90
0
 91
0
280
0
281
0
  0
ENDSEC
  0
SECTION
  2
TABLES
  0
TABLE
  2
VPORT
  5
8
100
AcDbSymbolTable
 70
2
  0
VPORT
  5
1F4
100
AcDbSymbolTableRecord
100
AcDbViewportTableRecord
  2
*ACTIVE
 70
0
 10
0.0
 20
0.0
 11
1.0
 21
1.0
 12
11.0
 22
8.5
 13
0.0
 23
0.0
 14
1.0
 24
1.0
 15
0.0
 25
0.0
 16
0.0
 26
0.0
 36
1.0
 17
0.0
 27
0.0
 37
0.0
 40
17.0
 41
1.2941176471
 42
50.0
 43
0.0
 44
0.0
 50
0.0
 51
0.0
 71
0
 72
100
 73
1
 74
1
 75
0
 76
0
 77
0
 78
0
  0
ENDTAB
  0
TABLE
  2
LTYPE
  5
5
100
AcDbSymbolTable
 70
6
  0
LTYPE
  5
14
100
AcDbSymbolTableRecord
100
AcDbLinetypeTableRecord
  2
BYBLOCK
 70
0
  3

 72
65
 73
0
 40
0.0
  0
LTYPE
  5
15
100
AcDbSymbolTableRecord
100
AcDbLinetypeTableRecord
  2
BYLAYER
 70
0
  3

 72
65
 73
0
 40
0.0
  0
LTYPE
  5
16
100
AcDbSymbolTableRecord
100
AcDbLinetypeTableRecord
  2
CONTINUOUS
 70
64
  3
Solid line
 72
65
 73
0
 40
0.0
  0
LTYPE
  5
1F5
100
AcDbSymbolTableRecord
100
AcDbLinetypeTableRecord
  2
CENTER
 70
64
  3
____ _ ____ _ ____ _ ____ _ ____ _ ____ _ ____
 72
65
 73
4
 40
0.6
 49
0.375
 74
0
 49
-0.075
 74
0
 49
0.075
 74
0
 49
-0.075
 74
0
  0
LTYPE
  5
1F6
100
AcDbSymbolTableRecord
100
AcDbLinetypeTableRecord
  2
HIDDEN
 70
64
  3
- - - - - - - - - - - - - - - - - - - -
 72
65
 73
2
 40
0.2
 49
0.1
 74
0
 49
-0.1
 74
0
  0
LTYPE
  5
1F7
100
AcDbSymbolTableRecord
100
AcDbLinetypeTableRecord
  2
PHANTOM
 70
64
  3
_____ _ _ _____ _ _ _____ _ _ _____
 72
65
 73
6
 40
0.8
 49
0.45
 74
0
 49
-0.05
 74
0
 49
0.1
 74
0
 49
-0.05
 74
0
 49
0.1
 74
0
 49
-0.05
 74
0
  0
LTYPE
  5
1F8
100
AcDbSymbolTableRecord
100
AcDbLinetypeTableRecord
  2
DOT
 70
64
  3
. . . . . . . . . . . . . . . . . . . .
 72
65
 73
2
 40
0.2
 49
0.1
 74
0
 49
-0.1
 74
0
  0
LTYPE
  5
1F9
100
AcDbSymbolTableRecord
100
AcDbLinetypeTableRecord
  2
DASHED
 70
64
  3
- - - - - - - - - - - - - - - - - - - -
 72
65
 73
2
 40
0.2
 49
0.1
 74
0
 49
-0.1
 74
0
  0
ENDTAB
  0
TABLE
  2
LAYER
  5
2
100
AcDbSymbolTable
 70
36
  0
LAYER
  5
10
100
AcDbSymbolTableRecord
100
AcDbLayerTableRecord
  2
0
 70
0
 62
7
  6
CONTINUOUS
370
-3
390
F
  0
LAYER
  5
1FA
100
AcDbSymbolTableRecord
100
AcDbLayerTableRecord
  2
DEFAULT_1
 70
0
 62
7
  6
CENTER
370
-3
390
F
  0
LAYER
  5
1FB
100
AcDbSymbolTableRecord
100
AcDbLayerTableRecord
  2
DEFAULT_2
 70
0
 62
8
  6
HIDDEN
370
-3
390
F
  0
LAYER
  5
1FC
100
AcDbSymbolTableRecord
100
AcDbLayerTableRecord
  2
DEFAULT_3
 70
0
 62
7
  6
PHANTOM
370
-3
390
F
  0
LAYER
  5
1FD
100
AcDbSymbolTableRecord
100
AcDbLayerTableRecord
  2
ALL_FEATURES
 70
0
 62
7
  6
CONTINUOUS
370
-3
390
F
  0
LAYER
  5
1FE
100
AcDbSymbolTableRecord
100
AcDbLayerTableRecord
  2
AXES_FEATURES
 70
0
 62
7
  6
CONTINUOUS
370
-3
390
F
  0
LAYER
  5
1FF
100
AcDbSymbolTableRecord
100
AcDbLayerTableRecord
  2
DEFAULT_COORDINATE_SYSTEM
 70
0
 62
7
  6
CONTINUOUS
370
-3
390
F
  0
LAYER
  5
200
100
AcDbSymbolTableRecord
100
AcDbLayerTableRecord
  2
DEFAULT_DATUM_AXES
 70
0
 62
7
  6
CONTINUOUS
370
-3
390
F
  0
LAYER
  5
201
100
AcDbSymbolTableRecord
100
AcDbLayerTableRecord
  2
DEFAULT_DATUM_PLANES
 70
0
 62
7
  6
CONTINUOUS
370
-3
390
F
  0
LAYER
  5
202
100
AcDbSymbolTableRecord
100
AcDbLayerTableRecord
  2
DIMENSIONS
 70
0
 62
7
  6
CONTINUOUS
370
-3
390
F
  0
ENDTAB
  0
TABLE
  2
STYLE
  5
3
100
AcDbSymbolTable
 70
1
  0
STYLE
  5
11
100
AcDbSymbolTableRecord
100
AcDbTextStyleTableRecord
  2
STANDARD
 70
0
 40
0.0
 41
0.8
 50
0.0
 71
0
 42
0.2
  3
txt
  4

  0
STYLE
  5
203
100
AcDbSymbolTableRecord
100
AcDbTextStyleTableRecord
  2
TEXTSTYLE_1
 70
0
 40
0.0
 41
0.8
 50
0.0
 71
0
 42
0.2
  3
gdt
  4

  0
ENDTAB
  0
TABLE
  2
VIEW
  5
6
100
AcDbSymbolTable
 70
0
  0
ENDTAB
  0
TABLE
  2
UCS
  5
7
100
AcDbSymbolTable
 70
0
  0
ENDTAB
  0
TABLE
  2
APPID
  5
9
100
AcDbSymbolTable
 70
1
  0
APPID
  5
204
100
AcDbSymbolTableRecord
100
AcDbRegAppTableRecord
  2
ACAD
 70
0
  0
ENDTAB
  0
TABLE
  2
BLOCK_RECORD
  5
1
100
AcDbSymbolTable
 70
0
  0
BLOCK_RECORD
  5
205
100
AcDbSymbolTableRecord
100
AcDbBlockTableRecord
  2
*Model_Space
  0
BLOCK_RECORD
  5
206
100
AcDbSymbolTableRecord
100
AcDbBlockTableRecord
  2
*Paper_Space
  0
BLOCK_RECORD
  5
207
100
AcDbSymbolTableRecord
100
AcDbBlockTableRecord
  2
_FILLED
  0
ENDTAB
  0
TABLE
  2
DIMSTYLE
  5
A
100
AcDbSymbolTable
 70
1
100
AcDbDimStyleTable
 71
0
  0
DIMSTYLE
105
208
100
AcDbSymbolTableRecord
100
AcDbDimStyleTableRecord
  2
STANDARD
 70
0
  3

  4

 40
1.0
 41
0.1
 42
0.0625
 43
0.38
 44
0.125
 45
0.0
 46
0.0
 47
0.001
 48
0.001
140
0.08
141
0.09
142
0.0
143
25.4
144
1.0
145
0.0
146
1.0
147
0.09
 71
1.0
 72
0.0
 73
1
 74
1
 75
0
 76
0
 77
0
 78
4
 79
1
170
1
171
2
172
0
173
0
174
0
175
0
176
0
177
0
178
0
270
2
179
3
271
3
272
3
273
2
274
2
275
0
280
0
281
0
282
0
283
1
284
4
285
0
286
0
287
3
288
0
340
11
278
46
341
207
342
207
343
207
344
207
  0
ENDTAB
  0
ENDSEC
  0
SECTION
  2
BLOCKS
  0
BLOCK
  5
20
100
AcDbEntity
  8
0
100
AcDbBlockBegin
  2
*Model_Space
 70
0
 10
0.0
 20
0.0
 30
0.0
  3
*Model_Space
  1

  0
ENDBLK
  5
21
100
AcDbEntity
  8
0
100
AcDbBlockEnd
  0
BLOCK
  5
1C
100
AcDbEntity
  8
0
100
AcDbBlockBegin
  2
*Paper_Space
 70
0
 10
0.0
 20
0.0
 30
0.0
  3
*Paper_Space
  1

  0
ENDBLK
  5
1D
100
AcDbEntity
  8
0
100
AcDbBlockEnd
  0
BLOCK
  5
209
100
AcDbEntity
  8
0
100
AcDbBlockBegin
  2
_FILLED
 70
64
 10
0.0
 20
0.0
  3
_FILLED
  1

  0
SOLID
  5
20A
100
AcDbEntity
  8
0
  6
BYBLOCK
 62
0
100
AcDbTrace
 10
0.0
 20
0.0
 11
-1.0
 21
0.2
 12
-1.0
 22
-0.2
 13
-1.0
 23
-0.2
  0
ENDBLK
  5
20B
100
AcDbEntity
  8
0
  6
BYBLOCK
 62
0
100
AcDbBlockEnd
  0
ENDSEC
  0
SECTION
  2
ENTITIES
  0
LINE
  5
20C
100
AcDbEntity
  8
0
100
AcDbLine
 62
7
  6
CONTINUOUS
 10
9.0874834891
 20
9.179891804
 11
9.0874834891
 21
8.839891804
  0
LINE
  5
20D
100
AcDbEntity
  8
0
100
AcDbLine
 62
7
  6
CONTINUOUS
 10
9.0974834891
 20
9.189891804
 11
9.0974834891
 21
8.829891804
  0
LINE
  5
20E
100
AcDbEntity
  8
0
100
AcDbLine
 62
7
  6
CONTINUOUS
 10
9.1534834891
 20
9.282391804
 11
9.1534834891
 21
8.737391804
  0
LINE
  5
20F
100
AcDbEntity
  8
0
100
AcDbLine
 62
7
  6
CONTINUOUS
 10
9.1774834891
 20
8.714391804
 11
9.1774834891
 21
9.305391804
  0
LINE
  5
210
100
AcDbEntity
  8
0
100
AcDbLine
 62
9
  6
CONTINUOUS
 10
9.2124834891
 20
8.679391804
 11
9.2124834891
 21
9.340391804
  0
LINE
  5
211
100
AcDbEntity
  8
0
100
AcDbLine
 62
7
  6
CONTINUOUS
 10
9.2954865698
 20
9.340391804
 11
9.2954865698
 21
8.679391804
  0
LINE
  5
212
100
AcDbEntity
  8
0
100
AcDbLine
 62
7
  6
CONTINUOUS
 10
9.5389899619
 20
9.009891804
 11
9.5389899619
 21
9.509891804
  0
LINE
  5
213
100
AcDbEntity
  8
0
100
AcDbLine
 62
7
  6
CONTINUOUS
 10
9.0974834891
 20
9.189891804
 11
9.0874834891
 21
9.179891804
  0
LINE
  5
214
100
AcDbEntity
  8
0
100
AcDbLine
 62
7
  6
CONTINUOUS
 10
12.029135003
 20
7.834891804
 11
12.0424834891
 21
7.834891804
  0
LINE
  5
215
100
AcDbEntity
  8
0
100
AcDbLine
 62
7
  6
CONTINUOUS
 10
9.0974834891
 20
8.829891804
 11
9.0874834891
 21
8.839891804
  0
LINE
  5
216
100
AcDbEntity
  8
0
100
AcDbLine
 62
7
  6
CONTINUOUS
 10
9.7889899619
 20
9.009891804
 11
9.7889899619
 21
9.509891804
  0
LINE
  5
217
100
AcDbEntity
  8
0
100
AcDbLine
 62
7
  6
CONTINUOUS
 10
12.1439163928
 20
8.4271354689
 11
12.131587867
 21
8.4239387309
  0
LINE
  5
218
100
AcDbEntity
  8
0
100
AcDbLine
 62
9
  6
CONTINUOUS
 10
9.9831891487
 20
9.3882261524
 11
9.9831891487
 21
8.6315574557
  0
LINE
  5
219
100
AcDbEntity
  8
0
100
AcDbLine
 62
7
  6
CONTINUOUS
 10
12.1440221119
 20
8.5430121358
 11
12.1317403148
 21
8.5398275144
  0
LINE
  5
21A
100
AcDbEntity
  8
0
100
AcDbLine
 62
9
  6
CONTINUOUS
 10
12.0671714422
 20
8.6551207319
 11
12.0548694626
 21
8.6519308772
  0
LINE
  5
21B
100
AcDbEntity
  8
0
100
AcDbLine
 62
7
  6
CONTINUOUS
 10
12.0536294837
 20
8.7031648951
 11
12.0446914421
 21
8.7008472963
  0
LINE
  5
21C
100
AcDbEntity
  8
0
100
AcDbLine
 62
7
  6
CONTINUOUS
 10
12.1439309717
 20
8.6018326688
 11
12.1316107082
 21
8.5998955341
  0
LINE
  5
21D
100
AcDbEntity
  8
0
100
AcDbLine
 62
7
  6
CONTINUOUS
 10
12.1440245115
 20
8.7142428391
 11
12.131743448
 21
8.7123118679
  0
LINE
  5
21E
100
AcDbEntity
  8
0
100
AcDbLine
 62
7
  6
CONTINUOUS
 10
10.3684834891
 20
9.362391804
 11
10.3684834891
 21
8.657391804
  0
LINE
  5
21F
100
AcDbEntity
  8
0
100
AcDbLine
 62
7
  6
CONTINUOUS
 10
10.4124834891
 20
9.362391804
 11
10.4124834891
 21
8.657391804
  0
LINE
  5
220
100
AcDbEntity
  8
0
100
AcDbLine
 62
9
  6
CONTINUOUS
 10
12.0672478273
 20
8.8179539844
 11
12.0549509649
 21
8.8160205292
  0
LINE
  5
221
100
AcDbEntity
  8
0
100
AcDbLine
 62
7
  6
CONTINUOUS
 10
12.0506467646
 20
8.8629470862
 11
12.0446898325
 21
8.8620104683
  0
LINE
  5
222
100
AcDbEntity
  8
0
100
AcDbLine
 62
7
  6
CONTINUOUS
 10
12.1439163928
 20
8.7558146333
 11
12.131587867
 21
8.7551650741
  0
LINE
  5
223
100
AcDbEntity
  8
0
100
AcDbLine
 62
7
  6
CONTINUOUS
 10
10.4124834891
 20
8.657391804
 11
10.3684834891
 21
8.657391804
  0
LINE
  5
224
100
AcDbEntity
  8
0
100
AcDbLine
 62
7
  6
CONTINUOUS
 10
9.2954865698
 20
8.679391804
 11
9.2124834891
 21
8.679391804
  0
LINE
  5
225
100
AcDbEntity
  8
0
100
AcDbLine
 62
7
  6
CONTINUOUS
 10
9.1774834891
 20
8.737391804
 11
9.1534834891
 21
8.737391804
  0
LINE
  5
226
100
AcDbEntity
  8
0
100
AcDbLine
 62
7
  6
CONTINUOUS
 10
10.5524834891
 20
8.634891804
 11
10.5524834891
 21
9.384891804
  0
LINE
  5
227
100
AcDbEntity
  8
0
100
AcDbLine
 62
7
  6
CONTINUOUS
 10
12.1440221119
 20
8.8799572944
 11
12.1317403148
 21
8.8793101972
  0
LINE
  5
228
100
AcDbEntity
  8
0
100
AcDbLine
 62
9
  6
CONTINUOUS
 10
12.0671714422
 20
8.9735050931
 11
12.0548694626
 21
8.9728569326
  0
LINE
  5
229
100
AcDbEntity
  8
0
100
AcDbLine
 62
7
  6
CONTINUOUS
 10
12.0583826299
 20
9.014613571
 11
12.0446914421
 21
9.0138922165
  0
LINE
  5
22A
100
AcDbEntity
  8
0
100
AcDbLine
 62
7
  6
CONTINUOUS
 10
12.1439309717
 20
8.9418171752
 11
12.1316107082
 21
8.9424662991
  0
LINE
  5
22B
100
AcDbEntity
  8
0
100
AcDbLine
 62
9
  6
CONTINUOUS
 10
10.7811189816
 20
8.464891804
 11
10.7811189816
 21
9.554891804
  0
LINE
  5
22C
100
AcDbEntity
  8
0
100
AcDbLine
 62
7
  6
CONTINUOUS
 10
12.1440245115
 20
9.0581026969
 11
12.131743448
 21
9.0587497554
  0
LINE
  5
22D
100
AcDbEntity
  8
0
100
AcDbLine
 62
7
  6
CONTINUOUS
 10
9.1774834891
 20
9.282391804
 11
9.1534834891
 21
9.282391804
  0
LINE
  5
22E
100
AcDbEntity
  8
0
100
AcDbLine
 62
9
  6
CONTINUOUS
 10
12.0672478273
 20
9.1401100061
 11
12.0549509649
 21
9.1407578971
  0
LINE
  5
22F
100
AcDbEntity
  8
0
100
AcDbLine
 62
7
  6
CONTINUOUS
 10
12.0524630327
 20
9.1769966032
 11
12.0446898325
 21
9.1774061537
  0
LINE
  5
230
100
AcDbEntity
  8
0
100
AcDbLine
 62
7
  6
CONTINUOUS
 10
9.2954865698
 20
9.340391804
 11
9.2124834891
 21
9.340391804
  0
LINE
  5
231
100
AcDbEntity
  8
0
100
AcDbLine
 62
7
  6
CONTINUOUS
 10
10.4124834891
 20
9.362391804
 11
10.3684834891
 21
9.362391804
  0
LINE
  5
232
100
AcDbEntity
  8
0
100
AcDbLine
 62
7
  6
CONTINUOUS
 10
12.1439163928
 20
9.1004584008
 11
12.131587867
 21
9.1023968345
  0
LINE
  5
233
100
AcDbEntity
  8
0
100
AcDbLine
 62
7
  6
CONTINUOUS
 10
12.1440221119
 20
9.2250667161
 11
12.1317403148
 21
9.2269978026
  0
LINE
  5
234
100
AcDbEntity
  8
0
100
AcDbLine
 62
7
  6
CONTINUOUS
 10
9.5283433622
 20
9.509891804
 11
9.7996365615
 21
9.509891804
  0
LINE
  5
235
100
AcDbEntity
  8
0
100
AcDbLine
 62
9
  6
CONTINUOUS
 10
12.0671714422
 20
9.2941757652
 11
12.0548694626
 21
9.2961100251
  0
LINE
  5
236
100
AcDbEntity
  8
0
100
AcDbLine
 62
7
  6
CONTINUOUS
 10
12.0583826299
 20
9.3245330889
 11
12.0446914421
 21
9.3266857761
  0
LINE
  5
237
100
AcDbEntity
  8
0
100
AcDbLine
 62
7
  6
CONTINUOUS
 10
12.0599483008
 20
7.7025684201
 11
12.0765083227
 21
7.6738628725
  0
LINE
  5
238
100
AcDbEntity
  8
0
100
AcDbLine
 62
7
  6
CONTINUOUS
 10
12.1439309717
 20
9.2860790609
 11
12.1316107082
 21
9.2892736565
  0
LINE
  5
239
100
AcDbEntity
  8
0
100
AcDbLine
 62
7
  6
CONTINUOUS
 10
12.1440245115
 20
9.398933287
 11
12.131743448
 21
9.4021177182
  0
LINE
  5
23A
100
AcDbEntity
  8
0
100
AcDbLine
 62
7
  6
CONTINUOUS
 10
12.0493929749
 20
8.5575870086
 11
12.0446898325
 21
8.5559067111
  0
LINE
  5
23B
100
AcDbEntity
  8
0
100
AcDbLine
 62
9
  6
CONTINUOUS
 10
12.0672478273
 20
9.4540839392
 11
12.0549509649
 21
9.457272467
  0
LINE
  5
23C
100
AcDbEntity
  8
0
100
AcDbLine
 62
7
  6
CONTINUOUS
 10
12.058381879
 20
9.4787260028
 11
12.0446898325
 21
9.4822762964
  0
LINE
  5
23D
100
AcDbEntity
  8
0
100
AcDbLine
 62
9
  6
CONTINUOUS
 10
12.0655980915
 20
8.5072687187
 11
12.0549509649
 21
8.5034648065
  0
LINE
  5
23E
100
AcDbEntity
  8
0
100
AcDbLine
 62
7
  6
CONTINUOUS
 10
12.066827183
 20
9.7639270555
 11
12.0738381114
 21
9.7626619261
  0
LINE
  5
23F
100
AcDbEntity
  8
0
100
AcDbLine
 62
7
  6
CONTINUOUS
 10
12.0618866462
 20
9.7690543135
 11
12.0544795765
 21
9.7705313232
  0
LINE
  5
240
100
AcDbEntity
  8
0
100
AcDbLine
 62
7
  6
CONTINUOUS
 10
12.0668493261
 20
9.6384670257
 11
12.0683507764
 21
9.6379661131
  0
LINE
  5
241
100
AcDbEntity
  8
0
100
AcDbLine
 62
7
  6
CONTINUOUS
 10
12.1439163928
 20
9.4394115359
 11
12.131587867
 21
9.4438161637
  0
LINE
  5
242
100
AcDbEntity
  8
0
100
AcDbLine
 62
7
  6
CONTINUOUS
 10
12.1440221119
 20
9.5566559067
 11
12.1317403148
 21
9.5610438396
  0
LINE
  5
243
100
AcDbEntity
  8
0
100
AcDbLine
 62
9
  6
CONTINUOUS
 10
12.0671714422
 20
9.5969838306
 11
12.0548694626
 21
9.6013789742
  0
LINE
  5
244
100
AcDbEntity
  8
0
100
AcDbLine
 62
7
  6
CONTINUOUS
 10
12.0583826299
 20
9.6146825377
 11
12.0446914421
 21
9.6195740054
  0
LINE
  5
245
100
AcDbEntity
  8
0
100
AcDbLine
 62
9
  6
CONTINUOUS
 10
11.7974834891
 20
7.9771273665
 11
11.7974834891
 21
10.0426562416
  0
LINE
  5
246
100
AcDbEntity
  8
0
100
AcDbLine
 62
7
  6
CONTINUOUS
 10
12.0509598755
 20
8.4100391423
 11
12.0446914421
 21
8.407220779
  0
LINE
  5
247
100
AcDbEntity
  8
0
100
AcDbLine
 62
9
  6
CONTINUOUS
 10
12.0671714422
 20
8.3590279418
 11
12.0548694626
 21
8.3534968234
  0
LINE
  5
248
100
AcDbEntity
  8
0
100
AcDbLine
 62
7
  6
CONTINUOUS
 10
12.1440245115
 20
8.388959693
 11
12.131743448
 21
8.3845720222
  0
LINE
  5
249
100
AcDbEntity
  8
0
100
AcDbLine
 62
7
  6
CONTINUOUS
 10
12.1439309717
 20
8.2874880186
 11
12.1316107082
 21
8.2830863426
  0
LINE
  5
24A
100
AcDbEntity
  8
0
100
AcDbLine
 62
7
  6
CONTINUOUS
 10
12.0524635643
 20
9.7465045622
 11
12.0549509649
 21
9.7456764646
  0
LINE
  5
24B
100
AcDbEntity
  8
0
100
AcDbLine
 62
7
  6
CONTINUOUS
 10
12.0561269143
 20
9.643462109
 11
12.0545068454
 21
9.6440163528
  0
LINE
  5
24C
100
AcDbEntity
  8
0
100
AcDbLine
 62
7
  6
CONTINUOUS
 10
12.0667789614
 20
9.6384986594
 11
12.0560617771
 21
9.6433172348
  0
LINE
  5
24D
100
AcDbEntity
  8
0
100
AcDbLine
 62
9
  6
CONTINUOUS
 10
12.0683507764
 20
9.6379661131
 11
12.0561269143
 21
9.643462109
  0
LINE
  5
24E
100
AcDbEntity
  8
0
100
AcDbLine
 62
7
  6
CONTINUOUS
 10
12.1439309717
 20
9.6129870855
 11
12.1316107082
 21
9.6185264247
  0
LINE
  5
24F
100
AcDbEntity
  8
0
100
AcDbLine
 62
7
  6
CONTINUOUS
 10
11.9374834891
 20
7.894891804
 11
11.9374834891
 21
10.124891804
  0
LINE
  5
250
100
AcDbEntity
  8
0
100
AcDbLine
 62
7
  6
CONTINUOUS
 10
12.0483653397
 20
8.280294397
 11
12.0446898325
 21
8.278328507
  0
LINE
  5
251
100
AcDbEntity
  8
0
100
AcDbLine
 62
7
  6
CONTINUOUS
 10
12.1440221119
 20
8.2354027439
 11
12.1317403148
 21
8.2298806997
  0
LINE
  5
252
100
AcDbEntity
  8
0
100
AcDbLine
 62
7
  6
CONTINUOUS
 10
12.029135003
 20
10.184891804
 11
12.0424834891
 21
10.184891804
  0
LINE
  5
253
100
AcDbEntity
  8
0
100
AcDbLine
 62
7
  6
CONTINUOUS
 10
12.058381879
 20
9.7513086748
 11
12.0446898325
 21
9.7574647841
  0
LINE
  5
254
100
AcDbEntity
  8
0
100
AcDbLine
 62
7
  6
CONTINUOUS
 10
12.1440245115
 20
9.7153189699
 11
12.131743448
 21
9.7208406843
  0
LINE
  5
255
100
AcDbEntity
  8
0
100
AcDbLine
 62
7
  6
CONTINUOUS
 10
12.0667505397
 20
9.7639680471
 11
12.0544128323
 21
9.7705670209
  0
LINE
  5
256
100
AcDbEntity
  8
0
100
AcDbLine
 62
9
  6
CONTINUOUS
 10
12.0738381114
 20
9.7626619261
 11
12.0618866462
 21
9.7690543135
  0
LINE
  5
257
100
AcDbEntity
  8
0
100
AcDbLine
 62
9
  6
CONTINUOUS
 10
12.029135003
 20
7.834891804
 11
12.029135003
 21
10.184891804
  0
LINE
  5
258
100
AcDbEntity
  8
0
100
AcDbLine
 62
7
  6
CONTINUOUS
 10
12.0424834891
 20
7.792391804
 11
12.0424834891
 21
10.227391804
  0
LINE
  5
259
100
AcDbEntity
  8
0
100
AcDbLine
 62
9
  6
CONTINUOUS
 10
12.0574834891
 20
9.014613571
 11
12.0574834891
 21
9.0170376933
  0
LINE
  5
25A
100
AcDbEntity
  8
0
100
AcDbLine
 62
9
  6
CONTINUOUS
 10
12.0574834891
 20
9.3245330889
 11
12.0574834891
 21
9.3404390435
  0
LINE
  5
25B
100
AcDbEntity
  8
0
100
AcDbLine
 62
9
  6
CONTINUOUS
 10
12.0574834891
 20
9.6146825377
 11
12.0574834891
 21
9.6426780159
  0
LINE
  5
25C
100
AcDbEntity
  8
0
100
AcDbLine
 62
9
  6
CONTINUOUS
 10
12.0574834891
 20
9.7513086748
 11
12.0574834891
 21
9.7689246425
  0
LINE
  5
25D
100
AcDbEntity
  8
0
100
AcDbLine
 62
9
  6
CONTINUOUS
 10
12.0574834891
 20
9.869482609
 11
12.0574834891
 21
9.8968409317
  0
LINE
  5
25E
100
AcDbEntity
  8
0
100
AcDbLine
 62
9
  6
CONTINUOUS
 10
12.0574834891
 20
9.9878484059
 11
12.0574834891
 21
9.9982398125
  0
LINE
  5
25F
100
AcDbEntity
  8
0
100
AcDbLine
 62
9
  6
CONTINUOUS
 10
12.0574834891
 20
10.0835749922
 11
12.0574834891
 21
10.0929045723
  0
LINE
  5
260
100
AcDbEntity
  8
0
100
AcDbLine
 62
9
  6
CONTINUOUS
 10
12.1535647306
 20
7.627391804
 11
12.1535647306
 21
10.392391804
  0
LINE
  5
261
100
AcDbEntity
  8
0
100
AcDbLine
 62
7
  6
CONTINUOUS
 10
12.1674834891
 20
7.6132472571
 11
12.1674834891
 21
10.406536351
  0
LINE
  5
262
100
AcDbEntity
  8
0
100
AcDbLine
 62
7
  6
CONTINUOUS
 10
12.1439309717
 20
9.6129870855
 11
12.1440245115
 21
9.7153189699
  0
LINE
  5
263
100
AcDbEntity
  8
0
100
AcDbLine
 62
7
  6
CONTINUOUS
 10
12.1439163928
 20
9.4394115359
 11
12.1440221119
 21
9.5566559067
  0
LINE
  5
264
100
AcDbEntity
  8
0
100
AcDbLine
 62
7
  6
CONTINUOUS
 10
12.1439309717
 20
9.2860790609
 11
12.1440245115
 21
9.398933287
  0
LINE
  5
265
100
AcDbEntity
  8
0
100
AcDbLine
 62
7
  6
CONTINUOUS
 10
12.1439163928
 20
9.1004584008
 11
12.1440221119
 21
9.2250667161
  0
LINE
  5
266
100
AcDbEntity
  8
0
100
AcDbLine
 62
7
  6
CONTINUOUS
 10
12.1439309717
 20
8.9418171752
 11
12.1440245115
 21
9.0581026969
  0
LINE
  5
267
100
AcDbEntity
  8
0
100
AcDbLine
 62
7
  6
CONTINUOUS
 10
12.1439163928
 20
8.7558146333
 11
12.1440221119
 21
8.8799572944
  0
LINE
  5
268
100
AcDbEntity
  8
0
100
AcDbLine
 62
7
  6
CONTINUOUS
 10
12.1439309717
 20
8.6018326688
 11
12.1440245115
 21
8.7142428391
  0
LINE
  5
269
100
AcDbEntity
  8
0
100
AcDbLine
 62
7
  6
CONTINUOUS
 10
12.1439163928
 20
8.4271354689
 11
12.1440221119
 21
8.5430121358
  0
LINE
  5
26A
100
AcDbEntity
  8
0
100
AcDbLine
 62
7
  6
CONTINUOUS
 10
12.1439163928
 20
9.7513763666
 11
12.1440221119
 21
9.8538898978
  0
LINE
  5
26B
100
AcDbEntity
  8
0
100
AcDbLine
 62
7
  6
CONTINUOUS
 10
12.1439309717
 20
8.2874880186
 11
12.1440245115
 21
8.388959693
  0
LINE
  5
26C
100
AcDbEntity
  8
0
100
AcDbLine
 62
7
  6
CONTINUOUS
 10
12.1439163928
 20
8.1350730282
 11
12.1440221119
 21
8.2354027439
  0
LINE
  5
26D
100
AcDbEntity
  8
0
100
AcDbLine
 62
7
  6
CONTINUOUS
 10
12.1439309717
 20
9.9020004156
 11
12.1440245115
 21
9.9873800697
  0
LINE
  5
26E
100
AcDbEntity
  8
0
100
AcDbLine
 62
7
  6
CONTINUOUS
 10
12.1439309717
 20
8.018534655
 11
12.1440245115
 21
8.1026919952
  0
LINE
  5
26F
100
AcDbEntity
  8
0
100
AcDbLine
 62
7
  6
CONTINUOUS
 10
12.1439163928
 20
10.0167509953
 11
12.1440221119
 21
10.0980923848
  0
LINE
  5
270
100
AcDbEntity
  8
0
100
AcDbLine
 62
7
  6
CONTINUOUS
 10
12.1439163928
 20
7.8979786686
 11
12.1440221119
 21
7.976457348
  0
LINE
  5
271
100
AcDbEntity
  8
0
100
AcDbLine
 62
7
  6
CONTINUOUS
 10
12.1439309717
 20
10.1349592806
 11
12.1440245115
 21
10.1980219867
  0
LINE
  5
272
100
AcDbEntity
  8
0
100
AcDbLine
 62
7
  6
CONTINUOUS
 10
12.1439309717
 20
7.8118719071
 11
12.1440245115
 21
7.8734269977
  0
LINE
  5
273
100
AcDbEntity
  8
0
100
AcDbLine
 62
7
  6
CONTINUOUS
 10
12.1439163928
 20
10.218860958
 11
12.1440221119
 21
10.2739192271
  0
LINE
  5
274
100
AcDbEntity
  8
0
100
AcDbLine
 62
7
  6
CONTINUOUS
 10
12.1439163928
 20
7.7307499006
 11
12.1440221119
 21
7.7824464396
  0
LINE
  5
275
100
AcDbEntity
  8
0
100
AcDbLine
 62
7
  6
CONTINUOUS
 10
12.1439309717
 20
10.2972260184
 11
12.1440245115
 21
10.3340093148
  0
LINE
  5
276
100
AcDbEntity
  8
0
100
AcDbLine
 62
7
  6
CONTINUOUS
 10
12.1439309717
 20
7.6804851553
 11
12.1440245115
 21
7.7155702637
  0
LINE
  5
277
100
AcDbEntity
  8
0
100
AcDbLine
 62
7
  6
CONTINUOUS
 10
12.1439163928
 20
10.3450069425
 11
12.1440221119
 21
10.3703225776
  0
LINE
  5
278
100
AcDbEntity
  8
0
100
AcDbLine
 62
7
  6
CONTINUOUS
 10
12.1439163928
 20
7.6438943228
 11
12.1440221119
 21
7.6655604378
  0
LINE
  5
279
100
AcDbEntity
  8
0
100
AcDbLine
 62
7
  6
CONTINUOUS
 10
12.1439309717
 20
10.378604813
 11
12.1440245115
 21
10.3867974698
  0
LINE
  5
27A
100
AcDbEntity
  8
0
100
AcDbLine
 62
7
  6
CONTINUOUS
 10
12.1439309717
 20
7.6326299125
 11
12.1440245115
 21
7.6390405123
  0
LINE
  5
27B
100
AcDbEntity
  8
0
100
AcDbLine
 62
7
  6
CONTINUOUS
 10
12.0493827858
 20
8.1543318872
 11
12.0446914421
 21
8.1514622988
  0
LINE
  5
27C
100
AcDbEntity
  8
0
100
AcDbLine
 62
9
  6
CONTINUOUS
 10
12.0622501635
 20
8.2266338203
 11
12.0549509649
 21
8.2227297546
  0
LINE
  5
27D
100
AcDbEntity
  8
0
100
AcDbLine
 62
7
  6
CONTINUOUS
 10
12.1439163928
 20
8.1350730282
 11
12.131587867
 21
8.1295299742
  0
LINE
  5
27E
100
AcDbEntity
  8
0
100
AcDbLine
 62
7
  6
CONTINUOUS
 10
12.1439163928
 20
9.7513763666
 11
12.131587867
 21
9.7579704295
  0
LINE
  5
27F
100
AcDbEntity
  8
0
100
AcDbLine
 62
7
  6
CONTINUOUS
 10
12.0535139842
 20
9.8694348151
 11
12.0446914421
 21
9.8741536597
  0
LINE
  5
280
100
AcDbEntity
  8
0
100
AcDbLine
 62
7
  6
CONTINUOUS
 10
12.1440221119
 20
9.8538898978
 11
12.1317403148
 21
9.8604589673
  0
LINE
  5
281
100
AcDbEntity
  8
0
100
AcDbLine
 62
7
  6
CONTINUOUS
 10
12.0474686966
 20
8.0486035356
 11
12.0446898325
 21
8.0467171153
  0
LINE
  5
282
100
AcDbEntity
  8
0
100
AcDbLine
 62
9
  6
CONTINUOUS
 10
12.0603155275
 20
7.9950967004
 11
12.0549509649
 21
7.9914549892
  0
LINE
  5
283
100
AcDbEntity
  8
0
100
AcDbLine
 62
9
  6
CONTINUOUS
 10
12.0666887998
 20
8.1035361006
 11
12.0548694626
 21
8.0963064802
  0
LINE
  5
284
100
AcDbEntity
  8
0
100
AcDbLine
 62
7
  6
CONTINUOUS
 10
12.1440245115
 20
8.1026919952
 11
12.131743448
 21
8.0961233181
  0
LINE
  5
285
100
AcDbEntity
  8
0
100
AcDbLine
 62
7
  6
CONTINUOUS
 10
12.1439309717
 20
8.018534655
 11
12.1316107082
 21
8.0119450113
  0
LINE
  5
286
100
AcDbEntity
  8
0
100
AcDbLine
 62
7
  6
CONTINUOUS
 10
12.0618556743
 20
9.8968409317
 11
12.0490012679
 21
9.9047036803
  0
LINE
  5
287
100
AcDbEntity
  8
0
100
AcDbLine
 62
9
  6
CONTINUOUS
 10
12.0683507764
 20
9.8980516559
 11
12.0561269143
 21
9.9055287149
  0
LINE
  5
288
100
AcDbEntity
  8
0
100
AcDbLine
 62
7
  6
CONTINUOUS
 10
12.1439309717
 20
9.9020004156
 11
12.1316107082
 21
9.9095364412
  0
LINE
  5
289
100
AcDbEntity
  8
0
100
AcDbLine
 62
7
  6
CONTINUOUS
 10
12.1440245115
 20
9.9873800697
 11
12.131743448
 21
9.9948921175
  0
LINE
  5
28A
100
AcDbEntity
  8
0
100
AcDbLine
 62
7
  6
CONTINUOUS
 10
12.0614569595
 20
9.9982398125
 11
12.0485399119
 21
10.0070084968
  0
LINE
  5
28B
100
AcDbEntity
  8
0
100
AcDbLine
 62
9
  6
CONTINUOUS
 10
12.0738381114
 20
10.0030690375
 11
12.0618866462
 21
10.0111822402
  0
LINE
  5
28C
100
AcDbEntity
  8
0
100
AcDbLine
 62
7
  6
CONTINUOUS
 10
12.0447928637
 20
10.257519801
 11
12.0447034972
 21
10.2583202404
  0
LINE
  5
28D
100
AcDbEntity
  8
0
100
AcDbLine
 62
7
  6
CONTINUOUS
 10
12.3324834891
 20
7.587391804
 11
12.3324834891
 21
10.432391804
  0
LINE
  5
28E
100
AcDbEntity
  8
0
100
AcDbLine
 62
7
  6
CONTINUOUS
 10
12.0468628651
 20
7.8773208775
 11
12.0446898325
 21
7.8756255316
  0
LINE
  5
28F
100
AcDbEntity
  8
0
100
AcDbLine
 62
7
  6
CONTINUOUS
 10
12.0481692244
 20
7.9521993446
 11
12.0446914421
 21
7.9496421014
  0
LINE
  5
290
100
AcDbEntity
  8
0
100
AcDbLine
 62
9
  6
CONTINUOUS
 10
12.0629492731
 20
7.9024612171
 11
12.0548694626
 21
7.8965200629
  0
LINE
  5
291
100
AcDbEntity
  8
0
100
AcDbLine
 62
7
  6
CONTINUOUS
 10
12.1440221119
 20
7.976457348
 11
12.1317403148
 21
7.9689448514
  0
LINE
  5
292
100
AcDbEntity
  8
0
100
AcDbLine
 62
7
  6
CONTINUOUS
 10
12.1439163928
 20
7.8979786686
 11
12.131587867
 21
7.8904375891
  0
LINE
  5
293
100
AcDbEntity
  8
0
100
AcDbLine
 62
7
  6
CONTINUOUS
 10
12.1439163928
 20
10.0167509953
 11
12.131587867
 21
10.025120164
  0
LINE
  5
294
100
AcDbEntity
  8
0
100
AcDbLine
 62
7
  6
CONTINUOUS
 10
12.1440221119
 20
10.0980923848
 11
12.1317403148
 21
10.1064298319
  0
LINE
  5
295
100
AcDbEntity
  8
0
100
AcDbLine
 62
7
  6
CONTINUOUS
 10
12.0595696465
 20
10.0929045723
 11
12.0462721143
 21
10.1026823622
  0
LINE
  5
296
100
AcDbEntity
  8
0
100
AcDbLine
 62
9
  6
CONTINUOUS
 10
12.0683507764
 20
10.1023308487
 11
12.0561269143
 21
10.1113191597
  0
LINE
  5
297
100
AcDbEntity
  8
0
100
AcDbLine
 62
7
  6
CONTINUOUS
 10
12.0533789476
 20
10.1665567827
 11
12.0458403485
 21
10.17243821
  0
LINE
  5
298
100
AcDbEntity
  8
0
100
AcDbLine
 62
7
  6
CONTINUOUS
 10
12.0446898325
 20
9.9856805122
 11
12.0453990484
 21
9.9850517122
  0
LINE
  5
299
100
AcDbEntity
  8
0
100
AcDbLine
 62
7
  6
CONTINUOUS
 10
12.0452177948
 20
7.7561524706
 11
12.0446862687
 21
7.7557064672
  0
LINE
  5
29A
100
AcDbEntity
  8
0
100
AcDbLine
 62
9
  6
CONTINUOUS
 10
12.0614770112
 20
7.7038511605
 11
12.0599483008
 21
7.7025684201
  0
LINE
  5
29B
100
AcDbEntity
  8
0
100
AcDbLine
 62
7
  6
CONTINUOUS
 10
12.0459639076
 20
7.7768647153
 11
12.0446898325
 21
7.7758040693
  0
LINE
  5
29C
100
AcDbEntity
  8
0
100
AcDbLine
 62
9
  6
CONTINUOUS
 10
12.0567422666
 20
7.7328840619
 11
12.0549509649
 21
7.7313928336
  0
LINE
  5
29D
100
AcDbEntity
  8
0
100
AcDbLine
 62
7
  6
CONTINUOUS
 10
12.0467780068
 20
7.8161371222
 11
12.0446914421
 21
7.8144412922
  0
LINE
  5
29E
100
AcDbEntity
  8
0
100
AcDbLine
 62
9
  6
CONTINUOUS
 10
12.0593713025
 20
7.7703497021
 11
12.0548694626
 21
7.7666908868
  0
LINE
  5
29F
100
AcDbEntity
  8
0
100
AcDbLine
 62
9
  6
CONTINUOUS
 10
12.0585968797
 20
7.8270168064
 11
12.0549509649
 21
7.8241723545
  0
LINE
  5
2A0
100
AcDbEntity
  8
0
100
AcDbLine
 62
7
  6
CONTINUOUS
 10
12.1440221119
 20
7.7824464396
 11
12.1317403148
 21
7.7734155285
  0
LINE
  5
2A1
100
AcDbEntity
  8
0
100
AcDbLine
 62
7
  6
CONTINUOUS
 10
12.1439163928
 20
7.7307499006
 11
12.131587867
 21
7.7216846294
  0
LINE
  5
2A2
100
AcDbEntity
  8
0
100
AcDbLine
 62
7
  6
CONTINUOUS
 10
12.1440245115
 20
7.8734269977
 11
12.131743448
 21
7.8650900486
  0
LINE
  5
2A3
100
AcDbEntity
  8
0
100
AcDbLine
 62
7
  6
CONTINUOUS
 10
12.1439309717
 20
7.8118719071
 11
12.1316107082
 21
7.8035083471
  0
LINE
  5
2A4
100
AcDbEntity
  8
0
100
AcDbLine
 62
7
  6
CONTINUOUS
 10
12.1439309717
 20
10.1349592806
 11
12.1316107082
 21
10.1440184765
  0
LINE
  5
2A5
100
AcDbEntity
  8
0
100
AcDbLine
 62
7
  6
CONTINUOUS
 10
12.1440245115
 20
10.1980219867
 11
12.131743448
 21
10.2070523585
  0
LINE
  5
2A6
100
AcDbEntity
  8
0
100
AcDbLine
 62
9
  6
CONTINUOUS
 10
12.0705846013
 20
10.1836094784
 11
12.0618866462
 21
10.1903954064
  0
LINE
  5
2A7
100
AcDbEntity
  8
0
100
AcDbLine
 62
7
  6
CONTINUOUS
 10
12.1439163928
 20
10.218860958
 11
12.131587867
 21
10.2284793669
  0
LINE
  5
2A8
100
AcDbEntity
  8
0
100
AcDbLine
 62
7
  6
CONTINUOUS
 10
12.1440221119
 20
10.2739192271
 11
12.1317403148
 21
10.2835011794
  0
LINE
  5
2A9
100
AcDbEntity
  8
0
100
AcDbLine
 62
7
  6
CONTINUOUS
 10
12.0504636429
 20
10.2218475728
 11
12.0450489896
 21
10.2262482661
  0
LINE
  5
2AA
100
AcDbEntity
  8
0
100
AcDbLine
 62
9
  6
CONTINUOUS
 10
12.0639707206
 20
10.2415279154
 11
12.0561269143
 21
10.2479028731
  0
LINE
  5
2AB
100
AcDbEntity
  8
0
100
AcDbLine
 62
7
  6
CONTINUOUS
 10
12.046855609
 20
10.2558026004
 11
12.0448171928
 21
10.2574995474
  0
LINE
  5
2AC
100
AcDbEntity
  8
0
100
AcDbLine
 62
9
  6
CONTINUOUS
 10
12.0655052348
 20
10.2924207758
 11
12.0618866462
 21
10.2954331896
  0
LINE
  5
2AD
100
AcDbEntity
  8
0
100
AcDbLine
 62
9
  6
CONTINUOUS
 10
12.057805869
 20
10.3052889875
 11
12.0561269143
 21
10.3066977978
  0
LINE
  5
2AE
100
AcDbEntity
  8
0
100
AcDbLine
 62
7
  6
CONTINUOUS
 10
12.1440245115
 20
7.6390405123
 11
12.131743448
 21
7.6288167347
  0
LINE
  5
2AF
100
AcDbEntity
  8
0
100
AcDbLine
 62
7
  6
CONTINUOUS
 10
12.1439309717
 20
7.6326299125
 11
12.1316107082
 21
7.6223735015
  0
LINE
  5
2B0
100
AcDbEntity
  8
0
100
AcDbLine
 62
7
  6
CONTINUOUS
 10
12.1440221119
 20
7.6655604378
 11
12.1317403148
 21
7.6555785573
  0
LINE
  5
2B1
100
AcDbEntity
  8
0
100
AcDbLine
 62
7
  6
CONTINUOUS
 10
12.1439163928
 20
7.6438943228
 11
12.131587867
 21
7.6338744642
  0
LINE
  5
2B2
100
AcDbEntity
  8
0
100
AcDbLine
 62
7
  6
CONTINUOUS
 10
12.1440245115
 20
7.7155702637
 11
12.131743448
 21
7.7059888837
  0
LINE
  5
2B3
100
AcDbEntity
  8
0
100
AcDbLine
 62
7
  6
CONTINUOUS
 10
12.1439309717
 20
7.6804851553
 11
12.1316107082
 21
7.6708731924
  0
LINE
  5
2B4
100
AcDbEntity
  8
0
100
AcDbLine
 62
7
  6
CONTINUOUS
 10
12.1439309717
 20
10.2972260184
 11
12.1316107082
 21
10.307239162
  0
LINE
  5
2B5
100
AcDbEntity
  8
0
100
AcDbLine
 62
7
  6
CONTINUOUS
 10
12.1440245115
 20
10.3340093148
 11
12.131743448
 21
10.343990599
  0
LINE
  5
2B6
100
AcDbEntity
  8
0
100
AcDbLine
 62
7
  6
CONTINUOUS
 10
12.1439163928
 20
10.3450069425
 11
12.131587867
 21
10.3552702316
  0
LINE
  5
2B7
100
AcDbEntity
  8
0
100
AcDbLine
 62
7
  6
CONTINUOUS
 10
12.1440221119
 20
10.3703225776
 11
12.1317403148
 21
10.3805469659
  0
LINE
  5
2B8
100
AcDbEntity
  8
0
100
AcDbLine
 62
7
  6
CONTINUOUS
 10
12.1439163928
 20
10.3872627326
 11
12.131587867
 21
10.3975260217
  0
LINE
  5
2B9
100
AcDbEntity
  8
0
100
AcDbLine
 62
7
  6
CONTINUOUS
 10
12.1439309717
 20
10.378604813
 11
12.1316107082
 21
10.3889427416
  0
LINE
  5
2BA
100
AcDbEntity
  8
0
100
AcDbLine
 62
7
  6
CONTINUOUS
 10
12.1440245115
 20
10.3867974698
 11
12.131743448
 21
10.3971025057
  0
ARC
  5
2BB
100
AcDbEntity
  8
0
100
AcDbCircle
 62
7
  6
CONTINUOUS
 10
-15.3606159068
 20
7.8935590398
 40
27.4923740949
100
AcDbArc
 50
359.8123285448
 51
359.9406688806
  0
ARC
  5
2BC
100
AcDbEntity
  8
0
100
AcDbCircle
 62
7
  6
CONTINUOUS
 10
-4.8406678198
 20
7.7975665317
 40
16.9724253176
100
AcDbArc
 50
359.743835831
 51
359.918470637
  0
ARC
  5
2BD
100
AcDbEntity
  8
0
100
AcDbCircle
 62
7
  6
CONTINUOUS
 10
-14.9917517033
 20
10.3311406023
 40
27.1235338548
100
AcDbArc
 50
359.783137788
 51
359.8993663847
  0
ARC
  5
2BE
100
AcDbEntity
  8
0
100
AcDbCircle
 62
7
  6
CONTINUOUS
 10
-1.7471500492
 20
10.3757427965
 40
13.8789298186
100
AcDbArc
 50
359.7171982905
 51
359.8689186758
  0
ARC
  5
2BF
100
AcDbEntity
  8
0
100
AcDbCircle
 62
7
  6
CONTINUOUS
 10
3.932904565
 20
7.7194229823
 40
8.1988498891
100
AcDbArc
 50
359.6607189602
 51
359.9061188454
  0
ARC
  5
2C0
100
AcDbEntity
  8
0
100
AcDbCircle
 62
7
  6
CONTINUOUS
 10
10.7348349426
 20
7.065657089
 40
1.4
100
AcDbArc
 50
40.6208291884
 51
88.1054547173
  0
ARC
  5
2C1
100
AcDbEntity
  8
0
100
AcDbCircle
 62
7
  6
CONTINUOUS
 10
9.6686540389
 20
7.6620265042
 40
2.4630947157
100
AcDbArc
 50
359.3451213284
 51
359.8500096003
  0
ARC
  5
2C2
100
AcDbEntity
  8
0
100
AcDbCircle
 62
7
  6
CONTINUOUS
 10
12.1403443281
 20
7.6004618772
 40
0.03
100
AcDbArc
 50
25.2253339081
 51
63.8527188576
  0
ARC
  5
2C3
100
AcDbEntity
  8
0
100
AcDbCircle
 62
7
  6
CONTINUOUS
 10
12.039496234
 20
7.7746414151
 40
0.018
100
AcDbArc
 50
72.3511901777
 51
80.447072929
  0
ARC
  5
2C4
100
AcDbEntity
  8
0
100
AcDbCircle
 62
7
  6
CONTINUOUS
 10
12.029135003
 20
7.934891804
 40
0.1
100
AcDbArc
 50
203.5781784782
 51
270.0
  0
ARC
  5
2C5
100
AcDbEntity
  8
0
100
AcDbCircle
 62
7
  6
CONTINUOUS
 10
12.2369075672
 20
7.7845297228
 40
0.1939619415
100
AcDbArc
 50
204.8531553457
 51
213.3277458045
  0
ARC
  5
2C6
100
AcDbEntity
  8
0
100
AcDbCircle
 62
7
  6
CONTINUOUS
 10
12.2344277452
 20
7.7829407092
 40
0.1910169029
100
AcDbArc
 50
213.338182828
 51
214.6072137889
  0
ARC
  5
2C7
100
AcDbEntity
  8
0
100
AcDbCircle
 62
7
  6
CONTINUOUS
 10
12.2379712415
 20
7.7837901218
 40
0.1878858559
100
AcDbArc
 50
234.5300935179
 51
235.5709882171
  0
ARC
  5
2C8
100
AcDbEntity
  8
0
100
AcDbCircle
 62
7
  6
CONTINUOUS
 10
12.2296453866
 20
7.7819378726
 40
0.1862675274
100
AcDbArc
 50
196.1306878034
 51
200.4546911174
  0
ARC
  5
2C9
100
AcDbEntity
  8
0
100
AcDbCircle
 62
7
  6
CONTINUOUS
 10
12.2288613961
 20
7.7817258974
 40
0.1854555892
100
AcDbArc
 50
190.8352312226
 51
196.1368817932
  0
ARC
  5
2CA
100
AcDbEntity
  8
0
100
AcDbCircle
 62
7
  6
CONTINUOUS
 10
12.2263994835
 20
7.7793370483
 40
0.1833034837
100
AcDbArc
 50
200.0110946602
 51
200.7444066838
  0
ARC
  5
2CB
100
AcDbEntity
  8
0
100
AcDbCircle
 62
7
  6
CONTINUOUS
 10
12.2256898647
 20
7.779091255
 40
0.1825525966
100
AcDbArc
 50
197.015968648
 51
200.014823043
  0
ARC
  5
2CC
100
AcDbEntity
  8
0
100
AcDbCircle
 62
7
  6
CONTINUOUS
 10
12.2254453973
 20
7.7789683588
 40
0.1822806616
100
AcDbArc
 50
200.7422534792
 51
204.7798962366
  0
ARC
  5
2CD
100
AcDbEntity
  8
0
100
AcDbCircle
 62
7
  6
CONTINUOUS
 10
12.2255586003
 20
7.7804309684
 40
0.1819118058
100
AcDbArc
 50
200.4598259949
 51
201.3467275834
  0
ARC
  5
2CE
100
AcDbEntity
  8
0
100
AcDbCircle
 62
7
  6
CONTINUOUS
 10
12.2271639229
 20
7.7758388794
 40
0.1807817443
100
AcDbArc
 50
235.8321396184
 51
238.0920813303
  0
ARC
  5
2CF
100
AcDbEntity
  8
0
100
AcDbCircle
 62
7
  6
CONTINUOUS
 10
12.2204872045
 20
7.7753973115
 40
0.1761823302
100
AcDbArc
 50
215.1916615836
 51
226.6796899314
  0
ARC
  5
2D0
100
AcDbEntity
  8
0
100
AcDbCircle
 62
7
  6
CONTINUOUS
 10
12.2191595343
 20
7.7740896001
 40
0.1743200619
100
AcDbArc
 50
226.7022800877
 51
227.0870642458
  0
ARC
  5
2D1
100
AcDbEntity
  8
0
100
AcDbCircle
 62
7
  6
CONTINUOUS
 10
12.2190213701
 20
7.7739390144
 40
0.1741157005
100
AcDbArc
 50
227.0866227126
 51
233.1521542903
  0
ARC
  5
2D2
100
AcDbEntity
  8
0
100
AcDbCircle
 62
7
  6
CONTINUOUS
 10
12.2375639603
 20
7.7844143285
 40
0.1728675776
100
AcDbArc
 50
235.9454659084
 51
236.1888003163
  0
ARC
  5
2D3
100
AcDbEntity
  8
0
100
AcDbCircle
 62
7
  6
CONTINUOUS
 10
12.2372540266
 20
7.7839492281
 40
0.1723086719
100
AcDbArc
 50
236.1883705465
 51
237.2440999792
  0
ARC
  5
2D4
100
AcDbEntity
  8
0
100
AcDbCircle
 62
7
  6
CONTINUOUS
 10
12.2293617048
 20
7.7817900511
 40
0.172
100
AcDbArc
 50
240.1988772348
 51
243.8527188576
  0
ARC
  5
2D5
100
AcDbEntity
  8
0
100
AcDbCircle
 62
7
  6
CONTINUOUS
 10
12.3337633778
 20
7.912081003
 40
0.2891626061
100
AcDbArc
 50
185.2828271695
 51
187.1277436301
  0
ARC
  5
2D6
100
AcDbEntity
  8
0
100
AcDbCircle
 62
7
  6
CONTINUOUS
 10
12.3254505026
 20
7.911036993
 40
0.2807844303
100
AcDbArc
 50
187.1268327417
 51
188.2185995455
  0
ARC
  5
2D7
100
AcDbEntity
  8
0
100
AcDbCircle
 62
7
  6
CONTINUOUS
 10
12.3191698814
 20
7.8459255068
 40
0.2762782464
100
AcDbArc
 50
186.5435482506
 51
189.6997091778
  0
ARC
  5
2D8
100
AcDbEntity
  8
0
100
AcDbCircle
 62
7
  6
CONTINUOUS
 10
12.3179236497
 20
7.9067363973
 40
0.2756291967
100
AcDbArc
 50
197.4304282711
 51
199.3578085659
  0
ARC
  5
2D9
100
AcDbEntity
  8
0
100
AcDbCircle
 62
7
  6
CONTINUOUS
 10
12.2993184475
 20
7.9695592229
 40
0.2551707271
100
AcDbArc
 50
191.9090030463
 51
192.5018976009
  0
ARC
  5
2DA
100
AcDbEntity
  8
0
100
AcDbCircle
 62
7
  6
CONTINUOUS
 10
12.2896535435
 20
7.8434630694
 40
0.247017272
100
AcDbArc
 50
198.1072571088
 51
208.9302008146
  0
ARC
  5
2DB
100
AcDbEntity
  8
0
100
AcDbCircle
 62
7
  6
CONTINUOUS
 10
12.2877296716
 20
7.8587763075
 40
0.2454736187
100
AcDbArc
 50
199.3536754536
 51
201.5203326623
  0
ARC
  5
2DC
100
AcDbEntity
  8
0
100
AcDbCircle
 62
7
  6
CONTINUOUS
 10
12.2882429262
 20
7.8407866769
 40
0.2449276434
100
AcDbArc
 50
189.7337089208
 51
193.6152187354
  0
ARC
  5
2DD
100
AcDbEntity
  8
0
100
AcDbCircle
 62
7
  6
CONTINUOUS
 10
12.2762295768
 20
7.877232195
 40
0.22405471
100
AcDbArc
 50
226.9519274466
 51
229.8440815034
  0
ARC
  5
2DE
100
AcDbEntity
  8
0
100
AcDbCircle
 62
7
  6
CONTINUOUS
 10
12.2886765767
 20
7.9516531528
 40
0.2226113788
100
AcDbArc
 50
223.3551819957
 51
229.4729368997
  0
ARC
  5
2DF
100
AcDbEntity
  8
0
100
AcDbCircle
 62
7
  6
CONTINUOUS
 10
12.2650946247
 20
7.8044865964
 40
0.2224928222
100
AcDbArc
 50
199.1790848692
 51
202.8703455356
  0
ARC
  5
2E0
100
AcDbEntity
  8
0
100
AcDbCircle
 62
7
  6
CONTINUOUS
 10
12.2655594644
 20
7.8354418954
 40
0.2216235052
100
AcDbArc
 50
193.6527331404
 51
198.0722077006
  0
ARC
  5
2E1
100
AcDbEntity
  8
0
100
AcDbCircle
 62
7
  6
CONTINUOUS
 10
12.2631886081
 20
7.8037089542
 40
0.2204344167
100
AcDbArc
 50
202.8766509097
 51
203.3572964379
  0
ARC
  5
2E2
100
AcDbEntity
  8
0
100
AcDbCircle
 62
7
  6
CONTINUOUS
 10
12.2636779667
 20
7.8475166893
 40
0.2191729653
100
AcDbArc
 50
188.1381160875
 51
192.9730116254
  0
ARC
  5
2E3
100
AcDbEntity
  8
0
100
AcDbCircle
 62
7
  6
CONTINUOUS
 10
12.2602116292
 20
7.8040498977
 40
0.216099808
100
AcDbArc
 50
190.2338048162
 51
190.3922087537
  0
ARC
  5
2E4
100
AcDbEntity
  8
0
100
AcDbCircle
 62
7
  6
CONTINUOUS
 10
12.2593557012
 20
7.8038911089
 40
0.2152292775
100
AcDbArc
 50
190.3917330223
 51
191.0611097633
  0
ARC
  5
2E5
100
AcDbEntity
  8
0
100
AcDbCircle
 62
7
  6
CONTINUOUS
 10
12.259343035
 20
7.8974746451
 40
0.2132466534
100
AcDbArc
 50
194.2495037091
 51
198.290402439
  0
ARC
  5
2E6
100
AcDbEntity
  8
0
100
AcDbCircle
 62
7
  6
CONTINUOUS
 10
12.2734535787
 20
7.8773663307
 40
0.2071988014
100
AcDbArc
 50
227.9201673328
 51
228.3781352986
  0
ARC
  5
2E7
100
AcDbEntity
  8
0
100
AcDbCircle
 62
7
  6
CONTINUOUS
 10
12.2567141762
 20
7.8184003251
 40
0.2052544618
100
AcDbArc
 50
229.5355814624
 51
232.4919555066
  0
ARC
  5
2E8
100
AcDbEntity
  8
0
100
AcDbCircle
 62
7
  6
CONTINUOUS
 10
12.2706630875
 20
7.8741630189
 40
0.2029507106
100
AcDbArc
 50
228.3663741452
 51
231.3921359604
  0
ARC
  5
2E9
100
AcDbEntity
  8
0
100
AcDbCircle
 62
7
  6
CONTINUOUS
 10
12.2462953112
 20
7.8931971691
 40
0.1995157138
100
AcDbArc
 50
198.3000061379
 51
199.8269886063
  0
ARC
  5
2EA
100
AcDbEntity
  8
0
100
AcDbCircle
 62
7
  6
CONTINUOUS
 10
12.2402246869
 20
7.786159371
 40
0.1976569219
100
AcDbArc
 50
201.3457963542
 51
203.8711441012
  0
ARC
  5
2EB
100
AcDbEntity
  8
0
100
AcDbCircle
 62
7
  6
CONTINUOUS
 10
12.241936295
 20
7.7993835381
 40
0.1972228757
100
AcDbArc
 50
198.3212187141
 51
199.8614838408
  0
ARC
  5
2EC
100
AcDbEntity
  8
0
100
AcDbCircle
 62
7
  6
CONTINUOUS
 10
12.2396556452
 20
7.7859088102
 40
0.1970351601
100
AcDbArc
 50
203.8714794126
 51
204.8811776828
  0
ARC
  5
2ED
100
AcDbEntity
  8
0
100
AcDbCircle
 62
7
  6
CONTINUOUS
 10
12.2554115733
 20
7.8192712746
 40
0.1898307918
100
AcDbArc
 50
230.4614103827
 51
231.0194442775
  0
ARC
  5
2EE
100
AcDbEntity
  8
0
100
AcDbCircle
 62
7
  6
CONTINUOUS
 10
12.2342598439
 20
7.7964905597
 40
0.1890201968
100
AcDbArc
 50
199.8272796612
 51
204.2265521823
  0
ARC
  5
2EF
100
AcDbEntity
  8
0
100
AcDbCircle
 62
7
  6
CONTINUOUS
 10
12.234938732
 20
7.8890191474
 40
0.1874152507
100
AcDbArc
 50
199.8030154704
 51
202.5773872744
  0
ARC
  5
2F0
100
AcDbEntity
  8
0
100
AcDbCircle
 62
7
  6
CONTINUOUS
 10
12.2534443934
 20
7.8167911075
 40
0.1866653453
100
AcDbArc
 50
231.0099414172
 51
234.1125478067
  0
ARC
  5
2F1
100
AcDbEntity
  8
0
100
AcDbCircle
 62
7
  6
CONTINUOUS
 10
12.3616299945
 20
8.3128065001
 40
0.726
100
AcDbArc
 50
254.4892346397
 51
267.6991450867
  0
ARC
  5
2F2
100
AcDbEntity
  8
0
100
AcDbCircle
 62
7
  6
CONTINUOUS
 10
10.1934092192
 20
8.382391804
 40
0.326
100
AcDbArc
 50
57.5177951966
 51
130.1541931822
  0
ARC
  5
2F3
100
AcDbEntity
  8
0
100
AcDbCircle
 62
7
  6
CONTINUOUS
 10
12.3551981501
 20
8.7305069876
 40
0.3119200426
100
AcDbArc
 50
185.4563549461
 51
186.6910208957
  0
ARC
  5
2F4
100
AcDbEntity
  8
0
100
AcDbCircle
 62
7
  6
CONTINUOUS
 10
12.3519229514
 20
8.6101461764
 40
0.3035543144
100
AcDbArc
 50
220.2720343033
 51
226.7737877009
  0
ARC
  5
2F5
100
AcDbEntity
  8
0
100
AcDbCircle
 62
7
  6
CONTINUOUS
 10
12.3444656306
 20
8.0793133599
 40
0.302552202
100
AcDbArc
 50
196.8813530396
 51
197.5949411349
  0
ARC
  5
2F6
100
AcDbEntity
  8
0
100
AcDbCircle
 62
7
  6
CONTINUOUS
 10
12.3405393353
 20
8.1756333882
 40
0.2967623262
100
AcDbArc
 50
188.2407535249
 51
189.6494723208
  0
ARC
  5
2F7
100
AcDbEntity
  8
0
100
AcDbCircle
 62
7
  6
CONTINUOUS
 10
12.3339796975
 20
8.4311546574
 40
0.2902305924
100
AcDbArc
 50
187.9697973777
 51
188.3709861865
  0
ARC
  5
2F8
100
AcDbEntity
  8
0
100
AcDbCircle
 62
7
  6
CONTINUOUS
 10
12.3438521477
 20
8.3104180388
 40
0.2883138644
100
AcDbArc
 50
205.2924922569
 51
220.4628485203
  0
ARC
  5
2F9
100
AcDbEntity
  8
0
100
AcDbCircle
 62
7
  6
CONTINUOUS
 10
12.3152703203
 20
8.4937769461
 40
0.2785135284
100
AcDbArc
 50
208.5213225795
 51
210.3149117203
  0
ARC
  5
2FA
100
AcDbEntity
  8
0
100
AcDbCircle
 62
7
  6
CONTINUOUS
 10
12.3328350543
 20
8.3010446508
 40
0.2738488581
100
AcDbArc
 50
220.4666292631
 51
226.4118390688
  0
ARC
  5
2FB
100
AcDbEntity
  8
0
100
AcDbCircle
 62
7
  6
CONTINUOUS
 10
12.3148782128
 20
8.0056288144
 40
0.273159875
100
AcDbArc
 50
198.6925028483
 51
202.7394057199
  0
ARC
  5
2FC
100
AcDbEntity
  8
0
100
AcDbCircle
 62
7
  6
CONTINUOUS
 10
12.3137640441
 20
8.0568437713
 40
0.264387949
100
AcDbArc
 50
222.3594022145
 51
226.4916516364
  0
ARC
  5
2FD
100
AcDbEntity
  8
0
100
AcDbCircle
 62
7
  6
CONTINUOUS
 10
12.3051435061
 20
8.7246430434
 40
0.2615230869
100
AcDbArc
 50
186.692799205
 51
189.0014240194
  0
ARC
  5
2FE
100
AcDbEntity
  8
0
100
AcDbCircle
 62
7
  6
CONTINUOUS
 10
12.3206622847
 20
8.1658922155
 40
0.2590121999
100
AcDbArc
 50
219.3026673475
 51
227.0017309241
  0
ARC
  5
2FF
100
AcDbEntity
  8
0
100
AcDbCircle
 62
7
  6
CONTINUOUS
 10
12.3162142701
 20
8.0619834236
 40
0.2554006698
100
AcDbArc
 50
215.0572984006
 51
222.9098611496
  0
ARC
  5
300
100
AcDbEntity
  8
0
100
AcDbCircle
 62
7
  6
CONTINUOUS
 10
10.588667292
 20
8.8822594099
 40
0.25
100
AcDbArc
 50
225.1918438316
 51
261.6780538142
  0
ARC
  5
301
100
AcDbEntity
  8
0
100
AcDbCircle
 62
7
  6
CONTINUOUS
 10
10.7893839885
 20
8.714755146
 40
0.25
100
AcDbArc
 50
198.62987012
 51
268.1054547173
  0
ARC
  5
302
100
AcDbEntity
  8
0
100
AcDbCircle
 62
7
  6
CONTINUOUS
 10
11.9872421581
 20
8.139889916
 40
0.25
100
AcDbArc
 50
220.6208291884
 51
258.5194848001
  0
ARC
  5
303
100
AcDbEntity
  8
0
100
AcDbCircle
 62
7
  6
CONTINUOUS
 10
12.3098128526
 20
8.0561706981
 40
0.2467545512
100
AcDbArc
 50
222.9333121219
 51
223.5650802464
  0
ARC
  5
304
100
AcDbEntity
  8
0
100
AcDbCircle
 62
7
  6
CONTINUOUS
 10
12.2923312636
 20
8.5965039379
 40
0.2464468708
100
AcDbArc
 50
188.7712954857
 51
189.332115862
  0
ARC
  5
305
100
AcDbEntity
  8
0
100
AcDbCircle
 62
7
  6
CONTINUOUS
 10
12.27924452
 20
8.6198151659
 40
0.241900995
100
AcDbArc
 50
206.0331015765
 51
207.8150046357
  0
ARC
  5
306
100
AcDbEntity
  8
0
100
AcDbCircle
 62
7
  6
CONTINUOUS
 10
12.3040700946
 20
8.0505491101
 40
0.2387191475
100
AcDbArc
 50
223.537340699
 51
227.8993814499
  0
ARC
  5
307
100
AcDbEntity
  8
0
100
AcDbCircle
 62
7
  6
CONTINUOUS
 10
12.2437189979
 20
8.9414756567
 40
0.2126785555
100
AcDbArc
 50
211.2443235684
 51
214.8757982161
  0
ARC
  5
308
100
AcDbEntity
  8
0
100
AcDbCircle
 62
7
  6
CONTINUOUS
 10
12.2054924677
 20
8.8960066245
 40
0.1588190472
100
AcDbArc
 50
192.0885007473
 51
192.2970982647
  0
ARC
  5
309
100
AcDbEntity
  8
0
100
AcDbCircle
 62
7
  6
CONTINUOUS
 10
12.1426789175
 20
8.7337132819
 40
0.0946066988
100
AcDbArc
 50
198.7533321632
 51
199.3046348036
  0
ARC
  5
30A
100
AcDbEntity
  8
0
100
AcDbCircle
 62
7
  6
CONTINUOUS
 10
9.0974834891
 20
8.773891804
 40
0.056
100
AcDbArc
 50
0.0
 51
90.0
  0
ARC
  5
30B
100
AcDbEntity
  8
0
100
AcDbCircle
 62
7
  6
CONTINUOUS
 10
9.2124834891
 20
8.714391804
 40
0.035
100
AcDbArc
 50
180.0
 51
270.0
  0
ARC
  5
30C
100
AcDbEntity
  8
0
100
AcDbCircle
 62
7
  6
CONTINUOUS
 10
9.6639899619
 20
9.009891804
 40
0.495
100
AcDbArc
 50
221.8880088583
 51
310.1541931822
  0
ARC
  5
30D
100
AcDbEntity
  8
0
100
AcDbCircle
 62
7
  6
CONTINUOUS
 10
9.6639899619
 20
9.009891804
 40
0.495
100
AcDbArc
 50
49.8458068178
 51
75.3192364205
  0
ARC
  5
30E
100
AcDbEntity
  8
0
100
AcDbCircle
 62
7
  6
CONTINUOUS
 10
9.6639899619
 20
9.009891804
 40
0.495
100
AcDbArc
 50
104.6340505296
 51
138.1119911417
  0
ARC
  5
30F
100
AcDbEntity
  8
0
100
AcDbCircle
 62
7
  6
CONTINUOUS
 10
10.1934092192
 20
9.637391804
 40
0.326
100
AcDbArc
 50
229.8458068178
 51
302.4822048034
  0
ARC
  5
310
100
AcDbEntity
  8
0
100
AcDbCircle
 62
7
  6
CONTINUOUS
 10
9.6639899619
 20
9.719891804
 40
0.25
100
AcDbArc
 50
302.8598803789
 51
237.1401196211
  0
ARC
  5
311
100
AcDbEntity
  8
0
100
AcDbCircle
 62
7
  6
CONTINUOUS
 10
10.588667292
 20
9.1375241982
 40
0.25
100
AcDbArc
 50
98.3219461858
 51
134.8081561684
  0
ARC
  5
312
100
AcDbEntity
  8
0
100
AcDbCircle
 62
7
  6
CONTINUOUS
 10
9.6639899619
 20
9.009891804
 40
0.136
100
AcDbArc
 50
157.9518631338
 51
22.0481368662
  0
ARC
  5
313
100
AcDbEntity
  8
0
100
AcDbCircle
 62
7
  6
CONTINUOUS
 10
9.6639899619
 20
9.009891804
 40
0.125
100
AcDbArc
 50
180.0
 51
360.0
  0
ARC
  5
314
100
AcDbEntity
  8
0
100
AcDbCircle
 62
7
  6
CONTINUOUS
 10
9.0974834891
 20
9.245891804
 40
0.056
100
AcDbArc
 50
270.0
 51
360.0
  0
ARC
  5
315
100
AcDbEntity
  8
0
100
AcDbCircle
 62
7
  6
CONTINUOUS
 10
9.2124834891
 20
9.305391804
 40
0.035
100
AcDbArc
 50
90.0
 51
180.0
  0
ARC
  5
316
100
AcDbEntity
  8
0
100
AcDbCircle
 62
7
  6
CONTINUOUS
 10
12.3616299945
 20
9.706977108
 40
0.726
100
AcDbArc
 50
92.3008549133
 51
105.5107653603
  0
ARC
  5
317
100
AcDbEntity
  8
0
100
AcDbCircle
 62
7
  6
CONTINUOUS
 10
10.7893839885
 20
9.3050284621
 40
0.25
100
AcDbArc
 50
91.8945452827
 51
161.37012988
  0
ARC
  5
318
100
AcDbEntity
  8
0
100
AcDbCircle
 62
7
  6
CONTINUOUS
 10
11.9872421581
 20
9.8798936921
 40
0.25
100
AcDbArc
 50
101.4805151999
 51
139.3791708116
  0
ARC
  5
319
100
AcDbEntity
  8
0
100
AcDbCircle
 62
7
  6
CONTINUOUS
 10
12.1240384554
 20
9.2025049868
 40
0.0760751826
100
AcDbArc
 50
198.1116055643
 51
200.2324851573
  0
ARC
  5
31A
100
AcDbEntity
  8
0
100
AcDbCircle
 62
7
  6
CONTINUOUS
 10
12.1174782117
 20
9.2000690593
 40
0.0690773097
100
AcDbArc
 50
200.2184733833
 51
202.3390307417
  0
ARC
  5
31B
100
AcDbEntity
  8
0
100
AcDbCircle
 62
7
  6
CONTINUOUS
 10
12.0732373971
 20
9.4987239307
 40
0.0225617306
100
AcDbArc
 50
234.6933042635
 51
239.7948567515
  0
ARC
  5
31C
100
AcDbEntity
  8
0
100
AcDbCircle
 62
7
  6
CONTINUOUS
 10
10.7348349426
 20
10.9541265191
 40
1.4
100
AcDbArc
 50
271.8945452827
 51
319.3791708116
  0
ARC
  5
31D
100
AcDbEntity
  8
0
100
AcDbCircle
 62
7
  6
CONTINUOUS
 10
12.2293617048
 20
10.237993557
 40
0.1871193873
100
AcDbArc
 50
137.9038164063
 51
160.4292505633
  0
ARC
  5
31E
100
AcDbEntity
  8
0
100
AcDbCircle
 62
7
  6
CONTINUOUS
 10
12.2226018311
 20
10.2359402313
 40
0.1808881731
100
AcDbArc
 50
156.9728385424
 51
159.1851006199
  0
ARC
  5
31F
100
AcDbEntity
  8
0
100
AcDbCircle
 62
7
  6
CONTINUOUS
 10
12.2260098467
 20
10.2441331546
 40
0.1801246289
100
AcDbArc
 50
121.6146457572
 51
124.842684041
  0
ARC
  5
320
100
AcDbEntity
  8
0
100
AcDbCircle
 62
7
  6
CONTINUOUS
 10
12.221557497
 20
10.2363179476
 40
0.1797777786
100
AcDbArc
 50
159.1793511524
 51
162.5012631271
  0
ARC
  5
321
100
AcDbEntity
  8
0
100
AcDbCircle
 62
7
  6
CONTINUOUS
 10
12.2214382476
 20
10.2452068183
 40
0.1764059513
100
AcDbArc
 50
123.8235794922
 51
137.9170337686
  0
ARC
  5
322
100
AcDbEntity
  8
0
100
AcDbCircle
 62
7
  6
CONTINUOUS
 10
12.2129629067
 20
10.2060197769
 40
0.1755528263
100
AcDbArc
 50
149.3811328167
 51
155.9201512675
  0
ARC
  5
323
100
AcDbEntity
  8
0
100
AcDbCircle
 62
7
  6
CONTINUOUS
 10
12.2206692407
 20
10.246279633
 40
0.1750866516
100
AcDbArc
 50
120.5237781611
 51
123.8099375002
  0
ARC
  5
324
100
AcDbEntity
  8
0
100
AcDbCircle
 62
7
  6
CONTINUOUS
 10
12.2157366716
 20
10.2382122364
 40
0.1736567455
100
AcDbArc
 50
162.5198696973
 51
166.5516406129
  0
ARC
  5
325
100
AcDbEntity
  8
0
100
AcDbCircle
 62
7
  6
CONTINUOUS
 10
12.2293617048
 20
10.237993557
 40
0.172
100
AcDbArc
 50
116.1472811424
 51
119.8488532641
  0
ARC
  5
326
100
AcDbEntity
  8
0
100
AcDbCircle
 62
7
  6
CONTINUOUS
 10
12.2111308797
 20
10.2390245068
 40
0.1697024892
100
AcDbArc
 50
117.9425349022
 51
119.5191661578
  0
ARC
  5
327
100
AcDbEntity
  8
0
100
AcDbCircle
 62
7
  6
CONTINUOUS
 10
12.21156838
 20
10.2391949526
 40
0.1693742001
100
AcDbArc
 50
166.5470248411
 51
169.2906951129
  0
ARC
  5
328
100
AcDbEntity
  8
0
100
AcDbCircle
 62
7
  6
CONTINUOUS
 10
12.2091745762
 20
10.235387116
 40
0.1673472252
100
AcDbArc
 50
157.2299461664
 51
161.8013971375
  0
ARC
  5
329
100
AcDbEntity
  8
0
100
AcDbCircle
 62
7
  6
CONTINUOUS
 10
12.1951189049
 20
10.2053370386
 40
0.1628378185
100
AcDbArc
 50
112.9637808067
 51
114.849399056
  0
ARC
  5
32A
100
AcDbEntity
  8
0
100
AcDbCircle
 62
7
  6
CONTINUOUS
 10
12.2047695117
 20
10.2368323027
 40
0.1627111547
100
AcDbArc
 50
161.8003916287
 51
165.1634763476
  0
ARC
  5
32B
100
AcDbEntity
  8
0
100
AcDbCircle
 62
7
  6
CONTINUOUS
 10
12.1850332277
 20
10.0742081539
 40
0.1607043277
100
AcDbArc
 50
144.0423175337
 51
144.8064429789
  0
ARC
  5
32C
100
AcDbEntity
  8
0
100
AcDbCircle
 62
7
  6
CONTINUOUS
 10
12.2027058069
 20
10.2373850494
 40
0.1605747158
100
AcDbArc
 50
165.1655751352
 51
166.0882180629
  0
ARC
  5
32D
100
AcDbEntity
  8
0
100
AcDbCircle
 62
7
  6
CONTINUOUS
 10
12.2007596753
 20
10.2378422242
 40
0.1585757543
100
AcDbArc
 50
166.0794961737
 51
169.7972912785
  0
ARC
  5
32E
100
AcDbEntity
  8
0
100
AcDbCircle
 62
7
  6
CONTINUOUS
 10
12.1828030476
 20
10.0757815181
 40
0.1579750095
100
AcDbArc
 50
144.8065973556
 51
145.2036836311
  0
ARC
  5
32F
100
AcDbEntity
  8
0
100
AcDbCircle
 62
7
  6
CONTINUOUS
 10
12.2133131305
 20
10.2374851398
 40
0.1572534455
100
AcDbArc
 50
116.18125804
 51
117.8188872562
  0
ARC
  5
330
100
AcDbEntity
  8
0
100
AcDbCircle
 62
7
  6
CONTINUOUS
 10
12.213183223
 20
10.2377319217
 40
0.1569745599
100
AcDbArc
 50
117.8189872664
 51
118.6099937019
  0
ARC
  5
331
100
AcDbEntity
  8
0
100
AcDbCircle
 62
7
  6
CONTINUOUS
 10
12.1995209907
 20
10.239492408
 40
0.1568571077
100
AcDbArc
 50
155.9752787452
 51
157.2478757391
  0
ARC
  5
332
100
AcDbEntity
  8
0
100
AcDbCircle
 62
7
  6
CONTINUOUS
 10
12.1991688545
 20
10.2396489611
 40
0.1564717395
100
AcDbArc
 50
154.9326837698
 51
155.97514159
  0
ARC
  5
333
100
AcDbEntity
  8
0
100
AcDbCircle
 62
7
  6
CONTINUOUS
 10
12.1989318827
 20
10.2032178704
 40
0.1520882806
100
AcDbArc
 50
111.2067202389
 51
113.1082241332
  0
ARC
  5
334
100
AcDbEntity
  8
0
100
AcDbCircle
 62
7
  6
CONTINUOUS
 10
12.1981429584
 20
10.2050569672
 40
0.150087115
100
AcDbArc
 50
113.106759596
 51
114.7642725754
  0
ARC
  5
335
100
AcDbEntity
  8
0
100
AcDbCircle
 62
7
  6
CONTINUOUS
 10
12.1889978579
 20
10.2118948662
 40
0.1487992714
100
AcDbArc
 50
154.2709702843
 51
158.8501852104
  0
ARC
  5
336
100
AcDbEntity
  8
0
100
AcDbCircle
 62
7
  6
CONTINUOUS
 10
12.1847992241
 20
10.1558334851
 40
0.1471803741
100
AcDbArc
 50
106.1214668422
 51
112.7260333303
  0
ARC
  5
337
100
AcDbEntity
  8
0
100
AcDbCircle
 62
7
  6
CONTINUOUS
 10
12.1728175726
 20
10.1623551748
 40
0.1360705986
100
AcDbArc
 50
150.0906677742
 51
154.3090977107
  0
ARC
  5
338
100
AcDbEntity
  8
0
100
AcDbCircle
 62
7
  6
CONTINUOUS
 10
12.168286742
 20
10.2218882635
 40
0.1258087542
100
AcDbArc
 50
145.3250761715
 51
146.0996262911
  0
ARC
  5
339
100
AcDbEntity
  8
0
100
AcDbCircle
 62
7
  6
CONTINUOUS
 10
12.167641373
 20
10.222302471
 40
0.125042069
100
AcDbArc
 50
146.0922219958
 51
154.3188914382
  0
ARC
  5
33A
100
AcDbEntity
  8
0
100
AcDbCircle
 62
7
  6
CONTINUOUS
 10
12.029135003
 20
10.084891804
 40
0.1
100
AcDbArc
 50
90.0
 51
156.4218215218
  0
ARC
  5
33B
100
AcDbEntity
  8
0
100
AcDbCircle
 62
7
  6
CONTINUOUS
 10
12.1395795041
 20
10.1812715211
 40
0.0978417181
100
AcDbArc
 50
141.5487006095
 51
142.572315587
  0
ARC
  5
33C
100
AcDbEntity
  8
0
100
AcDbCircle
 62
7
  6
CONTINUOUS
 10
12.1374890601
 20
10.1827977317
 40
0.0952541014
100
AcDbArc
 50
142.5371327298
 51
150.1532890521
  0
ARC
  5
33D
100
AcDbEntity
  8
0
100
AcDbCircle
 62
7
  6
CONTINUOUS
 10
12.123816625
 20
10.1143696341
 40
0.087953486
100
AcDbArc
 50
124.6145129327
 51
127.3031035903
  0
ARC
  5
33E
100
AcDbEntity
  8
0
100
AcDbCircle
 62
7
  6
CONTINUOUS
 10
12.1219111768
 20
10.1168721917
 40
0.0848080884
100
AcDbArc
 50
127.3037506439
 51
128.8044899986
  0
ARC
  5
33F
100
AcDbEntity
  8
0
100
AcDbCircle
 62
7
  6
CONTINUOUS
 10
12.1403443281
 20
10.4193217309
 40
0.03
100
AcDbArc
 50
296.1472811424
 51
334.7746660919
  0
ARC
  5
340
100
AcDbEntity
  8
0
100
AcDbCircle
 62
7
  6
CONTINUOUS
 10
12.039496234
 20
10.245142193
 40
0.018
100
AcDbArc
 50
279.552927071
 51
286.0748130053
  0
ARC
  5
341
100
AcDbEntity
  8
0
100
AcDbCircle
 62
7
  6
CONTINUOUS
 10
12.0468390979
 20
9.9873609474
 40
0.0027213454
100
AcDbArc
 50
238.6249457763
 51
251.7172766326
  0
LINE
  5
342
100
AcDbEntity
  8
0
100
AcDbLine
 62
7
  6
CONTINUOUS
 10
12.0450488463
 20
10.2262492416
 11
12.0447579461
 21
10.2272648112
  0
LINE
  5
343
100
AcDbEntity
  8
0
100
AcDbLine
 62
7
  6
CONTINUOUS
 10
12.0447579461
 20
10.2272648112
 11
12.0447034972
 21
10.2287093054
  0
SPLINE
  5
344
100
AcDbEntity
  8
0
100
AcDbSpline
 62
7
  6
CONTINUOUS
 70
0
 71
3
 72
13
 73
9
 74
0
 42
0.0000001
 43
0.0000001
 44
0.0000000001
 40
0.0
 40
0.0
 40
0.0
 40
0.0
 40
0.0555304085
 40
0.126755726
 40
0.2175232771
 40
0.3294978938
 40
0.6196402863
 40
1.0
 40
1.0
 40
1.0
 40
1.0
 10
12.0458400557
 20
10.1724379653
 30
0.0
 10
12.04572832
 20
10.1725249637
 30
0.0
 10
12.0455200168
 20
10.1727820047
 30
0.0
 10
12.0452925871
 20
10.1732906161
 30
0.0
 10
12.0451042638
 20
10.1739652918
 30
0.0
 10
12.0448846286
 20
10.1752040079
 30
0.0
 10
12.0447318931
 20
10.177197166
 30
0.0
 10
12.0447034972
 20
10.1789069172
 30
0.0
 10
12.0447034972
 20
10.1798768904
 30
0.0
  0
SPLINE
  5
345
100
AcDbEntity
  8
0
100
AcDbSpline
 62
7
  6
CONTINUOUS
 70
0
 71
3
 72
14
 73
10
 74
0
 42
0.0000001
 43
0.0000001
 44
0.0000000001
 40
0.0
 40
0.0
 40
0.0
 40
0.0
 40
0.0562350168
 40
0.1273458964
 40
0.2174990681
 40
0.3290146917
 40
0.4629751825
 40
0.6195363218
 40
1.0
 40
1.0
 40
1.0
 40
1.0
 10
12.0462719753
 20
10.102682935
 30
0.0
 10
12.0461177422
 20
10.1027964378
 30
0.0
 10
12.0458281538
 20
10.1031331099
 30
0.0
 10
12.045511632
 20
10.1038070231
 30
0.0
 10
12.0452525379
 20
10.1047017313
 30
0.0
 10
12.0450467301
 20
10.1058270856
 30
0.0
 10
12.0448893238
 20
10.1071877552
 30
0.0
 10
12.0447327687
 20
10.1094678114
 30
0.0
 10
12.0447034972
 20
10.1112975255
 30
0.0
 10
12.0447034972
 20
10.1125931116
 30
0.0
  0
SPLINE
  5
346
100
AcDbEntity
  8
0
100
AcDbSpline
 62
7
  6
CONTINUOUS
 70
0
 71
3
 72
15
 73
11
 74
0
 42
0.0000001
 43
0.0000001
 44
0.0000000001
 40
0.0
 40
0.0
 40
0.0
 40
0.0
 40
0.0641207378
 40
0.1393908609
 40
0.23088491
 40
0.3416632977
 40
0.4736368879
 40
0.6275562062
 40
0.8031615097
 40
1.0
 40
1.0
 40
1.0
 40
1.0
 10
12.0485397033
 20
10.0070073606
 30
0.0
 10
12.0481550092
 20
10.0072689334
 30
0.0
 10
12.047426126
 20
10.0080000583
 30
0.0
 10
12.0466140005
 20
10.0094798058
 30
0.0
 10
12.0459760184
 20
10.0113970163
 30
0.0
 10
12.0454858633
 20
10.0137754415
 30
0.0
 10
12.0451225065
 20
10.0166321057
 30
0.0
 10
12.0448727027
 20
10.0199719994
 30
0.0
 10
12.0447300834
 20
10.023788747
 30
0.0
 10
12.0447034972
 20
10.0264910027
 30
0.0
 10
12.0447034972
 20
10.0279190744
 30
0.0
  0
SPLINE
  5
347
100
AcDbEntity
  8
0
100
AcDbSpline
 62
7
  6
CONTINUOUS
 70
0
 71
3
 72
15
 73
11
 74
0
 42
0.0000001
 43
0.0000001
 44
0.0000000001
 40
0.0
 40
0.0
 40
0.0
 40
0.0
 40
0.063880606
 40
0.1386489559
 40
0.2298436162
 40
0.3405833257
 40
0.4726193383
 40
0.6269255884
 40
0.8030838194
 40
1.0
 40
1.0
 40
1.0
 40
1.0
 10
12.0490009277
 20
9.9047030666
 30
0.0
 10
12.0485741128
 20
9.9049639241
 30
0.0
 10
12.04775815
 20
9.9057174742
 30
0.0
 10
12.0468473211
 20
9.9072880662
 30
0.0
 10
12.0461320531
 20
9.9093419495
 30
0.0
 10
12.0455812137
 20
9.9119026221
 30
0.0
 10
12.0451741102
 20
9.9149873837
 30
0.0
 10
12.0448948255
 20
9.9185994019
 30
0.0
 10
12.0447339157
 20
9.9227266345
 30
0.0
 10
12.0447034972
 20
9.9256481855
 30
0.0
 10
12.0447034972
 20
9.9271901391
 30
0.0
  0
SPLINE
  5
348
100
AcDbEntity
  8
0
100
AcDbSpline
 62
7
  6
CONTINUOUS
 70
0
 71
3
 72
11
 73
7
 74
0
 42
0.0000001
 43
0.0000001
 44
0.0000000001
 40
0.0
 40
0.0
 40
0.0
 40
0.0
 40
0.1981162997
 40
0.4238254531
 40
0.6886539556
 40
1.0
 40
1.0
 40
1.0
 40
1.0
 10
12.0459853951
 20
9.9847769752
 30
0.0
 10
12.0462587889
 20
9.9846864761
 30
0.0
 10
12.0468753594
 20
9.9845842229
 30
0.0
 10
12.0478796214
 20
9.9846582176
 30
0.0
 10
12.0490156516
 20
9.9849349202
 30
0.0
 10
12.0498028446
 20
9.985224849
 30
0.0
 10
12.0502216772
 20
9.9853963221
 30
0.0
  0
LINE
  5
349
100
AcDbEntity
  8
0
100
AcDbLine
 62
7
  6
CONTINUOUS
 10
12.0502216772
 20
9.9853963221
 11
12.0549509649
 21
9.9878484059
  0
SPLINE
  5
34A
100
AcDbEntity
  8
0
100
AcDbSpline
 62
7
  6
CONTINUOUS
 70
0
 71
3
 72
16
 73
12
 74
0
 42
0.0000001
 43
0.0000001
 44
0.0000000001
 40
0.0
 40
0.0
 40
0.0
 40
0.0
 40
0.0381095741
 40
0.0765265913
 40
0.158109622
 40
0.2517623812
 40
0.3619355028
 40
0.4911366607
 40
0.6407581415
 40
0.8108731903
 40
1.0
 40
1.0
 40
1.0
 40
1.0
 10
12.054414236
 20
9.7705681046
 30
0.0
 10
12.0539198787
 20
9.770832152
 30
0.0
 10
12.0529658803
 20
9.771439144
 30
0.0
 10
12.0512132288
 20
9.7729797191
 30
0.0
 10
12.049354104
 20
9.7755629384
 30
0.0
 10
12.0477169948
 20
9.7794512881
 30
0.0
 10
12.0465052013
 20
9.7842088498
 30
0.0
 10
12.0456466809
 20
9.7898706386
 30
0.0
 10
12.0450810996
 20
9.7964515782
 30
0.0
 10
12.0447622478
 20
9.8039299013
 30
0.0
 10
12.0447034972
 20
9.8092134828
 30
0.0
 10
12.0447034972
 20
9.8119948611
 30
0.0
  0
LINE
  5
34B
100
AcDbEntity
  8
0
100
AcDbLine
 62
7
  6
CONTINUOUS
 10
12.0480348294
 20
9.8700319901
 11
12.0501981149
 21
9.8693178982
  0
SPLINE
  5
34C
100
AcDbEntity
  8
0
100
AcDbSpline
 62
7
  6
CONTINUOUS
 70
0
 71
3
 72
9
 73
5
 74
0
 42
0.0000001
 43
0.0000001
 44
0.0000000001
 40
0.0
 40
0.0
 40
0.0
 40
0.0
 40
0.4593781612
 40
1.0
 40
1.0
 40
1.0
 40
1.0
 10
12.0501981149
 20
9.8693178982
 30
0.0
 10
12.0509066889
 20
9.869199947
 30
0.0
 10
12.0524815919
 20
9.8691353563
 30
0.0
 10
12.0540374912
 20
9.869332729
 30
0.0
 10
12.0548694626
 20
9.869482609
 30
0.0
  0
SPLINE
  5
34D
100
AcDbEntity
  8
0
100
AcDbSpline
 62
7
  6
CONTINUOUS
 70
0
 71
3
 72
17
 73
13
 74
0
 42
0.0000001
 43
0.0000001
 44
0.0000000001
 40
0.0
 40
0.0
 40
0.0
 40
0.0
 40
0.0370691309
 40
0.07456471
 40
0.1547853147
 40
0.1994315597
 40
0.2479363091
 40
0.3582762137
 40
0.4883695681
 40
0.6391320196
 40
0.8104133917
 40
1.0
 40
1.0
 40
1.0
 40
1.0
 10
12.0544458628
 20
9.6440443236
 30
0.0
 10
12.053961946
 20
9.6442621347
 30
0.0
 10
12.0530230208
 20
9.6447824282
 30
0.0
 10
12.0512839615
 20
9.6461699983
 30
0.0
 10
12.0498466839
 20
9.6480426638
 30
0.0
 10
12.0486990047
 20
9.6502451588
 30
0.0
 10
12.0476104746
 20
9.6529523526
 30
0.0
 10
12.0465497318
 20
9.6569641005
 30
0.0
 10
12.0456730734
 20
9.6625003891
 30
0.0
 10
12.0450936653
 20
9.6689506515
 30
0.0
 10
12.04476582
 20
9.6762692458
 30
0.0
 10
12.0447034972
 20
9.6814358456
 30
0.0
 10
12.0447034972
 20
9.6841499387
 30
0.0
  0
LINE
  5
34E
100
AcDbEntity
  8
0
100
AcDbLine
 62
7
  6
CONTINUOUS
 10
12.0447034972
 20
7.7614633677
 11
12.0447018027
 21
7.7581145591
  0
LINE
  5
34F
100
AcDbEntity
  8
0
100
AcDbLine
 62
7
  6
CONTINUOUS
 10
12.0447018027
 20
7.7581145591
 11
12.0446976362
 21
7.7556854738
  0
LINE
  5
350
100
AcDbEntity
  8
0
100
AcDbLine
 62
7
  6
CONTINUOUS
 10
12.0447034972
 20
7.7910743026
 11
12.0447020137
 21
7.7845134092
  0
LINE
  5
351
100
AcDbEntity
  8
0
100
AcDbLine
 62
7
  6
CONTINUOUS
 10
12.0447020137
 20
7.7845134092
 11
12.0446948488
 21
7.7757273686
  0
LINE
  5
352
100
AcDbEntity
  8
0
100
AcDbLine
 62
7
  6
CONTINUOUS
 10
12.0447034972
 20
7.7614633677
 11
12.0446898325
 21
7.7758040693
  0
LINE
  5
353
100
AcDbEntity
  8
0
100
AcDbLine
 62
7
  6
CONTINUOUS
 10
12.0467121381
 20
7.7468629749
 11
12.0451442328
 21
7.7566097647
  0
LINE
  5
354
100
AcDbEntity
  8
0
100
AcDbLine
 62
7
  6
CONTINUOUS
 10
12.0451442328
 20
7.7566097647
 11
12.0447034972
 21
7.7614633677
  0
SPLINE
  5
355
100
AcDbEntity
  8
0
100
AcDbSpline
 62
7
  6
CONTINUOUS
 70
0
 71
3
 72
9
 73
5
 74
0
 42
0.0000001
 43
0.0000001
 44
0.0000000001
 40
0.0
 40
0.0
 40
0.0
 40
0.0
 40
0.4995563961
 40
1.0
 40
1.0
 40
1.0
 40
1.0
 10
12.1256333981
 20
7.6262608342
 30
0.0
 10
12.116179932
 20
7.632677403
 30
0.0
 10
12.0984323106
 20
7.6473433798
 30
0.0
 10
12.0837090875
 20
7.6650326459
 30
0.0
 10
12.0772084433
 20
7.6744531602
 30
0.0
  0
LINE
  5
356
100
AcDbEntity
  8
0
100
AcDbLine
 62
7
  6
CONTINUOUS
 10
12.0447034972
 20
7.7910743026
 11
12.0447020137
 21
7.7982389814
  0
LINE
  5
357
100
AcDbEntity
  8
0
100
AcDbLine
 62
7
  6
CONTINUOUS
 10
12.0447020137
 20
7.7982389814
 11
12.0446914421
 21
7.8144412922
  0
SPLINE
  5
358
100
AcDbEntity
  8
0
100
AcDbSpline
 62
7
  6
CONTINUOUS
 70
0
 71
3
 72
9
 73
5
 74
0
 42
0.0000001
 43
0.0000001
 44
0.0000000001
 40
0.0
 40
0.0
 40
0.0
 40
0.0
 40
0.268358588
 40
1.0
 40
1.0
 40
1.0
 40
1.0
 10
12.0547108185
 20
7.7373877024
 30
0.0
 10
12.0539777374
 20
7.7396012317
 30
0.0
 10
12.0513910834
 20
7.7478973536
 30
0.0
 10
12.0493444021
 20
7.7563589924
 30
0.0
 10
12.0481247133
 20
7.7625981114
 30
0.0
  0
SPLINE
  5
359
100
AcDbEntity
  8
0
100
AcDbSpline
 62
7
  6
CONTINUOUS
 70
0
 71
3
 72
9
 73
5
 74
0
 42
0.0000001
 43
0.0000001
 44
0.0000000001
 40
0.0
 40
0.0
 40
0.0
 40
0.0
 40
0.2804056437
 40
1.0
 40
1.0
 40
1.0
 40
1.0
 10
12.0475497626
 20
7.765656441
 30
0.0
 10
12.0472836586
 20
7.7671303922
 30
0.0
 10
12.0463895905
 20
7.7723966358
 30
0.0
 10
12.0456906297
 20
7.7776961561
 30
0.0
 10
12.0453051658
 20
7.781520474
 30
0.0
  0
SPLINE
  5
35A
100
AcDbEntity
  8
0
100
AcDbSpline
 62
7
  6
CONTINUOUS
 70
0
 71
3
 72
10
 73
6
 74
0
 42
0.0000001
 43
0.0000001
 44
0.0000000001
 40
0.0
 40
0.0
 40
0.0
 40
0.0
 40
0.5780870483
 40
0.8093699857
 40
1.0
 40
1.0
 40
1.0
 40
1.0
 10
12.0453051658
 20
7.781520474
 30
0.0
 10
12.0451201192
 20
7.7833563832
 30
0.0
 10
12.0448968751
 20
7.7859311243
 30
0.0
 10
12.0447339267
 20
7.7891191144
 30
0.0
 10
12.0447034972
 20
7.7904658257
 30
0.0
 10
12.0447034972
 20
7.7910743026
 30
0.0
  0
SPLINE
  5
35B
100
AcDbEntity
  8
0
100
AcDbSpline
 62
7
  6
CONTINUOUS
 70
0
 71
3
 72
11
 73
7
 74
0
 42
0.0000001
 43
0.0000001
 44
0.0000000001
 40
0.0
 40
0.0
 40
0.0
 40
0.0
 40
0.2472903967
 40
0.4959138991
 40
0.7466194882
 40
1.0
 40
1.0
 40
1.0
 40
1.0
 10
12.131587867
 20
7.6338744642
 30
0.0
 10
12.1240688286
 20
7.639119643
 30
0.0
 10
12.109721775
 20
7.6507293215
 30
0.0
 10
12.0907444058
 20
7.6709912066
 30
0.0
 10
12.0745229987
 20
7.6937944939
 30
0.0
 10
12.0657432963
 20
7.7103616105
 30
0.0
 10
12.0618866462
 20
7.7189269372
 30
0.0
  0
LINE
  5
35C
100
AcDbEntity
  8
0
100
AcDbLine
 62
7
  6
CONTINUOUS
 10
12.0447034972
 20
7.8399067177
 11
12.0446898325
 21
7.8756255316
  0
SPLINE
  5
35D
100
AcDbEntity
  8
0
100
AcDbSpline
 62
7
  6
CONTINUOUS
 70
0
 71
3
 72
9
 73
5
 74
0
 42
0.0000001
 43
0.0000001
 44
0.0000000001
 40
0.0
 40
0.0
 40
0.0
 40
0.0
 40
0.2572499572
 40
1.0
 40
1.0
 40
1.0
 40
1.0
 10
12.0561269143
 20
7.777428471
 30
0.0
 10
12.0555089905
 20
7.7791876999
 30
0.0
 10
12.0532132142
 20
7.7860633784
 30
0.0
 10
12.051310102
 20
7.7930684577
 30
0.0
 10
12.0500991904
 20
7.7983140975
 30
0.0
  0
SPLINE
  5
35E
100
AcDbEntity
  8
0
100
AcDbSpline
 62
7
  6
CONTINUOUS
 70
0
 71
3
 72
11
 73
7
 74
0
 42
0.0000001
 43
0.0000001
 44
0.0000000001
 40
0.0
 40
0.0
 40
0.0
 40
0.0
 40
0.3106590359
 40
0.5847816416
 40
0.8163155409
 40
1.0
 40
1.0
 40
1.0
 40
1.0
 10
12.0467121381
 20
7.8164906048
 30
0.0
 10
12.0463650036
 20
7.8189010487
 30
0.0
 10
12.0457830558
 20
7.8234490996
 30
0.0
 10
12.0451667907
 20
7.8298195746
 30
0.0
 10
12.0448057628
 20
7.835212001
 30
0.0
 10
12.0447034972
 20
7.8384667825
 30
0.0
 10
12.0447034972
 20
7.8399067177
 30
0.0
  0
SPLINE
  5
35F
100
AcDbEntity
  8
0
100
AcDbSpline
 62
7
  6
CONTINUOUS
 70
0
 71
3
 72
11
 73
7
 74
0
 42
0.0000001
 43
0.0000001
 44
0.0000000001
 40
0.0
 40
0.0
 40
0.0
 40
0.0
 40
0.2461679481
 40
0.4947565065
 40
0.7459492276
 40
1.0
 40
1.0
 40
1.0
 40
1.0
 10
12.1316107082
 20
7.6708731924
 30
0.0
 10
12.1236380097
 20
7.6770616352
 30
0.0
 10
12.10849469
 20
7.6906759921
 30
0.0
 10
12.0887054054
 20
7.7141098316
 30
0.0
 10
12.0720237316
 20
7.7402292297
 30
0.0
 10
12.0631894946
 20
7.7590392003
 30
0.0
 10
12.0593686453
 20
7.7687288806
 30
0.0
  0
LINE
  5
360
100
AcDbEntity
  8
0
100
AcDbLine
 62
7
  6
CONTINUOUS
 10
12.0447034972
 20
7.9071904965
 11
12.0446914421
 21
7.9496421014
  0
SPLINE
  5
361
100
AcDbEntity
  8
0
100
AcDbSpline
 62
7
  6
CONTINUOUS
 70
0
 71
3
 72
9
 73
5
 74
0
 42
0.0000001
 43
0.0000001
 44
0.0000000001
 40
0.0
 40
0.0
 40
0.0
 40
0.0
 40
0.2604033284
 40
1.0
 40
1.0
 40
1.0
 40
1.0
 10
12.0526573324
 20
7.8449850694
 30
0.0
 10
12.0520910974
 20
7.8472073204
 30
0.0
 10
12.0500475127
 20
7.8557743825
 30
0.0
 10
12.0484809851
 20
7.8644524102
 30
0.0
 10
12.0475497626
 20
7.8708987939
 30
0.0
  0
SPLINE
  5
362
100
AcDbEntity
  8
0
100
AcDbSpline
 62
7
  6
CONTINUOUS
 70
0
 71
3
 72
9
 73
5
 74
0
 42
0.0000001
 43
0.0000001
 44
0.0000000001
 40
0.0
 40
0.0
 40
0.0
 40
0.0
 40
0.5518390273
 40
1.0
 40
1.0
 40
1.0
 40
1.0
 10
12.0458290364
 20
7.8854571823
 30
0.0
 10
12.0454599474
 20
7.8894442315
 30
0.0
 10
12.0449337502
 20
7.8966830317
 30
0.0
 10
12.0447034972
 20
7.9039386792
 30
0.0
 10
12.0447034972
 20
7.9071904965
 30
0.0
  0
SPLINE
  5
363
100
AcDbEntity
  8
0
100
AcDbSpline
 62
7
  6
CONTINUOUS
 70
0
 71
3
 72
11
 73
7
 74
0
 42
0.0000001
 43
0.0000001
 44
0.0000000001
 40
0.0
 40
0.0
 40
0.0
 40
0.0
 40
0.2464951791
 40
0.4954446287
 40
0.7467029428
 40
1.0
 40
1.0
 40
1.0
 40
1.0
 10
12.131587867
 20
7.7216846294
 30
0.0
 10
12.1240413007
 20
7.7279299311
 30
0.0
 10
12.1096775422
 20
7.7414870949
 30
0.0
 10
12.0907377822
 20
7.7644217855
 30
0.0
 10
12.0745427927
 20
7.7896894038
 30
0.0
 10
12.0657527907
 20
7.8077707637
 30
0.0
 10
12.0618866462
 20
7.8170646354
 30
0.0
  0
LINE
  5
364
100
AcDbEntity
  8
0
100
AcDbLine
 62
7
  6
CONTINUOUS
 10
12.0447034972
 20
7.9918645336
 11
12.0446898325
 21
8.0467171153
  0
SPLINE
  5
365
100
AcDbEntity
  8
0
100
AcDbSpline
 62
7
  6
CONTINUOUS
 70
0
 71
3
 72
13
 73
9
 74
0
 42
0.0000001
 43
0.0000001
 44
0.0000000001
 40
0.0
 40
0.0
 40
0.0
 40
0.0
 40
0.1432366562
 40
0.2850562846
 40
0.5572254874
 40
0.8016933867
 40
0.9078583143
 40
1.0
 40
1.0
 40
1.0
 40
1.0
 10
12.0561269143
 20
7.9180840668
 30
0.0
 10
12.0549803959
 20
7.9214737238
 30
0.0
 10
12.0529126398
 20
7.9282934457
 30
0.0
 10
12.049611091
 20
7.9418222236
 30
0.0
 10
12.0468667538
 20
7.9580634667
 30
0.0
 10
12.0453742243
 20
7.9735606207
 30
0.0
 10
12.0448062753
 20
7.9846084638
 30
0.0
 10
12.0447034972
 20
7.9895626703
 30
0.0
 10
12.0447034972
 20
7.9918645336
 30
0.0
  0
SPLINE
  5
366
100
AcDbEntity
  8
0
100
AcDbSpline
 62
7
  6
CONTINUOUS
 70
0
 71
3
 72
9
 73
5
 74
0
 42
0.0000001
 43
0.0000001
 44
0.0000000001
 40
0.0
 40
0.0
 40
0.0
 40
0.0
 40
0.4967577035
 40
1.0
 40
1.0
 40
1.0
 40
1.0
 10
12.1316107082
 20
7.8035083471
 30
0.0
 10
12.116799329
 20
7.8165576229
 30
0.0
 10
12.0900831627
 20
7.8465138645
 30
0.0
 10
12.0706790556
 20
7.8815978418
 30
0.0
 10
12.0629503827
 20
7.9000414774
 30
0.0
  0
LINE
  5
367
100
AcDbEntity
  8
0
100
AcDbLine
 62
7
  6
CONTINUOUS
 10
12.0447034972
 20
8.092593469
 11
12.0446914421
 21
8.1514622988
  0
SPLINE
  5
368
100
AcDbEntity
  8
0
100
AcDbSpline
 62
7
  6
CONTINUOUS
 70
0
 71
3
 72
13
 73
9
 74
0
 42
0.0000001
 43
0.0000001
 44
0.0000000001
 40
0.0
 40
0.0
 40
0.0
 40
0.0
 40
0.1366348566
 40
0.2732594076
 40
0.5402312974
 40
0.788241552
 40
0.8998967139
 40
1.0
 40
1.0
 40
1.0
 40
1.0
 10
12.0618866462
 20
7.9901520516
 30
0.0
 10
12.0600797714
 20
7.9945533345
 30
0.0
 10
12.0568416351
 20
8.003513276
 30
0.0
 10
12.0517431536
 20
8.0216333658
 30
0.0
 10
12.0476505688
 20
8.0440005437
 30
0.0
 10
12.045593276
 20
8.0657406615
 30
0.0
 10
12.0448340089
 20
8.0817338166
 30
0.0
 10
12.0447034972
 20
8.089107789
 30
0.0
 10
12.0447034972
 20
8.092593469
 30
0.0
  0
SPLINE
  5
369
100
AcDbEntity
  8
0
100
AcDbSpline
 62
7
  6
CONTINUOUS
 70
0
 71
3
 72
10
 73
6
 74
0
 42
0.0000001
 43
0.0000001
 44
0.0000000001
 40
0.0
 40
0.0
 40
0.0
 40
0.0
 40
0.4985413902
 40
0.7493976599
 40
1.0
 40
1.0
 40
1.0
 40
1.0
 10
12.131587867
 20
7.8904375891
 30
0.0
 10
12.1164981749
 20
7.9041020861
 30
0.0
 10
12.0961293624
 20
7.9273964585
 30
0.0
 10
12.0746140592
 20
7.9621566599
 30
0.0
 10
12.0657728917
 20
7.9806857263
 30
0.0
 10
12.0618866462
 20
7.9901520516
 30
0.0
  0
LINE
  5
36A
100
AcDbEntity
  8
0
100
AcDbLine
 62
7
  6
CONTINUOUS
 10
12.0447034972
 20
8.207788747
 11
12.0446898325
 21
8.278328507
  0
SPLINE
  5
36B
100
AcDbEntity
  8
0
100
AcDbSpline
 62
7
  6
CONTINUOUS
 70
0
 71
3
 72
13
 73
9
 74
0
 42
0.0000001
 43
0.0000001
 44
0.0000000001
 40
0.0
 40
0.0
 40
0.0
 40
0.0
 40
0.1299736253
 40
0.2617041158
 40
0.5245701672
 40
0.7762619146
 40
0.8928634962
 40
1.0
 40
1.0
 40
1.0
 40
1.0
 10
12.0561269143
 20
8.1273419581
 30
0.0
 10
12.0549675351
 20
8.1306811915
 30
0.0
 10
12.0528797359
 20
8.1374922106
 30
0.0
 10
12.0495420889
 20
8.1513694421
 30
0.0
 10
12.0467867611
 20
8.1687558651
 30
0.0
 10
12.04534689
 20
8.1858706713
 30
0.0
 10
12.0447982783
 20
8.1987899803
 30
0.0
 10
12.0447034972
 20
8.2048750519
 30
0.0
 10
12.0447034972
 20
8.207788747
 30
0.0
  0
SPLINE
  5
36C
100
AcDbEntity
  8
0
100
AcDbSpline
 62
7
  6
CONTINUOUS
 70
0
 71
3
 72
11
 73
7
 74
0
 42
0.0000001
 43
0.0000001
 44
0.0000000001
 40
0.0
 40
0.0
 40
0.0
 40
0.0
 40
0.2514564856
 40
0.5027822281
 40
0.7526944926
 40
1.0
 40
1.0
 40
1.0
 40
1.0
 10
12.1316107082
 20
8.0119450113
 30
0.0
 10
12.1230715621
 20
8.0198906711
 30
0.0
 10
12.1069744764
 20
8.0368616144
 30
0.0
 10
12.086112729
 20
8.0649582239
 30
0.0
 10
12.06885232
 20
8.0951784179
 30
0.0
 10
12.059889485
 20
8.1165050357
 30
0.0
 10
12.0561269143
 20
8.1273419581
 30
0.0
  0
LINE
  5
36D
100
AcDbEntity
  8
0
100
AcDbLine
 62
7
  6
CONTINUOUS
 10
12.0447034972
 20
8.3356336694
 11
12.0446914421
 21
8.407220779
  0
SPLINE
  5
36E
100
AcDbEntity
  8
0
100
AcDbSpline
 62
7
  6
CONTINUOUS
 70
0
 71
3
 72
13
 73
9
 74
0
 42
0.0000001
 43
0.0000001
 44
0.0000000001
 40
0.0
 40
0.0
 40
0.0
 40
0.0
 40
0.1250419196
 40
0.252688598
 40
0.5111040714
 40
0.7653146801
 40
0.8863152877
 40
1.0
 40
1.0
 40
1.0
 40
1.0
 10
12.0618866462
 20
8.2273134668
 30
0.0
 10
12.060062427
 20
8.2315360631
 30
0.0
 10
12.0567963064
 20
8.2402548086
 30
0.0
 10
12.0516467702
 20
8.2583533184
 30
0.0
 10
12.0475474736
 20
8.2816062929
 30
0.0
 10
12.0455618665
 20
8.3048470422
 30
0.0
 10
12.0448252694
 20
8.3228180682
 30
0.0
 10
12.0447034972
 20
8.3314516628
 30
0.0
 10
12.0447034972
 20
8.3356336694
 30
0.0
  0
SPLINE
  5
36F
100
AcDbEntity
  8
0
100
AcDbSpline
 62
7
  6
CONTINUOUS
 70
0
 71
3
 72
11
 73
7
 74
0
 42
0.0000001
 43
0.0000001
 44
0.0000000001
 40
0.0
 40
0.0
 40
0.0
 40
0.0
 40
0.2537027376
 40
0.5057317654
 40
0.7548613023
 40
1.0
 40
1.0
 40
1.0
 40
1.0
 10
12.131587867
 20
8.1295299742
 30
0.0
 10
12.1240892919
 20
8.1364784215
 30
0.0
 10
12.1098473641
 20
8.1511128457
 30
0.0
 10
12.0909223202
 20
8.1749904257
 30
0.0
 10
12.0747228176
 20
8.2003871056
 30
0.0
 10
12.0658040962
 20
8.2182455823
 30
0.0
 10
12.0618866462
 20
8.2273134668
 30
0.0
  0
LINE
  5
370
100
AcDbEntity
  8
0
100
AcDbLine
 62
7
  6
CONTINUOUS
 10
12.0447034972
 20
8.4741120454
 11
12.0446898325
 21
8.5559067111
  0
SPLINE
  5
371
100
AcDbEntity
  8
0
100
AcDbSpline
 62
7
  6
CONTINUOUS
 70
0
 71
3
 72
14
 73
10
 74
0
 42
0.0000001
 43
0.0000001
 44
0.0000000001
 40
0.0
 40
0.0
 40
0.0
 40
0.0
 40
0.118524171
 40
0.2413885485
 40
0.3675465428
 40
0.495904835
 40
0.7537637059
 40
0.8795614717
 40
1.0
 40
1.0
 40
1.0
 40
1.0
 10
12.0561269143
 20
8.3920537021
 30
0.0
 10
12.0549551027
 20
8.3951272823
 30
0.0
 10
12.0528481096
 20
8.4014956078
 30
0.0
 10
12.050347353
 20
8.4113915943
 30
0.0
 10
12.0483960871
 20
8.4216871806
 30
0.0
 10
12.0464414146
 20
8.4357762945
 30
0.0
 10
12.0453262323
 20
8.4499550611
 30
0.0
 10
12.0447926487
 20
8.4639353373
 30
0.0
 10
12.0447034972
 20
8.4707695339
 30
0.0
 10
12.0447034972
 20
8.4741120454
 30
0.0
  0
SPLINE
  5
372
100
AcDbEntity
  8
0
100
AcDbSpline
 62
7
  6
CONTINUOUS
 70
0
 71
3
 72
10
 73
6
 74
0
 42
0.0000001
 43
0.0000001
 44
0.0000000001
 40
0.0
 40
0.0
 40
0.0
 40
0.0
 40
0.2547683083
 40
0.5070887575
 40
1.0
 40
1.0
 40
1.0
 40
1.0
 10
12.1316107082
 20
8.2830863426
 30
0.0
 10
12.1259595347
 20
8.288293895
 30
0.0
 10
12.1150844801
 20
8.2990749367
 30
0.0
 10
12.0952485998
 20
8.3218182671
 30
0.0
 10
12.0823437767
 20
8.3403614579
 30
0.0
 10
12.0748395581
 20
8.3531965984
 30
0.0
  0
SPLINE
  5
373
100
AcDbEntity
  8
0
100
AcDbSpline
 62
7
  6
CONTINUOUS
 70
0
 71
3
 72
9
 73
5
 74
0
 42
0.0000001
 43
0.0000001
 44
0.0000000001
 40
0.0
 40
0.0
 40
0.0
 40
0.0
 40
0.2536423104
 40
1.0
 40
1.0
 40
1.0
 40
1.0
 10
12.0705573392
 20
8.3607906972
 30
0.0
 10
12.0691669505
 20
8.3633497736
 30
0.0
 10
12.0638462451
 20
8.373525343
 30
0.0
 10
12.0591798608
 20
8.3840460359
 30
0.0
 10
12.0561269143
 20
8.3920537021
 30
0.0
  0
LINE
  5
374
100
AcDbEntity
  8
0
100
AcDbLine
 62
7
  6
CONTINUOUS
 10
12.0447034972
 20
8.6210399882
 11
12.0446914421
 21
8.7008472963
  0
SPLINE
  5
375
100
AcDbEntity
  8
0
100
AcDbSpline
 62
7
  6
CONTINUOUS
 70
0
 71
3
 72
10
 73
6
 74
0
 42
0.0000001
 43
0.0000001
 44
0.0000000001
 40
0.0
 40
0.0
 40
0.0
 40
0.0
 40
0.2383604314
 40
0.4851153681
 40
1.0
 40
1.0
 40
1.0
 40
1.0
 10
12.0618866462
 20
8.5136471571
 30
0.0
 10
12.0603220978
 20
8.5168516429
 30
0.0
 10
12.057470161
 20
8.5235393319
 30
0.0
 10
12.0527809459
 20
8.5377587256
 30
0.0
 10
12.050395506
 20
8.5489398536
 30
0.0
 10
12.0491461225
 20
8.5565408636
 30
0.0
  0
SPLINE
  5
376
100
AcDbEntity
  8
0
100
AcDbSpline
 62
7
  6
CONTINUOUS
 70
0
 71
3
 72
11
 73
7
 74
0
 42
0.0000001
 43
0.0000001
 44
0.0000000001
 40
0.0
 40
0.0
 40
0.0
 40
0.0
 40
0.249483608
 40
0.5022746869
 40
0.7543386063
 40
1.0
 40
1.0
 40
1.0
 40
1.0
 10
12.0487666132
 20
8.5589230755
 30
0.0
 10
12.0479763349
 20
8.564043651
 30
0.0
 10
12.046699671
 20
8.5744023894
 30
0.0
 10
12.0455007191
 20
8.5900259065
 30
0.0
 10
12.044844561
 20
8.6056010447
 30
0.0
 10
12.0447034972
 20
8.6159381669
 30
0.0
 10
12.0447034972
 20
8.6210399882
 30
0.0
  0
SPLINE
  5
377
100
AcDbEntity
  8
0
100
AcDbSpline
 62
7
  6
CONTINUOUS
 70
0
 71
3
 72
11
 73
7
 74
0
 42
0.0000001
 43
0.0000001
 44
0.0000000001
 40
0.0
 40
0.0
 40
0.0
 40
0.0
 40
0.26018301
 40
0.514493816
 40
0.7614454052
 40
1.0
 40
1.0
 40
1.0
 40
1.0
 10
12.131587867
 20
8.4239387309
 30
0.0
 10
12.1246701479
 20
8.4300920123
 30
0.0
 10
12.1114865054
 20
8.4428312046
 30
0.0
 10
12.093637246
 20
8.46325975
 30
0.0
 10
12.0781059607
 20
8.4845579455
 30
0.0
 10
12.069253649
 20
8.4994315647
 30
0.0
 10
12.0652930545
 20
8.50693974
 30
0.0
  0
LINE
  5
378
100
AcDbEntity
  8
0
100
AcDbLine
 62
7
  6
CONTINUOUS
 10
12.0447034972
 20
8.7741003565
 11
12.0446898325
 21
8.8620104683
  0
LINE
  5
379
100
AcDbEntity
  8
0
100
AcDbLine
 62
7
  6
CONTINUOUS
 10
12.0561269143
 20
8.6955864862
 11
12.0533915548
 21
8.7024371835
  0
SPLINE
  5
37A
100
AcDbEntity
  8
0
100
AcDbSpline
 62
7
  6
CONTINUOUS
 70
0
 71
3
 72
13
 73
9
 74
0
 42
0.0000001
 43
0.0000001
 44
0.0000000001
 40
0.0
 40
0.0
 40
0.0
 40
0.0
 40
0.1113650789
 40
0.2280648937
 40
0.3496386772
 40
0.4755252322
 40
0.7364846031
 40
1.0
 40
1.0
 40
1.0
 40
1.0
 10
12.0530947526
 20
8.7032977452
 30
0.0
 10
12.052240455
 20
8.7058137532
 30
0.0
 10
12.050703044
 20
8.711039725
 30
0.0
 10
12.0488866572
 20
8.7191863936
 30
0.0
 10
12.0474612583
 20
8.7277609382
 30
0.0
 10
12.046002251
 20
8.7398064387
 30
0.0
 10
12.0449615675
 20
8.7552985203
 30
0.0
 10
12.0447034972
 20
8.7678130732
 30
0.0
 10
12.0447034972
 20
8.7741003565
 30
0.0
  0
SPLINE
  5
37B
100
AcDbEntity
  8
0
100
AcDbSpline
 62
7
  6
CONTINUOUS
 70
0
 71
3
 72
11
 73
7
 74
0
 42
0.0000001
 43
0.0000001
 44
0.0000000001
 40
0.0
 40
0.0
 40
0.0
 40
0.0
 40
0.2610233365
 40
0.5155095327
 40
0.7620848446
 40
1.0
 40
1.0
 40
1.0
 40
1.0
 10
12.1316107082
 20
8.5998955341
 30
0.0
 10
12.126070979
 20
8.6046297825
 30
0.0
 10
12.1154098323
 20
8.614313175
 30
0.0
 10
12.1005737777
 20
8.6295818153
 30
0.0
 10
12.0871840972
 20
8.6452959308
 30
0.0
 10
12.0791377428
 20
8.6561852301
 30
0.0
 10
12.0753962481
 20
8.6616731261
 30
0.0
  0
SPLINE
  5
37C
100
AcDbEntity
  8
0
100
AcDbSpline
 62
7
  6
CONTINUOUS
 70
0
 71
3
 72
9
 73
5
 74
0
 42
0.0000001
 43
0.0000001
 44
0.0000000001
 40
0.0
 40
0.0
 40
0.0
 40
0.0
 40
0.5117647701
 40
1.0
 40
1.0
 40
1.0
 40
1.0
 10
12.0753962481
 20
8.6616731261
 30
0.0
 10
12.0716446153
 20
8.6671758924
 30
0.0
 10
12.06471976
 20
8.6782124855
 30
0.0
 10
12.0587552666
 20
8.6898018469
 30
0.0
 10
12.0561269143
 20
8.6955864862
 30
0.0
  0
LINE
  5
37D
100
AcDbEntity
  8
0
100
AcDbLine
 62
7
  6
CONTINUOUS
 10
12.0447034972
 20
8.9308792967
 11
12.0446914421
 21
9.0138922165
  0
SPLINE
  5
37E
100
AcDbEntity
  8
0
100
AcDbSpline
 62
7
  6
CONTINUOUS
 70
0
 71
3
 72
9
 73
5
 74
0
 42
0.0000001
 43
0.0000001
 44
0.0000000001
 40
0.0
 40
0.0
 40
0.0
 40
0.0
 40
0.4846787782
 40
1.0
 40
1.0
 40
1.0
 40
1.0
 10
12.0618866462
 20
8.8311617235
 30
0.0
 10
12.0599056582
 20
8.8344361678
 30
0.0
 10
12.0563775575
 20
8.8415369231
 30
0.0
 10
12.053795081
 20
8.8490172052
 30
0.0
 10
12.0526573324
 20
8.8529239059
 30
0.0
  0
LINE
  5
37F
100
AcDbEntity
  8
0
100
AcDbLine
 62
7
  6
CONTINUOUS
 10
12.0526573324
 20
8.8529239059
 11
12.0503173072
 21
8.8621812003
  0
SPLINE
  5
380
100
AcDbEntity
  8
0
100
AcDbSpline
 62
7
  6
CONTINUOUS
 70
0
 71
3
 72
12
 73
8
 74
0
 42
0.0000001
 43
0.0000001
 44
0.0000000001
 40
0.0
 40
0.0
 40
0.0
 40
0.0
 40
0.2334829296
 40
0.4807071754
 40
0.6084743276
 40
0.738266371
 40
1.0
 40
1.0
 40
1.0
 40
1.0
 10
12.0501951872
 20
8.8627463716
 30
0.0
 10
12.0490792859
 20
8.8679565717
 30
0.0
 10
12.0473110865
 20
8.8787984583
 30
0.0
 10
12.0459971775
 20
8.8926283773
 30
0.0
 10
12.0453085272
 20
8.9041282258
 30
0.0
 10
12.0448318988
 20
8.9159700924
 30
0.0
 10
12.0447034972
 20
8.9249062218
 30
0.0
 10
12.0447034972
 20
8.9308792967
 30
0.0
  0
SPLINE
  5
381
100
AcDbEntity
  8
0
100
AcDbSpline
 62
7
  6
CONTINUOUS
 70
0
 71
3
 72
11
 73
7
 74
0
 42
0.0000001
 43
0.0000001
 44
0.0000000001
 40
0.0
 40
0.0
 40
0.0
 40
0.0
 40
0.2679543399
 40
0.5249750884
 40
0.7693460434
 40
1.0
 40
1.0
 40
1.0
 40
1.0
 10
12.131587867
 20
8.7551650741
 30
0.0
 10
12.1252900684
 20
8.7601810529
 30
0.0
 10
12.1132466864
 20
8.77038705
 30
0.0
 10
12.096608396
 20
8.7864601032
 30
0.0
 10
12.081894082
 20
8.8028347529
 30
0.0
 10
12.0731995189
 20
8.8141789372
 30
0.0
 10
12.0692388982
 20
8.8198661885
 30
0.0
  0
LINE
  5
382
100
AcDbEntity
  8
0
100
AcDbLine
 62
7
  6
CONTINUOUS
 10
12.0447034972
 20
9.0889043114
 11
12.0446898325
 21
9.1774061537
  0
SPLINE
  5
383
100
AcDbEntity
  8
0
100
AcDbSpline
 62
7
  6
CONTINUOUS
 70
0
 71
3
 72
15
 73
11
 74
0
 42
0.0000001
 43
0.0000001
 44
0.0000000001
 40
0.0
 40
0.0
 40
0.0
 40
0.0
 40
0.0960449771
 40
0.200495148
 40
0.3138412437
 40
0.4361842583
 40
0.5672393276
 40
0.7060600325
 40
0.8511811691
 40
1.0
 40
1.0
 40
1.0
 40
1.0
 10
12.0561269143
 20
9.0188682294
 30
0.0
 10
12.0549322511
 20
9.0208280794
 30
0.0
 10
12.0527791999
 20
9.0251307454
 30
0.0
 10
12.0502858025
 20
9.0322185237
 30
0.0
 10
12.0483460109
 20
9.040122807
 30
0.0
 10
12.0468930964
 20
9.0487717485
 30
0.0
 10
12.0458549836
 20
9.0580908755
 30
0.0
 10
12.0451711263
 20
9.0679869204
 30
0.0
 10
12.044783926
 20
9.0783230046
 30
0.0
 10
12.0447034972
 20
9.0853478697
 30
0.0
 10
12.0447034972
 20
9.0889043114
 30
0.0
  0
SPLINE
  5
384
100
AcDbEntity
  8
0
100
AcDbSpline
 62
7
  6
CONTINUOUS
 70
0
 71
3
 72
13
 73
9
 74
0
 42
0.0000001
 43
0.0000001
 44
0.0000000001
 40
0.0
 40
0.0
 40
0.0
 40
0.0
 40
0.2844564081
 40
0.5477425322
 40
0.6704878952
 40
0.7869585197
 40
0.8968825198
 40
1.0
 40
1.0
 40
1.0
 40
1.0
 10
12.1316107082
 20
8.9424662991
 30
0.0
 10
12.1233543777
 20
8.9485264586
 30
0.0
 10
12.1078450406
 20
8.9607389796
 30
0.0
 10
12.0900649411
 20
8.977114022
 30
0.0
 10
12.0776416802
 20
8.9902756169
 30
0.0
 10
12.0694826683
 20
8.9998467379
 30
0.0
 10
12.0623030335
 20
9.009299715
 30
0.0
 10
12.0580593358
 20
9.0156980837
 30
0.0
 10
12.0561269143
 20
9.0188682294
 30
0.0
  0
LINE
  5
385
100
AcDbEntity
  8
0
100
AcDbLine
 62
7
  6
CONTINUOUS
 10
12.0447034972
 20
9.2456832516
 11
12.0446914421
 21
9.3266857761
  0
SPLINE
  5
386
100
AcDbEntity
  8
0
100
AcDbSpline
 62
7
  6
CONTINUOUS
 70
0
 71
3
 72
9
 73
5
 74
0
 42
0.0000001
 43
0.0000001
 44
0.0000000001
 40
0.0
 40
0.0
 40
0.0
 40
0.0
 40
0.4844693198
 40
1.0
 40
1.0
 40
1.0
 40
1.0
 10
12.0618866462
 20
9.1599065583
 30
0.0
 10
12.0601679748
 20
9.1618896027
 30
0.0
 10
12.0570229485
 20
9.1663411069
 30
0.0
 10
12.0546468025
 20
9.1712310104
 30
0.0
 10
12.0535850842
 20
9.1738137176
 30
0.0
  0
SPLINE
  5
387
100
AcDbEntity
  8
0
100
AcDbSpline
 62
7
  6
CONTINUOUS
 70
0
 71
3
 72
14
 73
10
 74
0
 42
0.0000001
 43
0.0000001
 44
0.0000000001
 40
0.0
 40
0.0
 40
0.0
 40
0.0
 40
0.1036272357
 40
0.2135407092
 40
0.3299742101
 40
0.4528902534
 40
0.5820104299
 40
0.716927843
 40
1.0
 40
1.0
 40
1.0
 40
1.0
 10
12.0517325864
 20
9.1788555742
 30
0.0
 10
12.0510073297
 20
9.1810693143
 30
0.0
 10
12.0497083545
 20
9.1856963253
 30
0.0
 10
12.0481898209
 20
9.1929610867
 30
0.0
 10
12.0470002621
 20
9.2007249601
 30
0.0
 10
12.0460977803
 20
9.2089607272
 30
0.0
 10
12.0454457907
 20
9.217636231
 30
0.0
 10
12.0448504597
 20
9.2299216753
 30
0.0
 10
12.0447034972
 20
9.2393198573
 30
0.0
 10
12.0447034972
 20
9.2456832516
 30
0.0
  0
SPLINE
  5
388
100
AcDbEntity
  8
0
100
AcDbSpline
 62
7
  6
CONTINUOUS
 70
0
 71
3
 72
11
 73
7
 74
0
 42
0.0000001
 43
0.0000001
 44
0.0000000001
 40
0.0
 40
0.0
 40
0.0
 40
0.0
 40
0.2759448008
 40
0.5357657976
 40
0.7775383918
 40
1.0
 40
1.0
 40
1.0
 40
1.0
 10
12.131587867
 20
9.1023968345
 30
0.0
 10
12.1259469389
 20
9.1060825622
 30
0.0
 10
12.1151236849
 20
9.113439098
 30
0.0
 10
12.0998640747
 20
9.1247466997
 30
0.0
 10
12.0861522448
 20
9.1359191337
 30
0.0
 10
12.0777511049
 20
9.1435418031
 30
0.0
 10
12.0738514777
 20
9.1473236938
 30
0.0
  0
SPLINE
  5
389
100
AcDbEntity
  8
0
100
AcDbSpline
 62
7
  6
CONTINUOUS
 70
0
 71
3
 72
9
 73
5
 74
0
 42
0.0000001
 43
0.0000001
 44
0.0000000001
 40
0.0
 40
0.0
 40
0.0
 40
0.0
 40
0.2618588711
 40
1.0
 40
1.0
 40
1.0
 40
1.0
 10
12.0738514777
 20
9.1473236938
 30
0.0
 10
12.0727633179
 20
9.1483790001
 30
0.0
 10
12.0686459822
 20
9.1524479343
 30
0.0
 10
12.0646851425
 20
9.1566775859
 30
0.0
 10
12.0618866462
 20
9.1599065583
 30
0.0
  0
LINE
  5
38A
100
AcDbEntity
  8
0
100
AcDbLine
 62
7
  6
CONTINUOUS
 10
12.0447034972
 20
9.3987436199
 11
12.0446898325
 21
9.4822762964
  0
SPLINE
  5
38B
100
AcDbEntity
  8
0
100
AcDbSpline
 62
7
  6
CONTINUOUS
 70
0
 71
3
 72
15
 73
11
 74
0
 42
0.0000001
 43
0.0000001
 44
0.0000000001
 40
0.0
 40
0.0
 40
0.0
 40
0.0
 40
0.0838732133
 40
0.176574417
 40
0.2807991166
 40
0.3981692618
 40
0.5294449366
 40
0.6744116222
 40
0.8321140044
 40
1.0
 40
1.0
 40
1.0
 40
1.0
 10
12.0561269143
 20
9.3415859508
 30
0.0
 10
12.0549376725
 20
9.342747921
 30
0.0
 10
12.052750681
 20
9.3455273648
 30
0.0
 10
12.0502453345
 20
9.3505264309
 30
0.0
 10
12.0483099149
 20
9.356466738
 30
0.0
 10
12.04686667
 20
9.3633205416
 30
0.0
 10
12.0458374781
 20
9.3710603728
 30
0.0
 10
12.0451607626
 20
9.3796388742
 30
0.0
 10
12.0447793695
 20
9.3889607595
 30
0.0
 10
12.0447034972
 20
9.3954155136
 30
0.0
 10
12.0447034972
 20
9.3987436199
 30
0.0
  0
SPLINE
  5
38C
100
AcDbEntity
  8
0
100
AcDbSpline
 62
7
  6
CONTINUOUS
 70
0
 71
3
 72
12
 73
8
 74
0
 42
0.0000001
 43
0.0000001
 44
0.0000000001
 40
0.0
 40
0.0
 40
0.0
 40
0.0
 40
0.2912741033
 40
0.5569097248
 40
0.7938546549
 40
0.9009145927
 40
1.0
 40
1.0
 40
1.0
 40
1.0
 10
12.1316107082
 20
9.2892736565
 30
0.0
 10
12.1248402516
 20
9.2931144273
 30
0.0
 10
12.1120010214
 20
9.3006474515
 30
0.0
 10
12.0940829527
 20
9.3120141077
 30
0.0
 10
12.0806960356
 20
9.321312215
 30
0.0
 10
12.0712588584
 20
9.3284666443
 30
0.0
 10
12.0669744713
 20
9.3319318682
 30
0.0
 10
12.0649481084
 20
9.3336364252
 30
0.0
  0
SPLINE
  5
38D
100
AcDbEntity
  8
0
100
AcDbSpline
 62
7
  6
CONTINUOUS
 70
0
 71
3
 72
9
 73
5
 74
0
 42
0.0000001
 43
0.0000001
 44
0.0000000001
 40
0.0
 40
0.0
 40
0.0
 40
0.0
 40
0.2652044292
 40
1.0
 40
1.0
 40
1.0
 40
1.0
 10
12.0649481084
 20
9.3336364252
 30
0.0
 10
12.0641446892
 20
9.3343122536
 30
0.0
 10
12.0611352233
 20
9.336884004
 30
0.0
 10
12.0582074985
 20
9.3395530782
 30
0.0
 10
12.0561269143
 20
9.3415859508
 30
0.0
  0
LINE
  5
38E
100
AcDbEntity
  8
0
100
AcDbLine
 62
7
  6
CONTINUOUS
 10
12.0447034972
 20
9.5456715627
 11
12.0446914421
 21
9.6195740054
  0
SPLINE
  5
38F
100
AcDbEntity
  8
0
100
AcDbSpline
 62
7
  6
CONTINUOUS
 70
0
 71
3
 72
10
 73
6
 74
0
 42
0.0000001
 43
0.0000001
 44
0.0000000001
 40
0.0
 40
0.0
 40
0.0
 40
0.0
 40
0.2424246503
 40
0.4876180457
 40
1.0
 40
1.0
 40
1.0
 40
1.0
 10
12.0601977773
 20
9.480311978
 30
0.0
 10
12.0594326155
 20
9.4808539968
 30
0.0
 10
12.0579604918
 20
9.4820426565
 30
0.0
 10
12.0552656738
 20
9.4848272899
 30
0.0
 10
12.0536119073
 20
9.4872815385
 30
0.0
 10
12.0526573324
 20
9.4890183725
 30
0.0
  0
SPLINE
  5
390
100
AcDbEntity
  8
0
100
AcDbSpline
 62
7
  6
CONTINUOUS
 70
0
 71
3
 72
14
 73
10
 74
0
 42
0.0000001
 43
0.0000001
 44
0.0000000001
 40
0.0
 40
0.0
 40
0.0
 40
0.0
 40
0.0904014989
 40
0.1892998195
 40
0.2980263693
 40
0.4173573195
 40
0.5475735172
 40
0.6886924028
 40
1.0
 40
1.0
 40
1.0
 40
1.0
 10
12.0526573324
 20
9.4890183725
 30
0.0
 10
12.0518200133
 20
9.4905418614
 30
0.0
 10
12.0503168904
 20
9.4938720893
 30
0.0
 10
12.0485940898
 20
9.4993475676
 30
0.0
 10
12.0472540419
 20
9.505497232
 30
0.0
 10
12.0462436852
 20
9.5123161224
 30
0.0
 10
12.0455181149
 20
9.5197959025
 30
0.0
 10
12.0448505018
 20
9.5309818984
 30
0.0
 10
12.0447034972
 20
9.539685103
 30
0.0
 10
12.0447034972
 20
9.5456715627
 30
0.0
  0
SPLINE
  5
391
100
AcDbEntity
  8
0
100
AcDbSpline
 62
7
  6
CONTINUOUS
 70
0
 71
3
 72
12
 73
8
 74
0
 42
0.0000001
 43
0.0000001
 44
0.0000000001
 40
0.0
 40
0.0
 40
0.0
 40
0.0
 40
0.3031648462
 40
0.573259723
 40
0.8066183282
 40
0.9085309923
 40
1.0
 40
1.0
 40
1.0
 40
1.0
 10
12.131587867
 20
9.4438161637
 30
0.0
 10
12.1244338354
 20
9.4471732665
 30
0.0
 10
12.110944114
 20
9.4536029127
 30
0.0
 10
12.0921019087
 20
9.4629354998
 30
0.0
 10
12.0780956897
 20
9.4702077087
 30
0.0
 10
12.0683315956
 20
9.475537667
 30
0.0
 10
12.0639471644
 20
9.4780257513
 30
0.0
 10
12.0618866462
 20
9.4792254143
 30
0.0
  0
SPLINE
  5
392
100
AcDbEntity
  8
0
100
AcDbSpline
 62
7
  6
CONTINUOUS
 70
0
 71
3
 72
13
 73
9
 74
0
 42
0.0000001
 43
0.0000001
 44
0.0000000001
 40
0.0
 40
0.0
 40
0.0
 40
0.0
 40
0.0769161281
 40
0.1684076848
 40
0.2740355357
 40
0.3933858402
 40
0.6718438564
 40
1.0
 40
1.0
 40
1.0
 40
1.0
 10
12.0549509649
 20
9.7456764646
 30
0.0
 10
12.0569666835
 20
9.7452050985
 30
0.0
 10
12.0613593553
 20
9.7440844731
 30
0.0
 10
12.0684591065
 20
9.7420857724
 30
0.0
 10
12.0766145515
 20
9.7396278718
 30
0.0
 10
12.0895306225
 20
9.7355329031
 30
0.0
 10
12.1080486217
 20
9.7292969137
 30
0.0
 10
12.1234369767
 20
9.7238415148
 30
0.0
 10
12.131743448
 20
9.7208406843
 30
0.0
  0
LINE
  5
393
100
AcDbEntity
  8
0
100
AcDbLine
 62
7
  6
CONTINUOUS
 10
12.0447034972
 20
9.6841499387
 11
12.0446898325
 21
9.7574647841
  0
SPLINE
  5
394
100
AcDbEntity
  8
0
100
AcDbSpline
 62
7
  6
CONTINUOUS
 70
0
 71
3
 72
15
 73
11
 74
0
 42
0.0000001
 43
0.0000001
 44
0.0000000001
 40
0.0
 40
0.0
 40
0.0
 40
0.0
 40
0.0779363661
 40
0.1694474327
 40
0.2746098542
 40
0.3933480246
 40
0.5255500239
 40
0.6710327987
 40
0.8293802066
 40
1.0
 40
1.0
 40
1.0
 40
1.0
 10
12.0548694626
 20
9.869482609
 30
0.0
 10
12.0568587919
 20
9.8698409875
 30
0.0
 10
12.0612373621
 20
9.8703244043
 30
0.0
 10
12.0683633467
 20
9.8704793352
 30
0.0
 10
12.0765407532
 20
9.8701166411
 30
0.0
 10
12.0857372786
 20
9.8692322
 30
0.0
 10
12.0959242931
 20
9.8678226682
 30
0.0
 10
12.1070680781
 20
9.8658861558
 30
0.0
 10
12.1191260313
 20
9.8634239144
 30
0.0
 10
12.1274400265
 20
9.8615028899
 30
0.0
 10
12.1317403148
 20
9.8604589673
 30
0.0
  0
LINE
  5
395
100
AcDbEntity
  8
0
100
AcDbLine
 62
7
  6
CONTINUOUS
 10
12.0447034972
 20
9.8119948611
 11
12.0446929013
 21
9.8700635613
  0
LINE
  5
396
100
AcDbEntity
  8
0
100
AcDbLine
 62
7
  6
CONTINUOUS
 10
12.0446929013
 20
9.8700635613
 11
12.0446914421
 21
9.8741536597
  0
SPLINE
  5
397
100
AcDbEntity
  8
0
100
AcDbSpline
 62
7
  6
CONTINUOUS
 70
0
 71
3
 72
9
 73
5
 74
0
 42
0.0000001
 43
0.0000001
 44
0.0000000001
 40
0.0
 40
0.0
 40
0.0
 40
0.0
 40
0.2366266346
 40
1.0
 40
1.0
 40
1.0
 40
1.0
 10
12.0549509649
 20
9.9878484059
 30
0.0
 10
12.055555072
 20
9.9882054111
 30
0.0
 10
12.0581495033
 20
9.9896439029
 30
0.0
 10
12.0608889121
 20
9.9908121937
 30
0.0
 10
12.0630177721
 20
9.9915819938
 30
0.0
  0
SPLINE
  5
398
100
AcDbEntity
  8
0
100
AcDbSpline
 62
7
  6
CONTINUOUS
 70
0
 71
3
 72
14
 73
10
 74
0
 42
0.0000001
 43
0.0000001
 44
0.0000000001
 40
0.0
 40
0.0
 40
0.0
 40
0.0
 40
0.0928291218
 40
0.1944424855
 40
0.3051677059
 40
0.4252465046
 40
0.5548296141
 40
0.6939486042
 40
1.0
 40
1.0
 40
1.0
 40
1.0
 10
12.0630177721
 20
9.9915819938
 30
0.0
 10
12.0650356231
 20
9.9923116529
 30
0.0
 10
12.0693455708
 20
9.9936141265
 30
0.0
 10
12.0762531861
 20
9.9950745697
 30
0.0
 10
12.0838710951
 20
9.9961216771
 30
0.0
 10
12.0921821208
 20
9.9967486354
 30
0.0
 10
12.101170267
 20
9.9969491571
 30
0.0
 10
12.1144551372
 20
9.9966281666
 30
0.0
 10
12.1247189097
 20
9.9957297524
 30
0.0
 10
12.131743448
 20
9.9948921175
 30
0.0
  0
LINE
  5
399
100
AcDbEntity
  8
0
100
AcDbLine
 62
7
  6
CONTINUOUS
 10
12.0447034972
 20
9.9271901391
 11
12.0446901068
 21
9.9850603371
  0
LINE
  5
39A
100
AcDbEntity
  8
0
100
AcDbLine
 62
7
  6
CONTINUOUS
 10
12.0446901068
 20
9.9850603371
 11
12.0446898325
 21
9.9856805122
  0
SPLINE
  5
39B
100
AcDbEntity
  8
0
100
AcDbSpline
 62
7
  6
CONTINUOUS
 70
0
 71
3
 72
9
 73
5
 74
0
 42
0.0000001
 43
0.0000001
 44
0.0000000001
 40
0.0
 40
0.0
 40
0.0
 40
0.0
 40
0.4771844841
 40
1.0
 40
1.0
 40
1.0
 40
1.0
 10
12.0548694626
 20
10.0835749922
 30
0.0
 10
12.0574382418
 20
10.0861258699
 30
0.0
 10
12.0634250092
 20
10.0908789818
 30
0.0
 10
12.0701475533
 20
10.0944710429
 30
0.0
 10
12.0737680679
 20
10.0960908515
 30
0.0
  0
SPLINE
  5
39C
100
AcDbEntity
  8
0
100
AcDbSpline
 62
7
  6
CONTINUOUS
 70
0
 71
3
 72
11
 73
7
 74
0
 42
0.0000001
 43
0.0000001
 44
0.0000000001
 40
0.0
 40
0.0
 40
0.0
 40
0.0
 40
0.2153502761
 40
0.4530297741
 40
0.714512716
 40
1.0
 40
1.0
 40
1.0
 40
1.0
 10
12.0737680679
 20
10.0960908515
 30
0.0
 10
12.0776517184
 20
10.0978283864
 30
0.0
 10
12.0861035528
 20
10.1008677827
 30
0.0
 10
12.0998872696
 20
10.1040303631
 30
0.0
 10
12.1152892553
 20
10.1059729033
 30
0.0
 10
12.1261000686
 20
10.1064063119
 30
0.0
 10
12.1317403148
 20
10.1064298319
 30
0.0
  0
SPLINE
  5
39D
100
AcDbEntity
  8
0
100
AcDbSpline
 62
7
  6
CONTINUOUS
 70
0
 71
3
 72
14
 73
10
 74
0
 42
0.0000001
 43
0.0000001
 44
0.0000000001
 40
0.0
 40
0.0
 40
0.0
 40
0.0
 40
0.0551189338
 40
0.128181211
 40
0.2209607807
 40
0.3342553625
 40
0.4685429533
 40
0.6241465023
 40
1.0
 40
1.0
 40
1.0
 40
1.0
 10
12.0446914421
 20
10.074428563
 30
0.0
 10
12.0449362379
 20
10.0744908158
 30
0.0
 10
12.0454750317
 20
10.0747444366
 30
0.0
 10
12.0463070665
 20
10.0753222534
 30
0.0
 10
12.0472907436
 20
10.0761422924
 30
0.0
 10
12.0484388066
 20
10.0771982042
 30
0.0
 10
12.0497655913
 20
10.0784843
 30
0.0
 10
12.0519293872
 20
10.0806349893
 30
0.0
 10
12.0536473037
 20
10.0823613504
 30
0.0
 10
12.0548694626
 20
10.0835749922
 30
0.0
  0
LINE
  5
39E
100
AcDbEntity
  8
0
100
AcDbLine
 62
7
  6
CONTINUOUS
 10
12.0447034972
 20
10.0279190744
 11
12.0446914421
 21
10.074428563
  0
SPLINE
  5
39F
100
AcDbEntity
  8
0
100
AcDbSpline
 62
7
  6
CONTINUOUS
 70
0
 71
3
 72
9
 73
5
 74
0
 42
0.0000001
 43
0.0000001
 44
0.0000000001
 40
0.0
 40
0.0
 40
0.0
 40
0.0
 40
0.491750875
 40
1.0
 40
1.0
 40
1.0
 40
1.0
 10
12.0549509649
 20
10.1685717372
 30
0.0
 10
12.0568750875
 20
10.1712244093
 30
0.0
 10
12.0611796427
 20
10.1763432559
 30
0.0
 10
12.066125557
 20
10.1808396168
 30
0.0
 10
12.0687649261
 20
10.1829621901
 30
0.0
  0
SPLINE
  5
3A0
100
AcDbEntity
  8
0
100
AcDbSpline
 62
7
  6
CONTINUOUS
 70
0
 71
3
 72
11
 73
7
 74
0
 42
0.0000001
 43
0.0000001
 44
0.0000000001
 40
0.0
 40
0.0
 40
0.0
 40
0.0
 40
0.2244485629
 40
0.4646613055
 40
0.7228421582
 40
1.0
 40
1.0
 40
1.0
 40
1.0
 10
12.0738544515
 20
10.1867546942
 30
0.0
 10
12.0776637279
 20
10.1893856235
 30
0.0
 10
12.0859759664
 20
10.1942322407
 30
0.0
 10
12.0997689338
 20
10.199987257
 30
0.0
 10
12.1151803669
 20
10.2043916121
 30
0.0
 10
12.1260746438
 20
10.2063138919
 30
0.0
 10
12.131743448
 20
10.2070523585
 30
0.0
  0
SPLINE
  5
3A1
100
AcDbEntity
  8
0
100
AcDbSpline
 62
7
  6
CONTINUOUS
 70
0
 71
3
 72
11
 73
7
 74
0
 42
0.0000001
 43
0.0000001
 44
0.0000000001
 40
0.0
 40
0.0
 40
0.0
 40
0.0
 40
0.163692774
 40
0.3855030938
 40
0.6644092226
 40
1.0
 40
1.0
 40
1.0
 40
1.0
 10
12.0446898325
 20
10.152583847
 30
0.0
 10
12.0451428859
 20
10.1533152496
 30
0.0
 10
12.0461637981
 20
10.1550657494
 30
0.0
 10
12.0479436596
 20
10.1580701447
 30
0.0
 10
12.050270948
 20
10.1617997684
 30
0.0
 10
12.0520696527
 20
10.1644832219
 30
0.0
 10
12.0530761974
 20
10.1659316593
 30
0.0
  0
LINE
  5
3A2
100
AcDbEntity
  8
0
100
AcDbLine
 62
7
  6
CONTINUOUS
 10
12.0447034972
 20
10.1125931116
 11
12.0446898325
 21
10.152583847
  0
SPLINE
  5
3A3
100
AcDbEntity
  8
0
100
AcDbSpline
 62
7
  6
CONTINUOUS
 70
0
 71
3
 72
11
 73
7
 74
0
 42
0.0000001
 43
0.0000001
 44
0.0000000001
 40
0.0
 40
0.0
 40
0.0
 40
0.0
 40
0.2309526826
 40
0.471944981
 40
0.7273233545
 40
1.0
 40
1.0
 40
1.0
 40
1.0
 10
12.0629560342
 20
10.2421143158
 30
0.0
 10
12.0668641904
 20
10.2470362222
 30
0.0
 10
12.0758408563
 20
10.2563419408
 30
0.0
 10
12.0919789111
 20
10.2679602476
 30
0.0
 10
12.1108098279
 20
10.277280795
 30
0.0
 10
12.1245430534
 20
10.2816958582
 30
0.0
 10
12.1317403148
 20
10.2835011794
 30
0.0
  0
SPLINE
  5
3A4
100
AcDbEntity
  8
0
100
AcDbSpline
 62
7
  6
CONTINUOUS
 70
0
 71
3
 72
9
 73
5
 74
0
 42
0.0000001
 43
0.0000001
 44
0.0000000001
 40
0.0
 40
0.0
 40
0.0
 40
0.0
 40
0.4346220295
 40
1.0
 40
1.0
 40
1.0
 40
1.0
 10
12.0446914421
 20
10.2078147068
 30
0.0
 10
12.0453608377
 20
10.2098233307
 30
0.0
 10
12.047035827
 20
10.2144008054
 30
0.0
 10
12.0490052486
 20
10.2188614833
 30
0.0
 10
12.0501981149
 20
10.2213439566
 30
0.0
  0
LINE
  5
3A5
100
AcDbEntity
  8
0
100
AcDbLine
 62
7
  6
CONTINUOUS
 10
12.0447034972
 20
10.1798768904
 11
12.0446914421
 21
10.2078147068
  0
SPLINE
  5
3A6
100
AcDbEntity
  8
0
100
AcDbSpline
 62
7
  6
CONTINUOUS
 70
0
 71
3
 72
11
 73
7
 74
0
 42
0.0000001
 43
0.0000001
 44
0.0000000001
 40
0.0
 40
0.0
 40
0.0
 40
0.0
 40
0.2398089692
 40
0.4843274003
 40
0.7369060877
 40
1.0
 40
1.0
 40
1.0
 40
1.0
 10
12.0648224888
 20
10.2934633356
 30
0.0
 10
12.0686924676
 20
10.2990575437
 30
0.0
 10
12.0774432995
 20
10.3097386719
 30
0.0
 10
12.0931521227
 20
10.3236534137
 30
0.0
 10
12.1113632121
 20
10.3353477085
 30
0.0
 10
12.1247479767
 20
10.3413911107
 30
0.0
 10
12.131743448
 20
10.343990599
 30
0.0
  0
SPLINE
  5
3A7
100
AcDbEntity
  8
0
100
AcDbSpline
 62
7
  6
CONTINUOUS
 70
0
 71
3
 72
9
 73
5
 74
0
 42
0.0000001
 43
0.0000001
 44
0.0000000001
 40
0.0
 40
0.0
 40
0.0
 40
0.0
 40
0.2133933075
 40
1.0
 40
1.0
 40
1.0
 40
1.0
 10
12.0446898325
 20
10.2476876382
 30
0.0
 10
12.0449898119
 20
10.2489863558
 30
0.0
 10
12.0464955382
 20
10.2550488562
 30
0.0
 10
12.0484503349
 20
10.2609998553
 30
0.0
 10
12.0502216772
 20
10.2655828057
 30
0.0
  0
LINE
  5
3A8
100
AcDbEntity
  8
0
100
AcDbLine
 62
7
  6
CONTINUOUS
 10
12.0447034972
 20
10.2287093054
 11
12.0446898325
 21
10.2476876382
  0
SPLINE
  5
3A9
100
AcDbEntity
  8
0
100
AcDbSpline
 62
7
  6
CONTINUOUS
 70
0
 71
3
 72
11
 73
7
 74
0
 42
0.0000001
 43
0.0000001
 44
0.0000000001
 40
0.0
 40
0.0
 40
0.0
 40
0.0
 40
0.2466590052
 40
0.4933786515
 40
0.7434769802
 40
1.0
 40
1.0
 40
1.0
 40
1.0
 10
12.0574350893
 20
10.305943343
 30
0.0
 10
12.0611719447
 20
10.3139324641
 30
0.0
 10
12.0700221737
 20
10.3293109797
 30
0.0
 10
12.0871221845
 20
10.3498337163
 30
0.0
 10
12.1077740405
 20
10.3673296765
 30
0.0
 10
12.1234766309
 20
10.376566035
 30
0.0
 10
12.1317403148
 20
10.3805469659
 30
0.0
  0
LINE
  5
3AA
100
AcDbEntity
  8
0
100
AcDbLine
 62
7
  6
CONTINUOUS
 10
12.0447034972
 20
10.2583202404
 11
12.0447020137
 21
10.261469679
  0
LINE
  5
3AB
100
AcDbEntity
  8
0
100
AcDbLine
 62
7
  6
CONTINUOUS
 10
12.0447020137
 20
10.261469679
 11
12.0446978547
 21
10.2640083153
  0
LINE
  5
3AC
100
AcDbEntity
  8
0
100
AcDbLine
 62
7
  6
CONTINUOUS
 10
12.0446978547
 20
10.2640083153
 11
12.0446914421
 21
10.2659309488
  0
LINE
  5
3AD
100
AcDbEntity
  8
0
100
AcDbLine
 62
7
  6
CONTINUOUS
 10
12.0447034972
 20
10.2583202404
 11
12.0447020137
 21
10.2545523477
  0
LINE
  5
3AE
100
AcDbEntity
  8
0
100
AcDbLine
 62
7
  6
CONTINUOUS
 10
12.0447020137
 20
10.2545523477
 11
12.0446978547
 21
10.2501541531
  0
LINE
  5
3AF
100
AcDbEntity
  8
0
100
AcDbLine
 62
7
  6
CONTINUOUS
 10
12.0446978547
 20
10.2501541531
 11
12.0446949634
 21
10.2477645113
  0
SPLINE
  5
3B0
100
AcDbEntity
  8
0
100
AcDbSpline
 62
7
  6
CONTINUOUS
 70
0
 71
3
 72
9
 73
5
 74
0
 42
0.0000001
 43
0.0000001
 44
0.0000000001
 40
0.0
 40
0.0
 40
0.0
 40
0.0
 40
0.5027400207
 40
1.0
 40
1.0
 40
1.0
 40
1.0
 10
12.0734616395
 20
7.7239700013
 30
0.0
 10
12.0799445939
 20
7.7122759196
 30
0.0
 10
12.0948261963
 20
7.6900545563
 30
0.0
 10
12.1134467831
 20
7.670823127
 30
0.0
 10
12.123509018
 20
7.6622408556
 30
0.0
  0
SPLINE
  5
3B1
100
AcDbEntity
  8
0
100
AcDbSpline
 62
7
  6
CONTINUOUS
 70
0
 71
3
 72
15
 73
11
 74
0
 42
0.0000001
 43
0.0000001
 44
0.0000000001
 40
0.0
 40
0.0
 40
0.0
 40
0.0
 40
0.0703389644
 40
0.1464877267
 40
0.2363661627
 40
0.3447909267
 40
0.4743002254
 40
0.6262162638
 40
0.8012964682
 40
1.0
 40
1.0
 40
1.0
 40
1.0
 10
12.0614567876
 20
9.9982381296
 30
0.0
 10
12.0617251453
 20
9.9980555033
 30
0.0
 10
12.0623601597
 20
9.9977760136
 30
0.0
 10
12.0634653061
 20
9.9977106419
 30
0.0
 10
12.0647169653
 20
9.9979515906
 30
0.0
 10
12.0661421932
 20
9.9984701071
 30
0.0
 10
12.0677632457
 20
9.9992549818
 30
0.0
 10
12.0695946685
 20
10.0002981923
 30
0.0
 10
12.0716481496
 20
10.0015909485
 30
0.0
 10
12.0730809277
 20
10.002551792
 30
0.0
 10
12.0738381114
 20
10.0030690375
 30
0.0
  0
SPLINE
  5
3B2
100
AcDbEntity
  8
0
100
AcDbSpline
 62
7
  6
CONTINUOUS
 70
0
 71
3
 72
11
 73
7
 74
0
 42
0.0000001
 43
0.0000001
 44
0.0000000001
 40
0.0
 40
0.0
 40
0.0
 40
0.0
 40
0.253732989
 40
0.5049284111
 40
0.7536009352
 40
1.0
 40
1.0
 40
1.0
 40
1.0
 10
12.0578765986
 20
7.8153745599
 30
0.0
 10
12.0613015823
 20
7.8056263135
 30
0.0
 10
12.0692165222
 20
7.7865928015
 30
0.0
 10
12.0842078749
 20
7.7597379499
 30
0.0
 10
12.1021180827
 20
7.7350985384
 30
0.0
 10
12.1159542843
 20
7.7203459272
 30
0.0
 10
12.1232872005
 20
7.7134972182
 30
0.0
  0
SPLINE
  5
3B3
100
AcDbEntity
  8
0
100
AcDbSpline
 62
7
  6
CONTINUOUS
 70
0
 71
3
 72
9
 73
5
 74
0
 42
0.0000001
 43
0.0000001
 44
0.0000000001
 40
0.0
 40
0.0
 40
0.0
 40
0.0
 40
0.4847157455
 40
1.0
 40
1.0
 40
1.0
 40
1.0
 10
12.0446898325
 20
7.8756255316
 30
0.0
 10
12.0455693963
 20
7.8671835182
 30
0.0
 10
12.0480460847
 20
7.8498271401
 30
0.0
 10
12.0522481189
 20
7.8327810071
 30
0.0
 10
12.0549509649
 20
7.8241723545
 30
0.0
  0
SPLINE
  5
3B4
100
AcDbEntity
  8
0
100
AcDbSpline
 62
7
  6
CONTINUOUS
 70
0
 71
3
 72
9
 73
5
 74
0
 42
0.0000001
 43
0.0000001
 44
0.0000000001
 40
0.0
 40
0.0
 40
0.0
 40
0.0
 40
0.497250777
 40
1.0
 40
1.0
 40
1.0
 40
1.0
 10
12.1268131933
 20
7.798826221
 30
0.0
 10
12.1182782381
 20
7.8078495614
 30
0.0
 10
12.102551111
 20
7.8274016584
 30
0.0
 10
12.0899405306
 20
7.849077766
 30
0.0
 10
12.0844165353
 20
7.8603552714
 30
0.0
  0
SPLINE
  5
3B5
100
AcDbEntity
  8
0
100
AcDbSpline
 62
7
  6
CONTINUOUS
 70
0
 71
3
 72
11
 73
7
 74
0
 42
0.0000001
 43
0.0000001
 44
0.0000000001
 40
0.0
 40
0.0
 40
0.0
 40
0.0
 40
0.2534226114
 40
0.504853671
 40
0.7538181737
 40
1.0
 40
1.0
 40
1.0
 40
1.0
 10
12.0548694626
 20
7.8965200629
 30
0.0
 10
12.0584987787
 20
7.8846635685
 30
0.0
 10
12.0672444478
 20
7.8614775424
 30
0.0
 10
12.0846237052
 20
7.8288305004
 30
0.0
 10
12.1059831287
 20
7.7990648234
 30
0.0
 10
12.1227858572
 20
7.7814719423
 30
0.0
 10
12.1317403148
 20
7.7734155285
 30
0.0
  0
SPLINE
  5
3B6
100
AcDbEntity
  8
0
100
AcDbSpline
 62
7
  6
CONTINUOUS
 70
0
 71
3
 72
9
 73
5
 74
0
 42
0.0000001
 43
0.0000001
 44
0.0000000001
 40
0.0
 40
0.0
 40
0.0
 40
0.0
 40
0.2439812042
 40
1.0
 40
1.0
 40
1.0
 40
1.0
 10
12.0446914421
 20
7.9496421014
 30
0.0
 10
12.044956064
 20
7.9469615905
 30
0.0
 10
12.0461621057
 20
7.9359880278
 30
0.0
 10
12.0479173542
 20
7.9250694513
 30
0.0
 10
12.0496398694
 20
7.9169027176
 30
0.0
  0
SPLINE
  5
3B7
100
AcDbEntity
  8
0
100
AcDbSpline
 62
7
  6
CONTINUOUS
 70
0
 71
3
 72
9
 73
5
 74
0
 42
0.0000001
 43
0.0000001
 44
0.0000000001
 40
0.0
 40
0.0
 40
0.0
 40
0.0
 40
0.2485072172
 40
1.0
 40
1.0
 40
1.0
 40
1.0
 10
12.0501981149
 20
7.9143219185
 30
0.0
 10
12.0505282153
 20
7.9128333094
 30
0.0
 10
12.0519108335
 20
7.9068553579
 30
0.0
 10
12.0535198484
 20
7.9009290734
 30
0.0
 10
12.0548694626
 20
7.8965200629
 30
0.0
  0
SPLINE
  5
3B8
100
AcDbEntity
  8
0
100
AcDbSpline
 62
7
  6
CONTINUOUS
 70
0
 71
3
 72
12
 73
8
 74
0
 42
0.0000001
 43
0.0000001
 44
0.0000000001
 40
0.0
 40
0.0
 40
0.0
 40
0.0
 40
0.0928479441
 40
0.1882107456
 40
0.4027396032
 40
0.6691657643
 40
1.0
 40
1.0
 40
1.0
 40
1.0
 10
12.0618553782
 20
9.8968400737
 30
0.0
 10
12.0620374372
 20
9.8967288832
 30
0.0
 10
12.0624326682
 20
9.8965434035
 30
0.0
 10
12.0633424209
 20
9.8963413447
 30
0.0
 10
12.0646878503
 20
9.896453095
 30
0.0
 10
12.0664609063
 20
9.8970571045
 30
0.0
 10
12.0676873666
 20
9.8976806032
 30
0.0
 10
12.0683507764
 20
9.8980516559
 30
0.0
  0
SPLINE
  5
3B9
100
AcDbEntity
  8
0
100
AcDbSpline
 62
7
  6
CONTINUOUS
 70
0
 71
3
 72
11
 73
7
 74
0
 42
0.0000001
 43
0.0000001
 44
0.0000000001
 40
0.0
 40
0.0
 40
0.0
 40
0.0
 40
0.2514053685
 40
0.5022455301
 40
0.7518671869
 40
1.0
 40
1.0
 40
1.0
 40
1.0
 10
12.0560676189
 20
7.9878561471
 30
0.0
 10
12.0592748448
 20
7.9777425129
 30
0.0
 10
12.066747886
 20
7.9578588997
 30
0.0
 10
12.0809753145
 20
7.9294329065
 30
0.0
 10
12.0980778989
 20
7.9027992882
 30
0.0
 10
12.1113422687
 20
7.8864417637
 30
0.0
 10
12.118399079
 20
7.8787047301
 30
0.0
  0
SPLINE
  5
3BA
100
AcDbEntity
  8
0
100
AcDbSpline
 62
7
  6
CONTINUOUS
 70
0
 71
3
 72
9
 73
5
 74
0
 42
0.0000001
 43
0.0000001
 44
0.0000000001
 40
0.0
 40
0.0
 40
0.0
 40
0.0
 40
0.2454619868
 40
1.0
 40
1.0
 40
1.0
 40
1.0
 10
12.0446898325
 20
8.0467171153
 30
0.0
 10
12.0451161566
 20
8.0421341368
 30
0.0
 10
12.0471792002
 20
8.0235014935
 30
0.0
 10
12.0508423532
 20
8.0049939779
 30
0.0
 10
12.0549509649
 20
7.9914549892
 30
0.0
  0
SPLINE
  5
3BB
100
AcDbEntity
  8
0
100
AcDbSpline
 62
7
  6
CONTINUOUS
 70
0
 71
3
 72
11
 73
7
 74
0
 42
0.0000001
 43
0.0000001
 44
0.0000000001
 40
0.0
 40
0.0
 40
0.0
 40
0.0
 40
0.25003535
 40
0.5002977911
 40
0.7505120031
 40
1.0
 40
1.0
 40
1.0
 40
1.0
 10
12.1202358672
 20
8.0018295116
 30
0.0
 10
12.114678282
 20
8.0086014943
 30
0.0
 10
12.1042106826
 20
8.0227013948
 30
0.0
 10
12.0905791745
 20
8.0452310033
 30
0.0
 10
12.0790998567
 20
8.0689073775
 30
0.0
 10
12.072933502
 20
8.0853253051
 30
0.0
 10
12.0702471501
 20
8.0936436205
 30
0.0
  0
LINE
  5
3BC
100
AcDbEntity
  8
0
100
AcDbLine
 62
7
  6
CONTINUOUS
 10
12.1317403148
 20
7.9689448514
 11
12.131587867
 21
7.8904375891
  0
SPLINE
  5
3BD
100
AcDbEntity
  8
0
100
AcDbSpline
 62
7
  6
CONTINUOUS
 70
0
 71
3
 72
11
 73
7
 74
0
 42
0.0000001
 43
0.0000001
 44
0.0000000001
 40
0.0
 40
0.0
 40
0.0
 40
0.0
 40
0.2496771466
 40
0.500230481
 40
0.7506752554
 40
1.0
 40
1.0
 40
1.0
 40
1.0
 10
12.0548694626
 20
8.0963064802
 30
0.0
 10
12.0585216416
 20
8.0843506926
 30
0.0
 10
12.0673327109
 20
8.0608271662
 30
0.0
 10
12.0847164801
 20
8.0274018557
 30
0.0
 10
12.1060643925
 20
7.9963755104
 30
0.0
 10
12.1228047255
 20
7.9776622861
 30
0.0
 10
12.1317403148
 20
7.9689448514
 30
0.0
  0
SPLINE
  5
3BE
100
AcDbEntity
  8
0
100
AcDbSpline
 62
7
  6
CONTINUOUS
 70
0
 71
3
 72
9
 73
5
 74
0
 42
0.0000001
 43
0.0000001
 44
0.0000000001
 40
0.0
 40
0.0
 40
0.0
 40
0.0
 40
0.2487825784
 40
1.0
 40
1.0
 40
1.0
 40
1.0
 10
12.0446914421
 20
8.1514622988
 30
0.0
 10
12.0448311943
 20
8.1499352453
 30
0.0
 10
12.0454282541
 20
8.1438004848
 30
0.0
 10
12.0461767063
 20
8.13767997
 30
0.0
 10
12.0468412193
 20
8.1330975807
 30
0.0
  0
SPLINE
  5
3BF
100
AcDbEntity
  8
0
100
AcDbSpline
 62
7
  6
CONTINUOUS
 70
0
 71
3
 72
9
 73
5
 74
0
 42
0.0000001
 43
0.0000001
 44
0.0000000001
 40
0.0
 40
0.0
 40
0.0
 40
0.0
 40
0.2504558976
 40
1.0
 40
1.0
 40
1.0
 40
1.0
 10
12.0479756997
 20
8.1258900729
 30
0.0
 10
12.0484013905
 20
8.123389161
 30
0.0
 10
12.0502346491
 20
8.1134276977
 30
0.0
 10
12.0526514313
 20
8.1035674362
 30
0.0
 10
12.0548694626
 20
8.0963064802
 30
0.0
  0
LINE
  5
3C0
100
AcDbEntity
  8
0
100
AcDbLine
 62
7
  6
CONTINUOUS
 10
12.131743448
 20
8.0961233181
 11
12.1316107082
 21
8.0119450113
  0
SPLINE
  5
3C1
100
AcDbEntity
  8
0
100
AcDbSpline
 62
7
  6
CONTINUOUS
 70
0
 71
3
 72
11
 73
7
 74
0
 42
0.0000001
 43
0.0000001
 44
0.0000000001
 40
0.0
 40
0.0
 40
0.0
 40
0.0
 40
0.2468902093
 40
0.4966090069
 40
0.7480567386
 40
1.0
 40
1.0
 40
1.0
 40
1.0
 10
12.0549509649
 20
8.2227297546
 30
0.0
 10
12.0586204831
 20
8.2109929649
 30
0.0
 10
12.0674748716
 20
8.1878209831
 30
0.0
 10
12.0848504956
 20
8.1547664476
 30
0.0
 10
12.1061744944
 20
8.1238017855
 30
0.0
 10
12.1228425185
 20
8.1049688975
 30
0.0
 10
12.131743448
 20
8.0961233181
 30
0.0
  0
SPLINE
  5
3C2
100
AcDbEntity
  8
0
100
AcDbSpline
 62
7
  6
CONTINUOUS
 70
0
 71
3
 72
9
 73
5
 74
0
 42
0.0000001
 43
0.0000001
 44
0.0000000001
 40
0.0
 40
0.0
 40
0.0
 40
0.0
 40
0.5034721373
 40
1.0
 40
1.0
 40
1.0
 40
1.0
 10
12.0446898325
 20
8.278328507
 30
0.0
 10
12.0455328655
 20
8.2688641479
 30
0.0
 10
12.0478616925
 20
8.2501140305
 30
0.0
 10
12.0521546674
 20
8.231673587
 30
0.0
 10
12.0549509649
 20
8.2227297546
 30
0.0
  0
SPLINE
  5
3C3
100
AcDbEntity
  8
0
100
AcDbSpline
 62
7
  6
CONTINUOUS
 70
0
 71
3
 72
11
 73
7
 74
0
 42
0.0000001
 43
0.0000001
 44
0.0000000001
 40
0.0
 40
0.0
 40
0.0
 40
0.0
 40
0.2556321566
 40
0.508592049
 40
0.7571783445
 40
1.0
 40
1.0
 40
1.0
 40
1.0
 10
12.1440221119
 20
8.2354027439
 30
0.0
 10
12.1349371242
 20
8.2440353949
 30
0.0
 10
12.1179792976
 20
8.2624263584
 30
0.0
 10
12.096413026
 20
8.2927560462
 30
0.0
 10
12.0791483916
 20
8.325013695
 30
0.0
 10
12.0705921937
 20
8.3476257017
 30
0.0
 10
12.0671714422
 20
8.3590279418
 30
0.0
  0
LINE
  5
3C4
100
AcDbEntity
  8
0
100
AcDbLine
 62
7
  6
CONTINUOUS
 10
12.1317403148
 20
8.2298806997
 11
12.131587867
 21
8.1295299742
  0
SPLINE
  5
3C5
100
AcDbEntity
  8
0
100
AcDbSpline
 62
7
  6
CONTINUOUS
 70
0
 71
3
 72
11
 73
7
 74
0
 42
0.0000001
 43
0.0000001
 44
0.0000000001
 40
0.0
 40
0.0
 40
0.0
 40
0.0
 40
0.2434459697
 40
0.4920845728
 40
0.7447434123
 40
1.0
 40
1.0
 40
1.0
 40
1.0
 10
12.0548694626
 20
8.3534968234
 30
0.0
 10
12.0585549341
 20
8.3421652962
 30
0.0
 10
12.0674684329
 20
8.3197134923
 30
0.0
 10
12.0848772766
 20
8.2875956804
 30
0.0
 10
12.1062373412
 20
8.2572482175
 30
0.0
 10
12.1228622428
 20
8.2386714312
 30
0.0
 10
12.1317403148
 20
8.2298806997
 30
0.0
  0
LINE
  5
3C6
100
AcDbEntity
  8
0
100
AcDbLine
 62
7
  6
CONTINUOUS
 10
12.0446914421
 20
8.407220779
 11
12.046552357
 21
8.3909138733
  0
SPLINE
  5
3C7
100
AcDbEntity
  8
0
100
AcDbSpline
 62
7
  6
CONTINUOUS
 70
0
 71
3
 72
9
 73
5
 74
0
 42
0.0000001
 43
0.0000001
 44
0.0000000001
 40
0.0
 40
0.0
 40
0.0
 40
0.0
 40
0.5058857751
 40
1.0
 40
1.0
 40
1.0
 40
1.0
 10
12.0468411694
 20
8.3889022911
 30
0.0
 10
12.0477333135
 20
8.3828402607
 30
0.0
 10
12.0498815735
 20
8.3709089607
 30
0.0
 10
12.0530184221
 20
8.3591881209
 30
0.0
 10
12.0548694626
 20
8.3534968234
 30
0.0
  0
SPLINE
  5
3C8
100
AcDbEntity
  8
0
100
AcDbSpline
 62
7
  6
CONTINUOUS
 70
0
 71
3
 72
10
 73
6
 74
0
 42
0.0000001
 43
0.0000001
 44
0.0000000001
 40
0.0
 40
0.0
 40
0.0
 40
0.0
 40
0.2576116278
 40
0.6349492414
 40
1.0
 40
1.0
 40
1.0
 40
1.0
 10
12.1203158869
 20
8.4139233709
 30
0.0
 10
12.1150449344
 20
8.4201435309
 30
0.0
 10
12.1026651589
 20
8.4360031832
 30
0.0
 10
12.0857810323
 20
8.4628652896
 30
0.0
 10
12.0758600156
 20
8.4842519513
 30
0.0
 10
12.0717370727
 20
8.4950447008
 30
0.0
  0
LINE
  5
3C9
100
AcDbEntity
  8
0
100
AcDbLine
 62
7
  6
CONTINUOUS
 10
12.131743448
 20
8.3845720222
 11
12.1316107082
 21
8.2830863426
  0
SPLINE
  5
3CA
100
AcDbEntity
  8
0
100
AcDbSpline
 62
7
  6
CONTINUOUS
 70
0
 71
3
 72
11
 73
7
 74
0
 42
0.0000001
 43
0.0000001
 44
0.0000000001
 40
0.0
 40
0.0
 40
0.0
 40
0.0
 40
0.2393259846
 40
0.6126463862
 40
0.8050146952
 40
1.0
 40
1.0
 40
1.0
 40
1.0
 10
12.0549509649
 20
8.5034648065
 30
0.0
 10
12.0586609934
 20
8.4927032424
 30
0.0
 10
12.069960557
 20
8.4657602125
 30
0.0
 10
12.0899556883
 20
8.4328539057
 30
0.0
 10
12.1124682117
 20
8.4044937737
 30
0.0
 10
12.1251088848
 20
8.3910521629
 30
0.0
 10
12.131743448
 20
8.3845720222
 30
0.0
  0
SPLINE
  5
3CB
100
AcDbEntity
  8
0
100
AcDbSpline
 62
7
  6
CONTINUOUS
 70
0
 71
3
 72
11
 73
7
 74
0
 42
0.0000001
 43
0.0000001
 44
0.0000000001
 40
0.0
 40
0.0
 40
0.0
 40
0.0
 40
0.2585713069
 40
0.5118971122
 40
0.7592141986
 40
1.0
 40
1.0
 40
1.0
 40
1.0
 10
12.0446898325
 20
8.5559067111
 30
0.0
 10
12.0451078394
 20
8.551309587
 30
0.0
 10
12.0461046462
 20
8.5422224856
 30
0.0
 10
12.0482253796
 20
8.5288291687
 30
0.0
 10
12.0510690832
 20
8.515893243
 30
0.0
 10
12.0535499576
 20
8.5075286649
 30
0.0
 10
12.0549509649
 20
8.5034648065
 30
0.0
  0
SPLINE
  5
3CC
100
AcDbEntity
  8
0
100
AcDbSpline
 62
7
  6
CONTINUOUS
 70
0
 71
3
 72
11
 73
7
 74
0
 42
0.0000001
 43
0.0000001
 44
0.0000000001
 40
0.0
 40
0.0
 40
0.0
 40
0.0
 40
0.2655180779
 40
0.521948423
 40
0.767238107
 40
1.0
 40
1.0
 40
1.0
 40
1.0
 10
12.1440221119
 20
8.5430121358
 30
0.0
 10
12.1350362717
 20
8.5511818306
 30
0.0
 10
12.1182685983
 20
8.5682617907
 30
0.0
 10
12.0966771059
 20
8.5960259744
 30
0.0
 10
12.0793677467
 20
8.6249139979
 30
0.0
 10
12.0706437776
 20
8.6450566274
 30
0.0
 10
12.0671714422
 20
8.6551207319
 30
0.0
  0
SPLINE
  5
3CD
100
AcDbEntity
  8
0
100
AcDbSpline
 62
7
  6
CONTINUOUS
 70
0
 71
3
 72
9
 73
5
 74
0
 42
0.0000001
 43
0.0000001
 44
0.0000000001
 40
0.0
 40
0.0
 40
0.0
 40
0.0
 40
0.4886069315
 40
1.0
 40
1.0
 40
1.0
 40
1.0
 10
12.0671714422
 20
8.6551207319
 30
0.0
 10
12.0654326639
 20
8.6601603506
 30
0.0
 10
12.062560959
 20
8.6707166828
 30
0.0
 10
12.0607636558
 20
8.6814921788
 30
0.0
 10
12.0600456575
 20
8.6870255527
 30
0.0
  0
LINE
  5
3CE
100
AcDbEntity
  8
0
100
AcDbLine
 62
7
  6
CONTINUOUS
 10
12.1317403148
 20
8.5398275144
 11
12.131587867
 21
8.4239387309
  0
SPLINE
  5
3CF
100
AcDbEntity
  8
0
100
AcDbSpline
 62
7
  6
CONTINUOUS
 70
0
 71
3
 72
11
 73
7
 74
0
 42
0.0000001
 43
0.0000001
 44
0.0000000001
 40
0.0
 40
0.0
 40
0.0
 40
0.0
 40
0.2341886344
 40
0.4797867876
 40
0.7356242827
 40
1.0
 40
1.0
 40
1.0
 40
1.0
 10
12.0548694626
 20
8.6519308772
 30
0.0
 10
12.0586056374
 20
8.6419085867
 30
0.0
 10
12.0676730309
 20
8.6218830412
 30
0.0
 10
12.0851194116
 20
8.5930883018
 30
0.0
 10
12.1065017776
 20
8.5653240128
 30
0.0
 10
12.1229533755
 20
8.5481094072
 30
0.0
 10
12.1317403148
 20
8.5398275144
 30
0.0
  0
SPLINE
  5
3D0
100
AcDbEntity
  8
0
100
AcDbSpline
 62
7
  6
CONTINUOUS
 70
0
 71
3
 72
9
 73
5
 74
0
 42
0.0000001
 43
0.0000001
 44
0.0000000001
 40
0.0
 40
0.0
 40
0.0
 40
0.0
 40
0.511264939
 40
1.0
 40
1.0
 40
1.0
 40
1.0
 10
12.0468412193
 20
8.6837253994
 30
0.0
 10
12.0477229131
 20
8.6781999288
 30
0.0
 10
12.049838607
 20
8.6674487273
 30
0.0
 10
12.0530011019
 20
8.6569427553
 30
0.0
 10
12.0548694626
 20
8.6519308772
 30
0.0
  0
SPLINE
  5
3D1
100
AcDbEntity
  8
0
100
AcDbSpline
 62
7
  6
CONTINUOUS
 70
0
 71
3
 72
11
 73
7
 74
0
 42
0.0000001
 43
0.0000001
 44
0.0000000001
 40
0.0
 40
0.0
 40
0.0
 40
0.0
 40
0.2720847457
 40
0.5307724337
 40
0.7738562908
 40
1.0
 40
1.0
 40
1.0
 40
1.0
 10
12.1440245115
 20
8.7142428391
 30
0.0
 10
12.1351114172
 20
8.7219885637
 30
0.0
 10
12.1184875203
 20
8.7380075227
 30
0.0
 10
12.0969131994
 20
8.763837229
 30
0.0
 10
12.0795985048
 20
8.7903495741
 30
0.0
 10
12.0707613328
 20
8.808789819
 30
0.0
 10
12.0672478273
 20
8.8179539844
 30
0.0
  0
SPLINE
  5
3D2
100
AcDbEntity
  8
0
100
AcDbSpline
 62
7
  6
CONTINUOUS
 70
0
 71
3
 72
9
 73
5
 74
0
 42
0.0000001
 43
0.0000001
 44
0.0000000001
 40
0.0
 40
0.0
 40
0.0
 40
0.0
 40
0.2462811103
 40
1.0
 40
1.0
 40
1.0
 40
1.0
 10
12.0672478273
 20
8.8179539844
 30
0.0
 10
12.0669438818
 20
8.8187467559
 30
0.0
 10
12.0657524207
 20
8.8219820251
 30
0.0
 10
12.0647255456
 20
8.825277111
 30
0.0
 10
12.0640323566
 20
8.8277813455
 30
0.0
  0
LINE
  5
3D3
100
AcDbEntity
  8
0
100
AcDbLine
 62
7
  6
CONTINUOUS
 10
12.131743448
 20
8.7123118679
 11
12.1316107082
 21
8.5998955341
  0
SPLINE
  5
3D4
100
AcDbEntity
  8
0
100
AcDbSpline
 62
7
  6
CONTINUOUS
 70
0
 71
3
 72
11
 73
7
 74
0
 42
0.0000001
 43
0.0000001
 44
0.0000000001
 40
0.0
 40
0.0
 40
0.0
 40
0.0
 40
0.2280960215
 40
0.4716620667
 40
0.7295703057
 40
1.0
 40
1.0
 40
1.0
 40
1.0
 10
12.0549509649
 20
8.8160205292
 30
0.0
 10
12.0587255638
 20
8.8068836492
 30
0.0
 10
12.0678940391
 20
8.7885367497
 30
0.0
 10
12.0853410606
 20
8.7620905296
 30
0.0
 10
12.106705464
 20
8.7362693912
 30
0.0
 10
12.1230241892
 20
8.7201443465
 30
0.0
 10
12.131743448
 20
8.7123118679
 30
0.0
  0
SPLINE
  5
3D5
100
AcDbEntity
  8
0
100
AcDbSpline
 62
7
  6
CONTINUOUS
 70
0
 71
3
 72
11
 73
7
 74
0
 42
0.0000001
 43
0.0000001
 44
0.0000000001
 40
0.0
 40
0.0
 40
0.0
 40
0.0
 40
0.2658112867
 40
0.521022205
 40
0.7656169752
 40
1.0
 40
1.0
 40
1.0
 40
1.0
 10
12.0446898325
 20
8.8620104683
 30
0.0
 10
12.0451034522
 20
8.8578420657
 30
0.0
 10
12.0460864035
 20
8.8496866898
 30
0.0
 10
12.0482024279
 20
8.8378001411
 30
0.0
 10
12.0510427388
 20
8.8265727742
 30
0.0
 10
12.0535406813
 20
8.8194342938
 30
0.0
 10
12.0549509649
 20
8.8160205292
 30
0.0
  0
SPLINE
  5
3D6
100
AcDbEntity
  8
0
100
AcDbSpline
 62
7
  6
CONTINUOUS
 70
0
 71
3
 72
13
 73
9
 74
0
 42
0.0000001
 43
0.0000001
 44
0.0000000001
 40
0.0
 40
0.0
 40
0.0
 40
0.0
 40
0.2800295751
 40
0.5414793051
 40
0.6644302953
 40
0.7819621618
 40
0.8938786048
 40
1.0
 40
1.0
 40
1.0
 40
1.0
 10
12.1440221119
 20
8.8799572944
 30
0.0
 10
12.1351692488
 20
8.887137066
 30
0.0
 10
12.1186711045
 20
8.9018085917
 30
0.0
 10
12.1003064218
 20
8.9217368292
 30
0.0
 10
12.0878016979
 20
8.9379073361
 30
0.0
 10
12.0797319888
 20
8.949778451
 30
0.0
 10
12.0728190533
 20
8.9615709776
 30
0.0
 10
12.0689055785
 20
8.9695488967
 30
0.0
 10
12.0671714422
 20
8.9735050931
 30
0.0
  0
SPLINE
  5
3D7
100
AcDbEntity
  8
0
100
AcDbSpline
 62
7
  6
CONTINUOUS
 70
0
 71
3
 72
11
 73
7
 74
0
 42
0.0000001
 43
0.0000001
 44
0.0000000001
 40
0.0
 40
0.0
 40
0.0
 40
0.0
 40
0.2308032237
 40
0.4736375542
 40
0.729801686
 40
1.0
 40
1.0
 40
1.0
 40
1.0
 10
12.0671714422
 20
8.9735050931
 30
0.0
 10
12.0658673687
 20
8.9764801596
 30
0.0
 10
12.0635927517
 20
8.9827655773
 30
0.0
 10
12.061121234
 20
8.9927487144
 30
0.0
 10
12.059391385
 20
9.0034449084
 30
0.0
 10
12.0586689225
 20
9.0108215892
 30
0.0
 10
12.0583826299
 20
9.014613571
 30
0.0
  0
LINE
  5
3D8
100
AcDbEntity
  8
0
100
AcDbLine
 62
7
  6
CONTINUOUS
 10
12.1317403148
 20
8.8793101972
 11
12.131587867
 21
8.7551650741
  0
SPLINE
  5
3D9
100
AcDbEntity
  8
0
100
AcDbSpline
 62
7
  6
CONTINUOUS
 70
0
 71
3
 72
12
 73
8
 74
0
 42
0.0000001
 43
0.0000001
 44
0.0000000001
 40
0.0
 40
0.0
 40
0.0
 40
0.0
 40
0.1076820866
 40
0.2206575191
 40
0.4617510194
 40
0.7222175608
 40
1.0
 40
1.0
 40
1.0
 40
1.0
 10
12.0548694626
 20
8.9728569326
 30
0.0
 10
12.0567355095
 20
8.9688975512
 30
0.0
 10
12.0608664306
 20
8.9609260598
 30
0.0
 10
12.0705931313
 20
8.9448614166
 30
0.0
 10
12.0854775469
 20
8.9247265159
 30
0.0
 10
12.1068690897
 20
8.9013000182
 30
0.0
 10
12.1230759897
 20
8.8865506417
 30
0.0
 10
12.1317403148
 20
8.8793101972
 30
0.0
  0
SPLINE
  5
3DA
100
AcDbEntity
  8
0
100
AcDbSpline
 62
7
  6
CONTINUOUS
 70
0
 71
3
 72
11
 73
7
 74
0
 42
0.0000001
 43
0.0000001
 44
0.0000000001
 40
0.0
 40
0.0
 40
0.0
 40
0.0
 40
0.2696610705
 40
0.5257241082
 40
0.7687783592
 40
1.0
 40
1.0
 40
1.0
 40
1.0
 10
12.0446914421
 20
9.0138922165
 30
0.0
 10
12.0451031821
 20
9.0100980331
 30
0.0
 10
12.0460778506
 20
9.0027174791
 30
0.0
 10
12.0481811314
 20
8.9920327575
 30
0.0
 10
12.0509965251
 20
8.9820738709
 30
0.0
 10
12.0534743513
 20
8.9758170819
 30
0.0
 10
12.0548694626
 20
8.9728569326
 30
0.0
  0
SPLINE
  5
3DB
100
AcDbEntity
  8
0
100
AcDbSpline
 62
7
  6
CONTINUOUS
 70
0
 71
3
 72
14
 73
10
 74
0
 42
0.0000001
 43
0.0000001
 44
0.0000000001
 40
0.0
 40
0.0
 40
0.0
 40
0.0
 40
0.2895352492
 40
0.4253099422
 40
0.5544051074
 40
0.676603165
 40
0.7917337671
 40
0.8995894128
 40
1.0
 40
1.0
 40
1.0
 40
1.0
 10
12.1440245115
 20
9.0581026969
 30
0.0
 10
12.1352589835
 20
9.0646217677
 30
0.0
 10
12.1227389722
 20
9.0746994417
 30
0.0
 10
12.1073616418
 20
9.0888877154
 30
0.0
 10
12.0971109255
 20
9.0992983294
 30
0.0
 10
12.0879355918
 20
9.1096486733
 30
0.0
 10
12.0798713076
 20
9.1198858624
 30
0.0
 10
12.0729578223
 20
9.1299507225
 30
0.0
 10
12.069001541
 20
9.1367519411
 30
0.0
 10
12.0672478273
 20
9.1401100061
 30
0.0
  0
SPLINE
  5
3DC
100
AcDbEntity
  8
0
100
AcDbSpline
 62
7
  6
CONTINUOUS
 70
0
 71
3
 72
9
 73
5
 74
0
 42
0.0000001
 43
0.0000001
 44
0.0000000001
 40
0.0
 40
0.0
 40
0.0
 40
0.0
 40
0.2433804332
 40
1.0
 40
1.0
 40
1.0
 40
1.0
 10
12.0672478273
 20
9.1401100061
 30
0.0
 10
12.0668206122
 20
9.1409280507
 30
0.0
 10
12.0651520536
 20
9.1443344428
 30
0.0
 10
12.0638180112
 20
9.14789975
 30
0.0
 10
12.0629635132
 20
9.1506385939
 30
0.0
  0
SPLINE
  5
3DD
100
AcDbEntity
  8
0
100
AcDbSpline
 62
7
  6
CONTINUOUS
 70
0
 71
3
 72
9
 73
5
 74
0
 42
0.0000001
 43
0.0000001
 44
0.0000000001
 40
0.0
 40
0.0
 40
0.0
 40
0.0
 40
0.2417305594
 40
1.0
 40
1.0
 40
1.0
 40
1.0
 10
12.0629635132
 20
9.1506385939
 30
0.0
 10
12.0626568172
 20
9.1516216185
 30
0.0
 10
12.0614697299
 20
9.1557136961
 30
0.0
 10
12.0605870908
 20
9.1598904934
 30
0.0
 10
12.0600437651
 20
9.1630746518
 30
0.0
  0
LINE
  5
3DE
100
AcDbEntity
  8
0
100
AcDbLine
 62
7
  6
CONTINUOUS
 10
12.131743448
 20
9.0587497554
 11
12.1316107082
 21
8.9424662991
  0
SPLINE
  5
3DF
100
AcDbEntity
  8
0
100
AcDbSpline
 62
7
  6
CONTINUOUS
 70
0
 71
3
 72
13
 73
9
 74
0
 42
0.0000001
 43
0.0000001
 44
0.0000000001
 40
0.0
 40
0.0
 40
0.0
 40
0.0
 40
0.1024333207
 40
0.2116749277
 40
0.3275717438
 40
0.449948441
 40
0.7134685515
 40
1.0
 40
1.0
 40
1.0
 40
1.0
 10
12.0549509649
 20
9.1407578971
 30
0.0
 10
12.0568348314
 20
9.1373886395
 30
0.0
 10
12.0610037844
 20
9.1305782782
 30
0.0
 10
12.0681381033
 20
9.1204952711
 30
0.0
 10
12.0763220118
 20
9.1102623461
 30
0.0
 10
12.0889032929
 20
9.096135217
 30
0.0
 10
12.1071288206
 20
9.0784773959
 30
0.0
 10
12.1231608037
 20
9.0653019601
 30
0.0
 10
12.131743448
 20
9.0587497554
 30
0.0
  0
SPLINE
  5
3E0
100
AcDbEntity
  8
0
100
AcDbSpline
 62
7
  6
CONTINUOUS
 70
0
 71
3
 72
10
 73
6
 74
0
 42
0.0000001
 43
0.0000001
 44
0.0000000001
 40
0.0
 40
0.0
 40
0.0
 40
0.0
 40
0.2747978416
 40
0.5320663682
 40
1.0
 40
1.0
 40
1.0
 40
1.0
 10
12.0446898325
 20
9.1774061537
 30
0.0
 10
12.0450980361
 20
9.173926311
 30
0.0
 10
12.0460646242
 20
9.1672032845
 30
0.0
 10
12.0487894734
 20
9.1547509292
 30
0.0
 10
12.0520392904
 20
9.1459653689
 30
0.0
 10
12.0549509649
 20
9.1407578971
 30
0.0
  0
SPLINE
  5
3E1
100
AcDbEntity
  8
0
100
AcDbSpline
 62
7
  6
CONTINUOUS
 70
0
 71
3
 72
14
 73
10
 74
0
 42
0.0000001
 43
0.0000001
 44
0.0000000001
 40
0.0
 40
0.0
 40
0.0
 40
0.0
 40
0.3008874282
 40
0.4396804203
 40
0.5699208199
 40
0.6913196265
 40
0.8036377228
 40
0.9066044918
 40
1.0
 40
1.0
 40
1.0
 40
1.0
 10
12.1440221119
 20
9.2250667161
 30
0.0
 10
12.1353279051
 20
9.2308213195
 30
0.0
 10
12.1228663531
 20
9.2396139244
 30
0.0
 10
12.1073845752
 20
9.2518804924
 30
0.0
 10
12.0971248195
 20
9.2607058738
 30
0.0
 10
12.0879426437
 20
9.2693580951
 30
0.0
 10
12.0798742578
 20
9.2777935589
 30
0.0
 10
12.0729596492
 20
9.2859633509
 30
0.0
 10
12.068949327
 20
9.291471577
 30
0.0
 10
12.0671714422
 20
9.2941757652
 30
0.0
  0
SPLINE
  5
3E2
100
AcDbEntity
  8
0
100
AcDbSpline
 62
7
  6
CONTINUOUS
 70
0
 71
3
 72
11
 73
7
 74
0
 42
0.0000001
 43
0.0000001
 44
0.0000000001
 40
0.0
 40
0.0
 40
0.0
 40
0.0
 40
0.2232926452
 40
0.4615201011
 40
0.7193872464
 40
1.0
 40
1.0
 40
1.0
 40
1.0
 10
12.0671714422
 20
9.2941757652
 30
0.0
 10
12.0658673385
 20
9.2961593256
 30
0.0
 10
12.0635692734
 20
9.3005278668
 30
0.0
 10
12.0610934741
 20
9.3077865913
 30
0.0
 10
12.0593692312
 20
9.3158765459
 30
0.0
 10
12.058664293
 20
9.3215631796
 30
0.0
 10
12.0583826299
 20
9.3245330889
 30
0.0
  0
SPLINE
  5
3E3
100
AcDbEntity
  8
0
100
AcDbSpline
 62
7
  6
CONTINUOUS
 70
0
 71
3
 72
9
 73
5
 74
0
 42
0.0000001
 43
0.0000001
 44
0.0000000001
 40
0.0
 40
0.0
 40
0.0
 40
0.0
 40
0.2375848956
 40
1.0
 40
1.0
 40
1.0
 40
1.0
 10
12.0614238076
 20
9.7436143836
 30
0.0
 10
12.0612348488
 20
9.7438508208
 30
0.0
 10
12.0604843971
 20
9.7448819778
 30
0.0
 10
12.0599163427
 20
9.746038124
 30
0.0
 10
12.0595642699
 20
9.7469433353
 30
0.0
  0
LINE
  5
3E4
100
AcDbEntity
  8
0
100
AcDbLine
 62
7
  6
CONTINUOUS
 10
12.0595642699
 20
9.7469433353
 11
12.0590888458
 21
9.7483274553
  0
LINE
  5
3E5
100
AcDbEntity
  8
0
100
AcDbLine
 62
7
  6
CONTINUOUS
 10
12.0590888458
 20
9.7483274553
 11
12.058381879
 21
9.7513086748
  0
LINE
  5
3E6
100
AcDbEntity
  8
0
100
AcDbLine
 62
7
  6
CONTINUOUS
 10
12.1317403148
 20
9.2269978026
 11
12.131587867
 21
9.1023968345
  0
SPLINE
  5
3E7
100
AcDbEntity
  8
0
100
AcDbSpline
 62
7
  6
CONTINUOUS
 70
0
 71
3
 72
14
 73
10
 74
0
 42
0.0000001
 43
0.0000001
 44
0.0000000001
 40
0.0
 40
0.0
 40
0.0
 40
0.0
 40
0.3134489774
 40
0.4555818312
 40
0.5871080359
 40
0.7076596682
 40
0.8169053878
 40
0.9144673403
 40
1.0
 40
1.0
 40
1.0
 40
1.0
 10
12.1440245115
 20
9.398933287
 30
0.0
 10
12.1354220197
 20
9.4038511222
 30
0.0
 10
12.123055542
 20
9.4112467095
 30
0.0
 10
12.107507123
 20
9.4213853224
 30
0.0
 10
12.0972669377
 20
9.4284912032
 30
0.0
 10
12.0881026783
 20
9.4353134323
 30
0.0
 10
12.0800497181
 20
9.4418186254
 30
0.0
 10
12.0731470461
 20
9.4479693846
 30
0.0
 10
12.0690657074
 20
9.4520823126
 30
0.0
 10
12.0672478273
 20
9.4540839392
 30
0.0
  0
SPLINE
  5
3E8
100
AcDbEntity
  8
0
100
AcDbSpline
 62
7
  6
CONTINUOUS
 70
0
 71
3
 72
14
 73
10
 74
0
 42
0.0000001
 43
0.0000001
 44
0.0000000001
 40
0.0
 40
0.0
 40
0.0
 40
0.0
 40
0.0960138912
 40
0.2007697749
 40
0.314071693
 40
0.43569225
 40
0.5654319142
 40
0.7030524306
 40
1.0
 40
1.0
 40
1.0
 40
1.0
 10
12.0548694626
 20
9.2961100251
 30
0.0
 10
12.0567765766
 20
9.2933870818
 30
0.0
 10
12.0609957711
 20
9.2878536861
 30
0.0
 10
12.0681325827
 20
9.2796414466
 30
0.0
 10
12.0763218558
 20
9.2711928512
 30
0.0
 10
12.0855306269
 20
9.2625489534
 30
0.0
 10
12.0957287856
 20
9.2537464319
 30
0.0
 10
12.1109899426
 20
9.2415407054
 30
0.0
 10
12.1232236171
 20
9.2327575824
 30
0.0
 10
12.1317403148
 20
9.2269978026
 30
0.0
  0
SPLINE
  5
3E9
100
AcDbEntity
  8
0
100
AcDbSpline
 62
7
  6
CONTINUOUS
 70
0
 71
3
 72
11
 73
7
 74
0
 42
0.0000001
 43
0.0000001
 44
0.0000000001
 40
0.0
 40
0.0
 40
0.0
 40
0.0
 40
0.2792629049
 40
0.5368350388
 40
0.7756206142
 40
1.0
 40
1.0
 40
1.0
 40
1.0
 10
12.0446914421
 20
9.3266857761
 30
0.0
 10
12.0450968981
 20
9.3236869238
 30
0.0
 10
12.0460515073
 20
9.3179425143
 30
0.0
 10
12.0481513286
 20
9.3097893907
 30
0.0
 10
12.0509736326
 20
9.3024848483
 30
0.0
 10
12.0534746227
 20
9.2981015526
 30
0.0
 10
12.0548694626
 20
9.2961100251
 30
0.0
  0
SPLINE
  5
3EA
100
AcDbEntity
  8
0
100
AcDbSpline
 62
7
  6
CONTINUOUS
 70
0
 71
3
 72
11
 73
7
 74
0
 42
0.0000001
 43
0.0000001
 44
0.0000000001
 40
0.0
 40
0.0
 40
0.0
 40
0.0
 40
0.2333459975
 40
0.4746714152
 40
0.7288726921
 40
1.0
 40
1.0
 40
1.0
 40
1.0
 10
12.0672478273
 20
9.4540839392
 30
0.0
 10
12.0663789543
 20
9.4550406356
 30
0.0
 10
12.0647679466
 20
9.4571338904
 30
0.0
 10
12.0627946733
 20
9.4606690324
 30
0.0
 10
12.0612036226
 20
9.4646156721
 30
0.0
 10
12.0603999636
 20
9.467416911
 30
0.0
 10
12.0600437651
 20
9.4688756661
 30
0.0
  0
SPLINE
  5
3EB
100
AcDbEntity
  8
0
100
AcDbSpline
 62
7
  6
CONTINUOUS
 70
0
 71
3
 72
9
 73
5
 74
0
 42
0.0000001
 43
0.0000001
 44
0.0000000001
 40
0.0
 40
0.0
 40
0.0
 40
0.0
 40
0.236604129
 40
1.0
 40
1.0
 40
1.0
 40
1.0
 10
12.0600437651
 20
9.4688756661
 30
0.0
 10
12.0598567982
 20
9.4696413597
 30
0.0
 10
12.0591350858
 20
9.4728943165
 30
0.0
 10
12.0586589668
 20
9.4761980733
 30
0.0
 10
12.058381879
 20
9.4787260028
 30
0.0
  0
LINE
  5
3EC
100
AcDbEntity
  8
0
100
AcDbLine
 62
7
  6
CONTINUOUS
 10
12.131743448
 20
9.4021177182
 11
12.1316107082
 21
9.2892736565
  0
SPLINE
  5
3ED
100
AcDbEntity
  8
0
100
AcDbSpline
 62
7
  6
CONTINUOUS
 70
0
 71
3
 72
13
 73
9
 74
0
 42
0.0000001
 43
0.0000001
 44
0.0000000001
 40
0.0
 40
0.0
 40
0.0
 40
0.0
 40
0.3260504321
 40
0.6044393921
 40
0.7242017056
 40
0.8304082658
 40
0.9225282242
 40
1.0
 40
1.0
 40
1.0
 40
1.0
 10
12.1440221119
 20
9.5566559067
 30
0.0
 10
12.1354839201
 20
9.5606789201
 30
0.0
 10
12.1197132174
 20
9.5682599935
 30
0.0
 10
12.1010031214
 20
9.5777219684
 30
0.0
 10
12.0881238074
 20
9.584599764
 30
0.0
 10
12.0800794185
 20
9.5890817485
 30
0.0
 10
12.0731948446
 20
9.5931258404
 30
0.0
 10
12.0690387962
 20
9.5957418656
 30
0.0
 10
12.0671714422
 20
9.5969838306
 30
0.0
  0
SPLINE
  5
3EE
100
AcDbEntity
  8
0
100
AcDbSpline
 62
7
  6
CONTINUOUS
 70
0
 71
3
 72
14
 73
10
 74
0
 42
0.0000001
 43
0.0000001
 44
0.0000000001
 40
0.0
 40
0.0
 40
0.0
 40
0.0
 40
0.0888517803
 40
0.1886617285
 40
0.2991347
 40
0.41995738
 40
0.5508546214
 40
0.6915225292
 40
1.0
 40
1.0
 40
1.0
 40
1.0
 10
12.0549509649
 20
9.457272467
 30
0.0
 10
12.0568932013
 20
9.4552448488
 30
0.0
 10
12.0611745674
 20
9.4510895376
 30
0.0
 10
12.0682998034
 20
9.4448730605
 30
0.0
 10
12.0764743988
 20
9.4383377042
 30
0.0
 10
12.0856662284
 20
9.4315145639
 30
0.0
 10
12.0958458794
 20
9.4244315093
 30
0.0
 10
12.1111683411
 20
9.4143689498
 30
0.0
 10
12.1233132286
 20
9.4070121746
 30
0.0
 10
12.131743448
 20
9.4021177182
 30
0.0
  0
SPLINE
  5
3EF
100
AcDbEntity
  8
0
100
AcDbSpline
 62
7
  6
CONTINUOUS
 70
0
 71
3
 72
11
 73
7
 74
0
 42
0.0000001
 43
0.0000001
 44
0.0000000001
 40
0.0
 40
0.0
 40
0.0
 40
0.0
 40
0.2852726714
 40
0.5429058945
 40
0.7784240914
 40
1.0
 40
1.0
 40
1.0
 40
1.0
 10
12.0446898325
 20
9.4822762964
 30
0.0
 10
12.0450901976
 20
9.4796995317
 30
0.0
 10
12.0460307001
 20
9.4748188784
 30
0.0
 10
12.0481414453
 20
9.4680028307
 30
0.0
 10
12.0510052308
 20
9.4620968946
 30
0.0
 10
12.0535498971
 20
9.4587351266
 30
0.0
 10
12.0549509649
 20
9.457272467
 30
0.0
  0
SPLINE
  5
3F0
100
AcDbEntity
  8
0
100
AcDbSpline
 62
7
  6
CONTINUOUS
 70
0
 71
3
 72
13
 73
9
 74
0
 42
0.0000001
 43
0.0000001
 44
0.0000000001
 40
0.0
 40
0.0
 40
0.0
 40
0.0
 40
0.1113831793
 40
0.2222465293
 40
0.3351639215
 40
0.452466248
 40
0.7076714129
 40
1.0
 40
1.0
 40
1.0
 40
1.0
 10
12.0671714422
 20
9.5969838306
 30
0.0
 10
12.0665416627
 20
9.5974026928
 30
0.0
 10
12.065343065
 20
9.5983301263
 30
0.0
 10
12.0637601071
 20
9.5999757624
 30
0.0
 10
12.0623973817
 20
9.601857198
 30
0.0
 10
12.060812116
 20
9.6047558411
 30
0.0
 10
12.0593310854
 20
9.6090516261
 30
0.0
 10
12.0586564316
 20
9.612716443
 30
0.0
 10
12.0583826299
 20
9.6146825377
 30
0.0
  0
LINE
  5
3F1
100
AcDbEntity
  8
0
100
AcDbLine
 62
7
  6
CONTINUOUS
 10
12.1317403148
 20
9.5610438396
 11
12.131587867
 21
9.4438161637
  0
SPLINE
  5
3F2
100
AcDbEntity
  8
0
100
AcDbSpline
 62
7
  6
CONTINUOUS
 70
0
 71
3
 72
13
 73
9
 74
0
 42
0.0000001
 43
0.0000001
 44
0.0000000001
 40
0.0
 40
0.0
 40
0.0
 40
0.0
 40
0.0815587668
 40
0.1764071378
 40
0.2840851249
 40
0.404158253
 40
0.6799986797
 40
1.0
 40
1.0
 40
1.0
 40
1.0
 10
12.0548694626
 20
9.6013789742
 30
0.0
 10
12.0568546403
 20
9.6001004207
 30
0.0
 10
12.0612036015
 20
9.5974205239
 30
0.0
 10
12.0683166081
 20
9.593289949
 30
0.0
 10
12.076486404
 20
9.5887625545
 30
0.0
 10
12.0893517503
 20
9.5819017586
 30
0.0
 10
12.1078386229
 20
9.5725246278
 30
0.0
 10
12.1233699335
 20
9.5650149963
 30
0.0
 10
12.1317403148
 20
9.5610438396
 30
0.0
  0
SPLINE
  5
3F3
100
AcDbEntity
  8
0
100
AcDbSpline
 62
7
  6
CONTINUOUS
 70
0
 71
3
 72
13
 73
9
 74
0
 42
0.0000001
 43
0.0000001
 44
0.0000000001
 40
0.0
 40
0.0
 40
0.0
 40
0.0
 40
0.2884063295
 40
0.5431435397
 40
0.6612243444
 40
0.7753395814
 40
0.8875251448
 40
1.0
 40
1.0
 40
1.0
 40
1.0
 10
12.0446914421
 20
9.6195740054
 30
0.0
 10
12.0450869101
 20
9.617552072
 30
0.0
 10
12.0460102264
 20
9.6137736485
 30
0.0
 10
12.0478146762
 20
9.6093772797
 30
0.0
 10
12.0496362117
 20
9.6064056841
 30
0.0
 10
12.0511646466
 20
9.6044697878
 30
0.0
 10
12.0529008342
 20
9.6027741948
 30
0.0
 10
12.0541939678
 20
9.6018140264
 30
0.0
 10
12.0548694626
 20
9.6013789742
 30
0.0
  0
SPLINE
  5
3F4
100
AcDbEntity
  8
0
100
AcDbSpline
 62
7
  6
CONTINUOUS
 70
0
 71
3
 72
13
 73
9
 74
0
 42
0.0000001
 43
0.0000001
 44
0.0000000001
 40
0.0
 40
0.0
 40
0.0
 40
0.0
 40
0.0756277848
 40
0.1666795668
 40
0.2724672839
 40
0.3923396739
 40
0.6720216598
 40
1.0
 40
1.0
 40
1.0
 40
1.0
 10
12.0683507764
 20
9.6379661131
 30
0.0
 10
12.0703030151
 20
9.6374985053
 30
0.0
 10
12.0745834567
 20
9.6363755923
 30
0.0
 10
12.0815313347
 20
9.6343657557
 30
0.0
 10
12.0895634407
 20
9.6318826213
 30
0.0
 10
12.1023222643
 20
9.6277413591
 30
0.0
 10
12.1205862044
 20
9.6214631605
 30
0.0
 10
12.1357589908
 20
9.6159888071
 30
0.0
 10
12.1439309717
 20
9.6129870855
 30
0.0
  0
LINE
  5
3F5
100
AcDbEntity
  8
0
100
AcDbLine
 62
7
  6
CONTINUOUS
 10
12.131743448
 20
9.7208406843
 11
12.1316107082
 21
9.6185264247
  0
SPLINE
  5
3F6
100
AcDbEntity
  8
0
100
AcDbSpline
 62
7
  6
CONTINUOUS
 70
0
 71
3
 72
11
 73
7
 74
0
 42
0.0000001
 43
0.0000001
 44
0.0000000001
 40
0.0
 40
0.0
 40
0.0
 40
0.0
 40
0.2883507557
 40
0.5405676258
 40
0.7712121584
 40
1.0
 40
1.0
 40
1.0
 40
1.0
 10
12.0446898325
 20
9.7574647841
 30
0.0
 10
12.045018047
 20
9.756170666
 30
0.0
 10
12.0457686398
 20
9.7537727457
 30
0.0
 10
12.0474296007
 20
9.7505824194
 30
0.0
 10
12.0496408066
 20
9.748086637
 30
0.0
 10
12.05147764
 20
9.7469480377
 30
0.0
 10
12.0524437697
 20
9.7465136089
 30
0.0
  0
SPLINE
  5
3F7
100
AcDbEntity
  8
0
100
AcDbSpline
 62
7
  6
CONTINUOUS
 70
0
 71
3
 72
14
 73
10
 74
0
 42
0.0000001
 43
0.0000001
 44
0.0000000001
 40
0.0
 40
0.0
 40
0.0
 40
0.0
 40
0.0847676971
 40
0.1816601526
 40
0.2904129307
 40
0.4107124238
 40
0.5422546254
 40
0.6846940715
 40
1.0
 40
1.0
 40
1.0
 40
1.0
 10
12.0738381114
 20
9.7626619261
 30
0.0
 10
12.0758475709
 20
9.7627575954
 30
0.0
 10
12.080163305
 20
9.7627723206
 30
0.0
 10
12.0870468229
 20
9.7623756829
 30
0.0
 10
12.09474189
 20
9.7615623708
 30
0.0
 10
12.1032127747
 20
9.7603343547
 30
0.0
 10
12.1124266768
 20
9.758694851
 30
0.0
 10
12.1261243478
 20
9.755867511
 30
0.0
 10
12.1366805674
 20
9.7532835424
 30
0.0
 10
12.1439163928
 20
9.7513763666
 30
0.0
  0
SPLINE
  5
3F8
100
AcDbEntity
  8
0
100
AcDbSpline
 62
7
  6
CONTINUOUS
 70
0
 71
3
 72
11
 73
7
 74
0
 42
0.0000001
 43
0.0000001
 44
0.0000000001
 40
0.0
 40
0.0
 40
0.0
 40
0.0
 40
0.3014808388
 40
0.5706210099
 40
0.8042399184
 40
1.0
 40
1.0
 40
1.0
 40
1.0
 10
12.1316107082
 20
9.6185264247
 30
0.0
 10
12.1251115021
 20
9.6208981256
 30
0.0
 10
12.1127900601
 20
9.6253320448
 30
0.0
 10
12.0953553492
 20
9.6313873836
 30
0.0
 10
12.0801396771
 20
9.636432377
 30
0.0
 10
12.0707291767
 20
9.63935736
 30
0.0
 10
12.0664190628
 20
9.6406238376
 30
0.0
  0
LINE
  5
3F9
100
AcDbEntity
  8
0
100
AcDbLine
 62
7
  6
CONTINUOUS
 10
12.0664190628
 20
9.6406238376
 11
12.0561269143
 21
9.643462109
  0
LINE
  5
3FA
100
AcDbEntity
  8
0
100
AcDbLine
 62
7
  6
CONTINUOUS
 10
12.1317403148
 20
9.8604589673
 11
12.131587867
 21
9.7579704295
  0
SPLINE
  5
3FB
100
AcDbEntity
  8
0
100
AcDbSpline
 62
7
  6
CONTINUOUS
 70
0
 71
3
 72
11
 73
7
 74
0
 42
0.0000001
 43
0.0000001
 44
0.0000000001
 40
0.0
 40
0.0
 40
0.0
 40
0.0
 40
0.2789613907
 40
0.5323221305
 40
0.7690236786
 40
1.0
 40
1.0
 40
1.0
 40
1.0
 10
12.0446914421
 20
9.8741536597
 30
0.0
 10
12.0448779344
 20
9.873685933
 30
0.0
 10
12.045283491
 20
9.8728113424
 30
0.0
 10
12.0460523371
 20
9.8716479525
 30
0.0
 10
12.0469620169
 20
9.870705824
 30
0.0
 10
12.0476672103
 20
9.8702286593
 30
0.0
 10
12.0480348294
 20
9.8700319901
 30
0.0
  0
SPLINE
  5
3FC
100
AcDbEntity
  8
0
100
AcDbSpline
 62
7
  6
CONTINUOUS
 70
0
 71
3
 72
15
 73
11
 74
0
 42
0.0000001
 43
0.0000001
 44
0.0000000001
 40
0.0
 40
0.0
 40
0.0
 40
0.0
 40
0.0833478781
 40
0.177922089
 40
0.2844345207
 40
0.4032044818
 40
0.5343601476
 40
0.6778415876
 40
0.8332598585
 40
1.0
 40
1.0
 40
1.0
 40
1.0
 10
12.0683507764
 20
9.8980516559
 30
0.0
 10
12.0702123171
 20
9.8990928369
 30
0.0
 10
12.0744017427
 20
9.9009349395
 30
0.0
 10
12.0814178759
 20
9.9029288707
 30
0.0
 10
12.0894970492
 20
9.9043203376
 30
0.0
 10
12.0985936211
 20
9.9051016334
 30
0.0
 10
12.1086664517
 20
9.9052686173
 30
0.0
 10
12.1196677083
 20
9.9048156552
 30
0.0
 10
12.1315392111
 20
9.9037409863
 30
0.0
 10
12.1397130525
 20
9.9026457188
 30
0.0
 10
12.1439309717
 20
9.9020004156
 30
0.0
  0
SPLINE
  5
3FD
100
AcDbEntity
  8
0
100
AcDbSpline
 62
7
  6
CONTINUOUS
 70
0
 71
3
 72
14
 73
10
 74
0
 42
0.0000001
 43
0.0000001
 44
0.0000000001
 40
0.0
 40
0.0
 40
0.0
 40
0.0
 40
0.3106093985
 40
0.4516813811
 40
0.5826426026
 40
0.7032081686
 40
0.8131262242
 40
0.9121337895
 40
1.0
 40
1.0
 40
1.0
 40
1.0
 10
12.131587867
 20
9.7579704295
 30
0.0
 10
12.1244899873
 20
9.7597849661
 30
0.0
 10
12.1141212951
 20
9.7622493097
 30
0.0
 10
12.1006483147
 20
9.7649628072
 30
0.0
 10
12.091525234
 20
9.7665563427
 30
0.0
 10
12.0830856989
 20
9.767771823
 30
0.0
 10
12.0753570966
 20
9.7686065896
 30
0.0
 10
12.0683692063
 20
9.7690589906
 30
0.0
 10
12.0639583921
 20
9.7691081339
 30
0.0
 10
12.0618866462
 20
9.7690543135
 30
0.0
  0
LINE
  5
3FE
100
AcDbEntity
  8
0
100
AcDbLine
 62
7
  6
CONTINUOUS
 10
12.131743448
 20
9.9948921175
 11
12.1316107082
 21
9.9095364412
  0
SPLINE
  5
3FF
100
AcDbEntity
  8
0
100
AcDbSpline
 62
7
  6
CONTINUOUS
 70
0
 71
3
 72
12
 73
8
 74
0
 42
0.0000001
 43
0.0000001
 44
0.0000000001
 40
0.0
 40
0.0
 40
0.0
 40
0.0
 40
0.3182944334
 40
0.5811711601
 40
0.8008903459
 40
0.9013342781
 40
1.0
 40
1.0
 40
1.0
 40
1.0
 10
12.0561269143
 20
9.9055287149
 30
0.0
 10
12.0554153428
 20
9.9051811558
 30
0.0
 10
12.0540845605
 20
9.9046045637
 30
0.0
 10
12.0521463469
 20
9.9040988887
 30
0.0
 10
12.0506708411
 20
9.9040848868
 30
0.0
 10
12.0496588863
 20
9.9043563611
 30
0.0
 10
12.0492103857
 20
9.9045750516
 30
0.0
 10
12.0490009277
 20
9.9047030666
 30
0.0
  0
SPLINE
  5
400
100
AcDbEntity
  8
0
100
AcDbSpline
 62
7
  6
CONTINUOUS
 70
0
 71
3
 72
14
 73
10
 74
0
 42
0.0000001
 43
0.0000001
 44
0.0000000001
 40
0.0
 40
0.0
 40
0.0
 40
0.0
 40
0.2004133567
 40
0.3122972695
 40
0.4324884558
 40
0.5613022987
 40
0.6989109918
 40
0.8452320582
 40
1.0
 40
1.0
 40
1.0
 40
1.0
 10
12.0738381114
 20
10.0030690375
 30
0.0
 10
12.0778368826
 20
10.0058006681
 30
0.0
 10
12.0846852316
 20
10.0091751536
 30
0.0
 10
12.0946226157
 20
10.0124184182
 30
0.0
 10
12.1031256456
 20
10.0144067954
 30
0.0
 10
12.1123623302
 20
10.0158500947
 30
0.0
 10
12.1223025084
 20
10.0167407936
 30
0.0
 10
12.1329029777
 20
10.0170713752
 30
0.0
 10
12.1401803283
 20
10.0169172753
 30
0.0
 10
12.1439163928
 20
10.0167509953
 30
0.0
  0
SPLINE
  5
401
100
AcDbEntity
  8
0
100
AcDbSpline
 62
7
  6
CONTINUOUS
 70
0
 71
3
 72
15
 73
11
 74
0
 42
0.0000001
 43
0.0000001
 44
0.0000000001
 40
0.0
 40
0.0
 40
0.0
 40
0.0
 40
0.1636279935
 40
0.3166971928
 40
0.45871594
 40
0.5893789226
 40
0.7086488009
 40
0.8166337746
 40
0.9135781223
 40
1.0
 40
1.0
 40
1.0
 40
1.0
 10
12.1316107082
 20
9.9095364412
 30
0.0
 10
12.1274785804
 20
9.9101134104
 30
0.0
 10
12.119460031
 20
9.9110879149
 30
0.0
 10
12.1077975773
 20
9.9120238835
 30
0.0
 10
12.0969433352
 20
9.9123890641
 30
0.0
 10
12.0869456573
 20
9.9121853967
 30
0.0
 10
12.0778444976
 20
9.9114179268
 30
0.0
 10
12.0696747762
 20
9.910090722
 30
0.0
 10
12.0624752481
 20
9.908210774
 30
0.0
 10
12.0581069454
 20
9.9064958388
 30
0.0
 10
12.0561269143
 20
9.9055287149
 30
0.0
  0
LINE
  5
402
100
AcDbEntity
  8
0
100
AcDbLine
 62
7
  6
CONTINUOUS
 10
12.1317403148
 20
10.1064298319
 11
12.131587867
 21
10.025120164
  0
SPLINE
  5
403
100
AcDbEntity
  8
0
100
AcDbSpline
 62
7
  6
CONTINUOUS
 70
0
 71
3
 72
15
 73
11
 74
0
 42
0.0000001
 43
0.0000001
 44
0.0000000001
 40
0.0
 40
0.0
 40
0.0
 40
0.0
 40
0.1040649572
 40
0.2122134935
 40
0.3256528589
 40
0.4453727377
 40
0.5722163303
 40
0.7068066364
 40
0.8494040493
 40
1.0
 40
1.0
 40
1.0
 40
1.0
 10
12.0683507764
 20
10.1023308487
 30
0.0
 10
12.070123228
 20
10.1046758079
 30
0.0
 10
12.0741158893
 20
10.1091817017
 30
0.0
 10
12.0811496094
 20
10.1151503643
 30
0.0
 10
12.0892610967
 20
10.1204057871
 30
0.0
 10
12.0983961116
 20
10.1249187931
 30
0.0
 10
12.1085063721
 20
10.1286690707
 30
0.0
 10
12.1195420668
 20
10.1316342308
 30
0.0
 10
12.1314429941
 20
10.1337941417
 30
0.0
 10
12.1396878467
 20
10.1346582311
 30
0.0
 10
12.1439309717
 20
10.1349592806
 30
0.0
  0
SPLINE
  5
404
100
AcDbEntity
  8
0
100
AcDbSpline
 62
7
  6
CONTINUOUS
 70
0
 71
3
 72
15
 73
11
 74
0
 42
0.0000001
 43
0.0000001
 44
0.0000000001
 40
0.0
 40
0.0
 40
0.0
 40
0.0
 40
0.1912584004
 40
0.3608811668
 40
0.5093820289
 40
0.6376259087
 40
0.747097196
 40
0.8404937358
 40
0.9224847813
 40
1.0
 40
1.0
 40
1.0
 40
1.0
 10
12.0618866462
 20
10.0111822402
 30
0.0
 10
12.0610996812
 20
10.0106844546
 30
0.0
 10
12.0596031898
 20
10.0097631571
 30
0.0
 10
12.0574434395
 20
10.0085425
 30
0.0
 10
12.0554954813
 20
10.0075756753
 30
0.0
 10
12.0537490666
 20
10.0068715284
 30
0.0
 10
12.0521911586
 20
10.0064390341
 30
0.0
 10
12.0508029057
 20
10.0062919078
 30
0.0
 10
12.0495674898
 20
10.0064567148
 30
0.0
 10
12.0488517928
 20
10.0067951554
 30
0.0
 10
12.0485397033
 20
10.0070073606
 30
0.0
  0
SPLINE
  5
405
100
AcDbEntity
  8
0
100
AcDbSpline
 62
7
  6
CONTINUOUS
 70
0
 71
3
 72
13
 73
9
 74
0
 42
0.0000001
 43
0.0000001
 44
0.0000000001
 40
0.0
 40
0.0
 40
0.0
 40
0.0
 40
0.2972203994
 40
0.4338771277
 40
0.562420622
 40
0.6830115928
 40
0.795923507
 40
1.0
 40
1.0
 40
1.0
 40
1.0
 10
12.131587867
 20
10.025120164
 30
0.0
 10
12.1244571423
 20
10.0253053232
 30
0.0
 10
12.1140222472
 20
10.0251310028
 30
0.0
 10
12.1005866648
 20
10.0237711417
 30
0.0
 10
12.0914436597
 20
10.0222729381
 30
0.0
 10
12.0829772182
 20
10.0202757092
 30
0.0
 10
12.0729742695
 20
10.017068107
 30
0.0
 10
12.0660258242
 20
10.0138004297
 30
0.0
 10
12.0618866462
 20
10.0111822402
 30
0.0
  0
LINE
  5
406
100
AcDbEntity
  8
0
100
AcDbLine
 62
7
  6
CONTINUOUS
 10
12.131743448
 20
10.2070523585
 11
12.1316107082
 21
10.1440184765
  0
SPLINE
  5
407
100
AcDbEntity
  8
0
100
AcDbSpline
 62
7
  6
CONTINUOUS
 70
0
 71
3
 72
18
 73
14
 74
0
 42
0.0000001
 43
0.0000001
 44
0.0000000001
 40
0.0
 40
0.0
 40
0.0
 40
0.0
 40
0.2155704016
 40
0.4045623759
 40
0.5664429534
 40
0.7008464794
 40
0.8079000934
 40
0.8515614493
 40
0.8890921485
 40
0.9211769442
 40
0.9489955925
 40
0.9744326493
 40
1.0
 40
1.0
 40
1.0
 40
1.0
 10
12.0561269143
 20
10.1113191597
 30
0.0
 10
12.0554983898
 20
10.1105659195
 30
0.0
 10
12.0543163765
 20
10.1091543184
 30
0.0
 10
12.0526383167
 20
10.1071974528
 30
0.0
 10
12.0511615018
 20
10.1055547292
 30
0.0
 10
12.0498770539
 20
10.1042430415
 30
0.0
 10
12.0489011102
 20
10.1033830963
 30
0.0
 10
12.0481960516
 20
10.1028945384
 30
0.0
 10
12.0477422522
 20
10.1026471407
 30
0.0
 10
12.0473232451
 20
10.1024951559
 30
0.0
 10
12.0469340495
 20
10.1024435164
 30
0.0
 10
12.0465741449
 20
10.1025018802
 30
0.0
 10
12.0463656873
 20
10.1026139707
 30
0.0
 10
12.0462719753
 20
10.102682935
 30
0.0
  0
SPLINE
  5
408
100
AcDbEntity
  8
0
100
AcDbSpline
 62
7
  6
CONTINUOUS
 70
0
 71
3
 72
11
 73
7
 74
0
 42
0.0000001
 43
0.0000001
 44
0.0000000001
 40
0.0
 40
0.0
 40
0.0
 40
0.0
 40
0.2350078478
 40
0.4789787983
 40
0.7335690407
 40
1.0
 40
1.0
 40
1.0
 40
1.0
 10
12.0857943536
 20
10.193442015
 30
0.0
 10
12.0887134515
 20
10.1959173756
 30
0.0
 10
12.0949868649
 20
10.2005910486
 30
0.0
 10
12.1053493197
 20
10.2065835481
 30
0.0
 10
12.1167596105
 20
10.2116394293
 30
0.0
 10
12.1248330788
 20
10.214298785
 30
0.0
 10
12.1290106344
 20
10.2154717331
 30
0.0
  0
SPLINE
  5
409
100
AcDbEntity
  8
0
100
AcDbSpline
 62
7
  6
CONTINUOUS
 70
0
 71
3
 72
9
 73
5
 74
0
 42
0.0000001
 43
0.0000001
 44
0.0000000001
 40
0.0
 40
0.0
 40
0.0
 40
0.0
 40
0.2453659869
 40
1.0
 40
1.0
 40
1.0
 40
1.0
 10
12.1290106344
 20
10.2154717331
 30
0.0
 10
12.130214602
 20
10.2158097757
 30
0.0
 10
12.1351390044
 20
10.2171243564
 30
0.0
 10
12.1401294489
 20
10.2181893166
 30
0.0
 10
12.1439163928
 20
10.218860958
 30
0.0
  0
SPLINE
  5
40A
100
AcDbEntity
  8
0
100
AcDbSpline
 62
7
  6
CONTINUOUS
 70
0
 71
3
 72
14
 73
10
 74
0
 42
0.0000001
 43
0.0000001
 44
0.0000000001
 40
0.0
 40
0.0
 40
0.0
 40
0.0
 40
0.1486683786
 40
0.2899614296
 40
0.5505120367
 40
0.6708010189
 40
0.7852416844
 40
0.8946495256
 40
1.0
 40
1.0
 40
1.0
 40
1.0
 10
12.1316107082
 20
10.1440184765
 30
0.0
 10
12.1274530013
 20
10.1436258434
 30
0.0
 10
12.1193637105
 20
10.1426008518
 30
0.0
 10
12.1041924784
 20
10.1395739087
 30
0.0
 10
12.0901399438
 20
10.1350736075
 30
0.0
 10
12.0776311191
 20
10.1289355802
 30
0.0
 10
12.069433224
 20
10.1237735836
 30
0.0
 10
12.0622159685
 20
10.1179579624
 30
0.0
 10
12.0580229256
 20
10.1135913897
 30
0.0
 10
12.0561269143
 20
10.1113191597
 30
0.0
  0
SPLINE
  5
40B
100
AcDbEntity
  8
0
100
AcDbSpline
 62
7
  6
CONTINUOUS
 70
0
 71
3
 72
11
 73
7
 74
0
 42
0.0000001
 43
0.0000001
 44
0.0000000001
 40
0.0
 40
0.0
 40
0.0
 40
0.0
 40
0.2413585004
 40
0.48743286
 40
0.7398884849
 40
1.0
 40
1.0
 40
1.0
 40
1.0
 10
12.0845567221
 20
10.2615757337
 30
0.0
 10
12.0874321459
 20
10.2647404167
 30
0.0
 10
12.0936243816
 20
10.2707920607
 30
0.0
 10
12.1040025608
 20
10.2788416431
 30
0.0
 10
12.1154805817
 20
10.2858816799
 30
0.0
 10
12.1236901675
 20
10.2898050529
 30
0.0
 10
12.1279397406
 20
10.2915871652
 30
0.0
  0
LINE
  5
40C
100
AcDbEntity
  8
0
100
AcDbLine
 62
7
  6
CONTINUOUS
 10
12.0618866462
 20
10.1903954064
 11
12.0526573324
 21
10.1788052876
  0
SPLINE
  5
40D
100
AcDbEntity
  8
0
100
AcDbSpline
 62
7
  6
CONTINUOUS
 70
0
 71
3
 72
11
 73
7
 74
0
 42
0.0000001
 43
0.0000001
 44
0.0000000001
 40
0.0
 40
0.0
 40
0.0
 40
0.0
 40
0.3300064767
 40
0.6067829232
 40
0.8299538256
 40
1.0
 40
1.0
 40
1.0
 40
1.0
 10
12.0526573324
 20
10.1788052876
 30
0.0
 10
12.0521272135
 20
10.1781229276
 30
0.0
 10
12.0511508377
 20
10.1768696726
 30
0.0
 10
12.0497873753
 20
10.1751767182
 30
0.0
 10
12.0486348454
 20
10.173854439
 30
0.0
 10
12.0478974533
 20
10.1731304931
 30
0.0
 10
12.0475497626
 20
10.1728523645
 30
0.0
  0
SPLINE
  5
40E
100
AcDbEntity
  8
0
100
AcDbSpline
 62
7
  6
CONTINUOUS
 70
0
 71
3
 72
11
 73
7
 74
0
 42
0.0000001
 43
0.0000001
 44
0.0000000001
 40
0.0
 40
0.0
 40
0.0
 40
0.0
 40
0.3318247181
 40
0.5923144298
 40
0.8017933573
 40
1.0
 40
1.0
 40
1.0
 40
1.0
 10
12.0475497626
 20
10.1728523645
 30
0.0
 10
12.0473861099
 20
10.1727214537
 30
0.0
 10
12.0470813939
 20
10.1725020255
 30
0.0
 10
12.0466179565
 20
10.172286242
 30
0.0
 10
12.0461838082
 20
10.1722459161
 30
0.0
 10
12.0459388281
 20
10.1723610602
 30
0.0
 10
12.0458400557
 20
10.1724379653
 30
0.0
  0
SPLINE
  5
40F
100
AcDbEntity
  8
0
100
AcDbSpline
 62
7
  6
CONTINUOUS
 70
0
 71
3
 72
11
 73
7
 74
0
 42
0.0000001
 43
0.0000001
 44
0.0000000001
 40
0.0
 40
0.0
 40
0.0
 40
0.0
 40
0.2746134853
 40
0.5308036728
 40
0.7712536897
 40
1.0
 40
1.0
 40
1.0
 40
1.0
 10
12.131587867
 20
10.2284793669
 30
0.0
 10
12.1243385864
 20
10.226990773
 30
0.0
 10
12.1104856339
 20
10.2232148888
 30
0.0
 10
12.0913817504
 20
10.2148140148
 30
0.0
 10
12.0749737994
 20
10.2040089485
 30
0.0
 10
12.0658342965
 20
10.1951300365
 30
0.0
 10
12.0618866462
 20
10.1903954064
 30
0.0
  0
SPLINE
  5
410
100
AcDbEntity
  8
0
100
AcDbSpline
 62
7
  6
CONTINUOUS
 70
0
 71
3
 72
9
 73
5
 74
0
 42
0.0000001
 43
0.0000001
 44
0.0000000001
 40
0.0
 40
0.0
 40
0.0
 40
0.0
 40
0.2813511055
 40
1.0
 40
1.0
 40
1.0
 40
1.0
 10
12.0561269143
 20
10.2479028731
 30
0.0
 10
12.0555255664
 20
10.2468005348
 30
0.0
 10
12.0534247341
 20
10.2428625987
 30
0.0
 10
12.0514549798
 20
10.2388554768
 30
0.0
 10
12.0500991904
 20
10.2359487254
 30
0.0
  0
SPLINE
  5
411
100
AcDbEntity
  8
0
100
AcDbSpline
 62
7
  6
CONTINUOUS
 70
0
 71
3
 72
20
 73
16
 74
0
 42
0.0000001
 43
0.0000001
 44
0.0000000001
 40
0.0
 40
0.0
 40
0.0
 40
0.0
 40
0.2271094076
 40
0.4265753001
 40
0.597312751
 40
0.6715698046
 40
0.7382436385
 40
0.7972100619
 40
0.8483550454
 40
0.8915896414
 40
0.9268769278
 40
0.9542972378
 40
0.9742405677
 40
0.9880800693
 40
1.0
 40
1.0
 40
1.0
 40
1.0
 10
12.0500991904
 20
10.2359487254
 30
0.0
 10
12.0497431809
 20
10.2351854569
 30
0.0
 10
12.0490820032
 20
10.2337483158
 30
0.0
 10
12.0481695021
 20
10.2317299292
 30
0.0
 10
12.0474912397
 20
10.2302277064
 30
0.0
 10
12.0470074032
 20
10.22917805
 30
0.0
 10
12.0466908816
 20
10.2285077089
 30
0.0
 10
12.0464023196
 20
10.2279189906
 30
0.0
 10
12.0461408283
 20
10.227413972
 30
0.0
 10
12.0459052688
 20
10.2269944956
 30
0.0
 10
12.0456953866
 20
10.2266623982
 30
0.0
 10
12.0455083534
 20
10.226417797
 30
0.0
 10
12.0453453482
 20
10.226260554
 30
0.0
 10
12.045182484
 20
10.2261836603
 30
0.0
 10
12.0450829638
 20
10.2262211351
 30
0.0
 10
12.0450488463
 20
10.2262492416
 30
0.0
  0
SPLINE
  5
412
100
AcDbEntity
  8
0
100
AcDbSpline
 62
7
  6
CONTINUOUS
 70
0
 71
3
 72
14
 73
10
 74
0
 42
0.0000001
 43
0.0000001
 44
0.0000000001
 40
0.0
 40
0.0
 40
0.0
 40
0.0
 40
0.2655662609
 40
0.3933364305
 40
0.5181625392
 40
0.640628464
 40
0.761370215
 40
0.8809720427
 40
1.0
 40
1.0
 40
1.0
 40
1.0
 10
12.1316107082
 20
10.307239162
 30
0.0
 10
12.1233265129
 20
10.3045669591
 30
0.0
 10
12.1113327043
 20
10.2996152807
 30
0.0
 10
12.0966310797
 20
10.2910766274
 30
0.0
 10
12.0866007301
 20
10.2839353367
 30
0.0
 10
12.0774759566
 20
10.276016273
 30
0.0
 10
12.069296326
 20
10.2673563625
 30
0.0
 10
12.0621051003
 20
10.2580023822
 30
0.0
 10
12.057995282
 20
10.2513278011
 30
0.0
 10
12.0561269143
 20
10.2479028731
 30
0.0
  0
LINE
  5
413
100
AcDbEntity
  8
0
100
AcDbLine
 62
7
  6
CONTINUOUS
 10
12.1317403148
 20
10.3805469659
 11
12.131587867
 21
10.3552702316
  0
SPLINE
  5
414
100
AcDbEntity
  8
0
100
AcDbSpline
 62
7
  6
CONTINUOUS
 70
0
 71
3
 72
9
 73
5
 74
0
 42
0.0000001
 43
0.0000001
 44
0.0000000001
 40
0.0
 40
0.0
 40
0.0
 40
0.0
 40
0.5561879017
 40
1.0
 40
1.0
 40
1.0
 40
1.0
 10
12.0526870853
 20
10.2776469778
 30
0.0
 10
12.0516347271
 20
10.2752834621
 30
0.0
 10
12.0498431618
 20
10.2709882896
 30
0.0
 10
12.0482344563
 20
10.2666226791
 30
0.0
 10
12.0475497626
 20
10.2646750523
 30
0.0
  0
LINE
  5
415
100
AcDbEntity
  8
0
100
AcDbLine
 62
7
  6
CONTINUOUS
 10
12.0475497626
 20
10.2646750523
 11
12.0453051658
 21
10.2582440995
  0
LINE
  5
416
100
AcDbEntity
  8
0
100
AcDbLine
 62
7
  6
CONTINUOUS
 10
12.0453051658
 20
10.2582440995
 11
12.0448158329
 21
10.2575043402
  0
SPLINE
  5
417
100
AcDbEntity
  8
0
100
AcDbSpline
 62
7
  6
CONTINUOUS
 70
0
 71
3
 72
11
 73
7
 74
0
 42
0.0000001
 43
0.0000001
 44
0.0000000001
 40
0.0
 40
0.0
 40
0.0
 40
0.0
 40
0.1743316883
 40
0.4032925593
 40
0.6802508862
 40
1.0
 40
1.0
 40
1.0
 40
1.0
 10
12.0446862687
 20
7.7557064672
 30
0.0
 10
12.0448961539
 20
7.7539315624
 30
0.0
 10
12.0454693201
 20
7.749835757
 30
0.0
 10
12.0466958146
 20
7.7429686167
 30
0.0
 10
12.0485378062
 20
7.7347036659
 30
0.0
 10
12.0501696407
 20
7.7288040265
 30
0.0
 10
12.0511288305
 20
7.725669388
 30
0.0
  0
SPLINE
  5
418
100
AcDbEntity
  8
0
100
AcDbSpline
 62
7
  6
CONTINUOUS
 70
0
 71
3
 72
11
 73
7
 74
0
 42
0.0000001
 43
0.0000001
 44
0.0000000001
 40
0.0
 40
0.0
 40
0.0
 40
0.0
 40
0.2570436998
 40
0.5078233361
 40
0.7546721049
 40
1.0
 40
1.0
 40
1.0
 40
1.0
 10
12.1266888209
 20
10.3530985991
 30
0.0
 10
12.1198470252
 20
10.349929611
 30
0.0
 10
12.1067471704
 20
10.3427104845
 30
0.0
 10
12.089075901
 20
10.3292430687
 30
0.0
 10
12.0738882055
 20
10.3134978836
 30
0.0
 10
12.0655500695
 20
10.301627341
 30
0.0
 10
12.0618866462
 20
10.2954331896
 30
0.0
  0
LINE
  5
419
100
AcDbEntity
  8
0
100
AcDbLine
 62
7
  6
CONTINUOUS
 10
12.131743448
 20
10.3971025057
 11
12.1316107082
 21
10.3889427416
  0
SPLINE
  5
41A
100
AcDbEntity
  8
0
100
AcDbSpline
 62
7
  6
CONTINUOUS
 70
0
 71
3
 72
18
 73
14
 74
0
 42
0.0000001
 43
0.0000001
 44
0.0000000001
 40
0.0
 40
0.0
 40
0.0
 40
0.0
 40
0.020656296
 40
0.0416587188
 40
0.0661170946
 40
0.0959761365
 40
0.132236095
 40
0.175385609
 40
0.2831278319
 40
0.4198423771
 40
0.5852643917
 40
0.7788544539
 40
1.0
 40
1.0
 40
1.0
 40
1.0
 10
12.0595695199
 20
10.0929051378
 30
0.0
 10
12.0596431979
 20
10.0928509063
 30
0.0
 10
12.0598144919
 20
10.0927670265
 30
0.0
 10
12.0601146852
 20
10.0927611802
 30
0.0
 10
12.0604355244
 20
10.0928660915
 30
0.0
 10
12.0607837964
 20
10.0930685596
 30
0.0
 10
12.061166642
 20
10.0933661088
 30
0.0
 10
12.0617742191
 20
10.093930912
 30
0.0
 10
12.0626262023
 20
10.0948802361
 30
0.0
 10
12.0637700764
 20
10.0962897791
 30
0.0
 10
12.0651096781
 20
10.0980295597
 30
0.0
 10
12.066656243
 20
10.100081409
 30
0.0
 10
12.0677601907
 20
10.1015495019
 30
0.0
 10
12.0683507764
 20
10.1023308487
 30
0.0
  0
LINE
  5
41B
100
AcDbEntity
  8
0
100
AcDbLine
 62
7
  6
CONTINUOUS
 10
12.0451442328
 20
10.2706691149
 11
12.0447034972
 21
10.2682427132
  0
SPLINE
  5
41C
100
AcDbEntity
  8
0
100
AcDbSpline
 62
7
  6
CONTINUOUS
 70
0
 71
3
 72
11
 73
7
 74
0
 42
0.0000001
 43
0.0000001
 44
0.0000000001
 40
0.0
 40
0.0
 40
0.0
 40
0.0
 40
0.2518101513
 40
0.5008715133
 40
0.7495412989
 40
1.0
 40
1.0
 40
1.0
 40
1.0
 10
12.1275159725
 20
10.3866980728
 30
0.0
 10
12.1195510376
 20
10.3821881478
 30
0.0
 10
12.1044056298
 20
10.3719126307
 30
0.0
 10
12.0845811402
 20
10.3530499465
 30
0.0
 10
12.0681478009
 20
10.3312324075
 30
0.0
 10
12.0596882723
 20
10.3150763104
 30
0.0
 10
12.0561269143
 20
10.3066977978
 30
0.0
  0
LINE
  5
41D
100
AcDbEntity
  8
0
100
AcDbLine
 62
7
  6
CONTINUOUS
 10
12.131743448
 20
7.6288167347
 11
12.1316107082
 21
7.6223735015
  0
SPLINE
  5
41E
100
AcDbEntity
  8
0
100
AcDbSpline
 62
7
  6
CONTINUOUS
 70
0
 71
3
 72
11
 73
7
 74
0
 42
0.0000001
 43
0.0000001
 44
0.0000000001
 40
0.0
 40
0.0
 40
0.0
 40
0.0
 40
0.2526552371
 40
0.5027536636
 40
0.7515019469
 40
1.0
 40
1.0
 40
1.0
 40
1.0
 10
12.0608187098
 20
7.7163146961
 30
0.0
 10
12.0645126866
 20
7.7077609674
 30
0.0
 10
12.072953842
 20
7.6911857532
 30
0.0
 10
12.0887003075
 20
7.6682831194
 30
0.0
 10
12.1073056923
 20
7.6478370576
 30
0.0
 10
12.1214823541
 20
7.6360896159
 30
0.0
 10
12.1289457245
 20
7.6307720462
 30
0.0
  0
SPLINE
  5
41F
100
AcDbEntity
  8
0
100
AcDbSpline
 62
7
  6
CONTINUOUS
 70
0
 71
3
 72
9
 73
5
 74
0
 42
0.0000001
 43
0.0000001
 44
0.0000000001
 40
0.0
 40
0.0
 40
0.0
 40
0.0
 40
0.4716426329
 40
1.0
 40
1.0
 40
1.0
 40
1.0
 10
12.0446898325
 20
7.7758040693
 30
0.0
 10
12.0455974204
 20
7.7686859966
 30
0.0
 10
12.0481760451
 20
7.7536691581
 30
0.0
 10
12.0523098547
 20
7.7389851459
 30
0.0
 10
12.0549509649
 20
7.7313928336
 30
0.0
  0
ENDSEC
  0
SECTION
  2
OBJECTS
  0
DICTIONARY
  5
C
100
AcDbDictionary
280
0
281
1
  3
ACAD_GROUP
350
D
  3
ACAD_MLINESTYLE
350
17
  3
ACAD_LAYOUT
350
1A
  3
ACAD_PLOTSETTINGS
350
19
  3
ACAD_PLOTSTYLENAME
350
E
  0
DICTIONARY
  5
D
102
{ACAD_REACTORS
330
C
102
}
100
AcDbDictionary
280
0
281
1
  0
ACDBDICTIONARYWDFLT
  5
E
102
{ACAD_REACTORS
330
C
102
}
100
AcDbDictionary
281
1
  3
Normal
350
F
100
AcDbDictionaryWithDefault
340
F
  0
DICTIONARY
  5
17
102
{ACAD_REACTORS
330
C
102
}
100
AcDbDictionary
280
0
281
1
  3
Standard
350
18
  0
DICTIONARY
  5
19
102
{ACAD_REACTORS
330
C
102
}
100
AcDbDictionary
281
1
  0
DICTIONARY
  5
1A
102
{ACAD_REACTORS
330
C
102
}
100
AcDbDictionary
281
1
  3
Model
350
420
  3
Layout1
350
421
  0
ACDBPLACEHOLDER
  5
F
102
{ACAD_REACTORS
330
E
102
}
  0
MLINESTYLE
  5
18
102
{ACAD_REACTORS
330
17
102
}
100
AcDbMlineStyle
  2
STANDARD
 70
0
  3

 62
256
 51
90.0
 52
90.0
 71
2
 49
0.5
 62
256
  6
BYLAYER
 49
-0.5
 62
256
  6
BYLAYER
  0
LAYOUT
  5
420
102
{ACAD_REACTORS
330
1A
102
}
100
AcDbPlotSettings
  1

  2
none_device
  4
ANSI_C_(22.00_x_17.00_Inches)
  6

 40
0.0
 41
0.0
 42
0.0
 43
0.0
 44
558.8
 45
431.8
 46
0.0
 47
0.0
 48
0.0
 49
0.0
140
0.0
141
0.0
142
1.0
143
1.0
 70
1024
 72
0
 73
0
 74
0
  7

 75
0
147
1.0
148
0.0
149
0.0
100
AcDbLayout
  1
Model
 70
0
 71
0
 10
0.0
 20
0.0
 11
22.0
 21
17.0
 12
0.0
 22
0.0
 32
0.0
 14
0.0
 24
0.0
 34
0.0
 15
0.0
 25
0.0
 35
0.0
146
0.0
 13
0.0
 23
0.0
 33
0.0
 16
1.0
 26
0.0
 36
0.0
 17
0.0
 27
1.0
 37
0.0
 76
0
330
205
345
0
346
0
  0
LAYOUT
  5
421
102
{ACAD_REACTORS
330
1A
102
}
100
AcDbPlotSettings
  1

  2
none_device
  4
ANSI_C_(22.00_x_17.00_Inches)
  6

 40
0.0
 41
0.0
 42
0.0
 43
0.0
 44
558.8
 45
431.8
 46
0.0
 47
0.0
 48
0.0
 49
0.0
140
0.0
141
0.0
142
1.0
143
1.0
 70
0
 72
0
 73
0
 74
0
  7

 75
0
147
1.0
148
0.0
149
0.0
100
AcDbLayout
  1
Layout1
 70
0
 71
1
 10
0.0
 20
0.0
 11
22.0
 21
17.0
 12
0.0
 22
0.0
 32
0.0
 14
0.0
 24
0.0
 34
0.0
 15
0.0
 25
0.0
 35
0.0
146
0.0
 13
0.0
 23
0.0
 33
0.0
 16
1.0
 26
0.0
 36
0.0
 17
0.0
 27
1.0
 37
0.0
 76
0
330
206
345
0
346
0
  0
ENDSEC
  0
EOF
