999
DXF file: E:\BT Custom\CADOUTPUT\_TOP.dxf
999
Pro/ENGINEER 2018400 by Parametric Technology Corporation
  0
SECTION
  2
HEADER
  9
$ACADVER
  1
AC1018
  9
$DWGCODEPAGE
  3
ANSI_1252
  9
$EXTMAX
 10
22.0
 20
17.0
 30
0.0
  9
$EXTMIN
 10
0.0
 20
0.0
 30
0.0
  9
$LIMMIN
 10
0.0
 20
0.0
  9
$LIMMAX
 10
22.0
 20
17.0
  9
$VIEWCTR
 10
11.0
 20
8.5
  9
$VIEWSIZE
 40
17.0
  9
$CLAYER
  8
0
  9
$LTSCALE
 40
1.21
  9
$CELTYPE
  6
BYLAYER
  9
$DIMSCALE
 40
1.0
  9
$DIMASZ
 40
0.1
  9
$DIMEXO
 40
0.0625
  9
$DIMDLI
 40
0.836
  9
$DIMEXE
 40
0.125
  9
$DIMCEN
 40
0.198
  9
$DIMLFAC
 40
1.0
  9
$DIMBLK
  1
_FILLED
  9
$DIMALT
 70
1
  9
$DIMALTD
 70
2
  9
$DIMALTTD
 70
2
  9
$DIMALTF
 40
25.4
  9
$DIMTXT
 40
0.08
  9
$DIMTOL
 70
1
  9
$DIMLIM
 70
0
  9
$DIMTFAC
 40
1.0
  9
$DIMTP
 40
0.001
  9
$DIMTM
 40
0.001
  9
$DIMGAP
 40
0.09
  9
$DIMDSEP
 70
46
  9
$AUNITS
 70
0
  9
$PDMODE
 70
3
  9
$PDSIZE
 40
0.06
  9
$HANDSEED
  5
42B
  9
$TILEMODE
 70
1
  9
$MEASUREMENT
 70
0
  9
$INSUNITS
 70
1
  0
ENDSEC
  0
SECTION
  2
CLASSES
  0
CLASS
  1
ACDBDICTIONARYWDFLT
  2
AcDbDictionaryWithDefault
  3
AutoCAD 2000
 90
0
 91
1
280
0
281
0
  0
CLASS
  1
ACDBPLACEHOLDER
  2
AcDbPlaceHolder
  3
AutoCAD 2000
 90
0
 91
1
280
0
281
0
  0
CLASS
  1
LAYOUT
  2
AcDbLayout
  3
AutoCAD 2000
 90
0
 91
0
280
0
281
0
  0
ENDSEC
  0
SECTION
  2
TABLES
  0
TABLE
  2
VPORT
  5
8
100
AcDbSymbolTable
 70
2
  0
VPORT
  5
1F4
100
AcDbSymbolTableRecord
100
AcDbViewportTableRecord
  2
*ACTIVE
 70
0
 10
0.0
 20
0.0
 11
1.0
 21
1.0
 12
11.0
 22
8.5
 13
0.0
 23
0.0
 14
1.0
 24
1.0
 15
0.0
 25
0.0
 16
0.0
 26
0.0
 36
1.0
 17
0.0
 27
0.0
 37
0.0
 40
17.0
 41
1.2941176471
 42
50.0
 43
0.0
 44
0.0
 50
0.0
 51
0.0
 71
0
 72
100
 73
1
 74
1
 75
0
 76
0
 77
0
 78
0
  0
ENDTAB
  0
TABLE
  2
LTYPE
  5
5
100
AcDbSymbolTable
 70
6
  0
LTYPE
  5
14
100
AcDbSymbolTableRecord
100
AcDbLinetypeTableRecord
  2
BYBLOCK
 70
0
  3

 72
65
 73
0
 40
0.0
  0
LTYPE
  5
15
100
AcDbSymbolTableRecord
100
AcDbLinetypeTableRecord
  2
BYLAYER
 70
0
  3

 72
65
 73
0
 40
0.0
  0
LTYPE
  5
16
100
AcDbSymbolTableRecord
100
AcDbLinetypeTableRecord
  2
CONTINUOUS
 70
64
  3
Solid line
 72
65
 73
0
 40
0.0
  0
LTYPE
  5
1F5
100
AcDbSymbolTableRecord
100
AcDbLinetypeTableRecord
  2
CENTER
 70
64
  3
____ _ ____ _ ____ _ ____ _ ____ _ ____ _ ____
 72
65
 73
4
 40
0.6
 49
0.375
 74
0
 49
-0.075
 74
0
 49
0.075
 74
0
 49
-0.075
 74
0
  0
LTYPE
  5
1F6
100
AcDbSymbolTableRecord
100
AcDbLinetypeTableRecord
  2
HIDDEN
 70
64
  3
- - - - - - - - - - - - - - - - - - - -
 72
65
 73
2
 40
0.2
 49
0.1
 74
0
 49
-0.1
 74
0
  0
LTYPE
  5
1F7
100
AcDbSymbolTableRecord
100
AcDbLinetypeTableRecord
  2
PHANTOM
 70
64
  3
_____ _ _ _____ _ _ _____ _ _ _____
 72
65
 73
6
 40
0.8
 49
0.45
 74
0
 49
-0.05
 74
0
 49
0.1
 74
0
 49
-0.05
 74
0
 49
0.1
 74
0
 49
-0.05
 74
0
  0
LTYPE
  5
1F8
100
AcDbSymbolTableRecord
100
AcDbLinetypeTableRecord
  2
DOT
 70
64
  3
. . . . . . . . . . . . . . . . . . . .
 72
65
 73
2
 40
0.2
 49
0.1
 74
0
 49
-0.1
 74
0
  0
LTYPE
  5
1F9
100
AcDbSymbolTableRecord
100
AcDbLinetypeTableRecord
  2
DASHED
 70
64
  3
- - - - - - - - - - - - - - - - - - - -
 72
65
 73
2
 40
0.2
 49
0.1
 74
0
 49
-0.1
 74
0
  0
ENDTAB
  0
TABLE
  2
LAYER
  5
2
100
AcDbSymbolTable
 70
36
  0
LAYER
  5
10
100
AcDbSymbolTableRecord
100
AcDbLayerTableRecord
  2
0
 70
0
 62
7
  6
CONTINUOUS
370
-3
390
F
  0
LAYER
  5
1FA
100
AcDbSymbolTableRecord
100
AcDbLayerTableRecord
  2
DEFAULT_1
 70
0
 62
7
  6
CENTER
370
-3
390
F
  0
LAYER
  5
1FB
100
AcDbSymbolTableRecord
100
AcDbLayerTableRecord
  2
DEFAULT_2
 70
0
 62
8
  6
HIDDEN
370
-3
390
F
  0
LAYER
  5
1FC
100
AcDbSymbolTableRecord
100
AcDbLayerTableRecord
  2
DEFAULT_3
 70
0
 62
7
  6
PHANTOM
370
-3
390
F
  0
LAYER
  5
1FD
100
AcDbSymbolTableRecord
100
AcDbLayerTableRecord
  2
ALL_FEATURES
 70
0
 62
7
  6
CONTINUOUS
370
-3
390
F
  0
LAYER
  5
1FE
100
AcDbSymbolTableRecord
100
AcDbLayerTableRecord
  2
AXES_FEATURES
 70
0
 62
7
  6
CONTINUOUS
370
-3
390
F
  0
LAYER
  5
1FF
100
AcDbSymbolTableRecord
100
AcDbLayerTableRecord
  2
DEFAULT_COORDINATE_SYSTEM
 70
0
 62
7
  6
CONTINUOUS
370
-3
390
F
  0
LAYER
  5
200
100
AcDbSymbolTableRecord
100
AcDbLayerTableRecord
  2
DEFAULT_DATUM_AXES
 70
0
 62
7
  6
CONTINUOUS
370
-3
390
F
  0
LAYER
  5
201
100
AcDbSymbolTableRecord
100
AcDbLayerTableRecord
  2
DEFAULT_DATUM_PLANES
 70
0
 62
7
  6
CONTINUOUS
370
-3
390
F
  0
LAYER
  5
202
100
AcDbSymbolTableRecord
100
AcDbLayerTableRecord
  2
DIMENSIONS
 70
0
 62
7
  6
CONTINUOUS
370
-3
390
F
  0
ENDTAB
  0
TABLE
  2
STYLE
  5
3
100
AcDbSymbolTable
 70
1
  0
STYLE
  5
11
100
AcDbSymbolTableRecord
100
AcDbTextStyleTableRecord
  2
STANDARD
 70
0
 40
0.0
 41
0.8
 50
0.0
 71
0
 42
0.2
  3
txt
  4

  0
STYLE
  5
203
100
AcDbSymbolTableRecord
100
AcDbTextStyleTableRecord
  2
TEXTSTYLE_1
 70
0
 40
0.0
 41
0.8
 50
0.0
 71
0
 42
0.2
  3
gdt
  4

  0
ENDTAB
  0
TABLE
  2
VIEW
  5
6
100
AcDbSymbolTable
 70
0
  0
ENDTAB
  0
TABLE
  2
UCS
  5
7
100
AcDbSymbolTable
 70
0
  0
ENDTAB
  0
TABLE
  2
APPID
  5
9
100
AcDbSymbolTable
 70
1
  0
APPID
  5
204
100
AcDbSymbolTableRecord
100
AcDbRegAppTableRecord
  2
ACAD
 70
0
  0
ENDTAB
  0
TABLE
  2
BLOCK_RECORD
  5
1
100
AcDbSymbolTable
 70
0
  0
BLOCK_RECORD
  5
205
100
AcDbSymbolTableRecord
100
AcDbBlockTableRecord
  2
*Model_Space
  0
BLOCK_RECORD
  5
206
100
AcDbSymbolTableRecord
100
AcDbBlockTableRecord
  2
*Paper_Space
  0
BLOCK_RECORD
  5
207
100
AcDbSymbolTableRecord
100
AcDbBlockTableRecord
  2
_FILLED
  0
ENDTAB
  0
TABLE
  2
DIMSTYLE
  5
A
100
AcDbSymbolTable
 70
1
100
AcDbDimStyleTable
 71
0
  0
DIMSTYLE
105
208
100
AcDbSymbolTableRecord
100
AcDbDimStyleTableRecord
  2
STANDARD
 70
0
  3

  4

 40
1.0
 41
0.1
 42
0.0625
 43
0.38
 44
0.125
 45
0.0
 46
0.0
 47
0.001
 48
0.001
140
0.08
141
0.09
142
0.0
143
25.4
144
1.0
145
0.0
146
1.0
147
0.09
 71
1.0
 72
0.0
 73
1
 74
1
 75
0
 76
0
 77
0
 78
4
 79
1
170
1
171
2
172
0
173
0
174
0
175
0
176
0
177
0
178
0
270
2
179
3
271
3
272
3
273
2
274
2
275
0
280
0
281
0
282
0
283
1
284
4
285
0
286
0
287
3
288
0
340
11
278
46
341
207
342
207
343
207
344
207
  0
ENDTAB
  0
ENDSEC
  0
SECTION
  2
BLOCKS
  0
BLOCK
  5
20
100
AcDbEntity
  8
0
100
AcDbBlockBegin
  2
*Model_Space
 70
0
 10
0.0
 20
0.0
 30
0.0
  3
*Model_Space
  1

  0
ENDBLK
  5
21
100
AcDbEntity
  8
0
100
AcDbBlockEnd
  0
BLOCK
  5
1C
100
AcDbEntity
  8
0
100
AcDbBlockBegin
  2
*Paper_Space
 70
0
 10
0.0
 20
0.0
 30
0.0
  3
*Paper_Space
  1

  0
ENDBLK
  5
1D
100
AcDbEntity
  8
0
100
AcDbBlockEnd
  0
BLOCK
  5
209
100
AcDbEntity
  8
0
100
AcDbBlockBegin
  2
_FILLED
 70
64
 10
0.0
 20
0.0
  3
_FILLED
  1

  0
SOLID
  5
20A
100
AcDbEntity
  8
0
  6
BYBLOCK
 62
0
100
AcDbTrace
 10
0.0
 20
0.0
 11
-1.0
 21
0.2
 12
-1.0
 22
-0.2
 13
-1.0
 23
-0.2
  0
ENDBLK
  5
20B
100
AcDbEntity
  8
0
  6
BYBLOCK
 62
0
100
AcDbBlockEnd
  0
ENDSEC
  0
SECTION
  2
ENTITIES
  0
LINE
  5
20C
100
AcDbEntity
  8
0
100
AcDbLine
 62
7
  6
CONTINUOUS
 10
9.7496451802
 20
8.9163728827
 11
9.7398445087
 21
8.9040918192
  0
LINE
  5
20D
100
AcDbEntity
  8
0
100
AcDbLine
 62
7
  6
CONTINUOUS
 10
9.703121157
 20
8.9163704832
 11
9.692998047
 21
8.9040886861
  0
LINE
  5
20E
100
AcDbEntity
  8
0
100
AcDbLine
 62
7
  6
CONTINUOUS
 10
9.7360972237
 20
8.916264764
 11
9.7259355982
 21
8.9039362382
  0
LINE
  5
20F
100
AcDbEntity
  8
0
100
AcDbLine
 62
7
  6
CONTINUOUS
 10
9.6698969922
 20
8.9163437639
 11
9.659603997
 21
8.9040527965
  0
LINE
  5
210
100
AcDbEntity
  8
0
100
AcDbLine
 62
7
  6
CONTINUOUS
 10
9.6724085969
 20
8.916264764
 11
9.6620841487
 21
8.9039362382
  0
LINE
  5
211
100
AcDbEntity
  8
0
100
AcDbLine
 62
7
  6
CONTINUOUS
 10
9.6755358986
 20
8.9163728827
 11
9.6652511974
 21
8.9040918192
  0
LINE
  5
212
100
AcDbEntity
  8
0
100
AcDbLine
 62
7
  6
CONTINUOUS
 10
9.6909960894
 20
8.916279343
 11
9.6806785603
 21
8.9039590794
  0
LINE
  5
213
100
AcDbEntity
  8
0
100
AcDbLine
 62
7
  6
CONTINUOUS
 10
9.9052920388
 20
8.9163728827
 11
9.8965912092
 21
8.9040918192
  0
LINE
  5
214
100
AcDbEntity
  8
0
100
AcDbLine
 62
7
  6
CONTINUOUS
 10
9.820152234
 20
8.9163704832
 11
9.8108274018
 21
8.9040886861
  0
LINE
  5
215
100
AcDbEntity
  8
0
100
AcDbLine
 62
7
  6
CONTINUOUS
 10
9.8821746954
 20
8.916264764
 11
9.8728143849
 21
8.9039362382
  0
LINE
  5
216
100
AcDbEntity
  8
0
100
AcDbLine
 62
9
  6
CONTINUOUS
 10
9.9130821495
 20
8.8448421744
 11
9.9050287711
 21
8.8342350175
  0
LINE
  5
217
100
AcDbEntity
  8
0
100
AcDbLine
 62
7
  6
CONTINUOUS
 10
9.7932828312
 20
8.916279343
 11
9.7834508768
 21
8.9039590794
  0
LINE
  5
218
100
AcDbEntity
  8
0
100
AcDbLine
 62
9
  6
CONTINUOUS
 10
9.8443638533
 20
8.8384354771
 11
9.83641531
 21
8.8284752855
  0
LINE
  5
219
100
AcDbEntity
  8
0
100
AcDbLine
 62
7
  6
CONTINUOUS
 10
9.86000702
 20
8.824623423
 11
9.8544060447
 21
8.8176049312
  0
LINE
  5
21A
100
AcDbEntity
  8
0
100
AcDbLine
 62
9
  6
CONTINUOUS
 10
9.7844549382
 20
8.8388672533
 11
9.7806368787
 21
8.8342350175
  0
LINE
  5
21B
100
AcDbEntity
  8
0
100
AcDbLine
 62
7
  6
CONTINUOUS
 10
9.8157385703
 20
8.8205072279
 11
9.8131049641
 21
8.8173120224
  0
LINE
  5
21C
100
AcDbEntity
  8
0
100
AcDbLine
 62
9
  6
CONTINUOUS
 10
9.7601216567
 20
8.8314511869
 11
9.7576295064
 21
8.8284752855
  0
LINE
  5
21D
100
AcDbEntity
  8
0
100
AcDbLine
 62
7
  6
CONTINUOUS
 10
9.792718173
 20
8.8184030935
 11
9.7916039579
 21
8.8170725981
  0
LINE
  5
21E
100
AcDbEntity
  8
0
100
AcDbLine
 62
7
  6
CONTINUOUS
 10
10.0142906705
 20
8.9163704832
 11
10.0063500296
 21
8.9040886861
  0
LINE
  5
21F
100
AcDbEntity
  8
0
100
AcDbLine
 62
7
  6
CONTINUOUS
 10
10.1014624274
 20
8.916264764
 11
10.0934915746
 21
8.9039362382
  0
LINE
  5
220
100
AcDbEntity
  8
0
100
AcDbLine
 62
7
  6
CONTINUOUS
 10
9.9743652359
 20
8.916279343
 11
9.9656366341
 21
8.9039590794
  0
LINE
  5
221
100
AcDbEntity
  8
0
100
AcDbLine
 62
9
  6
CONTINUOUS
 10
9.999946908
 20
8.8406991476
 11
9.9912866043
 21
8.8284752855
  0
LINE
  5
222
100
AcDbEntity
  8
0
100
AcDbLine
 62
7
  6
CONTINUOUS
 10
10.0067785934
 20
8.8323243008
 11
9.9974273351
 21
8.8191251689
  0
LINE
  5
223
100
AcDbEntity
  8
0
100
AcDbLine
 62
7
  6
CONTINUOUS
 10
9.926141193
 20
8.8282275749
 11
9.9188804019
 21
8.8186643397
  0
LINE
  5
224
100
AcDbEntity
  8
0
100
AcDbLine
 62
7
  6
CONTINUOUS
 10
10.123335987
 20
8.8170382038
 11
10.1254307277
 21
8.8189378972
  0
LINE
  5
225
100
AcDbEntity
  8
0
100
AcDbLine
 62
7
  6
CONTINUOUS
 10
10.8773313522
 20
5.8598318604
 11
11.2173053244
 21
5.8598318604
  0
LINE
  5
226
100
AcDbEntity
  8
0
100
AcDbLine
 62
7
  6
CONTINUOUS
 10
10.8673183383
 20
5.8698318604
 11
11.2273183383
 21
5.8698318604
  0
LINE
  5
227
100
AcDbEntity
  8
0
100
AcDbLine
 62
7
  6
CONTINUOUS
 10
10.7748183383
 20
5.9258318604
 11
11.3198183383
 21
5.9258318604
  0
LINE
  5
228
100
AcDbEntity
  8
0
100
AcDbLine
 62
7
  6
CONTINUOUS
 10
9.6596040007
 20
8.9040527905
 11
9.6596037245
 21
8.9040504644
  0
LINE
  5
229
100
AcDbEntity
  8
0
100
AcDbLine
 62
7
  6
CONTINUOUS
 10
10.1326966099
 20
8.9163728827
 11
10.1256423274
 21
8.9040918192
  0
LINE
  5
22A
100
AcDbEntity
  8
0
100
AcDbLine
 62
7
  6
CONTINUOUS
 10
10.1257933383
 20
8.8213162983
 11
10.123335987
 21
8.8170382038
  0
LINE
  5
22B
100
AcDbEntity
  8
0
100
AcDbLine
 62
7
  6
CONTINUOUS
 10
10.2228652302
 20
8.916279343
 11
10.215788431
 21
8.9039590794
  0
LINE
  5
22C
100
AcDbEntity
  8
0
100
AcDbLine
 62
9
  6
CONTINUOUS
 10
10.219533682
 20
8.8406991476
 11
10.2125122562
 21
8.8284752855
  0
LINE
  5
22D
100
AcDbEntity
  8
0
100
AcDbLine
 62
7
  6
CONTINUOUS
 10
10.219663251
 20
8.8351225376
 11
10.2123526544
 21
8.8223952472
  0
LINE
  5
22E
100
AcDbEntity
  8
0
100
AcDbLine
 62
9
  6
CONTINUOUS
 10
10.1089219872
 20
8.8461864827
 11
10.1011949182
 21
8.8342350175
  0
LINE
  5
22F
100
AcDbEntity
  8
0
100
AcDbLine
 62
7
  6
CONTINUOUS
 10
10.1113844276
 20
8.8347551945
 11
10.1031238827
 21
8.8219786016
  0
LINE
  5
230
100
AcDbEntity
  8
0
100
AcDbLine
 62
7
  6
CONTINUOUS
 10
11.3428183383
 20
5.9498318604
 11
10.7518183383
 21
5.9498318604
  0
LINE
  5
231
100
AcDbEntity
  8
0
100
AcDbLine
 62
9
  6
CONTINUOUS
 10
11.3778183383
 20
5.9848318604
 11
10.7168183383
 21
5.9848318604
  0
LINE
  5
232
100
AcDbEntity
  8
0
100
AcDbLine
 62
7
  6
CONTINUOUS
 10
10.7168183383
 20
6.067834941
 11
11.3778183383
 21
6.067834941
  0
LINE
  5
233
100
AcDbEntity
  8
0
100
AcDbLine
 62
9
  6
CONTINUOUS
 10
9.7433677106
 20
6.3113383332
 11
9.7433677106
 21
6.5613383332
  0
LINE
  5
234
100
AcDbEntity
  8
0
100
AcDbLine
 62
7
  6
CONTINUOUS
 10
10.2733380346
 20
8.9163704832
 11
10.2672805247
 21
8.9040886861
  0
LINE
  5
235
100
AcDbEntity
  8
0
100
AcDbLine
 62
7
  6
CONTINUOUS
 10
10.2489365673
 20
8.8307310011
 11
10.2421839313
 21
8.8170398134
  0
LINE
  5
236
100
AcDbEntity
  8
0
100
AcDbLine
 62
7
  6
CONTINUOUS
 10
10.3801817648
 20
8.916264764
 11
10.3741012078
 21
8.9039362382
  0
LINE
  5
237
100
AcDbEntity
  8
0
100
AcDbLine
 62
9
  6
CONTINUOUS
 10
10.3627040661
 20
8.8461864827
 11
10.3568094793
 21
8.8342350175
  0
LINE
  5
238
100
AcDbEntity
  8
0
100
AcDbLine
 62
7
  6
CONTINUOUS
 10
10.3613096464
 20
8.8411908951
 11
10.3576696848
 21
8.8338107552
  0
LINE
  5
239
100
AcDbEntity
  8
0
100
AcDbLine
 62
7
  6
CONTINUOUS
 10
10.8773183383
 20
5.8598318604
 11
10.8673183383
 21
5.8698318604
  0
LINE
  5
23A
100
AcDbEntity
  8
0
100
AcDbLine
 62
7
  6
CONTINUOUS
 10
9.8723183383
 20
8.8148318604
 11
9.8723183383
 21
8.8014833743
  0
LINE
  5
23B
100
AcDbEntity
  8
0
100
AcDbLine
 62
7
  6
CONTINUOUS
 10
10.2492104829
 20
8.8223035839
 11
10.250297422
 21
8.8272178338
  0
LINE
  5
23C
100
AcDbEntity
  8
0
100
AcDbLine
 62
7
  6
CONTINUOUS
 10
10.3568094793
 20
8.8342350175
 11
10.3553505836
 21
8.8291087095
  0
LINE
  5
23D
100
AcDbEntity
  8
0
100
AcDbLine
 62
7
  6
CONTINUOUS
 10
10.3703064472
 20
8.8307302503
 11
10.3647715834
 21
8.8170382038
  0
LINE
  5
23E
100
AcDbEntity
  8
0
100
AcDbLine
 62
9
  6
CONTINUOUS
 10
10.384937746
 20
8.8395961985
 11
10.3799668706
 21
8.8272993362
  0
LINE
  5
23F
100
AcDbEntity
  8
0
100
AcDbLine
 62
7
  6
CONTINUOUS
 10
10.4175702279
 20
8.9163728827
 11
10.412605739
 21
8.9040918192
  0
LINE
  5
240
100
AcDbEntity
  8
0
100
AcDbLine
 62
7
  6
CONTINUOUS
 10
10.5713677106
 20
6.3113383332
 11
9.4582240275
 21
6.3113383332
  0
LINE
  5
241
100
AcDbEntity
  8
0
100
AcDbLine
 62
7
  6
CONTINUOUS
 10
11.523268966
 20
6.3113383332
 11
12.636412649
 21
6.3113383332
  0
LINE
  5
242
100
AcDbEntity
  8
0
100
AcDbLine
 62
7
  6
CONTINUOUS
 10
10.2125122562
 20
8.8284752855
 11
10.2123514558
 21
8.8223931605
  0
LINE
  5
243
100
AcDbEntity
  8
0
100
AcDbLine
 62
7
  6
CONTINUOUS
 10
10.3613723874
 20
8.8413181149
 11
10.3627040661
 21
8.8461864827
  0
LINE
  5
244
100
AcDbEntity
  8
0
100
AcDbLine
 62
7
  6
CONTINUOUS
 10
10.512182093
 20
8.8307310011
 11
10.5079529785
 21
8.8170398134
  0
LINE
  5
245
100
AcDbEntity
  8
0
100
AcDbLine
 62
9
  6
CONTINUOUS
 10
10.5331823805
 20
8.8395198135
 11
10.5293823829
 21
8.8272178338
  0
LINE
  5
246
100
AcDbEntity
  8
0
100
AcDbLine
 62
7
  6
CONTINUOUS
 10
10.5810174277
 20
8.9163704832
 11
10.5772236644
 21
8.9040886861
  0
LINE
  5
247
100
AcDbEntity
  8
0
100
AcDbLine
 62
7
  6
CONTINUOUS
 10
10.5231686453
 20
8.916279343
 11
10.5181883102
 21
8.9039590794
  0
LINE
  5
248
100
AcDbEntity
  8
0
100
AcDbLine
 62
7
  6
CONTINUOUS
 10
10.5713677106
 20
6.5613383332
 11
9.4582240275
 21
6.5613383332
  0
LINE
  5
249
100
AcDbEntity
  8
0
100
AcDbLine
 62
7
  6
CONTINUOUS
 10
11.523268966
 20
6.5613383332
 11
12.636412649
 21
6.5613383332
  0
LINE
  5
24A
100
AcDbEntity
  8
0
100
AcDbLine
 62
7
  6
CONTINUOUS
 10
10.2196632591
 20
8.8351225517
 11
10.219533682
 21
8.8406991476
  0
LINE
  5
24B
100
AcDbEntity
  8
0
100
AcDbLine
 62
7
  6
CONTINUOUS
 10
10.7008197467
 20
8.916264764
 11
10.6970115492
 21
8.9039362382
  0
LINE
  5
24C
100
AcDbEntity
  8
0
100
AcDbLine
 62
9
  6
CONTINUOUS
 10
10.6689839899
 20
6.75553752
 11
11.4256526866
 21
6.75553752
  0
LINE
  5
24D
100
AcDbEntity
  8
0
100
AcDbLine
 62
7
  6
CONTINUOUS
 10
10.6519512987
 20
8.8307302503
 11
10.6490941027
 21
8.8170382038
  0
LINE
  5
24E
100
AcDbEntity
  8
0
100
AcDbLine
 62
9
  6
CONTINUOUS
 10
10.6797530311
 20
8.8395961985
 11
10.677186976
 21
8.8272993362
  0
LINE
  5
24F
100
AcDbEntity
  8
0
100
AcDbLine
 62
7
  6
CONTINUOUS
 10
10.7420132357
 20
8.9163728827
 11
10.7394504775
 21
8.9040918192
  0
LINE
  5
250
100
AcDbEntity
  8
0
100
AcDbLine
 62
7
  6
CONTINUOUS
 10
9.6698968369
 20
8.9163425604
 11
9.6648183383
 21
8.9259131018
  0
LINE
  5
251
100
AcDbEntity
  8
0
100
AcDbLine
 62
7
  6
CONTINUOUS
 10
10.5713677106
 20
6.5723383332
 11
10.5713677106
 21
6.3003383332
  0
LINE
  5
252
100
AcDbEntity
  8
0
100
AcDbLine
 62
7
  6
CONTINUOUS
 10
10.6948183383
 20
7.1408318604
 11
10.6948183383
 21
7.1848318604
  0
LINE
  5
253
100
AcDbEntity
  8
0
100
AcDbLine
 62
7
  6
CONTINUOUS
 10
10.7168183383
 20
5.9848318604
 11
10.7168183383
 21
6.067834941
  0
LINE
  5
254
100
AcDbEntity
  8
0
100
AcDbLine
 62
7
  6
CONTINUOUS
 10
10.8090521971
 20
8.8307310011
 11
10.807612335
 21
8.8170398134
  0
LINE
  5
255
100
AcDbEntity
  8
0
100
AcDbLine
 62
9
  6
CONTINUOUS
 10
10.8423049279
 20
8.8395198135
 11
10.8410111648
 21
8.8272178338
  0
LINE
  5
256
100
AcDbEntity
  8
0
100
AcDbLine
 62
7
  6
CONTINUOUS
 10
10.8564063133
 20
8.916279343
 11
10.853835375
 21
8.9039590794
  0
LINE
  5
257
100
AcDbEntity
  8
0
100
AcDbLine
 62
7
  6
CONTINUOUS
 10
10.6948183383
 20
7.1408318604
 11
11.3998183383
 21
7.1408318604
  0
LINE
  5
258
100
AcDbEntity
  8
0
100
AcDbLine
 62
7
  6
CONTINUOUS
 10
10.7748183383
 20
5.9258318604
 11
10.7748183383
 21
5.9498318604
  0
LINE
  5
259
100
AcDbEntity
  8
0
100
AcDbLine
 62
7
  6
CONTINUOUS
 10
10.917996222
 20
8.9163704832
 11
10.9167045813
 21
8.9040886861
  0
LINE
  5
25A
100
AcDbEntity
  8
0
100
AcDbLine
 62
7
  6
CONTINUOUS
 10
11.0432295094
 20
8.916264764
 11
11.0419329544
 21
8.9039362382
  0
LINE
  5
25B
100
AcDbEntity
  8
0
100
AcDbLine
 62
7
  6
CONTINUOUS
 10
10.6948346725
 20
7.1848318604
 11
11.3998020041
 21
7.1848318604
  0
LINE
  5
25C
100
AcDbEntity
  8
0
100
AcDbLine
 62
7
  6
CONTINUOUS
 10
10.6723183383
 20
7.3248318604
 11
11.4223183383
 21
7.3248318604
  0
LINE
  5
25D
100
AcDbEntity
  8
0
100
AcDbLine
 62
7
  6
CONTINUOUS
 10
10.9584385153
 20
8.8242709924
 11
10.9584385153
 21
8.8170382038
  0
LINE
  5
25E
100
AcDbEntity
  8
0
100
AcDbLine
 62
9
  6
CONTINUOUS
 10
10.9976637962
 20
8.8395961985
 11
10.9976637962
 21
8.8272993362
  0
LINE
  5
25F
100
AcDbEntity
  8
0
100
AcDbLine
 62
7
  6
CONTINUOUS
 10
11.085639686
 20
8.9163728827
 11
11.085639686
 21
8.9040918192
  0
LINE
  5
260
100
AcDbEntity
  8
0
100
AcDbLine
 62
7
  6
CONTINUOUS
 10
11.201639686
 20
8.916279343
 11
11.201639686
 21
8.9039590794
  0
LINE
  5
261
100
AcDbEntity
  8
0
100
AcDbLine
 62
9
  6
CONTINUOUS
 10
10.5023183383
 20
7.5534673528
 11
11.5923183383
 21
7.5534673528
  0
LINE
  5
262
100
AcDbEntity
  8
0
100
AcDbLine
 62
7
  6
CONTINUOUS
 10
11.121117338
 20
8.8286020177
 11
11.1223333012
 21
8.8170398134
  0
LINE
  5
263
100
AcDbEntity
  8
0
100
AcDbLine
 62
9
  6
CONTINUOUS
 10
11.164309222
 20
8.8395198135
 11
11.1656029851
 21
8.8272178338
  0
LINE
  5
264
100
AcDbEntity
  8
0
100
AcDbLine
 62
7
  6
CONTINUOUS
 10
11.2631008004
 20
8.9163704832
 11
11.264392441
 21
8.9040886861
  0
LINE
  5
265
100
AcDbEntity
  8
0
100
AcDbLine
 62
7
  6
CONTINUOUS
 10
11.3198183383
 20
5.9258318604
 11
11.3198183383
 21
5.9498318604
  0
LINE
  5
266
100
AcDbEntity
  8
0
100
AcDbLine
 62
7
  6
CONTINUOUS
 10
11.3778183383
 20
5.9848318604
 11
11.3778183383
 21
6.067834941
  0
LINE
  5
267
100
AcDbEntity
  8
0
100
AcDbLine
 62
7
  6
CONTINUOUS
 10
11.3998183383
 20
7.1408318604
 11
11.3998183383
 21
7.1848318604
  0
LINE
  5
268
100
AcDbEntity
  8
0
100
AcDbLine
 62
7
  6
CONTINUOUS
 10
11.3858961883
 20
8.916264764
 11
11.3871927432
 21
8.9039362382
  0
LINE
  5
269
100
AcDbEntity
  8
0
100
AcDbLine
 62
7
  6
CONTINUOUS
 10
11.523268966
 20
6.5723383332
 11
11.523268966
 21
6.3003383332
  0
LINE
  5
26A
100
AcDbEntity
  8
0
100
AcDbLine
 62
7
  6
CONTINUOUS
 10
12.4247398397
 20
8.9163425604
 11
12.4298183383
 21
8.9259131018
  0
LINE
  5
26B
100
AcDbEntity
  8
0
100
AcDbLine
 62
7
  6
CONTINUOUS
 10
11.2721971047
 20
8.8226472422
 11
11.2733675741
 21
8.8170382038
  0
LINE
  5
26C
100
AcDbEntity
  8
0
100
AcDbLine
 62
9
  6
CONTINUOUS
 10
11.3186945388
 20
8.8395961985
 11
11.3212605938
 21
8.8272993362
  0
LINE
  5
26D
100
AcDbEntity
  8
0
100
AcDbLine
 62
7
  6
CONTINUOUS
 10
11.426858265
 20
8.9163728827
 11
11.4294210232
 21
8.9040918192
  0
LINE
  5
26E
100
AcDbEntity
  8
0
100
AcDbLine
 62
7
  6
CONTINUOUS
 10
11.4298154507
 20
8.8252152957
 11
11.4323408014
 21
8.8170398134
  0
LINE
  5
26F
100
AcDbEntity
  8
0
100
AcDbLine
 62
9
  6
CONTINUOUS
 10
11.4789625485
 20
8.8395198135
 11
11.482762546
 21
8.8272178338
  0
LINE
  5
270
100
AcDbEntity
  8
0
100
AcDbLine
 62
7
  6
CONTINUOUS
 10
11.5371764808
 20
8.916279343
 11
11.5397474191
 21
8.9039590794
  0
LINE
  5
271
100
AcDbEntity
  8
0
100
AcDbLine
 62
7
  6
CONTINUOUS
 10
11.5723011608
 20
8.82147114
 11
11.574093128
 21
8.8170382038
  0
LINE
  5
272
100
AcDbEntity
  8
0
100
AcDbLine
 62
9
  6
CONTINUOUS
 10
11.6239945519
 20
8.8363287402
 11
11.6276445921
 21
8.8272993362
  0
LINE
  5
273
100
AcDbEntity
  8
0
100
AcDbLine
 62
7
  6
CONTINUOUS
 10
11.5946469731
 20
8.9163704832
 11
11.5984407364
 21
8.9040886861
  0
LINE
  5
274
100
AcDbEntity
  8
0
100
AcDbLine
 62
7
  6
CONTINUOUS
 10
11.7072887756
 20
8.916264764
 11
11.7110969731
 21
8.9039362382
  0
LINE
  5
275
100
AcDbEntity
  8
0
100
AcDbLine
 62
7
  6
CONTINUOUS
 10
12.2223183383
 20
8.8148318604
 11
12.2223183383
 21
8.8014833743
  0
LINE
  5
276
100
AcDbEntity
  8
0
100
AcDbLine
 62
7
  6
CONTINUOUS
 10
12.3055892052
 20
8.8170398134
 11
12.3083476791
 21
8.8174890903
  0
LINE
  5
277
100
AcDbEntity
  8
0
100
AcDbLine
 62
9
  6
CONTINUOUS
 10
10.0145539007
 20
8.5698318604
 11
12.0800827759
 21
8.5698318604
  0
LINE
  5
278
100
AcDbEntity
  8
0
100
AcDbLine
 62
7
  6
CONTINUOUS
 10
9.9323183383
 20
8.7098318604
 11
12.1623183383
 21
8.7098318604
  0
LINE
  5
279
100
AcDbEntity
  8
0
100
AcDbLine
 62
7
  6
CONTINUOUS
 10
9.7820689625
 20
8.8183150946
 11
9.7890347127
 21
8.8170408592
  0
LINE
  5
27A
100
AcDbEntity
  8
0
100
AcDbLine
 62
7
  6
CONTINUOUS
 10
11.7153362592
 20
8.8227567753
 11
11.7181559242
 21
8.8170398134
  0
LINE
  5
27B
100
AcDbEntity
  8
0
100
AcDbLine
 62
7
  6
CONTINUOUS
 10
11.7442289546
 20
8.9163728827
 11
11.7491934435
 21
8.9040918192
  0
LINE
  5
27C
100
AcDbEntity
  8
0
100
AcDbLine
 62
9
  6
CONTINUOUS
 10
12.351268966
 20
6.5613383332
 11
12.351268966
 21
6.3113383332
  0
LINE
  5
27D
100
AcDbEntity
  8
0
100
AcDbLine
 62
7
  6
CONTINUOUS
 10
11.2173183383
 20
5.8598318604
 11
11.2273183383
 21
5.8698318604
  0
LINE
  5
27E
100
AcDbEntity
  8
0
100
AcDbLine
 62
9
  6
CONTINUOUS
 10
9.8723183383
 20
8.8014833743
 11
12.2223183383
 21
8.8014833743
  0
LINE
  5
27F
100
AcDbEntity
  8
0
100
AcDbLine
 62
7
  6
CONTINUOUS
 10
9.8298183383
 20
8.8148318604
 11
12.2648183383
 21
8.8148318604
  0
LINE
  5
280
100
AcDbEntity
  8
0
100
AcDbLine
 62
9
  6
CONTINUOUS
 10
10.0067785934
 20
8.8298318604
 11
10.0212922164
 21
8.8298318604
  0
LINE
  5
281
100
AcDbEntity
  8
0
100
AcDbLine
 62
9
  6
CONTINUOUS
 10
10.1113844276
 20
8.8298318604
 11
10.1246789122
 21
8.8298318604
  0
LINE
  5
282
100
AcDbEntity
  8
0
100
AcDbLine
 62
9
  6
CONTINUOUS
 10
10.219663251
 20
8.8298318604
 11
10.250297422
 21
8.8298318604
  0
LINE
  5
283
100
AcDbEntity
  8
0
100
AcDbLine
 62
9
  6
CONTINUOUS
 10
10.3553505836
 20
8.8298318604
 11
10.3703064472
 21
8.8298318604
  0
LINE
  5
284
100
AcDbEntity
  8
0
100
AcDbLine
 62
9
  6
CONTINUOUS
 10
10.4868338571
 20
8.8298318604
 11
10.512182093
 21
8.8298318604
  0
LINE
  5
285
100
AcDbEntity
  8
0
100
AcDbLine
 62
9
  6
CONTINUOUS
 10
10.7964554049
 20
8.8298318604
 11
10.8090521971
 21
8.8298318604
  0
LINE
  5
286
100
AcDbEntity
  8
0
100
AcDbLine
 62
7
  6
CONTINUOUS
 10
9.6724085969
 20
8.916264764
 11
9.670515053
 21
8.9163065766
  0
LINE
  5
287
100
AcDbEntity
  8
0
100
AcDbLine
 62
7
  6
CONTINUOUS
 10
9.789034531
 20
8.8170408889
 11
9.7890898684
 21
8.8170382038
  0
LINE
  5
288
100
AcDbEntity
  8
0
100
AcDbLine
 62
7
  6
CONTINUOUS
 10
9.670515053
 20
8.9163065766
 11
9.6698968227
 21
8.9163425853
  0
LINE
  5
289
100
AcDbEntity
  8
0
100
AcDbLine
 62
7
  6
CONTINUOUS
 10
11.8397475004
 20
8.8204713045
 11
11.8417194845
 21
8.8170382038
  0
LINE
  5
28A
100
AcDbEntity
  8
0
100
AcDbLine
 62
9
  6
CONTINUOUS
 10
11.8937938211
 20
8.833863952
 11
11.8975645575
 21
8.8272993362
  0
LINE
  5
28B
100
AcDbEntity
  8
0
100
AcDbLine
 62
9
  6
CONTINUOUS
 10
11.7664940818
 20
8.8395198135
 11
11.772561546
 21
8.8272178338
  0
LINE
  5
28C
100
AcDbEntity
  8
0
100
AcDbLine
 62
7
  6
CONTINUOUS
 10
11.8918024748
 20
8.9163704832
 11
11.8978599847
 21
8.9040886861
  0
LINE
  5
28D
100
AcDbEntity
  8
0
100
AcDbLine
 62
7
  6
CONTINUOUS
 10
11.841933687
 20
8.916279343
 11
11.8469140221
 21
8.9039590794
  0
LINE
  5
28E
100
AcDbEntity
  8
0
100
AcDbLine
 62
7
  6
CONTINUOUS
 10
12.4350327241
 20
8.9040528693
 11
12.4350329745
 21
8.9040505011
  0
LINE
  5
28F
100
AcDbEntity
  8
0
100
AcDbLine
 62
7
  6
CONTINUOUS
 10
9.8130876231
 20
8.8172909835
 11
9.8112562833
 21
8.8170518684
  0
LINE
  5
290
100
AcDbEntity
  8
0
100
AcDbLine
 62
7
  6
CONTINUOUS
 10
9.7915967884
 20
8.817064037
 11
9.7914504972
 21
8.8170518684
  0
LINE
  5
291
100
AcDbEntity
  8
0
100
AcDbLine
 62
9
  6
CONTINUOUS
 10
9.6648183383
 20
8.9259131018
 11
12.4298183383
 21
8.9259131018
  0
LINE
  5
292
100
AcDbEntity
  8
0
100
AcDbLine
 62
7
  6
CONTINUOUS
 10
9.6506737913
 20
8.9398318604
 11
12.4439628852
 21
8.9398318604
  0
LINE
  5
293
100
AcDbEntity
  8
0
100
AcDbLine
 62
7
  6
CONTINUOUS
 10
10.5231686453
 20
8.916279343
 11
10.4175702279
 21
8.9163728827
  0
LINE
  5
294
100
AcDbEntity
  8
0
100
AcDbLine
 62
7
  6
CONTINUOUS
 10
10.7008197467
 20
8.916264764
 11
10.5810174277
 21
8.9163704832
  0
LINE
  5
295
100
AcDbEntity
  8
0
100
AcDbLine
 62
7
  6
CONTINUOUS
 10
10.8564063133
 20
8.916279343
 11
10.7420132357
 21
8.9163728827
  0
LINE
  5
296
100
AcDbEntity
  8
0
100
AcDbLine
 62
7
  6
CONTINUOUS
 10
11.0432295094
 20
8.916264764
 11
10.917996222
 21
8.9163704832
  0
LINE
  5
297
100
AcDbEntity
  8
0
100
AcDbLine
 62
7
  6
CONTINUOUS
 10
11.201639686
 20
8.916279343
 11
11.085639686
 21
8.9163728827
  0
LINE
  5
298
100
AcDbEntity
  8
0
100
AcDbLine
 62
7
  6
CONTINUOUS
 10
11.3858961883
 20
8.916264764
 11
11.2631008004
 21
8.9163704832
  0
LINE
  5
299
100
AcDbEntity
  8
0
100
AcDbLine
 62
7
  6
CONTINUOUS
 10
11.5371764808
 20
8.916279343
 11
11.426858265
 21
8.9163728827
  0
LINE
  5
29A
100
AcDbEntity
  8
0
100
AcDbLine
 62
7
  6
CONTINUOUS
 10
10.2228652302
 20
8.916279343
 11
10.1326966099
 21
8.9163728827
  0
LINE
  5
29B
100
AcDbEntity
  8
0
100
AcDbLine
 62
7
  6
CONTINUOUS
 10
10.3801817648
 20
8.916264764
 11
10.2733380346
 21
8.9163704832
  0
LINE
  5
29C
100
AcDbEntity
  8
0
100
AcDbLine
 62
7
  6
CONTINUOUS
 10
11.7072887756
 20
8.916264764
 11
11.5946469731
 21
8.9163704832
  0
LINE
  5
29D
100
AcDbEntity
  8
0
100
AcDbLine
 62
7
  6
CONTINUOUS
 10
11.841933687
 20
8.916279343
 11
11.7442289546
 21
8.9163728827
  0
LINE
  5
29E
100
AcDbEntity
  8
0
100
AcDbLine
 62
7
  6
CONTINUOUS
 10
10.1014624274
 20
8.916264764
 11
10.0142906705
 21
8.9163704832
  0
LINE
  5
29F
100
AcDbEntity
  8
0
100
AcDbLine
 62
7
  6
CONTINUOUS
 10
11.9872129932
 20
8.916264764
 11
11.8918024748
 21
8.9163704832
  0
LINE
  5
2A0
100
AcDbEntity
  8
0
100
AcDbLine
 62
7
  6
CONTINUOUS
 10
12.0967622884
 20
8.916279343
 11
12.0178101872
 21
8.9163728827
  0
LINE
  5
2A1
100
AcDbEntity
  8
0
100
AcDbLine
 62
7
  6
CONTINUOUS
 10
9.9743652359
 20
8.916279343
 11
9.9052920388
 21
8.9163728827
  0
LINE
  5
2A2
100
AcDbEntity
  8
0
100
AcDbLine
 62
7
  6
CONTINUOUS
 10
12.208080173
 20
8.916264764
 11
12.1358959324
 21
8.9163704832
  0
LINE
  5
2A3
100
AcDbEntity
  8
0
100
AcDbLine
 62
7
  6
CONTINUOUS
 10
9.8821746954
 20
8.916264764
 11
9.820152234
 21
8.9163704832
  0
LINE
  5
2A4
100
AcDbEntity
  8
0
100
AcDbLine
 62
7
  6
CONTINUOUS
 10
12.2856504669
 20
8.916279343
 11
12.2304118476
 21
8.9163728827
  0
LINE
  5
2A5
100
AcDbEntity
  8
0
100
AcDbLine
 62
7
  6
CONTINUOUS
 10
9.7932828312
 20
8.916279343
 11
9.7496451802
 21
8.9163728827
  0
LINE
  5
2A6
100
AcDbEntity
  8
0
100
AcDbLine
 62
7
  6
CONTINUOUS
 10
12.3560124176
 20
8.916264764
 11
12.3115900562
 21
8.9163704832
  0
LINE
  5
2A7
100
AcDbEntity
  8
0
100
AcDbLine
 62
7
  6
CONTINUOUS
 10
9.7360972237
 20
8.916264764
 11
9.703121157
 21
8.9163704832
  0
LINE
  5
2A8
100
AcDbEntity
  8
0
100
AcDbLine
 62
7
  6
CONTINUOUS
 10
12.3967296834
 20
8.916279343
 11
12.3686753917
 21
8.9163728827
  0
LINE
  5
2A9
100
AcDbEntity
  8
0
100
AcDbLine
 62
7
  6
CONTINUOUS
 10
9.6909960894
 20
8.916279343
 11
9.6755358986
 21
8.9163728827
  0
LINE
  5
2AA
100
AcDbEntity
  8
0
100
AcDbLine
 62
7
  6
CONTINUOUS
 10
12.4217146002
 20
8.916264764
 11
12.4078453383
 21
8.9163704832
  0
LINE
  5
2AB
100
AcDbEntity
  8
0
100
AcDbLine
 62
7
  6
CONTINUOUS
 10
12.4247397277
 20
8.9163438397
 11
12.4239132126
 21
8.9163728827
  0
LINE
  5
2AC
100
AcDbEntity
  8
0
100
AcDbLine
 62
7
  6
CONTINUOUS
 10
11.958978674
 20
8.8214342697
 11
11.9618198543
 21
8.8170398134
  0
LINE
  5
2AD
100
AcDbEntity
  8
0
100
AcDbLine
 62
9
  6
CONTINUOUS
 10
12.0097809436
 20
8.8380600597
 11
12.0167908479
 21
8.8272178338
  0
LINE
  5
2AE
100
AcDbEntity
  8
0
100
AcDbLine
 62
7
  6
CONTINUOUS
 10
12.0178101872
 20
8.9163728827
 11
12.0248644696
 21
8.9040918192
  0
LINE
  5
2AF
100
AcDbEntity
  8
0
100
AcDbLine
 62
7
  6
CONTINUOUS
 10
11.9872129932
 20
8.916264764
 11
11.9932935502
 21
8.9039362382
  0
LINE
  5
2B0
100
AcDbEntity
  8
0
100
AcDbLine
 62
7
  6
CONTINUOUS
 10
9.624835006
 20
9.1048318604
 11
12.4698016706
 21
9.1048318604
  0
LINE
  5
2B1
100
AcDbEntity
  8
0
100
AcDbLine
 62
7
  6
CONTINUOUS
 10
12.2119616573
 20
8.8190249775
 11
12.2135471646
 21
8.8170382038
  0
LINE
  5
2B2
100
AcDbEntity
  8
0
100
AcDbLine
 62
7
  6
CONTINUOUS
 10
12.1456273006
 20
8.8201942707
 11
12.1480222909
 21
8.8170398134
  0
LINE
  5
2B3
100
AcDbEntity
  8
0
100
AcDbLine
 62
9
  6
CONTINUOUS
 10
12.1946466159
 20
8.8344066151
 11
12.2001046265
 21
8.8272178338
  0
LINE
  5
2B4
100
AcDbEntity
  8
0
100
AcDbLine
 62
7
  6
CONTINUOUS
 10
12.0575583158
 20
8.8196810337
 11
12.0594306954
 21
8.8170382038
  0
LINE
  5
2B5
100
AcDbEntity
  8
0
100
AcDbLine
 62
9
  6
CONTINUOUS
 10
12.1105641361
 20
8.8322342861
 11
12.114060426
 21
8.8272993362
  0
LINE
  5
2B6
100
AcDbEntity
  8
0
100
AcDbLine
 62
7
  6
CONTINUOUS
 10
12.1358959324
 20
8.9163704832
 11
12.1438365733
 21
8.9040886861
  0
LINE
  5
2B7
100
AcDbEntity
  8
0
100
AcDbLine
 62
7
  6
CONTINUOUS
 10
12.208080173
 20
8.916264764
 11
12.2160510257
 21
8.9039362382
  0
LINE
  5
2B8
100
AcDbEntity
  8
0
100
AcDbLine
 62
7
  6
CONTINUOUS
 10
12.0967622884
 20
8.916279343
 11
12.1038390875
 21
8.9039590794
  0
LINE
  5
2B9
100
AcDbEntity
  8
0
100
AcDbLine
 62
7
  6
CONTINUOUS
 10
12.293583466
 20
8.8179955475
 11
12.2943851876
 21
8.8170382038
  0
LINE
  5
2BA
100
AcDbEntity
  8
0
100
AcDbLine
 62
9
  6
CONTINUOUS
 10
12.3355115874
 20
8.82857337
 11
12.3365785192
 21
8.8272993362
  0
LINE
  5
2BB
100
AcDbEntity
  8
0
100
AcDbLine
 62
7
  6
CONTINUOUS
 10
12.2635800611
 20
8.8188395253
 11
12.26506345
 21
8.8170398134
  0
LINE
  5
2BC
100
AcDbEntity
  8
0
100
AcDbLine
 62
9
  6
CONTINUOUS
 10
12.3080357833
 20
8.8307954702
 11
12.3109846031
 21
8.8272178338
  0
LINE
  5
2BD
100
AcDbEntity
  8
0
100
AcDbLine
 62
9
  6
CONTINUOUS
 10
12.2609715596
 20
8.8305039809
 11
12.2635289659
 21
8.8272993362
  0
LINE
  5
2BE
100
AcDbEntity
  8
0
100
AcDbLine
 62
7
  6
CONTINUOUS
 10
12.3686753917
 20
8.9163728827
 11
12.3784760632
 21
8.9040918192
  0
LINE
  5
2BF
100
AcDbEntity
  8
0
100
AcDbLine
 62
7
  6
CONTINUOUS
 10
12.3115900562
 20
8.9163704832
 11
12.3209148884
 21
8.9040886861
  0
LINE
  5
2C0
100
AcDbEntity
  8
0
100
AcDbLine
 62
7
  6
CONTINUOUS
 10
12.3560124176
 20
8.916264764
 11
12.3653727281
 21
8.9039362382
  0
LINE
  5
2C1
100
AcDbEntity
  8
0
100
AcDbLine
 62
7
  6
CONTINUOUS
 10
12.2304118476
 20
8.9163728827
 11
12.2391126771
 21
8.9040918192
  0
LINE
  5
2C2
100
AcDbEntity
  8
0
100
AcDbLine
 62
7
  6
CONTINUOUS
 10
12.2856504669
 20
8.916279343
 11
12.2943790687
 21
8.9039590794
  0
LINE
  5
2C3
100
AcDbEntity
  8
0
100
AcDbLine
 62
7
  6
CONTINUOUS
 10
12.4239132126
 20
8.9163728827
 11
12.4341979138
 21
8.9040918192
  0
LINE
  5
2C4
100
AcDbEntity
  8
0
100
AcDbLine
 62
7
  6
CONTINUOUS
 10
12.4350326795
 20
8.9040527965
 11
12.4247396844
 21
8.9163437639
  0
LINE
  5
2C5
100
AcDbEntity
  8
0
100
AcDbLine
 62
7
  6
CONTINUOUS
 10
12.4078453383
 20
8.9163704832
 11
12.4179684483
 21
8.9040886861
  0
LINE
  5
2C6
100
AcDbEntity
  8
0
100
AcDbLine
 62
7
  6
CONTINUOUS
 10
12.4217146002
 20
8.916264764
 11
12.4318762258
 21
8.9039362382
  0
LINE
  5
2C7
100
AcDbEntity
  8
0
100
AcDbLine
 62
7
  6
CONTINUOUS
 10
12.3967296834
 20
8.916279343
 11
12.4065616378
 21
8.9039590794
  0
ARC
  5
2C8
100
AcDbEntity
  8
0
100
AcDbCircle
 62
7
  6
CONTINUOUS
 10
9.7050941524
 20
-9.6743829662
 40
18.578507285
100
AcDbArc
 50
89.7583485666
 51
89.8928304689
  0
ARC
  5
2C9
100
AcDbEntity
  8
0
100
AcDbCircle
 62
7
  6
CONTINUOUS
 10
9.6547856247
 20
-2.9102857823
 40
11.8144362654
100
AcDbArc
 50
89.6549460554
 51
89.8146831307
  0
ARC
  5
2CA
100
AcDbEntity
  8
0
100
AcDbCircle
 62
7
  6
CONTINUOUS
 10
9.1030836233
 20
7.5071833139
 40
1.4
100
AcDbArc
 50
1.8945452827
 51
49.3791708116
  0
CIRCLE
  5
2CB
100
AcDbEntity
  8
0
100
AcDbCircle
 62
7
  6
CONTINUOUS
 10
9.2433677106
 20
6.4363383332
 40
0.25
  0
ARC
  5
2CC
100
AcDbEntity
  8
0
100
AcDbCircle
 62
7
  6
CONTINUOUS
 10
9.6378884115
 20
8.9126926994
 40
0.03
100
AcDbArc
 50
26.1472811424
 51
64.7746660919
  0
ARC
  5
2CD
100
AcDbEntity
  8
0
100
AcDbCircle
 62
7
  6
CONTINUOUS
 10
9.9723183383
 20
8.8014833743
 40
0.1
100
AcDbArc
 50
180.0
 51
246.4218215218
  0
ARC
  5
2CE
100
AcDbEntity
  8
0
100
AcDbCircle
 62
7
  6
CONTINUOUS
 10
9.905043263
 20
8.9011753512
 40
0.0883795277
100
AcDbArc
 50
225.9922739159
 51
226.627959661
  0
ARC
  5
2CF
100
AcDbEntity
  8
0
100
AcDbCircle
 62
7
  6
CONTINUOUS
 10
9.9856398214
 20
8.8882464714
 40
0.0848189635
100
AcDbArc
 50
209.7150444052
 51
210.6937653921
  0
ARC
  5
2D0
100
AcDbEntity
  8
0
100
AcDbCircle
 62
7
  6
CONTINUOUS
 10
9.9820765102
 20
8.8860998455
 40
0.080659105
100
AcDbArc
 50
210.6745786675
 51
213.326149214
  0
ARC
  5
2D1
100
AcDbEntity
  8
0
100
AcDbCircle
 62
7
  6
CONTINUOUS
 10
9.9652539564
 20
8.8723070069
 40
0.0588332875
100
AcDbArc
 50
227.5176591165
 51
229.9073031632
  0
ARC
  5
2D2
100
AcDbEntity
  8
0
100
AcDbCircle
 62
7
  6
CONTINUOUS
 10
9.8120679494
 20
8.8118446053
 40
0.018
100
AcDbArc
 50
9.552927071
 51
17.0417083163
  0
ARC
  5
2D3
100
AcDbEntity
  8
0
100
AcDbCircle
 62
7
  6
CONTINUOUS
 10
9.8192165853
 20
9.0017100761
 40
0.1871193873
100
AcDbArc
 50
211.4605179007
 51
244.5809086044
  0
ARC
  5
2D4
100
AcDbEntity
  8
0
100
AcDbCircle
 62
7
  6
CONTINUOUS
 10
9.8192165853
 20
9.0017100761
 40
0.1871193873
100
AcDbArc
 50
248.8700501512
 51
249.3053713165
  0
ARC
  5
2D5
100
AcDbEntity
  8
0
100
AcDbCircle
 62
7
  6
CONTINUOUS
 10
9.8172543397
 20
8.9963897433
 40
0.1814475813
100
AcDbArc
 50
243.3384310299
 51
248.8719883602
  0
ARC
  5
2D6
100
AcDbEntity
  8
0
100
AcDbCircle
 62
7
  6
CONTINUOUS
 10
9.8169647196
 20
8.9956154507
 40
0.1806209445
100
AcDbArc
 50
248.8691508997
 51
249.2903086757
  0
ARC
  5
2D7
100
AcDbEntity
  8
0
100
AcDbCircle
 62
7
  6
CONTINUOUS
 10
9.8310665976
 20
8.9926157542
 40
0.1798196314
100
AcDbArc
 50
245.8960701586
 51
251.1428090602
  0
ARC
  5
2D8
100
AcDbEntity
  8
0
100
AcDbCircle
 62
7
  6
CONTINUOUS
 10
9.8769768984
 20
8.9860512755
 40
0.1798042702
100
AcDbArc
 50
237.6014817312
 51
243.5948207069
  0
ARC
  5
2D9
100
AcDbEntity
  8
0
100
AcDbCircle
 62
7
  6
CONTINUOUS
 10
9.8163902176
 20
8.9940874042
 40
0.178988471
100
AcDbArc
 50
249.2893522905
 51
250.8315196081
  0
ARC
  5
2DA
100
AcDbEntity
  8
0
100
AcDbCircle
 62
7
  6
CONTINUOUS
 10
9.8159438359
 20
8.9938103388
 40
0.17855439
100
AcDbArc
 50
236.4826366055
 51
243.3428373831
  0
ARC
  5
2DB
100
AcDbEntity
  8
0
100
AcDbCircle
 62
7
  6
CONTINUOUS
 10
9.8175400994
 20
8.9930293369
 40
0.1782841483
100
AcDbArc
 50
248.369981435
 51
248.8451145392
  0
ARC
  5
2DC
100
AcDbEntity
  8
0
100
AcDbCircle
 62
7
  6
CONTINUOUS
 10
9.8174484387
 20
8.9929943782
 40
0.178226074
100
AcDbArc
 50
257.2106656966
 51
258.5502097686
  0
ARC
  5
2DD
100
AcDbEntity
  8
0
100
AcDbCircle
 62
7
  6
CONTINUOUS
 10
9.8174620044
 20
8.9928053241
 40
0.1780470485
100
AcDbArc
 50
248.8425362628
 51
252.9648329633
  0
ARC
  5
2DE
100
AcDbEntity
  8
0
100
AcDbCircle
 62
7
  6
CONTINUOUS
 10
9.8172857803
 20
8.9922660999
 40
0.1774798567
100
AcDbArc
 50
252.9682297696
 51
257.2098283382
  0
ARC
  5
2DF
100
AcDbEntity
  8
0
100
AcDbCircle
 62
7
  6
CONTINUOUS
 10
9.815347211
 20
8.9928891227
 40
0.1774569052
100
AcDbArc
 50
235.8794397863
 51
236.478998223
  0
ARC
  5
2E0
100
AcDbEntity
  8
0
100
AcDbCircle
 62
7
  6
CONTINUOUS
 10
9.8156905786
 20
8.992113414
 40
0.1768942005
100
AcDbArc
 50
250.8356315539
 51
252.3312989831
  0
ARC
  5
2E1
100
AcDbEntity
  8
0
100
AcDbCircle
 62
7
  6
CONTINUOUS
 10
9.8291695792
 20
8.9874796653
 40
0.1743461274
100
AcDbArc
 50
251.1872277512
 51
255.0174418796
  0
ARC
  5
2E2
100
AcDbEntity
  8
0
100
AcDbCircle
 62
7
  6
CONTINUOUS
 10
9.8132928961
 20
8.9902430326
 40
0.1741061402
100
AcDbArc
 50
209.7168218161
 51
235.9362276326
  0
ARC
  5
2E3
100
AcDbEntity
  8
0
100
AcDbCircle
 62
7
  6
CONTINUOUS
 10
9.8158841876
 20
8.9888750069
 40
0.1738119635
100
AcDbArc
 50
243.659351459
 51
248.3726099961
  0
ARC
  5
2E4
100
AcDbEntity
  8
0
100
AcDbCircle
 62
7
  6
CONTINUOUS
 10
9.8151892339
 20
8.9874192268
 40
0.17219898
100
AcDbArc
 50
242.596542768
 51
243.6516514175
  0
ARC
  5
2E5
100
AcDbEntity
  8
0
100
AcDbCircle
 62
7
  6
CONTINUOUS
 10
9.8299343792
 20
8.9757645274
 40
0.1656300753
100
AcDbArc
 50
205.6917314721
 51
207.9503784095
  0
ARC
  5
2E6
100
AcDbEntity
  8
0
100
AcDbCircle
 62
7
  6
CONTINUOUS
 10
9.8773606408
 20
8.9601287684
 40
0.1615151509
100
AcDbArc
 50
200.3594565988
 51
202.5176449923
  0
ARC
  5
2E7
100
AcDbEntity
  8
0
100
AcDbCircle
 62
7
  6
CONTINUOUS
 10
9.8144833599
 20
8.9916764289
 40
0.1608482436
100
AcDbArc
 50
207.9588530894
 51
208.8258594679
  0
ARC
  5
2E8
100
AcDbEntity
  8
0
100
AcDbCircle
 62
7
  6
CONTINUOUS
 10
9.8317107277
 20
8.9787185278
 40
0.1539456437
100
AcDbArc
 50
203.9282559785
 51
206.2517754505
  0
ARC
  5
2E9
100
AcDbEntity
  8
0
100
AcDbCircle
 62
7
  6
CONTINUOUS
 10
9.8308069245
 20
8.978274547
 40
0.1529386797
100
AcDbArc
 50
206.252366943
 51
207.6624122096
  0
ARC
  5
2EA
100
AcDbEntity
  8
0
100
AcDbCircle
 62
7
  6
CONTINUOUS
 10
9.8796042408
 20
8.9646361934
 40
0.1514399523
100
AcDbArc
 50
198.6272456449
 51
200.781538489
  0
ARC
  5
2EB
100
AcDbEntity
  8
0
100
AcDbCircle
 62
7
  6
CONTINUOUS
 10
9.8761294064
 20
8.963301074
 40
0.1477174832
100
AcDbArc
 50
200.7755786044
 51
203.2234674285
  0
ARC
  5
2EC
100
AcDbEntity
  8
0
100
AcDbCircle
 62
7
  6
CONTINUOUS
 10
9.9350384407
 20
8.9496528282
 40
0.1453219443
100
AcDbArc
 50
237.4059822156
 51
238.627475327
  0
ARC
  5
2ED
100
AcDbEntity
  8
0
100
AcDbCircle
 62
7
  6
CONTINUOUS
 10
9.8663189874
 20
8.9532231213
 40
0.1421250857
100
AcDbArc
 50
242.3756678507
 51
246.456525377
  0
ARC
  5
2EE
100
AcDbEntity
  8
0
100
AcDbCircle
 62
7
  6
CONTINUOUS
 10
9.8264078301
 20
8.9550689416
 40
0.1408286182
100
AcDbArc
 50
254.7649881422
 51
258.3835555005
  0
ARC
  5
2EF
100
AcDbEntity
  8
0
100
AcDbCircle
 62
7
  6
CONTINUOUS
 10
9.8242669793
 20
8.9552565393
 40
0.1402508535
100
AcDbArc
 50
243.3210078599
 51
245.9129424272
  0
ARC
  5
2F0
100
AcDbEntity
  8
0
100
AcDbCircle
 62
7
  6
CONTINUOUS
 10
9.8241467029
 20
8.9550130207
 40
0.1399792577
100
AcDbArc
 50
242.3597011353
 51
243.3202438802
  0
ARC
  5
2F1
100
AcDbEntity
  8
0
100
AcDbCircle
 62
7
  6
CONTINUOUS
 10
9.9320298523
 20
8.9447075159
 40
0.1395333622
100
AcDbArc
 50
238.6250951465
 51
239.6069397262
  0
ARC
  5
2F2
100
AcDbEntity
  8
0
100
AcDbCircle
 62
7
  6
CONTINUOUS
 10
9.8256673536
 20
8.9515613941
 40
0.1372438138
100
AcDbArc
 50
258.3915014057
 51
258.5692593986
  0
ARC
  5
2F3
100
AcDbEntity
  8
0
100
AcDbCircle
 62
7
  6
CONTINUOUS
 10
9.8632886434
 20
8.9463755334
 40
0.1346370615
100
AcDbArc
 50
246.4747632425
 51
246.8603563019
  0
ARC
  5
2F4
100
AcDbEntity
  8
0
100
AcDbCircle
 62
7
  6
CONTINUOUS
 10
9.8528299156
 20
8.9269163817
 40
0.1125847077
100
AcDbArc
 50
232.0287779796
 51
232.5226239015
  0
ARC
  5
2F5
100
AcDbEntity
  8
0
100
AcDbCircle
 62
7
  6
CONTINUOUS
 10
9.8514645973
 20
8.9250163086
 40
0.1102461202
100
AcDbArc
 50
232.4848993752
 51
242.4184766919
  0
ARC
  5
2F6
100
AcDbEntity
  8
0
100
AcDbCircle
 62
7
  6
CONTINUOUS
 10
10.3502330343
 20
9.1339783657
 40
0.726
100
AcDbArc
 50
182.3008549133
 51
195.5107653603
  0
ARC
  5
2F7
100
AcDbEntity
  8
0
100
AcDbCircle
 62
7
  6
CONTINUOUS
 10
10.4198183383
 20
6.9657575905
 40
0.326
100
AcDbArc
 50
319.8458068178
 51
32.4822048034
  0
ARC
  5
2F8
100
AcDbEntity
  8
0
100
AcDbCircle
 62
7
  6
CONTINUOUS
 10
10.9196859441
 20
7.3610156633
 40
0.25
100
AcDbArc
 50
188.3219461858
 51
224.8081561684
  0
ARC
  5
2F9
100
AcDbEntity
  8
0
100
AcDbCircle
 62
7
  6
CONTINUOUS
 10
10.7521816803
 20
7.5617323598
 40
0.25
100
AcDbArc
 50
181.8945452827
 51
251.37012988
  0
ARC
  5
2FA
100
AcDbEntity
  8
0
100
AcDbCircle
 62
7
  6
CONTINUOUS
 10
10.1773164502
 20
8.7595905294
 40
0.25
100
AcDbArc
 50
191.4805151999
 51
229.3791708116
  0
ARC
  5
2FB
100
AcDbEntity
  8
0
100
AcDbCircle
 62
7
  6
CONTINUOUS
 10
10.6407418294
 20
8.9437624518
 40
0.1135866664
100
AcDbArc
 50
275.6635376601
 51
277.9425208226
  0
ARC
  5
2FC
100
AcDbEntity
  8
0
100
AcDbCircle
 62
7
  6
CONTINUOUS
 10
10.9313564148
 20
8.9135700553
 40
0.0936015119
100
AcDbArc
 50
286.0711149917
 51
287.8371534058
  0
ARC
  5
2FD
100
AcDbEntity
  8
0
100
AcDbCircle
 62
7
  6
CONTINUOUS
 10
10.9334330746
 20
8.9071205184
 40
0.0868258908
100
AcDbArc
 50
287.8363206077
 51
288.9607970731
  0
ARC
  5
2FE
100
AcDbEntity
  8
0
100
AcDbCircle
 62
7
  6
CONTINUOUS
 10
10.8113183383
 20
5.8698318604
 40
0.056
100
AcDbArc
 50
0.0
 51
90.0
  0
ARC
  5
2FF
100
AcDbEntity
  8
0
100
AcDbCircle
 62
7
  6
CONTINUOUS
 10
10.7518183383
 20
5.9848318604
 40
0.035
100
AcDbArc
 50
180.0
 51
270.0
  0
ARC
  5
300
100
AcDbEntity
  8
0
100
AcDbCircle
 62
7
  6
CONTINUOUS
 10
12.1063730631
 20
-25.9463924511
 40
34.8505012734
100
AcDbArc
 50
89.8196842367
 51
89.9384083053
  0
ARC
  5
301
100
AcDbEntity
  8
0
100
AcDbCircle
 62
7
  6
CONTINUOUS
 10
12.2143358915
 20
-12.9169372448
 40
21.8210431305
100
AcDbArc
 50
89.7898291804
 51
89.9349432772
  0
ARC
  5
302
100
AcDbEntity
  8
0
100
AcDbCircle
 62
7
  6
CONTINUOUS
 10
11.7444036422
 20
9.1339783657
 40
0.726
100
AcDbArc
 50
344.4892346397
 51
357.6991450867
  0
ARC
  5
303
100
AcDbEntity
  8
0
100
AcDbCircle
 62
7
  6
CONTINUOUS
 10
11.0473183383
 20
6.4363383332
 40
0.495
100
AcDbArc
 50
139.8458068178
 51
164.0530341234
  0
ARC
  5
304
100
AcDbEntity
  8
0
100
AcDbCircle
 62
7
  6
CONTINUOUS
 10
11.0473183383
 20
6.4363383332
 40
0.495
100
AcDbArc
 50
195.9469658766
 51
228.1119911417
  0
ARC
  5
305
100
AcDbEntity
  8
0
100
AcDbCircle
 62
7
  6
CONTINUOUS
 10
11.0473183383
 20
6.4363383332
 40
0.495
100
AcDbArc
 50
15.9469658766
 51
40.1541931822
  0
ARC
  5
306
100
AcDbEntity
  8
0
100
AcDbCircle
 62
7
  6
CONTINUOUS
 10
11.0473183383
 20
6.4363383332
 40
0.495
100
AcDbArc
 50
311.8880088583
 51
344.0530341234
  0
ARC
  5
307
100
AcDbEntity
  8
0
100
AcDbCircle
 62
7
  6
CONTINUOUS
 10
11.6748183383
 20
6.9657575905
 40
0.326
100
AcDbArc
 50
147.5177951966
 51
220.1541931822
  0
ARC
  5
308
100
AcDbEntity
  8
0
100
AcDbCircle
 62
7
  6
CONTINUOUS
 10
12.018114345
 20
9.1409941249
 40
0.3238006214
100
AcDbArc
 50
275.7389932851
 51
277.2783719527
  0
ARC
  5
309
100
AcDbEntity
  8
0
100
AcDbCircle
 62
7
  6
CONTINUOUS
 10
11.4022670227
 20
9.1385049613
 40
0.3228688177
100
AcDbArc
 50
275.3445916797
 51
276.977107285
  0
ARC
  5
30A
100
AcDbEntity
  8
0
100
AcDbCircle
 62
7
  6
CONTINUOUS
 10
11.5291154635
 20
9.120427204
 40
0.2964995449
100
AcDbArc
 50
310.1078554177
 51
316.5113202326
  0
ARC
  5
30B
100
AcDbEntity
  8
0
100
AcDbCircle
 62
7
  6
CONTINUOUS
 10
11.6942877471
 20
9.1094611456
 40
0.2933385785
100
AcDbArc
 50
278.2925999645
 51
278.4403195754
  0
ARC
  5
30C
100
AcDbEntity
  8
0
100
AcDbCircle
 62
7
  6
CONTINUOUS
 10
11.8127725126
 20
9.1129969564
 40
0.2841824776
100
AcDbArc
 50
296.0413104887
 51
310.8299668164
  0
ARC
  5
30D
100
AcDbEntity
  8
0
100
AcDbCircle
 62
7
  6
CONTINUOUS
 10
11.408446796
 20
9.0869833363
 40
0.270978077
100
AcDbArc
 50
277.0034238857
 51
278.7923684301
  0
ARC
  5
30E
100
AcDbEntity
  8
0
100
AcDbCircle
 62
7
  6
CONTINUOUS
 10
11.824762217
 20
9.0988844795
 40
0.2656652062
100
AcDbArc
 50
310.8633785342
 51
316.6070191502
  0
ARC
  5
30F
100
AcDbEntity
  8
0
100
AcDbCircle
 62
7
  6
CONTINUOUS
 10
11.9516027506
 20
9.0856372432
 40
0.2502303197
100
AcDbArc
 50
310.0714642783
 51
317.4336262042
  0
ARC
  5
310
100
AcDbEntity
  8
0
100
AcDbCircle
 62
7
  6
CONTINUOUS
 10
11.1749507325
 20
7.3610156633
 40
0.25
100
AcDbArc
 50
315.1918438316
 51
351.6780538142
  0
ARC
  5
311
100
AcDbEntity
  8
0
100
AcDbCircle
 62
7
  6
CONTINUOUS
 10
11.3424549963
 20
7.5617323598
 40
0.25
100
AcDbArc
 50
288.62987012
 51
358.1054547173
  0
ARC
  5
312
100
AcDbEntity
  8
0
100
AcDbCircle
 62
7
  6
CONTINUOUS
 10
11.9173202263
 20
8.7595905294
 40
0.25
100
AcDbArc
 50
310.6208291884
 51
348.5194848001
  0
ARC
  5
313
100
AcDbEntity
  8
0
100
AcDbCircle
 62
7
  6
CONTINUOUS
 10
11.5127970093
 20
9.0597592845
 40
0.2492007999
100
AcDbArc
 50
295.1780447378
 51
296.5262251616
  0
ARC
  5
314
100
AcDbEntity
  8
0
100
AcDbCircle
 62
7
  6
CONTINUOUS
 10
11.1989171637
 20
9.0248725852
 40
0.2192839443
100
AcDbArc
 50
299.6151834863
 51
302.7832889136
  0
ARC
  5
315
100
AcDbEntity
  8
0
100
AcDbCircle
 62
7
  6
CONTINUOUS
 10
11.2800191627
 20
8.9463413369
 40
0.1135354979
100
AcDbArc
 50
286.7976144814
 51
289.916216827
  0
ARC
  5
316
100
AcDbEntity
  8
0
100
AcDbCircle
 62
7
  6
CONTINUOUS
 10
11.2833183383
 20
5.8698318604
 40
0.056
100
AcDbArc
 50
90.0
 51
180.0
  0
ARC
  5
317
100
AcDbEntity
  8
0
100
AcDbCircle
 62
7
  6
CONTINUOUS
 10
11.0956885807
 20
8.8718897595
 40
0.0497152319
100
AcDbArc
 50
297.148657009
 51
299.159932538
  0
ARC
  5
318
100
AcDbEntity
  8
0
100
AcDbCircle
 62
7
  6
CONTINUOUS
 10
11.3428183383
 20
5.9848318604
 40
0.035
100
AcDbArc
 50
270.0
 51
360.0
  0
ARC
  5
319
100
AcDbEntity
  8
0
100
AcDbCircle
 62
7
  6
CONTINUOUS
 10
12.3012998428
 20
-3.2987959614
 40
12.2029004122
100
AcDbArc
 50
89.6991598182
 51
89.9079022386
  0
ARC
  5
31A
100
AcDbEntity
  8
0
100
AcDbCircle
 62
7
  6
CONTINUOUS
 10
12.3687882908
 20
3.8830270225
 40
5.0210741427
100
AcDbArc
 50
89.5689619964
 51
89.8894521769
  0
ARC
  5
31B
100
AcDbEntity
  8
0
100
AcDbCircle
 62
7
  6
CONTINUOUS
 10
12.1223183383
 20
8.8014833743
 40
0.1
100
AcDbArc
 50
293.5781784782
 51
360.0
  0
ARC
  5
31C
100
AcDbEntity
  8
0
100
AcDbCircle
 62
7
  6
CONTINUOUS
 10
12.01949485
 20
9.1299756239
 40
0.3126960085
100
AcDbArc
 50
277.2832375774
 51
277.4200667611
  0
ARC
  5
31D
100
AcDbEntity
  8
0
100
AcDbCircle
 62
7
  6
CONTINUOUS
 10
12.0270907033
 20
9.1131725799
 40
0.2988097123
100
AcDbArc
 50
286.9210601362
 51
287.9094324698
  0
ARC
  5
31E
100
AcDbEntity
  8
0
100
AcDbCircle
 62
7
  6
CONTINUOUS
 10
12.1794048845
 20
9.0868747992
 40
0.2699970117
100
AcDbArc
 50
275.1530134551
 51
277.1185561274
  0
ARC
  5
31F
100
AcDbEntity
  8
0
100
AcDbCircle
 62
7
  6
CONTINUOUS
 10
12.0946295002
 20
9.0832538956
 40
0.269067974
100
AcDbArc
 50
291.5836049792
 51
292.3543695874
  0
ARC
  5
320
100
AcDbEntity
  8
0
100
AcDbCircle
 62
7
  6
CONTINUOUS
 10
12.0949345546
 20
9.08246625
 40
0.26822334
100
AcDbArc
 50
288.7485363663
 51
291.5849032401
  0
ARC
  5
321
100
AcDbEntity
  8
0
100
AcDbCircle
 62
7
  6
CONTINUOUS
 10
12.1799160481
 20
9.0829007931
 40
0.2659902934
100
AcDbArc
 50
277.1153781974
 51
278.595591899
  0
ARC
  5
322
100
AcDbEntity
  8
0
100
AcDbCircle
 62
7
  6
CONTINUOUS
 10
12.1829751567
 20
9.079089638
 40
0.2643620099
100
AcDbArc
 50
287.7407316029
 51
290.0383877335
  0
ARC
  5
323
100
AcDbEntity
  8
0
100
AcDbCircle
 62
7
  6
CONTINUOUS
 10
12.184129527
 20
9.0759757915
 40
0.2610411215
100
AcDbArc
 50
290.0345400568
 51
295.8331209123
  0
ARC
  5
324
100
AcDbEntity
  8
0
100
AcDbCircle
 62
7
  6
CONTINUOUS
 10
12.0526475339
 20
9.0771822942
 40
0.2544200506
100
AcDbArc
 50
313.2547486659
 51
317.1302932127
  0
ARC
  5
325
100
AcDbEntity
  8
0
100
AcDbCircle
 62
7
  6
CONTINUOUS
 10
12.1748207226
 20
9.0648241608
 40
0.2502426145
100
AcDbArc
 50
292.8591900211
 51
294.403549853
  0
ARC
  5
326
100
AcDbEntity
  8
0
100
AcDbCircle
 62
7
  6
CONTINUOUS
 10
12.0476476702
 20
9.0791656204
 40
0.2447946605
100
AcDbArc
 50
307.0541102028
 51
313.8799875443
  0
ARC
  5
327
100
AcDbEntity
  8
0
100
AcDbCircle
 62
7
  6
CONTINUOUS
 10
12.0529693941
 20
9.0735180147
 40
0.237035164
100
AcDbArc
 50
313.89902913
 51
314.5110905626
  0
ARC
  5
328
100
AcDbEntity
  8
0
100
AcDbCircle
 62
7
  6
CONTINUOUS
 10
12.2237609986
 20
9.0498918667
 40
0.2351975646
100
AcDbArc
 50
289.7112834876
 51
291.3319807221
  0
ARC
  5
329
100
AcDbEntity
  8
0
100
AcDbCircle
 62
7
  6
CONTINUOUS
 10
12.2364441613
 20
9.048867573
 40
0.2338479941
100
AcDbArc
 50
288.5877072695
 51
298.1067655281
  0
ARC
  5
32A
100
AcDbEntity
  8
0
100
AcDbCircle
 62
7
  6
CONTINUOUS
 10
12.058172708
 20
9.0683645362
 40
0.2297123939
100
AcDbArc
 50
314.4867149108
 51
318.5733527689
  0
ARC
  5
32B
100
AcDbEntity
  8
0
100
AcDbCircle
 62
7
  6
CONTINUOUS
 10
12.2326752699
 20
9.0335676863
 40
0.2169906812
100
AcDbArc
 50
278.3527634572
 51
278.6769008624
  0
ARC
  5
32C
100
AcDbEntity
  8
0
100
AcDbCircle
 62
7
  6
CONTINUOUS
 10
12.2329367112
 20
9.0320062225
 40
0.2154076483
100
AcDbArc
 50
278.6708142425
 51
281.0712670495
  0
ARC
  5
32D
100
AcDbEntity
  8
0
100
AcDbCircle
 62
7
  6
CONTINUOUS
 10
12.2118933393
 20
9.0388192334
 40
0.2142458402
100
AcDbArc
 50
318.5487379484
 51
321.0350438227
  0
ARC
  5
32E
100
AcDbEntity
  8
0
100
AcDbCircle
 62
7
  6
CONTINUOUS
 10
12.1471685433
 20
9.052317914
 40
0.2133451144
100
AcDbArc
 50
314.7947200011
 51
320.4152866537
  0
ARC
  5
32F
100
AcDbEntity
  8
0
100
AcDbCircle
 62
7
  6
CONTINUOUS
 10
12.1907172195
 20
9.0312220297
 40
0.213159035
100
AcDbArc
 50
284.0497980859
 51
288.151284433
  0
ARC
  5
330
100
AcDbEntity
  8
0
100
AcDbCircle
 62
7
  6
CONTINUOUS
 10
12.2345079292
 20
9.0241718394
 40
0.2074173529
100
AcDbArc
 50
281.0608969642
 51
283.455100303
  0
ARC
  5
331
100
AcDbEntity
  8
0
100
AcDbCircle
 62
7
  6
CONTINUOUS
 10
12.2355353154
 20
9.0198001031
 40
0.2029265548
100
AcDbArc
 50
283.4601946933
 51
283.7943612807
  0
ARC
  5
332
100
AcDbEntity
  8
0
100
AcDbCircle
 62
7
  6
CONTINUOUS
 10
12.1943446608
 20
9.0200697909
 40
0.2014317175
100
AcDbArc
 50
288.1590481877
 51
289.7029645851
  0
ARC
  5
333
100
AcDbEntity
  8
0
100
AcDbCircle
 62
7
  6
CONTINUOUS
 10
12.2116829977
 20
9.0364753062
 40
0.1976663725
100
AcDbArc
 50
319.6194307002
 51
320.0354050946
  0
ARC
  5
334
100
AcDbEntity
  8
0
100
AcDbCircle
 62
7
  6
CONTINUOUS
 10
12.2141382452
 20
9.0344522204
 40
0.1944851142
100
AcDbArc
 50
320.0276089635
 51
322.6171390659
  0
ARC
  5
335
100
AcDbEntity
  8
0
100
AcDbCircle
 62
7
  6
CONTINUOUS
 10
12.1985007618
 20
9.0087487508
 40
0.1893723091
100
AcDbArc
 50
289.6739331746
 51
292.8480627623
  0
ARC
  5
336
100
AcDbEntity
  8
0
100
AcDbCircle
 62
7
  6
CONTINUOUS
 10
12.0501827638
 20
8.9970804312
 40
0.1759584683
100
AcDbArc
 50
290.7115149217
 51
292.2596945738
  0
ARC
  5
337
100
AcDbEntity
  8
0
100
AcDbCircle
 62
7
  6
CONTINUOUS
 10
12.4567482651
 20
8.9126926994
 40
0.03
100
AcDbArc
 50
115.2253339081
 51
153.8527188576
  0
ARC
  5
338
100
AcDbEntity
  8
0
100
AcDbCircle
 62
7
  6
CONTINUOUS
 10
12.2825687272
 20
8.8118446053
 40
0.018
100
AcDbArc
 50
163.5235160929
 51
170.447072929
  0
ARC
  5
339
100
AcDbEntity
  8
0
100
AcDbCircle
 62
7
  6
CONTINUOUS
 10
12.2646815654
 20
9.0347796092
 40
0.2197581052
100
AcDbArc
 50
277.768165866
 51
281.177393711
  0
ARC
  5
33A
100
AcDbEntity
  8
0
100
AcDbCircle
 62
7
  6
CONTINUOUS
 10
12.2419440027
 20
9.0334800114
 40
0.2175163654
100
AcDbArc
 50
284.131872906
 51
286.5762184698
  0
ARC
  5
33B
100
AcDbEntity
  8
0
100
AcDbCircle
 62
7
  6
CONTINUOUS
 10
12.244282808
 20
9.0254976282
 40
0.2091984855
100
AcDbArc
 50
286.5859937827
 51
288.593062022
  0
ARC
  5
33C
100
AcDbEntity
  8
0
100
AcDbCircle
 62
7
  6
CONTINUOUS
 10
12.2661869014
 20
9.0221410659
 40
0.2071672742
100
AcDbArc
 50
289.863565558
 51
292.3984506247
  0
ARC
  5
33D
100
AcDbEntity
  8
0
100
AcDbCircle
 62
7
  6
CONTINUOUS
 10
12.2668156149
 20
9.0205933834
 40
0.2054967863
100
AcDbArc
 50
292.4008083643
 51
294.1559089047
  0
ARC
  5
33E
100
AcDbEntity
  8
0
100
AcDbCircle
 62
7
  6
CONTINUOUS
 10
12.2683954321
 20
9.0166523246
 40
0.2012547828
100
AcDbArc
 50
281.1405271421
 51
289.8031651888
  0
ARC
  5
33F
100
AcDbEntity
  8
0
100
AcDbCircle
 62
7
  6
CONTINUOUS
 10
12.2675338373
 20
9.0164135695
 40
0.2002066224
100
AcDbArc
 50
281.0192221108
 51
282.8114086621
  0
ARC
  5
340
100
AcDbEntity
  8
0
100
AcDbCircle
 62
7
  6
CONTINUOUS
 10
12.2685462888
 20
9.0122407505
 40
0.1959131909
100
AcDbArc
 50
282.7932897096
 51
287.1173100882
  0
ARC
  5
341
100
AcDbEntity
  8
0
100
AcDbCircle
 62
7
  6
CONTINUOUS
 10
12.2594595098
 20
9.0192215208
 40
0.1959098089
100
AcDbArc
 50
321.7455366131
 51
324.0072520051
  0
ARC
  5
342
100
AcDbEntity
  8
0
100
AcDbCircle
 62
7
  6
CONTINUOUS
 10
12.2693792931
 20
9.0094368696
 40
0.1929883351
100
AcDbArc
 50
287.1259667202
 51
288.6006150219
  0
ARC
  5
343
100
AcDbEntity
  8
0
100
AcDbCircle
 62
7
  6
CONTINUOUS
 10
12.2694942634
 20
9.0091058073
 40
0.1926378939
100
AcDbArc
 50
288.5996138771
 51
290.1141820678
  0
ARC
  5
344
100
AcDbEntity
  8
0
100
AcDbCircle
 62
7
  6
CONTINUOUS
 10
12.2382643888
 20
9.0097635978
 40
0.1925289823
100
AcDbArc
 50
283.7177965401
 51
289.675313403
  0
ARC
  5
345
100
AcDbEntity
  8
0
100
AcDbCircle
 62
7
  6
CONTINUOUS
 10
12.2754200912
 20
9.0017100761
 40
0.1871193873
100
AcDbArc
 50
296.5899298748
 51
328.5394820993
  0
ARC
  5
346
100
AcDbEntity
  8
0
100
AcDbCircle
 62
7
  6
CONTINUOUS
 10
12.2714966919
 20
9.0039184601
 40
0.1870783327
100
AcDbArc
 50
290.0846546786
 51
294.9035199412
  0
ARC
  5
347
100
AcDbEntity
  8
0
100
AcDbCircle
 62
7
  6
CONTINUOUS
 10
12.2769222209
 20
8.9987505282
 40
0.1838001311
100
AcDbArc
 50
292.1172619739
 51
294.0415272129
  0
ARC
  5
348
100
AcDbEntity
  8
0
100
AcDbCircle
 62
7
  6
CONTINUOUS
 10
12.2771397174
 20
8.9983256835
 40
0.183325085
100
AcDbArc
 50
289.0346798691
 51
290.8156380635
  0
ARC
  5
349
100
AcDbEntity
  8
0
100
AcDbCircle
 62
7
  6
CONTINUOUS
 10
12.2772459946
 20
8.9980352086
 40
0.1830149603
100
AcDbArc
 50
294.0401915967
 51
296.5936909371
  0
ARC
  5
34A
100
AcDbEntity
  8
0
100
AcDbCircle
 62
7
  6
CONTINUOUS
 10
12.277859339
 20
8.996444585
 40
0.181311042
100
AcDbArc
 50
290.8143171641
 51
292.1172730072
  0
ARC
  5
34B
100
AcDbEntity
  8
0
100
AcDbCircle
 62
7
  6
CONTINUOUS
 10
12.2585039948
 20
9.0184918521
 40
0.1809198297
100
AcDbArc
 50
322.8248145829
 51
323.3060451175
  0
ARC
  5
34C
100
AcDbEntity
  8
0
100
AcDbCircle
 62
7
  6
CONTINUOUS
 10
12.281833603
 20
9.0014179447
 40
0.1807961778
100
AcDbArc
 50
326.9285333097
 51
327.4306804007
  0
ARC
  5
34D
100
AcDbEntity
  8
0
100
AcDbCircle
 62
7
  6
CONTINUOUS
 10
12.2782456942
 20
8.9949232657
 40
0.1797480146
100
AcDbArc
 50
281.9344089398
 51
289.0551320243
  0
ARC
  5
34E
100
AcDbEntity
  8
0
100
AcDbCircle
 62
7
  6
CONTINUOUS
 10
12.259850182
 20
9.017499637
 40
0.1792475161
100
AcDbArc
 50
323.3032306449
 51
325.6541321265
  0
ARC
  5
34F
100
AcDbEntity
  8
0
100
AcDbCircle
 62
7
  6
CONTINUOUS
 10
12.2771970467
 20
8.9918131909
 40
0.1770642067
100
AcDbArc
 50
280.1290174744
 51
286.5571497736
  0
ARC
  5
350
100
AcDbEntity
  8
0
100
AcDbCircle
 62
7
  6
CONTINUOUS
 10
12.277334336
 20
8.9912905917
 40
0.1765241539
100
AcDbArc
 50
286.5627744532
 51
287.0424763828
  0
ARC
  5
351
100
AcDbEntity
  8
0
100
AcDbCircle
 62
7
  6
CONTINUOUS
 10
12.2811375657
 20
9.0017296238
 40
0.1663449987
100
AcDbArc
 50
328.6320792654
 51
329.1274037782
  0
CIRCLE
  5
352
100
AcDbEntity
  8
0
100
AcDbCircle
 62
7
  6
CONTINUOUS
 10
12.851268966
 20
6.4363383332
 40
0.25
  0
ARC
  5
353
100
AcDbEntity
  8
0
100
AcDbCircle
 62
7
  6
CONTINUOUS
 10
12.9915530533
 20
7.5071833139
 40
1.4
100
AcDbArc
 50
130.6208291884
 51
178.1054547173
  0
SPLINE
  5
354
100
AcDbEntity
  8
0
100
AcDbSpline
 62
7
  6
CONTINUOUS
 70
0
 71
3
 72
13
 73
9
 74
0
 42
0.0000001
 43
0.0000001
 44
0.0000000001
 40
0.0
 40
0.0
 40
0.0
 40
0.0
 40
0.0526333575
 40
0.1225852502
 40
0.2129038305
 40
0.3249424071
 40
0.6165174765
 40
1.0
 40
1.0
 40
1.0
 40
1.0
 10
9.8544064405
 20
8.817604927
 30
0.0
 10
9.8543631902
 20
8.8175508214
 30
0.0
 10
9.8542313095
 20
8.8174509799
 30
0.0
 10
9.8539721225
 20
8.8173424066
 30
0.0
 10
9.8536247152
 20
8.8172507845
 30
0.0
 10
9.8529832508
 20
8.8171427694
 30
0.0
 10
9.8519485322
 20
8.8170663827
 30
0.0
 10
9.8510601848
 20
8.8170518684
 30
0.0
 10
9.8505555063
 20
8.8170518684
 30
0.0
  0
SPLINE
  5
355
100
AcDbEntity
  8
0
100
AcDbSpline
 62
7
  6
CONTINUOUS
 70
0
 71
3
 72
14
 73
10
 74
0
 42
0.0000001
 43
0.0000001
 44
0.0000000001
 40
0.0
 40
0.0
 40
0.0
 40
0.0
 40
0.0572912101
 40
0.1291831307
 40
0.2198770635
 40
0.3316258306
 40
0.4652791081
 40
0.6211642929
 40
1.0
 40
1.0
 40
1.0
 40
1.0
 10
9.918879794
 20
8.8186638939
 30
0.0
 10
9.9187590734
 20
8.8185046445
 30
0.0
 10
9.9184077951
 20
8.8182063143
 30
0.0
 10
9.9177094289
 20
8.8178796852
 30
0.0
 10
9.9167876881
 20
8.8176132384
 30
0.0
 10
9.9156334878
 20
8.8174015502
 30
0.0
 10
9.9142423587
 20
8.8172404079
 30
0.0
 10
9.9119159405
 20
8.8170810618
 30
0.0
 10
9.9100497911
 20
8.8170518684
 30
0.0
 10
9.9087283942
 20
8.8170518684
 30
0.0
  0
SPLINE
  5
356
100
AcDbEntity
  8
0
100
AcDbSpline
 62
7
  6
CONTINUOUS
 70
0
 71
3
 72
14
 73
10
 74
0
 42
0.0000001
 43
0.0000001
 44
0.0000000001
 40
0.0
 40
0.0
 40
0.0
 40
0.0
 40
0.0578902525
 40
0.1297920307
 40
0.220104598
 40
0.3313147063
 40
0.4648609112
 40
0.6210097412
 40
1.0
 40
1.0
 40
1.0
 40
1.0
 10
9.9974274192
 20
8.8191251719
 30
0.0
 10
9.9972823335
 20
8.8189207497
 30
0.0
 10
9.9968553965
 20
8.8185350647
 30
0.0
 10
9.9959950444
 20
8.8181117669
 30
0.0
 10
9.9948581952
 20
8.8177687698
 30
0.0
 10
9.9934310472
 20
8.8174985869
 30
0.0
 10
9.991706286
 20
8.8172933716
 30
0.0
 10
9.9888172023
 20
8.8170897776
 30
0.0
 10
9.9864986245
 20
8.8170518684
 30
0.0
 10
9.9848575256
 20
8.8170518684
 30
0.0
  0
SPLINE
  5
357
100
AcDbEntity
  8
0
100
AcDbSpline
 62
7
  6
CONTINUOUS
 70
0
 71
3
 72
15
 73
11
 74
0
 42
0.0000001
 43
0.0000001
 44
0.0000000001
 40
0.0
 40
0.0
 40
0.0
 40
0.0
 40
0.0668260517
 40
0.1434714799
 40
0.2354378149
 40
0.3460334321
 40
0.4773063965
 40
0.6303225015
 40
0.8047804505
 40
1.0
 40
1.0
 40
1.0
 40
1.0
 10
10.1031255053
 20
8.8219780103
 30
0.0
 10
10.1028044791
 20
8.821481668
 30
0.0
 10
10.1019168465
 20
8.8205387581
 30
0.0
 10
10.1001024787
 20
8.8194806574
 30
0.0
 10
10.097763513
 20
8.8186586067
 30
0.0
 10
10.0948726709
 20
8.8180332373
 30
0.0
 10
10.0914073575
 20
8.817575449
 30
0.0
 10
10.0873602072
 20
8.8172628428
 30
0.0
 10
10.0827393196
 20
8.8170849339
 30
0.0
 10
10.0794691198
 20
8.8170518684
 30
0.0
 10
10.0777422987
 20
8.8170518684
 30
0.0
  0
SPLINE
  5
358
100
AcDbEntity
  8
0
100
AcDbSpline
 62
7
  6
CONTINUOUS
 70
0
 71
3
 72
16
 73
12
 74
0
 42
0.0000001
 43
0.0000001
 44
0.0000000001
 40
0.0
 40
0.0
 40
0.0
 40
0.0
 40
0.0325362011
 40
0.0665073885
 40
0.1424423109
 40
0.2339738086
 40
0.3445861274
 40
0.4761136021
 40
0.6295788106
 40
0.8046723081
 40
1.0
 40
1.0
 40
1.0
 40
1.0
 10
10.2123526861
 20
8.822395219
 30
0.0
 10
10.2122029249
 20
8.8221340801
 30
0.0
 10
10.211847497
 20
8.8216271502
 30
0.0
 10
10.2109145562
 20
8.8206886269
 30
0.0
 10
10.2093114228
 20
8.8196936753
 30
0.0
 10
10.2068873469
 20
8.8188043372
 30
0.0
 10
10.2038703334
 20
8.8181224651
 30
0.0
 10
10.2002415449
 20
8.8176233968
 30
0.0
 10
10.1959966833
 20
8.8172838622
 30
0.0
 10
10.191152586
 20
8.8170887389
 30
0.0
 10
10.187725096
 20
8.8170518684
 30
0.0
 10
10.1859178652
 20
8.8170518684
 30
0.0
  0
SPLINE
  5
359
100
AcDbEntity
  8
0
100
AcDbSpline
 62
7
  6
CONTINUOUS
 70
0
 71
3
 72
11
 73
7
 74
0
 42
0.0000001
 43
0.0000001
 44
0.0000000001
 40
0.0
 40
0.0
 40
0.0
 40
0.0
 40
0.2243101327
 40
0.460096303
 40
0.7162745483
 40
1.0
 40
1.0
 40
1.0
 40
1.0
 10
10.1254339615
 20
8.8189435907
 30
0.0
 10
10.1255728342
 20
8.8191853181
 30
0.0
 10
10.1258075014
 20
8.8197116064
 30
0.0
 10
10.1260097678
 20
8.8205831336
 30
0.0
 10
10.1260718828
 20
8.8215486661
 30
0.0
 10
10.1260258562
 20
8.8222198617
 30
0.0
 10
10.1259844848
 20
8.8225700485
 30
0.0
  0
SPLINE
  5
35A
100
AcDbEntity
  8
0
100
AcDbSpline
 62
7
  6
CONTINUOUS
 70
0
 71
3
 72
9
 73
5
 74
0
 42
0.0000001
 43
0.0000001
 44
0.0000000001
 40
0.0
 40
0.0
 40
0.0
 40
0.0
 40
0.4518773313
 40
1.0
 40
1.0
 40
1.0
 40
1.0
 10
10.1259844848
 20
8.8225700485
 30
0.0
 10
10.1258976203
 20
8.8233053079
 30
0.0
 10
10.1255413877
 20
8.8249124078
 30
0.0
 10
10.125002479
 20
8.8264615863
 30
0.0
 10
10.1246789122
 20
8.8272993362
 30
0.0
  0
SPLINE
  5
35B
100
AcDbEntity
  8
0
100
AcDbSpline
 62
7
  6
CONTINUOUS
 70
0
 71
3
 72
18
 73
14
 74
0
 42
0.0000001
 43
0.0000001
 44
0.0000000001
 40
0.0
 40
0.0
 40
0.0
 40
0.0
 40
0.0400223908
 40
0.0799817819
 40
0.120881967
 40
0.1636741882
 40
0.2091963321
 40
0.2581271575
 40
0.3681548385
 40
0.4966394034
 40
0.6449721392
 40
0.8133328982
 40
1.0
 40
1.0
 40
1.0
 40
1.0
 10
10.3552936701
 20
8.8289981104
 30
0.0
 10
10.3549918074
 20
8.8283863308
 30
0.0
 10
10.3542974876
 20
8.8272060009
 30
0.0
 10
10.3529908247
 20
8.8256031818
 30
0.0
 10
10.3514285136
 20
8.8241777842
 30
0.0
 10
10.3496120681
 20
8.8229219362
 30
0.0
 10
10.3475415984
 20
8.82182321
 30
0.0
 10
10.344312103
 20
8.820500005
 30
0.0
 10
10.3395652632
 20
8.8192193374
 30
0.0
 10
10.3330478518
 20
8.8181779116
 30
0.0
 10
10.325485588
 20
8.8175008577
 30
0.0
 10
10.3169122129
 20
8.8171217517
 30
0.0
 10
10.3108600528
 20
8.8170518684
 30
0.0
 10
10.3076782317
 20
8.8170518684
 30
0.0
  0
LINE
  5
35C
100
AcDbEntity
  8
0
100
AcDbLine
 62
7
  6
CONTINUOUS
 10
9.8112562833
 20
8.8170518684
 11
9.817143921
 21
8.817050174
  0
LINE
  5
35D
100
AcDbEntity
  8
0
100
AcDbLine
 62
7
  6
CONTINUOUS
 10
9.817143921
 20
8.817050174
 11
9.823752421
 21
8.8170454476
  0
LINE
  5
35E
100
AcDbEntity
  8
0
100
AcDbLine
 62
7
  6
CONTINUOUS
 10
9.823752421
 20
8.8170454476
 11
9.826082007
 21
8.8170433199
  0
LINE
  5
35F
100
AcDbEntity
  8
0
100
AcDbLine
 62
7
  6
CONTINUOUS
 10
9.7914504972
 20
8.8170518684
 11
9.793494319
 21
8.817050385
  0
LINE
  5
360
100
AcDbEntity
  8
0
100
AcDbLine
 62
7
  6
CONTINUOUS
 10
9.793494319
 20
8.817050385
 11
9.7961672753
 21
8.817046226
  0
LINE
  5
361
100
AcDbEntity
  8
0
100
AcDbLine
 62
7
  6
CONTINUOUS
 10
9.7961672753
 20
8.817046226
 11
9.798402329
 21
8.8170419718
  0
LINE
  5
362
100
AcDbEntity
  8
0
100
AcDbLine
 62
7
  6
CONTINUOUS
 10
12.2833803933
 20
8.8170518684
 11
12.2944658376
 21
8.8170431875
  0
LINE
  5
363
100
AcDbEntity
  8
0
100
AcDbLine
 62
7
  6
CONTINUOUS
 10
12.3031861794
 20
8.8170518684
 11
12.3056017783
 21
8.8170418636
  0
SPLINE
  5
364
100
AcDbEntity
  8
0
100
AcDbSpline
 62
7
  6
CONTINUOUS
 70
0
 71
3
 72
11
 73
7
 74
0
 42
0.0000001
 43
0.0000001
 44
0.0000000001
 40
0.0
 40
0.0
 40
0.0
 40
0.0
 40
0.2483398227
 40
0.4962542801
 40
0.7461438095
 40
1.0
 40
1.0
 40
1.0
 40
1.0
 10
9.7359340756
 20
8.834543105
 30
0.0
 10
9.7285425758
 20
8.8383751052
 30
0.0
 10
9.7143065647
 20
8.8471210989
 30
0.0
 10
9.6951007074
 20
8.8632902238
 30
0.0
 10
9.6784206435
 20
8.8823031594
 30
0.0
 10
9.6692837419
 20
8.8965970995
 30
0.0
 10
9.6652511974
 20
8.9040918192
 30
0.0
  0
LINE
  5
365
100
AcDbEntity
  8
0
100
AcDbLine
 62
7
  6
CONTINUOUS
 10
12.315416108
 20
8.8190605093
 11
12.3068333786
 21
8.8174926041
  0
LINE
  5
366
100
AcDbEntity
  8
0
100
AcDbLine
 62
7
  6
CONTINUOUS
 10
12.3068333786
 20
8.8174926041
 11
12.3050365338
 21
8.8172364458
  0
LINE
  5
367
100
AcDbEntity
  8
0
100
AcDbLine
 62
7
  6
CONTINUOUS
 10
12.3050365338
 20
8.8172364458
 11
12.3031861794
 21
8.8170518684
  0
LINE
  5
368
100
AcDbEntity
  8
0
100
AcDbLine
 62
7
  6
CONTINUOUS
 10
9.8112562833
 20
8.8170518684
 11
9.7984679283
 21
8.8170398134
  0
LINE
  5
369
100
AcDbEntity
  8
0
100
AcDbLine
 62
7
  6
CONTINUOUS
 10
12.2833803933
 20
8.8170518684
 11
12.26506345
 21
8.8170398134
  0
SPLINE
  5
36A
100
AcDbEntity
  8
0
100
AcDbSpline
 62
7
  6
CONTINUOUS
 70
0
 71
3
 72
9
 73
5
 74
0
 42
0.0000001
 43
0.0000001
 44
0.0000000001
 40
0.0
 40
0.0
 40
0.0
 40
0.0
 40
0.5477157376
 40
1.0
 40
1.0
 40
1.0
 40
1.0
 10
12.3058009928
 20
8.8198981339
 30
0.0
 10
12.3031863483
 20
8.8193889356
 30
0.0
 10
12.2983936178
 20
8.8185537582
 30
0.0
 10
12.2935726344
 20
8.8179034462
 30
0.0
 10
12.2913872335
 20
8.817653537
 30
0.0
  0
LINE
  5
36B
100
AcDbEntity
  8
0
100
AcDbLine
 62
7
  6
CONTINUOUS
 10
12.2913872335
 20
8.817653537
 11
12.2833803933
 21
8.8170518684
  0
SPLINE
  5
36C
100
AcDbEntity
  8
0
100
AcDbSpline
 62
7
  6
CONTINUOUS
 70
0
 71
3
 72
9
 73
5
 74
0
 42
0.0000001
 43
0.0000001
 44
0.0000000001
 40
0.0
 40
0.0
 40
0.0
 40
0.0
 40
0.225220715
 40
1.0
 40
1.0
 40
1.0
 40
1.0
 10
9.7894010514
 20
8.8191895906
 30
0.0
 10
9.7876781286
 20
8.8196581412
 30
0.0
 10
9.780067332
 20
8.8218799632
 30
0.0
 10
9.7726346252
 20
8.824710976
 30
0.0
 10
9.7670272047
 20
8.8272178338
 30
0.0
  0
SPLINE
  5
36D
100
AcDbEntity
  8
0
100
AcDbSpline
 62
7
  6
CONTINUOUS
 70
0
 71
3
 72
11
 73
7
 74
0
 42
0.0000001
 43
0.0000001
 44
0.0000000001
 40
0.0
 40
0.0
 40
0.0
 40
0.0
 40
0.2481241955
 40
0.496843817
 40
0.7471762813
 40
1.0
 40
1.0
 40
1.0
 40
1.0
 10
12.4318762258
 20
8.9039362382
 30
0.0
 10
12.4269389533
 20
8.8964311626
 30
0.0
 10
12.4159471409
 20
8.8821000349
 30
0.0
 10
12.3965630765
 20
8.8631089713
 30
0.0
 10
12.3746078243
 20
8.8468762591
 30
0.0
 10
12.3585754447
 20
8.8380913667
 30
0.0
 10
12.3502737945
 20
8.8342350175
 30
0.0
  0
LINE
  5
36E
100
AcDbEntity
  8
0
100
AcDbLine
 62
7
  6
CONTINUOUS
 10
12.2440811702
 20
8.8170518684
 11
12.2135471646
 21
8.8170382038
  0
SPLINE
  5
36F
100
AcDbEntity
  8
0
100
AcDbSpline
 62
7
  6
CONTINUOUS
 70
0
 71
3
 72
11
 73
7
 74
0
 42
0.0000001
 43
0.0000001
 44
0.0000000001
 40
0.0
 40
0.0
 40
0.0
 40
0.0
 40
0.3187609095
 40
0.595466338
 40
0.824182466
 40
1.0
 40
1.0
 40
1.0
 40
1.0
 10
12.2641969398
 20
8.8188787483
 30
0.0
 10
12.2620721502
 20
8.8185667853
 30
0.0
 10
12.2580939886
 20
8.8180428152
 30
0.0
 10
12.2525689835
 20
8.8174804947
 30
0.0
 10
12.2479908184
 20
8.817149343
 30
0.0
 10
12.2452656952
 20
8.8170518684
 30
0.0
 10
12.2440811702
 20
8.8170518684
 30
0.0
  0
SPLINE
  5
370
100
AcDbEntity
  8
0
100
AcDbSpline
 62
7
  6
CONTINUOUS
 70
0
 71
3
 72
11
 73
7
 74
0
 42
0.0000001
 43
0.0000001
 44
0.0000000001
 40
0.0
 40
0.0
 40
0.0
 40
0.0
 40
0.2435742039
 40
0.4890123452
 40
0.7400808846
 40
1.0
 40
1.0
 40
1.0
 40
1.0
 10
9.7592076335
 20
8.8310085455
 30
0.0
 10
9.7519810795
 20
8.8347929827
 30
0.0
 10
9.7381091956
 20
8.8436843121
 30
0.0
 10
9.7198172261
 20
8.8605908744
 30
0.0
 10
9.7043948607
 20
8.880840439
 30
0.0
 10
9.6964117712
 20
8.896081057
 30
0.0
 10
9.692998047
 20
8.9040886861
 30
0.0
  0
SPLINE
  5
371
100
AcDbEntity
  8
0
100
AcDbSpline
 62
7
  6
CONTINUOUS
 70
0
 71
3
 72
12
 73
8
 74
0
 42
0.0000001
 43
0.0000001
 44
0.0000000001
 40
0.0
 40
0.0
 40
0.0
 40
0.0
 40
0.2463150168
 40
0.3703409735
 40
0.494897872
 40
0.7459182348
 40
1.0
 40
1.0
 40
1.0
 40
1.0
 10
12.4065616378
 20
8.9039590794
 30
0.0
 10
12.4005337856
 20
8.8958358205
 30
0.0
 10
12.3905301908
 20
8.8842848285
 30
0.0
 10
12.3756455513
 20
8.8704292648
 30
0.0
 10
12.3596652129
 20
8.8575353546
 30
0.0
 10
12.337882647
 20
8.8434449104
 30
0.0
 10
12.3190386267
 20
8.8346038322
 30
0.0
 10
12.3093191025
 20
8.8308080807
 30
0.0
  0
LINE
  5
372
100
AcDbEntity
  8
0
100
AcDbLine
 62
7
  6
CONTINUOUS
 10
12.1859082824
 20
8.8170518684
 11
12.1480222909
 21
8.8170398134
  0
SPLINE
  5
373
100
AcDbEntity
  8
0
100
AcDbSpline
 62
7
  6
CONTINUOUS
 70
0
 71
3
 72
9
 73
5
 74
0
 42
0.0000001
 43
0.0000001
 44
0.0000000001
 40
0.0
 40
0.0
 40
0.0
 40
0.0
 40
0.2613995814
 40
1.0
 40
1.0
 40
1.0
 40
1.0
 10
12.2424647998
 20
8.8244396269
 30
0.0
 10
12.2405001131
 20
8.8239465533
 30
0.0
 10
12.2329585884
 20
8.8221624497
 30
0.0
 10
12.2253299518
 20
8.8207537152
 30
0.0
 10
12.2196707637
 20
8.8198981339
 30
0.0
  0
SPLINE
  5
374
100
AcDbEntity
  8
0
100
AcDbSpline
 62
7
  6
CONTINUOUS
 70
0
 71
3
 72
9
 73
5
 74
0
 42
0.0000001
 43
0.0000001
 44
0.0000000001
 40
0.0
 40
0.0
 40
0.0
 40
0.0
 40
0.5556922715
 40
1.0
 40
1.0
 40
1.0
 40
1.0
 10
12.203654897
 20
8.8179690104
 30
0.0
 10
12.2003758336
 20
8.8176733495
 30
0.0
 10
12.1944652151
 20
8.8172448152
 30
0.0
 10
12.1885407169
 20
8.8170518684
 30
0.0
 10
12.1859082824
 20
8.8170518684
 30
0.0
  0
SPLINE
  5
375
100
AcDbEntity
  8
0
100
AcDbSpline
 62
7
  6
CONTINUOUS
 70
0
 71
3
 72
9
 73
5
 74
0
 42
0.0000001
 43
0.0000001
 44
0.0000000001
 40
0.0
 40
0.0
 40
0.0
 40
0.0
 40
0.4953435042
 40
1.0
 40
1.0
 40
1.0
 40
1.0
 10
12.3653727281
 20
8.9039362382
 30
0.0
 10
12.3539577484
 20
8.8896618314
 30
0.0
 10
12.3271843568
 20
8.8636790275
 30
0.0
 10
12.2951684774
 20
8.8446321968
 30
0.0
 10
12.2782111744
 20
8.8369387058
 30
0.0
  0
LINE
  5
376
100
AcDbEntity
  8
0
100
AcDbLine
 62
7
  6
CONTINUOUS
 10
12.109779151
 20
8.8170518684
 11
12.0594306954
 21
8.8170382038
  0
SPLINE
  5
377
100
AcDbEntity
  8
0
100
AcDbSpline
 62
7
  6
CONTINUOUS
 70
0
 71
3
 72
13
 73
9
 74
0
 42
0.0000001
 43
0.0000001
 44
0.0000000001
 40
0.0
 40
0.0
 40
0.0
 40
0.0
 40
0.2917131953
 40
0.5665401205
 40
0.692919778
 40
0.8089582504
 40
0.9121381786
 40
1.0
 40
1.0
 40
1.0
 40
1.0
 10
12.1811456333
 20
8.8284752855
 30
0.0
 10
12.1744658464
 20
8.8262082263
 30
0.0
 10
12.1612192661
 20
8.8225872175
 30
0.0
 10
12.1446928836
 20
8.8197172133
 30
0.0
 10
12.1322678251
 20
8.8182653671
 30
0.0
 10
12.1239388929
 20
8.8175636447
 30
0.0
 10
12.1165234848
 20
8.8171574508
 30
0.0
 10
12.1119037669
 20
8.8170518684
 30
0.0
 10
12.109779151
 20
8.8170518684
 30
0.0
  0
SPLINE
  5
378
100
AcDbEntity
  8
0
100
AcDbSpline
 62
7
  6
CONTINUOUS
 70
0
 71
3
 72
9
 73
5
 74
0
 42
0.0000001
 43
0.0000001
 44
0.0000000001
 40
0.0
 40
0.0
 40
0.0
 40
0.0
 40
0.4959514453
 40
1.0
 40
1.0
 40
1.0
 40
1.0
 10
12.2943790687
 20
8.9039590794
 30
0.0
 10
12.2813894535
 20
8.8888515987
 30
0.0
 10
12.2512479947
 20
8.86162559
 30
0.0
 10
12.2156927359
 20
8.8421080671
 30
0.0
 10
12.1969651846
 20
8.8344065883
 30
0.0
  0
LINE
  5
379
100
AcDbEntity
  8
0
100
AcDbLine
 62
7
  6
CONTINUOUS
 10
12.0168943778
 20
8.8170518684
 11
11.9618198543
 21
8.8170398134
  0
SPLINE
  5
37A
100
AcDbEntity
  8
0
100
AcDbSpline
 62
7
  6
CONTINUOUS
 70
0
 71
3
 72
9
 73
5
 74
0
 42
0.0000001
 43
0.0000001
 44
0.0000000001
 40
0.0
 40
0.0
 40
0.0
 40
0.0
 40
0.2564131548
 40
1.0
 40
1.0
 40
1.0
 40
1.0
 10
12.1124127347
 20
8.8324936357
 30
0.0
 10
12.1080878432
 20
8.8308578108
 30
0.0
 10
12.0909765657
 20
8.8251220535
 30
0.0
 10
12.0731741853
 20
8.8216298489
 30
0.0
 10
12.0598773202
 20
8.8198981339
 30
0.0
  0
SPLINE
  5
37B
100
AcDbEntity
  8
0
100
AcDbSpline
 62
7
  6
CONTINUOUS
 70
0
 71
3
 72
9
 73
5
 74
0
 42
0.0000001
 43
0.0000001
 44
0.0000000001
 40
0.0
 40
0.0
 40
0.0
 40
0.0
 40
0.5399608093
 40
1.0
 40
1.0
 40
1.0
 40
1.0
 10
12.0504934108
 20
8.8188164743
 30
0.0
 10
12.0444664445
 20
8.8182092808
 30
0.0
 10
12.0332736444
 20
8.8173814887
 30
0.0
 10
12.0220552635
 20
8.8170518684
 30
0.0
 10
12.0168943778
 20
8.8170518684
 30
0.0
  0
LINE
  5
37C
100
AcDbEntity
  8
0
100
AcDbLine
 62
7
  6
CONTINUOUS
 10
9.8505555063
 20
8.8170518684
 11
9.8336287564
 21
8.8170454476
  0
LINE
  5
37D
100
AcDbEntity
  8
0
100
AcDbLine
 62
7
  6
CONTINUOUS
 10
9.8336287564
 20
8.8170454476
 11
9.8261587604
 21
8.8170382038
  0
SPLINE
  5
37E
100
AcDbEntity
  8
0
100
AcDbSpline
 62
7
  6
CONTINUOUS
 70
0
 71
3
 72
11
 73
7
 74
0
 42
0.0000001
 43
0.0000001
 44
0.0000000001
 40
0.0
 40
0.0
 40
0.0
 40
0.0
 40
0.2479850598
 40
0.4977461607
 40
0.748645859
 40
1.0
 40
1.0
 40
1.0
 40
1.0
 10
12.2160510257
 20
8.9039362382
 30
0.0
 10
12.2093288698
 20
8.8963939181
 30
0.0
 10
12.1949115737
 20
8.8820551293
 30
0.0
 10
12.1709141567
 20
8.8631280343
 30
0.0
 10
12.1448313005
 20
8.8469379678
 30
0.0
 10
12.1263135537
 20
8.8381152893
 30
0.0
 10
12.1168367493
 20
8.8342350175
 30
0.0
  0
SPLINE
  5
37F
100
AcDbEntity
  8
0
100
AcDbSpline
 62
7
  6
CONTINUOUS
 70
0
 71
3
 72
9
 73
5
 74
0
 42
0.0000001
 43
0.0000001
 44
0.0000000001
 40
0.0
 40
0.0
 40
0.0
 40
0.0
 40
0.2072273454
 40
1.0
 40
1.0
 40
1.0
 40
1.0
 10
9.8261587604
 20
8.8170382038
 30
0.0
 10
9.8250439614
 20
8.8173419915
 30
0.0
 10
9.8196876649
 20
8.8188921992
 30
0.0
 10
9.8144445577
 20
8.8208330125
 30
0.0
 10
9.8103798516
 20
8.8225700485
 30
0.0
  0
LINE
  5
380
100
AcDbEntity
  8
0
100
AcDbLine
 62
7
  6
CONTINUOUS
 10
11.9087188114
 20
8.8170518684
 11
11.8417194845
 21
8.8170382038
  0
SPLINE
  5
381
100
AcDbEntity
  8
0
100
AcDbSpline
 62
7
  6
CONTINUOUS
 70
0
 71
3
 72
13
 73
9
 74
0
 42
0.0000001
 43
0.0000001
 44
0.0000000001
 40
0.0
 40
0.0
 40
0.0
 40
0.0
 40
0.1330499737
 40
0.2671339749
 40
0.5321917422
 40
0.7822122815
 40
0.8963751558
 40
1.0
 40
1.0
 40
1.0
 40
1.0
 10
11.9879618362
 20
8.8284752855
 30
0.0
 10
11.9845895428
 20
8.8273190504
 30
0.0
 10
11.9777352399
 20
8.8252361142
 30
0.0
 10
11.9638629665
 20
8.8219071962
 30
0.0
 10
11.9466624546
 20
8.8191537388
 30
0.0
 10
11.9298547295
 20
8.817701264
 30
0.0
 10
11.9173311369
 20
8.8171483368
 30
0.0
 10
11.9114953833
 20
8.8170518684
 30
0.0
 10
11.9087188114
 20
8.8170518684
 30
0.0
  0
SPLINE
  5
382
100
AcDbEntity
  8
0
100
AcDbSpline
 62
7
  6
CONTINUOUS
 70
0
 71
3
 72
11
 73
7
 74
0
 42
0.0000001
 43
0.0000001
 44
0.0000000001
 40
0.0
 40
0.0
 40
0.0
 40
0.0
 40
0.2501224164
 40
0.5009203288
 40
0.7512487731
 40
1.0
 40
1.0
 40
1.0
 40
1.0
 10
12.1038390875
 20
8.9039590794
 30
0.0
 10
12.0959420617
 20
8.8954083795
 30
0.0
 10
12.0790060151
 20
8.8792860786
 30
0.0
 10
12.0508490289
 20
8.8584248617
 30
0.0
 10
12.0204236789
 20
8.8411684937
 30
0.0
 10
11.9989117753
 20
8.8322296161
 30
0.0
 10
11.9879618362
 20
8.8284752855
 30
0.0
  0
SPLINE
  5
383
100
AcDbEntity
  8
0
100
AcDbSpline
 62
7
  6
CONTINUOUS
 70
0
 71
3
 72
11
 73
7
 74
0
 42
0.0000001
 43
0.0000001
 44
0.0000000001
 40
0.0
 40
0.0
 40
0.0
 40
0.0
 40
0.2359466822
 40
0.4790993381
 40
0.7329758383
 40
1.0
 40
1.0
 40
1.0
 40
1.0
 10
9.7835604176
 20
8.8381636181
 30
0.0
 10
9.7785845386
 20
8.8420471646
 30
0.0
 10
9.7691296812
 20
8.8508009807
 30
0.0
 10
9.7570219154
 20
8.8663227526
 30
0.0
 10
9.7470079127
 20
8.8842241406
 30
0.0
 10
9.7419775503
 20
8.8972743459
 30
0.0
 10
9.7398445087
 20
8.9040918192
 30
0.0
  0
LINE
  5
384
100
AcDbEntity
  8
0
100
AcDbLine
 62
7
  6
CONTINUOUS
 10
11.7869584449
 20
8.8170518684
 11
11.7181559242
 21
8.8170398134
  0
SPLINE
  5
385
100
AcDbEntity
  8
0
100
AcDbSpline
 62
7
  6
CONTINUOUS
 70
0
 71
3
 72
13
 73
9
 74
0
 42
0.0000001
 43
0.0000001
 44
0.0000000001
 40
0.0
 40
0.0
 40
0.0
 40
0.0
 40
0.127766974
 40
0.2575460205
 40
0.5180277172
 40
0.7707870656
 40
0.8895617179
 40
1.0
 40
1.0
 40
1.0
 40
1.0
 10
11.8944398229
 20
8.8342350175
 30
0.0
 10
11.8901460302
 20
8.8324149307
 30
0.0
 10
11.8813133521
 20
8.8291556384
 30
0.0
 10
11.8631008903
 20
8.8240187129
 30
0.0
 10
11.8399339697
 20
8.8199203169
 30
0.0
 10
11.8169349131
 20
8.817917335
 30
0.0
 10
11.7993564948
 20
8.8171755624
 30
0.0
 10
11.7909895525
 20
8.8170518684
 30
0.0
 10
11.7869584449
 20
8.8170518684
 30
0.0
  0
SPLINE
  5
386
100
AcDbEntity
  8
0
100
AcDbSpline
 62
7
  6
CONTINUOUS
 70
0
 71
3
 72
11
 73
7
 74
0
 42
0.0000001
 43
0.0000001
 44
0.0000000001
 40
0.0
 40
0.0
 40
0.0
 40
0.0
 40
0.2522424449
 40
0.5037233287
 40
0.7533190973
 40
1.0
 40
1.0
 40
1.0
 40
1.0
 10
11.9932935502
 20
8.9039362382
 30
0.0
 10
11.9863324983
 20
8.896425669
 30
0.0
 10
11.9716189828
 20
8.8821591194
 30
0.0
 10
11.9475269834
 20
8.8632349238
 30
0.0
 10
11.9217889048
 20
8.8470385512
 30
0.0
 10
11.9036602309
 20
8.838143437
 30
0.0
 10
11.8944398229
 20
8.8342350175
 30
0.0
  0
LINE
  5
387
100
AcDbEntity
  8
0
100
AcDbLine
 62
7
  6
CONTINUOUS
 10
11.6535335121
 20
8.8170518684
 11
11.574093128
 21
8.8170382038
  0
SPLINE
  5
388
100
AcDbEntity
  8
0
100
AcDbSpline
 62
7
  6
CONTINUOUS
 70
0
 71
3
 72
13
 73
9
 74
0
 42
0.0000001
 43
0.0000001
 44
0.0000000001
 40
0.0
 40
0.0
 40
0.0
 40
0.0
 40
0.1213061865
 40
0.2463438195
 40
0.502883844
 40
0.7592685962
 40
0.8828218972
 40
1.0
 40
1.0
 40
1.0
 40
1.0
 10
11.7356739487
 20
8.8284752855
 30
0.0
 10
11.7325143519
 20
8.827306586
 30
0.0
 10
11.7259956979
 20
8.8252043125
 30
0.0
 10
11.7124327544
 20
8.8218406997
 30
0.0
 10
11.6948997505
 20
8.8190824821
 30
0.0
 10
11.6772695453
 20
8.8176793208
 30
0.0
 10
11.6634733883
 20
8.8171423138
 30
0.0
 10
11.6567876848
 20
8.8170518684
 30
0.0
 10
11.6535335121
 20
8.8170518684
 30
0.0
  0
SPLINE
  5
389
100
AcDbEntity
  8
0
100
AcDbSpline
 62
7
  6
CONTINUOUS
 70
0
 71
3
 72
11
 73
7
 74
0
 42
0.0000001
 43
0.0000001
 44
0.0000000001
 40
0.0
 40
0.0
 40
0.0
 40
0.0
 40
0.2565477934
 40
0.5097818146
 40
0.7580581308
 40
1.0
 40
1.0
 40
1.0
 40
1.0
 10
11.8469140221
 20
8.9039590794
 30
0.0
 10
11.839022395
 20
8.8954667255
 30
0.0
 10
11.822371399
 20
8.8794649196
 30
0.0
 10
11.7951169032
 20
8.8585969271
 30
0.0
 10
11.7662203378
 20
8.8413194533
 30
0.0
 10
11.7459279529
 20
8.8322681272
 30
0.0
 10
11.7356739487
 20
8.8284752855
 30
0.0
  0
LINE
  5
38A
100
AcDbEntity
  8
0
100
AcDbLine
 62
7
  6
CONTINUOUS
 10
11.5105482038
 20
8.8170518684
 11
11.4323408014
 21
8.8170398134
  0
SPLINE
  5
38B
100
AcDbEntity
  8
0
100
AcDbSpline
 62
7
  6
CONTINUOUS
 70
0
 71
3
 72
10
 73
6
 74
0
 42
0.0000001
 43
0.0000001
 44
0.0000000001
 40
0.0
 40
0.0
 40
0.0
 40
0.0
 40
0.2397323158
 40
0.4871383282
 40
1.0
 40
1.0
 40
1.0
 40
1.0
 10
11.6188151382
 20
8.8342350175
 30
0.0
 10
11.6153931716
 20
8.832626718
 30
0.0
 10
11.6082735997
 20
8.8297042764
 30
0.0
 10
11.5932278964
 20
8.8249332029
 30
0.0
 10
11.5814423419
 20
8.8225250717
 30
0.0
 10
11.5734507625
 20
8.8212742328
 30
0.0
  0
SPLINE
  5
38C
100
AcDbEntity
  8
0
100
AcDbSpline
 62
7
  6
CONTINUOUS
 70
0
 71
3
 72
11
 73
7
 74
0
 42
0.0000001
 43
0.0000001
 44
0.0000000001
 40
0.0
 40
0.0
 40
0.0
 40
0.0
 40
0.2523999437
 40
0.5063739374
 40
0.7575495436
 40
1.0
 40
1.0
 40
1.0
 40
1.0
 10
11.5734507625
 20
8.8212742328
 30
0.0
 10
11.5682058291
 20
8.8204532979
 30
0.0
 10
11.5576317056
 20
8.8191275353
 30
0.0
 10
11.541743074
 20
8.8178808175
 30
0.0
 10
11.5260308044
 20
8.8171999724
 30
0.0
 10
11.5156477247
 20
8.8170518684
 30
0.0
 10
11.5105482038
 20
8.8170518684
 30
0.0
  0
SPLINE
  5
38D
100
AcDbEntity
  8
0
100
AcDbSpline
 62
7
  6
CONTINUOUS
 70
0
 71
3
 72
11
 73
7
 74
0
 42
0.0000001
 43
0.0000001
 44
0.0000000001
 40
0.0
 40
0.0
 40
0.0
 40
0.0
 40
0.2584098384
 40
0.5121006689
 40
0.759646197
 40
1.0
 40
1.0
 40
1.0
 40
1.0
 10
11.7110969731
 20
8.9039362382
 30
0.0
 10
11.7047140194
 20
8.8968768037
 30
0.0
 10
11.6914435324
 20
8.8834340561
 30
0.0
 10
11.6700735442
 20
8.8653196756
 30
0.0
 10
11.647678524
 20
8.849618595
 30
0.0
 10
11.632012393
 20
8.8407450954
 30
0.0
 10
11.6240919286
 20
8.8367918438
 30
0.0
  0
LINE
  5
38E
100
AcDbEntity
  8
0
100
AcDbLine
 62
7
  6
CONTINUOUS
 10
9.9087283942
 20
8.8170518684
 11
9.8759350233
 21
8.8170398134
  0
LINE
  5
38F
100
AcDbEntity
  8
0
100
AcDbLine
 62
7
  6
CONTINUOUS
 10
11.3602574839
 20
8.8170518684
 11
11.2733675741
 21
8.8170382038
  0
SPLINE
  5
390
100
AcDbEntity
  8
0
100
AcDbSpline
 62
7
  6
CONTINUOUS
 70
0
 71
3
 72
9
 73
5
 74
0
 42
0.0000001
 43
0.0000001
 44
0.0000000001
 40
0.0
 40
0.0
 40
0.0
 40
0.0
 40
0.2438526183
 40
1.0
 40
1.0
 40
1.0
 40
1.0
 10
11.4401341466
 20
8.8284752855
 30
0.0
 10
11.4393483829
 20
8.8281366735
 30
0.0
 10
11.4361043903
 20
8.8267985881
 30
0.0
 10
11.4327826466
 20
8.8256524115
 30
0.0
 10
11.4302457741
 20
8.8248756261
 30
0.0
  0
SPLINE
  5
391
100
AcDbEntity
  8
0
100
AcDbSpline
 62
7
  6
CONTINUOUS
 70
0
 71
3
 72
12
 73
8
 74
0
 42
0.0000001
 43
0.0000001
 44
0.0000000001
 40
0.0
 40
0.0
 40
0.0
 40
0.0
 40
0.2337915652
 40
0.3569589243
 40
0.4834596075
 40
0.7424905769
 40
1.0
 40
1.0
 40
1.0
 40
1.0
 10
11.4302457741
 20
8.8248756261
 30
0.0
 10
11.4249814907
 20
8.8232637127
 30
0.0
 10
11.4167619933
 20
8.8213832447
 30
0.0
 10
11.4055108567
 20
8.8196405168
 30
0.0
 10
11.3936055068
 20
8.8182813109
 30
0.0
 10
11.3784865403
 20
8.817301066
 30
0.0
 10
11.3663215513
 20
8.8170518684
 30
0.0
 10
11.3602574839
 20
8.8170518684
 30
0.0
  0
SPLINE
  5
392
100
AcDbEntity
  8
0
100
AcDbSpline
 62
7
  6
CONTINUOUS
 70
0
 71
3
 72
10
 73
6
 74
0
 42
0.0000001
 43
0.0000001
 44
0.0000000001
 40
0.0
 40
0.0
 40
0.0
 40
0.0
 40
0.1829322925
 40
0.4113154595
 40
1.0
 40
1.0
 40
1.0
 40
1.0
 10
9.8759350233
 20
8.8170398134
 30
0.0
 10
9.8750249597
 20
8.8174312181
 30
0.0
 10
9.8729845753
 20
8.8183252367
 30
0.0
 10
9.8680837949
 20
8.8206308046
 30
0.0
 10
9.8641857695
 20
8.8227367049
 30
0.0
 10
9.8614358372
 20
8.8243495324
 30
0.0
  0
SPLINE
  5
393
100
AcDbEntity
  8
0
100
AcDbSpline
 62
7
  6
CONTINUOUS
 70
0
 71
3
 72
10
 73
6
 74
0
 42
0.0000001
 43
0.0000001
 44
0.0000000001
 40
0.0
 40
0.0
 40
0.0
 40
0.0
 40
0.2594443379
 40
0.5134292119
 40
1.0
 40
1.0
 40
1.0
 40
1.0
 10
11.5397474191
 20
8.9039590794
 30
0.0
 10
11.5348208436
 20
8.8983388758
 30
0.0
 10
11.5247088493
 20
8.8875258807
 30
0.0
 10
11.5036846537
 20
8.8678175245
 30
0.0
 10
11.4866565879
 20
8.8548054335
 30
0.0
 10
11.4748874518
 20
8.8471927072
 30
0.0
  0
SPLINE
  5
394
100
AcDbEntity
  8
0
100
AcDbSpline
 62
7
  6
CONTINUOUS
 70
0
 71
3
 72
9
 73
5
 74
0
 42
0.0000001
 43
0.0000001
 44
0.0000000001
 40
0.0
 40
0.0
 40
0.0
 40
0.0
 40
0.5098504845
 40
1.0
 40
1.0
 40
1.0
 40
1.0
 10
11.4748874518
 20
8.8471927072
 30
0.0
 10
11.4692497507
 20
8.843546027
 30
0.0
 10
11.457917219
 20
8.8368079918
 30
0.0
 10
11.4460620207
 20
8.8310298063
 30
0.0
 10
11.4401341466
 20
8.8284752855
 30
0.0
  0
LINE
  5
395
100
AcDbEntity
  8
0
100
AcDbLine
 62
7
  6
CONTINUOUS
 10
11.2050315267
 20
8.8170518684
 11
11.1223333012
 21
8.8170398134
  0
SPLINE
  5
396
100
AcDbEntity
  8
0
100
AcDbSpline
 62
7
  6
CONTINUOUS
 70
0
 71
3
 72
9
 73
5
 74
0
 42
0.0000001
 43
0.0000001
 44
0.0000000001
 40
0.0
 40
0.0
 40
0.0
 40
0.0
 40
0.4858146599
 40
1.0
 40
1.0
 40
1.0
 40
1.0
 10
11.3072812076
 20
8.8342350175
 30
0.0
 10
11.3037935525
 20
8.8322562957
 30
0.0
 10
11.2962943959
 20
8.8287370572
 30
0.0
 10
11.2884405104
 20
8.8261468998
 30
0.0
 10
11.2843527773
 20
8.8250057037
 30
0.0
  0
SPLINE
  5
397
100
AcDbEntity
  8
0
100
AcDbSpline
 62
7
  6
CONTINUOUS
 70
0
 71
3
 72
9
 73
5
 74
0
 42
0.0000001
 43
0.0000001
 44
0.0000000001
 40
0.0
 40
0.0
 40
0.0
 40
0.0
 40
0.2457167016
 40
1.0
 40
1.0
 40
1.0
 40
1.0
 10
11.2843527773
 20
8.8250057037
 30
0.0
 10
11.283407222
 20
8.8247417275
 30
0.0
 10
11.2795474594
 20
8.8237091316
 30
0.0
 10
11.2756460217
 20
8.8228349279
 30
0.0
 10
11.272689885
 20
8.8222492923
 30
0.0
  0
SPLINE
  5
398
100
AcDbEntity
  8
0
100
AcDbSpline
 62
7
  6
CONTINUOUS
 70
0
 71
3
 72
11
 73
7
 74
0
 42
0.0000001
 43
0.0000001
 44
0.0000000001
 40
0.0
 40
0.0
 40
0.0
 40
0.0
 40
0.2376325284
 40
0.4863854043
 40
0.7425532953
 40
1.0
 40
1.0
 40
1.0
 40
1.0
 10
11.272689885
 20
8.8222492923
 30
0.0
 10
11.2674100251
 20
8.8212033076
 30
0.0
 10
11.2565072944
 20
8.8195386235
 30
0.0
 10
11.2397502115
 20
8.8180253989
 30
0.0
 10
11.2224971015
 20
8.8172188835
 30
0.0
 10
11.2108627977
 20
8.8170518684
 30
0.0
 10
11.2050315267
 20
8.8170518684
 30
0.0
  0
SPLINE
  5
399
100
AcDbEntity
  8
0
100
AcDbSpline
 62
7
  6
CONTINUOUS
 70
0
 71
3
 72
9
 73
5
 74
0
 42
0.0000001
 43
0.0000001
 44
0.0000000001
 40
0.0
 40
0.0
 40
0.0
 40
0.0
 40
0.2476713205
 40
1.0
 40
1.0
 40
1.0
 40
1.0
 10
9.8567560056
 20
8.8272178338
 30
0.0
 10
9.8556590777
 20
8.8279190064
 30
0.0
 10
9.8512990945
 20
8.8308569717
 30
0.0
 10
9.8472247958
 20
8.8342156612
 30
0.0
 10
9.8443501363
 20
8.8369313997
 30
0.0
  0
SPLINE
  5
39A
100
AcDbEntity
  8
0
100
AcDbSpline
 62
7
  6
CONTINUOUS
 70
0
 71
3
 72
9
 73
5
 74
0
 42
0.0000001
 43
0.0000001
 44
0.0000000001
 40
0.0
 40
0.0
 40
0.0
 40
0.0
 40
0.2471130047
 40
1.0
 40
1.0
 40
1.0
 40
1.0
 10
9.843641112
 20
8.8376087186
 30
0.0
 10
9.8429585456
 20
8.8382680346
 30
0.0
 10
9.8402393017
 20
8.8409802818
 30
0.0
 10
9.8376932032
 20
8.8438653642
 30
0.0
 10
9.8358786795
 20
8.8461164392
 30
0.0
  0
SPLINE
  5
39B
100
AcDbEntity
  8
0
100
AcDbSpline
 62
7
  6
CONTINUOUS
 70
0
 71
3
 72
11
 73
7
 74
0
 42
0.0000001
 43
0.0000001
 44
0.0000000001
 40
0.0
 40
0.0
 40
0.0
 40
0.0
 40
0.2288089912
 40
0.4703699718
 40
0.7270219388
 40
1.0
 40
1.0
 40
1.0
 40
1.0
 10
9.8358786795
 20
8.8461164392
 30
0.0
 10
9.8328274954
 20
8.8499016993
 30
0.0
 10
9.8271337534
 20
8.8581639382
 30
0.0
 10
9.8201378216
 20
8.8719820037
 30
0.0
 10
9.8145547731
 20
8.8874265868
 30
0.0
 10
9.8119103868
 20
8.8983902662
 30
0.0
 10
9.8108274018
 20
8.9040886861
 30
0.0
  0
SPLINE
  5
39C
100
AcDbEntity
  8
0
100
AcDbSpline
 62
7
  6
CONTINUOUS
 70
0
 71
3
 72
11
 73
7
 74
0
 42
0.0000001
 43
0.0000001
 44
0.0000000001
 40
0.0
 40
0.0
 40
0.0
 40
0.0
 40
0.265940324
 40
0.5222579924
 40
0.7672930645
 40
1.0
 40
1.0
 40
1.0
 40
1.0
 10
11.3871927432
 20
8.9039362382
 30
0.0
 10
11.3818649654
 20
8.8974759793
 30
0.0
 10
11.3709762131
 20
8.885132682
 30
0.0
 10
11.3537444825
 20
8.8681684415
 30
0.0
 10
11.3360793652
 20
8.85322787
 30
0.0
 10
11.3238126172
 20
8.8444810769
 30
0.0
 10
11.3176513115
 20
8.8405151867
 30
0.0
  0
LINE
  5
39D
100
AcDbEntity
  8
0
100
AcDbLine
 62
7
  6
CONTINUOUS
 10
11.0473183383
 20
8.8170518684
 11
10.9584385153
 21
8.8170382038
  0
SPLINE
  5
39E
100
AcDbEntity
  8
0
100
AcDbSpline
 62
7
  6
CONTINUOUS
 70
0
 71
3
 72
15
 73
11
 74
0
 42
0.0000001
 43
0.0000001
 44
0.0000000001
 40
0.0
 40
0.0
 40
0.0
 40
0.0
 40
0.1000635134
 40
0.2079170957
 40
0.3236493325
 40
0.4471062164
 40
0.5778046228
 40
0.7146800014
 40
0.8562397996
 40
1.0
 40
1.0
 40
1.0
 40
1.0
 10
11.1183736775
 20
8.8276518723
 30
0.0
 10
11.116224928
 20
8.8265490995
 30
0.0
 10
11.1115992431
 20
8.8245658039
 30
0.0
 10
11.1041258155
 20
8.8222570157
 30
0.0
 10
11.09593689
 20
8.8204576298
 30
0.0
 10
11.0871075254
 20
8.8191049242
 30
0.0
 10
11.0777163597
 20
8.818134941
 30
0.0
 10
11.0678602702
 20
8.8174935159
 30
0.0
 10
11.0576752487
 20
8.817128508
 30
0.0
 10
11.0507882431
 20
8.8170518684
 30
0.0
 10
11.0473183383
 20
8.8170518684
 30
0.0
  0
SPLINE
  5
39F
100
AcDbEntity
  8
0
100
AcDbSpline
 62
7
  6
CONTINUOUS
 70
0
 71
3
 72
13
 73
9
 74
0
 42
0.0000001
 43
0.0000001
 44
0.0000000001
 40
0.0
 40
0.0
 40
0.0
 40
0.0
 40
0.2801698092
 40
0.5418838989
 40
0.6649370833
 40
0.7824750626
 40
0.8942450362
 40
1.0
 40
1.0
 40
1.0
 40
1.0
 10
11.201639686
 20
8.9039590794
 30
0.0
 10
11.1952672936
 20
8.8956705931
 30
0.0
 10
11.1823409306
 20
8.8800899536
 30
0.0
 10
11.1649416175
 20
8.8623488674
 30
0.0
 10
11.1508641947
 20
8.8499615204
 30
0.0
 10
11.1405443237
 20
8.8418021401
 30
0.0
 10
11.1302989593
 20
8.8346226611
 30
0.0
 10
11.1233583222
 20
8.8303985542
 30
0.0
 10
11.1199122826
 20
8.8284752855
 30
0.0
  0
LINE
  5
3A0
100
AcDbEntity
  8
0
100
AcDbLine
 62
7
  6
CONTINUOUS
 10
10.8896051499
 20
8.8170518684
 11
10.807612335
 21
8.8170398134
  0
SPLINE
  5
3A1
100
AcDbEntity
  8
0
100
AcDbSpline
 62
7
  6
CONTINUOUS
 70
0
 71
3
 72
9
 73
5
 74
0
 42
0.0000001
 43
0.0000001
 44
0.0000000001
 40
0.0
 40
0.0
 40
0.0
 40
0.0
 40
0.4819724289
 40
1.0
 40
1.0
 40
1.0
 40
1.0
 10
10.9794128539
 20
8.8342350175
 30
0.0
 10
10.976864371
 20
8.8322544101
 30
0.0
 10
10.9711375597
 20
8.8286972809
 30
0.0
 10
10.9649254363
 20
8.8261330365
 30
0.0
 10
10.9616446416
 20
8.8250057037
 30
0.0
  0
SPLINE
  5
3A2
100
AcDbEntity
  8
0
100
AcDbSpline
 62
7
  6
CONTINUOUS
 70
0
 71
3
 72
14
 73
10
 74
0
 42
0.0000001
 43
0.0000001
 44
0.0000000001
 40
0.0
 40
0.0
 40
0.0
 40
0.0
 40
0.1067883931
 40
0.2191858759
 40
0.3372681032
 40
0.4608677477
 40
0.5896331425
 40
0.7230989822
 40
1.0
 40
1.0
 40
1.0
 40
1.0
 10
10.9572681449
 20
8.8236265994
 30
0.0
 10
10.9549363698
 20
8.8229538865
 30
0.0
 10
10.9500990242
 20
8.8217477367
 30
0.0
 10
10.9425633958
 20
8.8203295825
 30
0.0
 10
10.9345915599
 20
8.8192156291
 30
0.0
 10
10.9262139048
 20
8.8183684391
 30
0.0
 10
10.9174659062
 20
8.81775455
 30
0.0
 10
10.9052256118
 20
8.8171938132
 30
0.0
 10
10.8958980051
 20
8.8170518684
 30
0.0
 10
10.8896051499
 20
8.8170518684
 30
0.0
  0
SPLINE
  5
3A3
100
AcDbEntity
  8
0
100
AcDbSpline
 62
7
  6
CONTINUOUS
 70
0
 71
3
 72
11
 73
7
 74
0
 42
0.0000001
 43
0.0000001
 44
0.0000000001
 40
0.0
 40
0.0
 40
0.0
 40
0.0
 40
0.2739914443
 40
0.5331268733
 40
0.775529706
 40
1.0
 40
1.0
 40
1.0
 40
1.0
 10
11.0419329544
 20
8.9039362382
 30
0.0
 10
11.037911903
 20
8.8981372711
 30
0.0
 10
11.0298449558
 20
8.8870193279
 30
0.0
 10
11.017357197
 20
8.8714199652
 30
0.0
 10
11.0049095482
 20
8.8574547076
 30
0.0
 10
10.9963728093
 20
8.8489716155
 30
0.0
 10
10.9921233109
 20
8.8450518203
 30
0.0
  0
SPLINE
  5
3A4
100
AcDbEntity
  8
0
100
AcDbSpline
 62
7
  6
CONTINUOUS
 70
0
 71
3
 72
9
 73
5
 74
0
 42
0.0000001
 43
0.0000001
 44
0.0000000001
 40
0.0
 40
0.0
 40
0.0
 40
0.0
 40
0.2595674074
 40
1.0
 40
1.0
 40
1.0
 40
1.0
 10
10.9921233109
 20
8.8450518203
 30
0.0
 10
10.9910616829
 20
8.8440725601
 30
0.0
 10
10.9869364092
 20
8.8403385645
 30
0.0
 10
10.9826659095
 20
8.8367631985
 30
0.0
 10
10.9794128539
 20
8.8342350175
 30
0.0
  0
LINE
  5
3A5
100
AcDbEntity
  8
0
100
AcDbLine
 62
7
  6
CONTINUOUS
 10
10.7343791927
 20
8.8170518684
 11
10.6490941027
 21
8.8170382038
  0
SPLINE
  5
3A6
100
AcDbEntity
  8
0
100
AcDbSpline
 62
7
  6
CONTINUOUS
 70
0
 71
3
 72
14
 73
10
 74
0
 42
0.0000001
 43
0.0000001
 44
0.0000000001
 40
0.0
 40
0.0
 40
0.0
 40
0.0
 40
0.1822141767
 40
0.2891273187
 40
0.4080868657
 40
0.5395118104
 40
0.6829575299
 40
0.8373118268
 40
1.0
 40
1.0
 40
1.0
 40
1.0
 10
10.7951290741
 20
8.8284752855
 30
0.0
 10
10.7922503317
 20
8.825972898
 30
0.0
 10
10.7867286086
 20
8.8231135639
 30
0.0
 10
10.7785523916
 20
8.8206708022
 30
0.0
 10
10.7711997438
 20
8.8192218416
 30
0.0
 10
10.7630177247
 20
8.8181909421
 30
0.0
 10
10.7540551412
 20
8.8175118808
 30
0.0
 10
10.7444219376
 20
8.8171289581
 30
0.0
 10
10.737784779
 20
8.8170518684
 30
0.0
 10
10.7343791927
 20
8.8170518684
 30
0.0
  0
LINE
  5
3A7
100
AcDbEntity
  8
0
100
AcDbLine
 62
7
  6
CONTINUOUS
 10
9.9848575256
 20
8.8170518684
 11
9.9399575998
 21
8.8170382038
  0
SPLINE
  5
3A8
100
AcDbEntity
  8
0
100
AcDbSpline
 62
7
  6
CONTINUOUS
 70
0
 71
3
 72
12
 73
8
 74
0
 42
0.0000001
 43
0.0000001
 44
0.0000000001
 40
0.0
 40
0.0
 40
0.0
 40
0.0
 40
0.2892856929
 40
0.5542224034
 40
0.7917965719
 40
0.8997048031
 40
1.0
 40
1.0
 40
1.0
 40
1.0
 10
10.853835375
 20
8.9039590794
 30
0.0
 10
10.8495333185
 20
8.8969382719
 30
0.0
 10
10.8410332386
 20
8.8836425036
 30
0.0
 10
10.8280487747
 20
8.8652121703
 30
0.0
 10
10.8172875377
 20
8.8515554926
 30
0.0
 10
10.8089189122
 20
8.8420149596
 30
0.0
 10
10.804836563
 20
8.8377161076
 30
0.0
 10
10.8028216565
 20
8.8356938123
 30
0.0
  0
LINE
  5
3A9
100
AcDbEntity
  8
0
100
AcDbLine
 62
7
  6
CONTINUOUS
 10
10.8028216565
 20
8.8356938123
 11
10.7951290741
 21
8.8284752855
  0
SPLINE
  5
3AA
100
AcDbEntity
  8
0
100
AcDbSpline
 62
7
  6
CONTINUOUS
 70
0
 71
3
 72
13
 73
9
 74
0
 42
0.0000001
 43
0.0000001
 44
0.0000000001
 40
0.0
 40
0.0
 40
0.0
 40
0.0
 40
0.0614899481
 40
0.1409604607
 40
0.2385657296
 40
0.3543383137
 40
0.6406130024
 40
1.0
 40
1.0
 40
1.0
 40
1.0
 10
9.9399575998
 20
8.8170382038
 30
0.0
 10
9.9397330348
 20
8.8172841936
 30
0.0
 10
9.9391767513
 20
8.8178094323
 30
0.0
 10
9.9381877375
 20
8.8186410209
 30
0.0
 10
9.9369459248
 20
8.819628388
 30
0.0
 10
9.9348107092
 20
8.8212914073
 30
0.0
 10
9.9315600657
 20
8.8238302895
 30
0.0
 10
9.9288530978
 20
8.826045681
 30
0.0
 10
9.9273637822
 20
8.8272993362
 30
0.0
  0
LINE
  5
3AB
100
AcDbEntity
  8
0
100
AcDbLine
 62
7
  6
CONTINUOUS
 10
10.5840884727
 20
8.8170518684
 11
10.5079529785
 21
8.8170398134
  0
SPLINE
  5
3AC
100
AcDbEntity
  8
0
100
AcDbSpline
 62
7
  6
CONTINUOUS
 70
0
 71
3
 72
9
 73
5
 74
0
 42
0.0000001
 43
0.0000001
 44
0.0000000001
 40
0.0
 40
0.0
 40
0.0
 40
0.0
 40
0.249176646
 40
1.0
 40
1.0
 40
1.0
 40
1.0
 10
10.6558112516
 20
8.8342350175
 30
0.0
 10
10.6555633649
 20
8.8338954499
 30
0.0
 10
10.6545352771
 20
8.8325571918
 30
0.0
 10
10.6533758
 20
8.8313206587
 30
0.0
 10
10.6524478629
 20
8.83045824
 30
0.0
  0
SPLINE
  5
3AD
100
AcDbEntity
  8
0
100
AcDbSpline
 62
7
  6
CONTINUOUS
 70
0
 71
3
 72
9
 73
5
 74
0
 42
0.0000001
 43
0.0000001
 44
0.0000000001
 40
0.0
 40
0.0
 40
0.0
 40
0.0
 40
0.4866689839
 40
1.0
 40
1.0
 40
1.0
 40
1.0
 10
10.6524478629
 20
8.83045824
 30
0.0
 10
10.6512816206
 20
8.8293743421
 30
0.0
 10
10.6486896053
 20
8.8273517973
 30
0.0
 10
10.6458298662
 20
8.8257403559
 30
0.0
 10
10.6443196993
 20
8.8250057037
 30
0.0
  0
SPLINE
  5
3AE
100
AcDbEntity
  8
0
100
AcDbSpline
 62
7
  6
CONTINUOUS
 70
0
 71
3
 72
14
 73
10
 74
0
 42
0.0000001
 43
0.0000001
 44
0.0000000001
 40
0.0
 40
0.0
 40
0.0
 40
0.0
 40
0.0936609495
 40
0.195368615
 40
0.3061155171
 40
0.4264388186
 40
0.5564448428
 40
0.6960161512
 40
1.0
 40
1.0
 40
1.0
 40
1.0
 10
10.6443196993
 20
8.8250057037
 30
0.0
 10
10.6426021429
 20
8.8241701625
 30
0.0
 10
10.6388977952
 20
8.8226729458
 30
0.0
 10
10.6328897124
 20
8.8209498438
 30
0.0
 10
10.6262315
 20
8.8196083456
 30
0.0
 10
10.6189346909
 20
8.8185962843
 30
0.0
 10
10.6110146806
 20
8.8178693004
 30
0.0
 10
10.5993356568
 20
8.8172029331
 30
0.0
 10
10.59028755
 20
8.8170518684
 30
0.0
 10
10.5840884727
 20
8.8170518684
 30
0.0
  0
SPLINE
  5
3AF
100
AcDbEntity
  8
0
100
AcDbSpline
 62
7
  6
CONTINUOUS
 70
0
 71
3
 72
12
 73
8
 74
0
 42
0.0000001
 43
0.0000001
 44
0.0000000001
 40
0.0
 40
0.0
 40
0.0
 40
0.0
 40
0.2992895247
 40
0.5679723309
 40
0.8025449333
 40
0.9061196789
 40
1.0
 40
1.0
 40
1.0
 40
1.0
 10
10.6970115492
 20
8.9039362382
 30
0.0
 10
10.6932901621
 20
8.8967596678
 30
0.0
 10
10.6860790171
 20
8.8832165352
 30
0.0
 10
10.6753793061
 20
8.8643607899
 30
0.0
 10
10.6668164069
 20
8.8503784952
 30
0.0
 10
10.6603733449
 20
8.8406477931
 30
0.0
 10
10.6573063874
 20
8.83628313
 30
0.0
 10
10.6558112516
 20
8.8342350175
 30
0.0
  0
SPLINE
  5
3B0
100
AcDbEntity
  8
0
100
AcDbSpline
 62
7
  6
CONTINUOUS
 70
0
 71
3
 72
9
 73
5
 74
0
 42
0.0000001
 43
0.0000001
 44
0.0000000001
 40
0.0
 40
0.0
 40
0.0
 40
0.0
 40
0.4887105941
 40
1.0
 40
1.0
 40
1.0
 40
1.0
 10
9.9255201344
 20
8.828918309
 30
0.0
 10
9.9234947306
 20
8.8307724735
 30
0.0
 10
9.9196081862
 20
8.8348552992
 30
0.0
 10
9.9162598828
 20
8.8393851979
 30
0.0
 10
9.9146812541
 20
8.8417853933
 30
0.0
  0
SPLINE
  5
3B1
100
AcDbEntity
  8
0
100
AcDbSpline
 62
7
  6
CONTINUOUS
 70
0
 71
3
 72
11
 73
7
 74
0
 42
0.0000001
 43
0.0000001
 44
0.0000000001
 40
0.0
 40
0.0
 40
0.0
 40
0.0
 40
0.2198814778
 40
0.4587718114
 40
0.7185906891
 40
1.0
 40
1.0
 40
1.0
 40
1.0
 10
9.9119744338
 20
8.8462028366
 30
0.0
 10
9.9097813067
 20
8.8500451361
 30
0.0
 10
9.9058202437
 20
8.8584218143
 30
0.0
 10
9.9013464234
 20
8.8722034402
 30
0.0
 10
9.8981588934
 20
8.8876004394
 30
0.0
 10
9.8969756081
 20
8.8984427595
 30
0.0
 10
9.8965912092
 20
8.9040918192
 30
0.0
  0
LINE
  5
3B2
100
AcDbEntity
  8
0
100
AcDbLine
 62
7
  6
CONTINUOUS
 10
10.4411031645
 20
8.8170518684
 11
10.3647715834
 21
8.8170382038
  0
SPLINE
  5
3B3
100
AcDbEntity
  8
0
100
AcDbSpline
 62
7
  6
CONTINUOUS
 70
0
 71
3
 72
18
 73
14
 74
0
 42
0.0000001
 43
0.0000001
 44
0.0000000001
 40
0.0
 40
0.0
 40
0.0
 40
0.0
 40
0.0384330721
 40
0.0771185414
 40
0.1171266515
 40
0.1593974789
 40
0.2047059122
 40
0.2536834644
 40
0.3644224978
 40
0.494235125
 40
0.6439747443
 40
0.813369097
 40
1.0
 40
1.0
 40
1.0
 40
1.0
 10
10.4861918445
 20
8.8284752855
 30
0.0
 10
10.4859430646
 20
8.8279056706
 30
0.0
 10
10.4853495037
 20
8.8268011218
 30
0.0
 10
10.4841852011
 20
8.8252969004
 30
0.0
 10
10.4827562596
 20
8.8239500512
 30
0.0
 10
10.4810672079
 20
8.822754702
 30
0.0
 10
10.4791201722
 20
8.8217028012
 30
0.0
 10
10.4760545666
 20
8.8204273147
 30
0.0
 10
10.4715223232
 20
8.8191864493
 30
0.0
 10
10.4652869643
 20
8.8181679726
 30
0.0
 10
10.4580528169
 20
8.8174992184
 30
0.0
 10
10.4498800076
 20
8.8171237488
 30
0.0
 10
10.4441215202
 20
8.8170518684
 30
0.0
 10
10.4411031645
 20
8.8170518684
 30
0.0
  0
SPLINE
  5
3B4
100
AcDbEntity
  8
0
100
AcDbSpline
 62
7
  6
CONTINUOUS
 70
0
 71
3
 72
10
 73
6
 74
0
 42
0.0000001
 43
0.0000001
 44
0.0000000001
 40
0.0
 40
0.0
 40
0.0
 40
0.0
 40
0.5948014519
 40
0.8233166743
 40
1.0
 40
1.0
 40
1.0
 40
1.0
 10
10.5181883102
 20
8.9039590794
 30
0.0
 10
10.5119168973
 20
8.8889625046
 30
0.0
 10
10.5032072849
 20
8.8682163465
 30
0.0
 10
10.4925063529
 20
8.8430699099
 30
0.0
 10
10.4881244186
 20
8.8329001739
 30
0.0
 10
10.4861918445
 20
8.8284752855
 30
0.0
  0
SPLINE
  5
3B5
100
AcDbEntity
  8
0
100
AcDbSpline
 62
7
  6
CONTINUOUS
 70
0
 71
3
 72
14
 73
10
 74
0
 42
0.0000001
 43
0.0000001
 44
0.0000000001
 40
0.0
 40
0.0
 40
0.0
 40
0.0
 40
0.0764891853
 40
0.167429877
 40
0.2725660285
 40
0.3916000455
 40
0.5242623254
 40
0.6702514976
 40
1.0
 40
1.0
 40
1.0
 40
1.0
 10
10.250297422
 20
8.8272178338
 30
0.0
 10
10.2503514582
 20
8.8292285231
 30
0.0
 10
10.2506722611
 20
8.8336242291
 30
0.0
 10
10.2515989387
 20
8.8407338056
 30
0.0
 10
10.2530148298
 20
8.8489004096
 30
0.0
 10
10.2549181636
 20
8.8580901308
 30
0.0
 10
10.2573070064
 20
8.8682725225
 30
0.0
 10
10.2613004581
 20
8.8837659615
 30
0.0
 10
10.264768315
 20
8.8957892672
 30
0.0
 10
10.2672805247
 20
8.9040886861
 30
0.0
  0
LINE
  5
3B6
100
AcDbEntity
  8
0
100
AcDbLine
 62
7
  6
CONTINUOUS
 10
10.3076782317
 20
8.8170518684
 11
10.2491683421
 21
8.817042129
  0
LINE
  5
3B7
100
AcDbEntity
  8
0
100
AcDbLine
 62
7
  6
CONTINUOUS
 10
10.2491683421
 20
8.817042129
 11
10.2421839313
 21
8.8170398134
  0
SPLINE
  5
3B8
100
AcDbEntity
  8
0
100
AcDbSpline
 62
7
  6
CONTINUOUS
 70
0
 71
3
 72
15
 73
11
 74
0
 42
0.0000001
 43
0.0000001
 44
0.0000000001
 40
0.0
 40
0.0
 40
0.0
 40
0.0
 40
0.0812073917
 40
0.1744583467
 40
0.2802331119
 40
0.3987509911
 40
0.5301217557
 40
0.6743353459
 40
0.831118319
 40
1.0
 40
1.0
 40
1.0
 40
1.0
 10
10.1246789122
 20
8.8272993362
 30
0.0
 10
10.1239226861
 20
8.829257289
 30
0.0
 10
10.1226420759
 20
8.8335977825
 30
0.0
 10
10.121392013
 20
8.8407422552
 30
0.0
 10
10.1206883035
 20
8.8489281104
 30
0.0
 10
10.1205394207
 20
8.8581253005
 30
0.0
 10
10.1209526826
 20
8.8683075927
 30
0.0
 10
10.1219352044
 20
8.8794430081
 30
0.0
 10
10.1234914237
 20
8.8914903369
 30
0.0
 10
10.1248646432
 20
8.8997966736
 30
0.0
 10
10.1256423274
 20
8.9040918192
 30
0.0
  0
LINE
  5
3B9
100
AcDbEntity
  8
0
100
AcDbLine
 62
7
  6
CONTINUOUS
 10
10.1859178652
 20
8.8170518684
 11
10.1254071799
 21
8.8170390475
  0
LINE
  5
3BA
100
AcDbEntity
  8
0
100
AcDbLine
 62
7
  6
CONTINUOUS
 10
10.1254071799
 20
8.8170390475
 11
10.123335987
 21
8.8170382038
  0
LINE
  5
3BB
100
AcDbEntity
  8
0
100
AcDbLine
 62
7
  6
CONTINUOUS
 10
10.0777422987
 20
8.8170518684
 11
10.0270044399
 21
8.8170398134
  0
SPLINE
  5
3BC
100
AcDbEntity
  8
0
100
AcDbSpline
 62
7
  6
CONTINUOUS
 70
0
 71
3
 72
15
 73
11
 74
0
 42
0.0000001
 43
0.0000001
 44
0.0000000001
 40
0.0
 40
0.0
 40
0.0
 40
0.0
 40
0.0908824547
 40
0.1900248382
 40
0.2985067079
 40
0.4170797688
 40
0.5463035912
 40
0.6865417334
 40
0.8378386427
 40
1.0
 40
1.0
 40
1.0
 40
1.0
 10
10.0212922164
 20
8.8272178338
 30
0.0
 10
10.0197888968
 20
8.8291118795
 30
0.0
 10
10.0169826683
 20
8.8333457741
 30
0.0
 10
10.0135437802
 20
8.8405264701
 30
0.0
 10
10.0107168884
 20
8.8487499903
 30
0.0
 10
10.0085166561
 20
8.8579834433
 30
0.0
 10
10.0069559781
 20
8.8681994268
 30
0.0
 10
10.0060498237
 20
8.8793660223
 30
0.0
 10
10.0058119006
 20
8.8914416926
 30
0.0
 10
10.0060995528
 20
8.899781289
 30
0.0
 10
10.0063500296
 20
8.9040886861
 30
0.0
  0
SPLINE
  5
3BD
100
AcDbEntity
  8
0
100
AcDbSpline
 62
7
  6
CONTINUOUS
 70
0
 71
3
 72
15
 73
11
 74
0
 42
0.0000001
 43
0.0000001
 44
0.0000000001
 40
0.0
 40
0.0
 40
0.0
 40
0.0
 40
0.0594951188
 40
0.1299616948
 40
0.217994615
 40
0.3269863355
 40
0.4587742129
 40
0.6144606428
 40
0.7947180307
 40
1.0
 40
1.0
 40
1.0
 40
1.0
 10
10.0270044399
 20
8.8170398134
 30
0.0
 10
10.0271004101
 20
8.817257124
 30
0.0
 10
10.0271968794
 20
8.8177842527
 30
0.0
 10
10.0270434197
 20
8.8186512427
 30
0.0
 10
10.0266465932
 20
8.8196471046
 30
0.0
 10
10.0260138154
 20
8.8207997036
 30
0.0
 10
10.0251505143
 20
8.8221276078
 30
0.0
 10
10.0240619795
 20
8.8236456684
 30
0.0
 10
10.022753891
 20
8.8253660703
 30
0.0
 10
10.0218017951
 20
8.8265758112
 30
0.0
 10
10.0212922164
 20
8.8272178338
 30
0.0
  0
LINE
  5
3BE
100
AcDbEntity
  8
0
100
AcDbLine
 62
7
  6
CONTINUOUS
 10
10.2510272334
 20
8.8313451957
 11
10.2489365673
 21
8.8307310011
  0
SPLINE
  5
3BF
100
AcDbEntity
  8
0
100
AcDbSpline
 62
7
  6
CONTINUOUS
 70
0
 71
3
 72
13
 73
9
 74
0
 42
0.0000001
 43
0.0000001
 44
0.0000000001
 40
0.0
 40
0.0
 40
0.0
 40
0.0
 40
0.084257419
 40
0.1810432444
 40
0.2899148392
 40
0.4104329078
 40
0.6847878884
 40
1.0
 40
1.0
 40
1.0
 40
1.0
 10
10.3627040661
 20
8.8461864827
 30
0.0
 10
10.3629327441
 20
8.8482044931
 30
0.0
 10
10.3635478172
 20
8.8525266671
 30
0.0
 10
10.3647992755
 20
8.85940287
 30
0.0
 10
10.3664396111
 20
8.8670929665
 30
0.0
 10
10.3692621829
 20
8.8789034666
 30
0.0
 10
10.3737586302
 20
8.8954220913
 30
0.0
 10
10.3778906294
 20
8.9090206275
 30
0.0
 10
10.3801817648
 20
8.916264764
 30
0.0
  0
SPLINE
  5
3C0
100
AcDbEntity
  8
0
100
AcDbSpline
 62
7
  6
CONTINUOUS
 70
0
 71
3
 72
14
 73
10
 74
0
 42
0.0000001
 43
0.0000001
 44
0.0000000001
 40
0.0
 40
0.0
 40
0.0
 40
0.0
 40
0.3070181088
 40
0.4474272285
 40
0.5782777511
 40
0.6992472964
 40
0.8100584154
 40
0.9103980714
 40
1.0
 40
1.0
 40
1.0
 40
1.0
 10
10.7420132357
 20
8.9163728827
 30
0.0
 10
10.7366674316
 20
8.9077299886
 30
0.0
 10
10.7285591419
 20
8.8953232444
 30
0.0
 10
10.7173305815
 20
8.8798177162
 30
0.0
 10
10.7093491439
 20
8.8695737266
 30
0.0
 10
10.7015966633
 20
8.8604049625
 30
0.0
 10
10.6941114496
 20
8.8523466723
 30
0.0
 10
10.6869364286
 20
8.8454377835
 30
0.0
 10
10.6821125931
 20
8.8413931394
 30
0.0
 10
10.6797530311
 20
8.8395961985
 30
0.0
  0
SPLINE
  5
3C1
100
AcDbEntity
  8
0
100
AcDbSpline
 62
7
  6
CONTINUOUS
 70
0
 71
3
 72
11
 73
7
 74
0
 42
0.0000001
 43
0.0000001
 44
0.0000000001
 40
0.0
 40
0.0
 40
0.0
 40
0.0
 40
0.2330483128
 40
0.4751396856
 40
0.7298064679
 40
1.0
 40
1.0
 40
1.0
 40
1.0
 10
10.6797530311
 20
8.8395961985
 30
0.0
 10
10.6786066807
 20
8.8387231875
 30
0.0
 10
10.6761371374
 20
8.8371120622
 30
0.0
 10
10.6720653463
 20
8.8351445998
 30
0.0
 10
10.6675891074
 20
8.8335559414
 30
0.0
 10
10.6644415232
 20
8.8327495851
 30
0.0
 10
10.6628096191
 20
8.8323921364
 30
0.0
  0
LINE
  5
3C2
100
AcDbEntity
  8
0
100
AcDbLine
 62
7
  6
CONTINUOUS
 10
10.6628096191
 20
8.8323921364
 11
10.6564371888
 21
8.8312654008
  0
SPLINE
  5
3C3
100
AcDbEntity
  8
0
100
AcDbSpline
 62
7
  6
CONTINUOUS
 70
0
 71
3
 72
11
 73
7
 74
0
 42
0.0000001
 43
0.0000001
 44
0.0000000001
 40
0.0
 40
0.0
 40
0.0
 40
0.0
 40
0.2539425769
 40
0.5034731326
 40
0.7512973582
 40
1.0
 40
1.0
 40
1.0
 40
1.0
 10
9.6836244141
 20
8.8981326013
 30
0.0
 10
9.6877276833
 20
8.8904001653
 30
0.0
 10
9.6971047235
 20
8.8756888658
 30
0.0
 10
9.7144992355
 20
8.8563458027
 30
0.0
 10
9.7347309717
 20
8.8402817494
 30
0.0
 10
9.7498037402
 20
8.8319760119
 30
0.0
 10
9.7576295064
 20
8.8284752855
 30
0.0
  0
LINE
  5
3C4
100
AcDbEntity
  8
0
100
AcDbLine
 62
7
  6
CONTINUOUS
 10
9.7840967488
 20
8.8190605093
 11
9.7916024444
 21
8.817072292
  0
LINE
  5
3C5
100
AcDbEntity
  8
0
100
AcDbLine
 62
7
  6
CONTINUOUS
 10
9.6652511974
 20
8.9040918192
 11
9.6806785603
 21
8.9039590794
  0
LINE
  5
3C6
100
AcDbEntity
  8
0
100
AcDbLine
 62
7
  6
CONTINUOUS
 10
12.4341979138
 20
8.9040918192
 11
12.4350022562
 21
8.9040611243
  0
SPLINE
  5
3C7
100
AcDbEntity
  8
0
100
AcDbSpline
 62
7
  6
CONTINUOUS
 70
0
 71
3
 72
11
 73
7
 74
0
 42
0.0000001
 43
0.0000001
 44
0.0000000001
 40
0.0
 40
0.0
 40
0.0
 40
0.0
 40
0.2516987038
 40
0.5012214231
 40
0.7501759817
 40
1.0
 40
1.0
 40
1.0
 40
1.0
 10
12.3509092162
 20
8.8330908623
 30
0.0
 10
12.359278244
 20
8.836844578
 30
0.0
 10
12.375464009
 20
8.845452223
 30
0.0
 10
12.397661537
 20
8.8615593617
 30
0.0
 10
12.4172844476
 20
8.8806271001
 30
0.0
 10
12.4283712018
 20
8.8951311807
 30
0.0
 10
12.4333390954
 20
8.902760235
 30
0.0
  0
SPLINE
  5
3C8
100
AcDbEntity
  8
0
100
AcDbSpline
 62
7
  6
CONTINUOUS
 70
0
 71
3
 72
11
 73
7
 74
0
 42
0.0000001
 43
0.0000001
 44
0.0000000001
 40
0.0
 40
0.0
 40
0.0
 40
0.0
 40
0.2600405552
 40
0.5116649059
 40
0.7574046575
 40
1.0
 40
1.0
 40
1.0
 40
1.0
 10
9.7281591407
 20
8.8982736445
 30
0.0
 10
9.7309493912
 20
8.8915452862
 30
0.0
 10
9.7373572213
 20
8.878661133
 30
0.0
 10
9.7495378248
 20
8.8611944623
 30
0.0
 10
9.7639287367
 20
8.8461636184
 30
0.0
 10
9.7748983017
 20
8.8378743993
 30
0.0
 10
9.7806368787
 20
8.8342350175
 30
0.0
  0
LINE
  5
3C9
100
AcDbEntity
  8
0
100
AcDbLine
 62
7
  6
CONTINUOUS
 10
9.7970150363
 20
8.8250057037
 11
9.8082416879
 21
8.8198981339
  0
SPLINE
  5
3CA
100
AcDbEntity
  8
0
100
AcDbSpline
 62
7
  6
CONTINUOUS
 70
0
 71
3
 72
18
 73
14
 74
0
 42
0.0000001
 43
0.0000001
 44
0.0000000001
 40
0.0
 40
0.0
 40
0.0
 40
0.0
 40
0.230122488
 40
0.4306471968
 40
0.6008365905
 40
0.7400107721
 40
0.8476449249
 40
0.8895965034
 40
0.923736312
 40
0.9503660012
 40
0.9702818992
 40
0.9854579293
 40
1.0
 40
1.0
 40
1.0
 40
1.0
 10
9.8082416879
 20
8.8198981339
 30
0.0
 10
9.8086404808
 20
8.8197280907
 30
0.0
 10
9.8093868545
 20
8.8194100509
 30
0.0
 10
9.8104262285
 20
8.8189617822
 30
0.0
 10
9.8113039904
 20
8.8185713591
 30
0.0
 10
9.8120140334
 20
8.8182352226
 30
0.0
 10
9.8124958833
 20
8.8179815361
 30
0.0
 10
9.8127892369
 20
8.8177974976
 30
0.0
 10
9.8129453413
 20
8.8176826254
 30
0.0
 10
9.813056277
 20
8.8175779453
 30
0.0
 10
9.8131242622
 20
8.8174820044
 30
0.0
 10
9.8131446743
 20
8.8173858028
 30
0.0
 10
9.8131180485
 20
8.8173318955
 30
0.0
 10
9.8131005196
 20
8.8173108412
 30
0.0
  0
LINE
  5
3CB
100
AcDbEntity
  8
0
100
AcDbLine
 62
7
  6
CONTINUOUS
 10
12.4179684483
 20
8.9040886861
 11
12.4318762258
 21
8.9039362382
  0
SPLINE
  5
3CC
100
AcDbEntity
  8
0
100
AcDbSpline
 62
7
  6
CONTINUOUS
 70
0
 71
3
 72
9
 73
5
 74
0
 42
0.0000001
 43
0.0000001
 44
0.0000000001
 40
0.0
 40
0.0
 40
0.0
 40
0.0
 40
0.502515015
 40
1.0
 40
1.0
 40
1.0
 40
1.0
 10
12.3466137023
 20
8.8425969823
 30
0.0
 10
12.3594780526
 20
8.8494831631
 30
0.0
 10
12.3838233366
 20
8.8656972974
 30
0.0
 10
12.4043579422
 20
8.8865789993
 30
0.0
 10
12.4133013508
 20
8.8979229587
 30
0.0
  0
SPLINE
  5
3CD
100
AcDbEntity
  8
0
100
AcDbSpline
 62
7
  6
CONTINUOUS
 70
0
 71
3
 72
9
 73
5
 74
0
 42
0.0000001
 43
0.0000001
 44
0.0000000001
 40
0.0
 40
0.0
 40
0.0
 40
0.0
 40
0.235954238
 40
1.0
 40
1.0
 40
1.0
 40
1.0
 10
12.26506345
 20
8.8170398134
 30
0.0
 10
12.2674448866
 20
8.817328553
 30
0.0
 10
12.2775204285
 20
8.8186863233
 30
0.0
 10
12.2875189892
 20
8.8206494144
 30
0.0
 10
12.2950516024
 20
8.8225464861
 30
0.0
  0
SPLINE
  5
3CE
100
AcDbEntity
  8
0
100
AcDbSpline
 62
7
  6
CONTINUOUS
 70
0
 71
3
 72
9
 73
5
 74
0
 42
0.0000001
 43
0.0000001
 44
0.0000000001
 40
0.0
 40
0.0
 40
0.0
 40
0.0
 40
0.2488305757
 40
1.0
 40
1.0
 40
1.0
 40
1.0
 10
12.2974848583
 20
8.9009206112
 30
0.0
 10
12.2950206608
 20
8.8984704072
 30
0.0
 10
12.284886488
 20
8.888857947
 30
0.0
 10
12.2738646729
 20
8.8801871796
 30
0.0
 10
12.2652137056
 20
8.8742534617
 30
0.0
  0
SPLINE
  5
3CF
100
AcDbEntity
  8
0
100
AcDbSpline
 62
7
  6
CONTINUOUS
 70
0
 71
3
 72
13
 73
9
 74
0
 42
0.0000001
 43
0.0000001
 44
0.0000000001
 40
0.0
 40
0.0
 40
0.0
 40
0.0
 40
0.1052047738
 40
0.2164069427
 40
0.3334556727
 40
0.4561854088
 40
0.7180709893
 40
1.0
 40
1.0
 40
1.0
 40
1.0
 10
10.9976637962
 20
8.8272993362
 30
0.0
 10
11.0013359133
 20
8.8291740664
 30
0.0
 10
11.0087426984
 20
8.8333227129
 30
0.0
 10
11.0197016293
 20
8.8404561874
 30
0.0
 10
11.0307668797
 20
8.8486399038
 30
0.0
 10
11.0459181784
 20
8.8611813927
 30
0.0
 10
11.0647334183
 20
8.8793614975
 30
0.0
 10
11.0787268803
 20
8.8954726536
 30
0.0
 10
11.085639686
 20
8.9040918192
 30
0.0
  0
SPLINE
  5
3D0
100
AcDbEntity
  8
0
100
AcDbSpline
 62
7
  6
CONTINUOUS
 70
0
 71
3
 72
9
 73
5
 74
0
 42
0.0000001
 43
0.0000001
 44
0.0000000001
 40
0.0
 40
0.0
 40
0.0
 40
0.0
 40
0.5036997966
 40
1.0
 40
1.0
 40
1.0
 40
1.0
 10
12.2978785802
 20
8.8410212853
 30
0.0
 10
12.3120388711
 20
8.8478827404
 30
0.0
 10
12.3389661055
 20
8.8641277474
 30
0.0
 10
12.3622118348
 20
8.8853712543
 30
0.0
 10
12.3724746885
 20
8.8969921896
 30
0.0
  0
SPLINE
  5
3D1
100
AcDbEntity
  8
0
100
AcDbSpline
 62
7
  6
CONTINUOUS
 70
0
 71
3
 72
9
 73
5
 74
0
 42
0.0000001
 43
0.0000001
 44
0.0000000001
 40
0.0
 40
0.0
 40
0.0
 40
0.0
 40
0.4818319018
 40
1.0
 40
1.0
 40
1.0
 40
1.0
 10
12.2135471646
 20
8.8170382038
 30
0.0
 10
12.2217046604
 20
8.8179237321
 30
0.0
 10
12.2385718215
 20
8.8204230024
 30
0.0
 10
12.2551244123
 20
8.8246104379
 30
0.0
 10
12.2635289659
 20
8.8272993362
 30
0.0
  0
SPLINE
  5
3D2
100
AcDbEntity
  8
0
100
AcDbSpline
 62
7
  6
CONTINUOUS
 70
0
 71
3
 72
15
 73
11
 74
0
 42
0.0000001
 43
0.0000001
 44
0.0000000001
 40
0.0
 40
0.0
 40
0.0
 40
0.0
 40
0.0791930581
 40
0.1714409586
 40
0.2770366887
 40
0.395974749
 40
0.5281326626
 40
0.673255302
 40
0.8307942242
 40
1.0
 40
1.0
 40
1.0
 40
1.0
 10
10.219533682
 20
8.8406991476
 30
0.0
 10
10.2188492928
 20
8.8425952239
 30
0.0
 10
10.2177348641
 20
8.8468330793
 30
0.0
 10
10.2167541821
 20
8.85382618
 30
0.0
 10
10.2163407483
 20
8.8618876698
 30
0.0
 10
10.2164990855
 20
8.8709710659
 30
0.0
 10
10.2172305366
 20
8.8810342428
 30
0.0
 10
10.2185361679
 20
8.8920282675
 30
0.0
 10
10.2204127819
 20
8.9038943737
 30
0.0
 10
10.2219880709
 20
8.9120625791
 30
0.0
 10
10.2228652302
 20
8.916279343
 30
0.0
  0
SPLINE
  5
3D3
100
AcDbEntity
  8
0
100
AcDbSpline
 62
7
  6
CONTINUOUS
 70
0
 71
3
 72
11
 73
7
 74
0
 42
0.0000001
 43
0.0000001
 44
0.0000000001
 40
0.0
 40
0.0
 40
0.0
 40
0.0
 40
0.2539600348
 40
0.5054328411
 40
0.7541391915
 40
1.0
 40
1.0
 40
1.0
 40
1.0
 10
12.2001046265
 20
8.8272178338
 30
0.0
 10
12.2118232818
 20
8.830842751
 30
0.0
 10
12.2347067996
 20
8.8395775139
 30
0.0
 10
12.266837052
 20
8.8569599702
 30
0.0
 10
12.2959912396
 20
8.8783275841
 30
0.0
 10
12.3131120007
 20
8.8951367263
 30
0.0
 10
12.3209148884
 20
8.9040886861
 30
0.0
  0
SPLINE
  5
3D4
100
AcDbEntity
  8
0
100
AcDbSpline
 62
7
  6
CONTINUOUS
 70
0
 71
3
 72
9
 73
5
 74
0
 42
0.0000001
 43
0.0000001
 44
0.0000000001
 40
0.0
 40
0.0
 40
0.0
 40
0.0
 40
0.2423711509
 40
1.0
 40
1.0
 40
1.0
 40
1.0
 10
12.1480222909
 20
8.8170398134
 30
0.0
 10
12.1508109839
 20
8.8173235646
 30
0.0
 10
12.1623015921
 20
8.8186323513
 30
0.0
 10
12.1737272468
 20
8.8205695951
 30
0.0
 10
12.1822770285
 20
8.82248722
 30
0.0
  0
SPLINE
  5
3D5
100
AcDbEntity
  8
0
100
AcDbSpline
 62
7
  6
CONTINUOUS
 70
0
 71
3
 72
9
 73
5
 74
0
 42
0.0000001
 43
0.0000001
 44
0.0000000001
 40
0.0
 40
0.0
 40
0.0
 40
0.0
 40
0.2478939433
 40
1.0
 40
1.0
 40
1.0
 40
1.0
 10
12.1822770285
 20
8.82248722
 30
0.0
 10
12.1837643928
 20
8.82282082
 30
0.0
 10
12.1897518591
 20
8.8242214926
 30
0.0
 10
12.1956864234
 20
8.8258511565
 30
0.0
 10
12.2001046265
 20
8.8272178338
 30
0.0
  0
SPLINE
  5
3D6
100
AcDbEntity
  8
0
100
AcDbSpline
 62
7
  6
CONTINUOUS
 70
0
 71
3
 72
9
 73
5
 74
0
 42
0.0000001
 43
0.0000001
 44
0.0000000001
 40
0.0
 40
0.0
 40
0.0
 40
0.0
 40
0.4989325556
 40
1.0
 40
1.0
 40
1.0
 40
1.0
 10
12.1126866638
 20
8.8941504662
 30
0.0
 10
12.1009326664
 20
8.8842378271
 30
0.0
 10
12.0755810571
 20
8.8664180043
 30
0.0
 10
12.0476379057
 20
8.8530582272
 30
0.0
 10
12.0332097398
 20
8.8475561876
 30
0.0
  0
SPLINE
  5
3D7
100
AcDbEntity
  8
0
100
AcDbSpline
 62
7
  6
CONTINUOUS
 70
0
 71
3
 72
11
 73
7
 74
0
 42
0.0000001
 43
0.0000001
 44
0.0000000001
 40
0.0
 40
0.0
 40
0.0
 40
0.0
 40
0.2731380885
 40
0.5311304213
 40
0.7734907859
 40
1.0
 40
1.0
 40
1.0
 40
1.0
 10
11.0473183383
 20
8.8744542163
 30
0.0
 10
11.0432370146
 20
8.8707044504
 30
0.0
 10
11.0350882449
 20
8.8636389287
 30
0.0
 10
11.022578636
 20
8.8541398215
 30
0.0
 10
11.0102040499
 20
8.8460896056
 30
0.0
 10
11.0018140144
 20
8.8415712477
 30
0.0
 10
10.9976637962
 20
8.8395961985
 30
0.0
  0
SPLINE
  5
3D8
100
AcDbEntity
  8
0
100
AcDbSpline
 62
7
  6
CONTINUOUS
 70
0
 71
3
 72
11
 73
7
 74
0
 42
0.0000001
 43
0.0000001
 44
0.0000000001
 40
0.0
 40
0.0
 40
0.0
 40
0.0
 40
0.2522117198
 40
0.5032397968
 40
0.7525587666
 40
1.0
 40
1.0
 40
1.0
 40
1.0
 10
12.1189786557
 20
8.8288420533
 30
0.0
 10
12.1290593135
 20
8.8320998245
 30
0.0
 10
12.1488442559
 20
8.8396734494
 30
0.0
 10
12.1770498616
 20
8.8540758436
 30
0.0
 10
12.2033500748
 20
8.8713618945
 30
0.0
 10
12.2194182516
 20
8.8847614685
 30
0.0
 10
12.2269871831
 20
8.8918845638
 30
0.0
  0
SPLINE
  5
3D9
100
AcDbEntity
  8
0
100
AcDbSpline
 62
7
  6
CONTINUOUS
 70
0
 71
3
 72
9
 73
5
 74
0
 42
0.0000001
 43
0.0000001
 44
0.0000000001
 40
0.0
 40
0.0
 40
0.0
 40
0.0
 40
0.4924018897
 40
1.0
 40
1.0
 40
1.0
 40
1.0
 10
12.0594306954
 20
8.8170382038
 30
0.0
 10
12.0685245349
 20
8.8179023764
 30
0.0
 10
12.0869393641
 20
8.8203186896
 30
0.0
 10
12.1050513794
 20
8.8245585866
 30
0.0
 10
12.114060426
 20
8.8272993362
 30
0.0
  0
SPLINE
  5
3DA
100
AcDbEntity
  8
0
100
AcDbSpline
 62
7
  6
CONTINUOUS
 70
0
 71
3
 72
13
 73
9
 74
0
 42
0.0000001
 43
0.0000001
 44
0.0000000001
 40
0.0
 40
0.0
 40
0.0
 40
0.0
 40
0.2706944523
 40
0.5246060542
 40
0.6465672542
 40
0.7660043222
 40
0.8835879877
 40
1.0
 40
1.0
 40
1.0
 40
1.0
 10
9.7834508768
 20
8.9039590794
 30
0.0
 10
9.7856495021
 20
8.8957210959
 30
0.0
 10
9.7911386664
 20
8.8800451393
 30
0.0
 10
9.8011874512
 20
8.8621865654
 30
0.0
 10
9.8107812051
 20
8.8498538616
 30
0.0
 10
9.8186124708
 20
8.8416682751
 30
0.0
 10
9.8271319329
 20
8.834470885
 30
0.0
 10
9.833262649
 20
8.8303476487
 30
0.0
 10
9.83641531
 20
8.8284752855
 30
0.0
  0
SPLINE
  5
3DB
100
AcDbEntity
  8
0
100
AcDbSpline
 62
7
  6
CONTINUOUS
 70
0
 71
3
 72
9
 73
5
 74
0
 42
0.0000001
 43
0.0000001
 44
0.0000000001
 40
0.0
 40
0.0
 40
0.0
 40
0.0
 40
0.2436460823
 40
1.0
 40
1.0
 40
1.0
 40
1.0
 10
10.9976637962
 20
8.8395961985
 30
0.0
 10
10.9967661184
 20
8.8391690023
 30
0.0
 10
10.9930405877
 20
8.8375024006
 30
0.0
 10
10.989170649
 20
8.8361681363
 30
0.0
 10
10.986205677
 20
8.8353118841
 30
0.0
  0
LINE
  5
3DC
100
AcDbEntity
  8
0
100
AcDbLine
 62
7
  6
CONTINUOUS
 10
10.986205677
 20
8.8353118841
 11
10.9782202483
 21
8.8333629437
  0
LINE
  5
3DD
100
AcDbEntity
  8
0
100
AcDbLine
 62
7
  6
CONTINUOUS
 10
9.83641531
 20
8.8284752855
 11
9.8471478712
 21
8.8224475617
  0
LINE
  5
3DE
100
AcDbEntity
  8
0
100
AcDbLine
 62
7
  6
CONTINUOUS
 10
9.8471478712
 20
8.8224475617
 11
9.8532233083
 21
8.8190605093
  0
SPLINE
  5
3DF
100
AcDbEntity
  8
0
100
AcDbSpline
 62
7
  6
CONTINUOUS
 70
0
 71
3
 72
13
 73
9
 74
0
 42
0.0000001
 43
0.0000001
 44
0.0000000001
 40
0.0
 40
0.0
 40
0.0
 40
0.0
 40
0.3917518708
 40
0.6745316702
 40
0.7780211175
 40
0.860542672
 40
0.9301098109
 40
1.0
 40
1.0
 40
1.0
 40
1.0
 10
9.8532233083
 20
8.8190605093
 30
0.0
 10
9.8534452376
 20
8.8189144377
 30
0.0
 10
9.8538200876
 20
8.8186528497
 30
0.0
 10
9.8542212444
 20
8.818303602
 30
0.0
 10
9.8544106877
 20
8.8180464638
 30
0.0
 10
9.8544799426
 20
8.817884681
 30
0.0
 10
9.8544824506
 20
8.8177289553
 30
0.0
 10
9.8544360366
 20
8.8176419513
 30
0.0
 10
9.8544064405
 20
8.817604927
 30
0.0
  0
SPLINE
  5
3E0
100
AcDbEntity
  8
0
100
AcDbSpline
 62
7
  6
CONTINUOUS
 70
0
 71
3
 72
11
 73
7
 74
0
 42
0.0000001
 43
0.0000001
 44
0.0000000001
 40
0.0
 40
0.0
 40
0.0
 40
0.0
 40
0.2508421916
 40
0.5017144746
 40
0.7517237581
 40
1.0
 40
1.0
 40
1.0
 40
1.0
 10
12.0167908479
 20
8.8272178338
 30
0.0
 10
12.0287901165
 20
8.830863465
 30
0.0
 10
12.052361613
 20
8.8396549643
 30
0.0
 10
12.0857878961
 20
8.8570353607
 30
0.0
 10
12.1166797386
 20
8.8783834207
 30
0.0
 10
12.1352300435
 20
8.8951444378
 30
0.0
 10
12.1438365733
 20
8.9040886861
 30
0.0
  0
SPLINE
  5
3E1
100
AcDbEntity
  8
0
100
AcDbSpline
 62
7
  6
CONTINUOUS
 70
0
 71
3
 72
9
 73
5
 74
0
 42
0.0000001
 43
0.0000001
 44
0.0000000001
 40
0.0
 40
0.0
 40
0.0
 40
0.0
 40
0.2481840989
 40
1.0
 40
1.0
 40
1.0
 40
1.0
 10
11.9618198543
 20
8.8170398134
 30
0.0
 10
11.9633291373
 20
8.8171796825
 30
0.0
 10
11.969407092
 20
8.8177782323
 30
0.0
 10
11.9754707514
 20
8.8185266027
 30
0.0
 10
11.9800142464
 20
8.8191895906
 30
0.0
  0
SPLINE
  5
3E2
100
AcDbEntity
  8
0
100
AcDbSpline
 62
7
  6
CONTINUOUS
 70
0
 71
3
 72
9
 73
5
 74
0
 42
0.0000001
 43
0.0000001
 44
0.0000000001
 40
0.0
 40
0.0
 40
0.0
 40
0.0
 40
0.2492354042
 40
1.0
 40
1.0
 40
1.0
 40
1.0
 10
11.9800142464
 20
8.8191895906
 30
0.0
 10
11.9815750692
 20
8.8194173462
 30
0.0
 10
11.9878303886
 20
8.8203787537
 30
0.0
 10
11.9940554146
 20
8.8215418662
 30
0.0
 10
11.9986994069
 20
8.8225464861
 30
0.0
  0
SPLINE
  5
3E3
100
AcDbEntity
  8
0
100
AcDbSpline
 62
7
  6
CONTINUOUS
 70
0
 71
3
 72
9
 73
5
 74
0
 42
0.0000001
 43
0.0000001
 44
0.0000000001
 40
0.0
 40
0.0
 40
0.0
 40
0.0
 40
0.2500892643
 40
1.0
 40
1.0
 40
1.0
 40
1.0
 10
11.9986994069
 20
8.8225464861
 30
0.0
 10
12.000222046
 20
8.8228758738
 30
0.0
 10
12.0062979389
 20
8.8242495266
 30
0.0
 10
12.0123212301
 20
8.8258598696
 30
0.0
 10
12.0167908479
 20
8.8272178338
 30
0.0
  0
SPLINE
  5
3E4
100
AcDbEntity
  8
0
100
AcDbSpline
 62
7
  6
CONTINUOUS
 70
0
 71
3
 72
11
 73
7
 74
0
 42
0.0000001
 43
0.0000001
 44
0.0000000001
 40
0.0
 40
0.0
 40
0.0
 40
0.0
 40
0.2537336244
 40
0.5060038974
 40
0.7552136651
 40
1.0
 40
1.0
 40
1.0
 40
1.0
 10
11.8918024748
 20
8.9163704832
 30
0.0
 10
11.8831430176
 20
8.9072663742
 30
0.0
 10
11.864612128
 20
8.8902713113
 30
0.0
 10
11.833935093
 20
8.8687101836
 30
0.0
 10
11.8011464536
 20
8.8514548292
 30
0.0
 10
11.77812586
 20
8.8429308511
 30
0.0
 10
11.7664940818
 20
8.8395198135
 30
0.0
  0
SPLINE
  5
3E5
100
AcDbEntity
  8
0
100
AcDbSpline
 62
7
  6
CONTINUOUS
 70
0
 71
3
 72
9
 73
5
 74
0
 42
0.0000001
 43
0.0000001
 44
0.0000000001
 40
0.0
 40
0.0
 40
0.0
 40
0.0
 40
0.2481567053
 40
1.0
 40
1.0
 40
1.0
 40
1.0
 10
11.7664940818
 20
8.8395198135
 30
0.0
 10
11.765272633
 20
8.8391616216
 30
0.0
 10
11.7603346007
 20
8.8377728265
 30
0.0
 10
11.7553384767
 20
8.8365932779
 30
0.0
 10
11.7515625271
 20
8.8358092986
 30
0.0
  0
SPLINE
  5
3E6
100
AcDbEntity
  8
0
100
AcDbSpline
 62
7
  6
CONTINUOUS
 70
0
 71
3
 72
14
 73
10
 74
0
 42
0.0000001
 43
0.0000001
 44
0.0000000001
 40
0.0
 40
0.0
 40
0.0
 40
0.0
 40
0.3199640417
 40
0.4638682639
 40
0.5961103821
 40
0.7162675724
 40
0.8239421275
 40
0.9186719923
 40
1.0
 40
1.0
 40
1.0
 40
1.0
 10
10.5810174277
 20
8.9163704832
 30
0.0
 10
10.5765406017
 20
8.9077964554
 30
0.0
 10
10.5698767953
 20
8.895454391
 30
0.0
 10
10.5608704101
 20
8.8798451234
 30
0.0
 10
10.5546640994
 20
8.8695966172
 30
0.0
 10
10.5487952809
 20
8.860427831
 30
0.0
 10
10.5432926522
 20
8.8523754686
 30
0.0
 10
10.5381882869
 20
8.8454798876
 30
0.0
 10
10.5348119015
 20
8.8413607387
 30
0.0
 10
10.5331823805
 20
8.8395198135
 30
0.0
  0
LINE
  5
3E7
100
AcDbEntity
  8
0
100
AcDbLine
 62
7
  6
CONTINUOUS
 10
12.0248644696
 20
8.9040918192
 11
12.1038390875
 21
8.9039590794
  0
SPLINE
  5
3E8
100
AcDbEntity
  8
0
100
AcDbSpline
 62
7
  6
CONTINUOUS
 70
0
 71
3
 72
15
 73
11
 74
0
 42
0.0000001
 43
0.0000001
 44
0.0000000001
 40
0.0
 40
0.0
 40
0.0
 40
0.0
 40
0.0926965705
 40
0.1941122813
 40
0.3047050152
 40
0.4247352405
 40
0.5543620833
 40
0.6936173845
 40
0.842290687
 40
1.0
 40
1.0
 40
1.0
 40
1.0
 10
10.1089219872
 20
8.8461864827
 30
0.0
 10
10.1078946068
 20
8.8481369635
 30
0.0
 10
10.106024515
 20
8.8523724415
 30
0.0
 10
10.103834409
 20
8.8592913466
 30
0.0
 10
10.1021435863
 20
8.8670144641
 30
0.0
 10
10.1009601108
 20
8.8755069689
 30
0.0
 10
10.1002891988
 20
8.8847375398
 30
0.0
 10
10.1001370261
 20
8.8946714558
 30
0.0
 10
10.1005073963
 20
8.9052669811
 30
0.0
 10
10.1010889161
 20
8.9125327571
 30
0.0
 10
10.1014624274
 20
8.916264764
 30
0.0
  0
SPLINE
  5
3E9
100
AcDbEntity
  8
0
100
AcDbSpline
 62
7
  6
CONTINUOUS
 70
0
 71
3
 72
11
 73
7
 74
0
 42
0.0000001
 43
0.0000001
 44
0.0000000001
 40
0.0
 40
0.0
 40
0.0
 40
0.0
 40
0.2483580658
 40
0.4985222916
 40
0.7494453472
 40
1.0
 40
1.0
 40
1.0
 40
1.0
 10
11.8975645575
 20
8.8272993362
 30
0.0
 10
11.9094355542
 20
8.8309610097
 30
0.0
 10
11.9328326042
 20
8.8397913138
 30
0.0
 10
11.9661505906
 20
8.8571611279
 30
0.0
 10
11.9972258432
 20
8.8784824634
 30
0.0
 10
12.0160550132
 20
8.8951775688
 30
0.0
 10
12.0248644696
 20
8.9040918192
 30
0.0
  0
SPLINE
  5
3EA
100
AcDbEntity
  8
0
100
AcDbSpline
 62
7
  6
CONTINUOUS
 70
0
 71
3
 72
9
 73
5
 74
0
 42
0.0000001
 43
0.0000001
 44
0.0000000001
 40
0.0
 40
0.0
 40
0.0
 40
0.0
 40
0.5013445365
 40
1.0
 40
1.0
 40
1.0
 40
1.0
 10
11.8417194845
 20
8.8170382038
 30
0.0
 10
11.8511833642
 20
8.8178852251
 30
0.0
 10
11.8700116409
 20
8.8202309328
 30
0.0
 10
11.8885336741
 20
8.8245137111
 30
0.0
 10
11.8975645575
 20
8.8272993362
 30
0.0
  0
SPLINE
  5
3EB
100
AcDbEntity
  8
0
100
AcDbSpline
 62
7
  6
CONTINUOUS
 70
0
 71
3
 72
9
 73
5
 74
0
 42
0.0000001
 43
0.0000001
 44
0.0000000001
 40
0.0
 40
0.0
 40
0.0
 40
0.0
 40
0.5072986149
 40
1.0
 40
1.0
 40
1.0
 40
1.0
 10
11.7201289195
 20
8.8936545431
 30
0.0
 10
11.7086114394
 20
8.8839470014
 30
0.0
 10
11.6844331035
 20
8.8664927966
 30
0.0
 10
11.6578601988
 20
8.8529358538
 30
0.0
 10
11.6443270887
 20
8.8473793878
 30
0.0
  0
LINE
  5
3EC
100
AcDbEntity
  8
0
100
AcDbLine
 62
7
  6
CONTINUOUS
 10
11.8978599847
 20
8.9040886861
 11
11.9932935502
 21
8.9039362382
  0
SPLINE
  5
3ED
100
AcDbEntity
  8
0
100
AcDbSpline
 62
7
  6
CONTINUOUS
 70
0
 71
3
 72
11
 73
7
 74
0
 42
0.0000001
 43
0.0000001
 44
0.0000000001
 40
0.0
 40
0.0
 40
0.0
 40
0.0
 40
0.2452532575
 40
0.4944683246
 40
0.7464967076
 40
1.0
 40
1.0
 40
1.0
 40
1.0
 10
11.772561546
 20
8.8272178338
 30
0.0
 10
11.7841156527
 20
8.8308937358
 30
0.0
 10
11.8069659473
 20
8.8397776221
 30
0.0
 10
11.8396044536
 20
8.8571786817
 30
0.0
 10
11.8703035364
 20
8.8785341905
 30
0.0
 10
11.8890320343
 20
8.8951929708
 30
0.0
 10
11.8978599847
 20
8.9040886861
 30
0.0
  0
SPLINE
  5
3EE
100
AcDbEntity
  8
0
100
AcDbSpline
 62
7
  6
CONTINUOUS
 70
0
 71
3
 72
9
 73
5
 74
0
 42
0.0000001
 43
0.0000001
 44
0.0000000001
 40
0.0
 40
0.0
 40
0.0
 40
0.0
 40
0.2505205551
 40
1.0
 40
1.0
 40
1.0
 40
1.0
 10
11.7181559242
 20
8.8170398134
 30
0.0
 10
11.7197000068
 20
8.817179229
 30
0.0
 10
11.7258601009
 20
8.8177719976
 30
0.0
 10
11.7320057916
 20
8.8185206187
 30
0.0
 10
11.7365955002
 20
8.8191895906
 30
0.0
  0
SPLINE
  5
3EF
100
AcDbEntity
  8
0
100
AcDbSpline
 62
7
  6
CONTINUOUS
 70
0
 71
3
 72
9
 73
5
 74
0
 42
0.0000001
 43
0.0000001
 44
0.0000000001
 40
0.0
 40
0.0
 40
0.0
 40
0.0
 40
0.5045051708
 40
1.0
 40
1.0
 40
1.0
 40
1.0
 10
11.7373437351
 20
8.8192996327
 30
0.0
 10
11.743353178
 20
8.8201913662
 30
0.0
 10
11.7552140959
 20
8.82233041
 30
0.0
 10
11.7668756263
 20
8.8254088768
 30
0.0
 10
11.772561546
 20
8.8272178338
 30
0.0
  0
SPLINE
  5
3F0
100
AcDbEntity
  8
0
100
AcDbSpline
 62
7
  6
CONTINUOUS
 70
0
 71
3
 72
11
 73
7
 74
0
 42
0.0000001
 43
0.0000001
 44
0.0000000001
 40
0.0
 40
0.0
 40
0.0
 40
0.0
 40
0.262667126
 40
0.5181066724
 40
0.7643507834
 40
1.0
 40
1.0
 40
1.0
 40
1.0
 10
11.5946469731
 20
8.9163704832
 30
0.0
 10
11.5863095058
 20
8.9073565481
 30
0.0
 10
11.5687925124
 20
8.8905346776
 30
0.0
 10
11.5402147654
 20
8.8689495272
 30
0.0
 10
11.5103029892
 20
8.8516520279
 30
0.0
 10
11.4894216625
 20
8.8429768668
 30
0.0
 10
11.4789625485
 20
8.8395198135
 30
0.0
  0
SPLINE
  5
3F1
100
AcDbEntity
  8
0
100
AcDbSpline
 62
7
  6
CONTINUOUS
 70
0
 71
3
 72
9
 73
5
 74
0
 42
0.0000001
 43
0.0000001
 44
0.0000000001
 40
0.0
 40
0.0
 40
0.0
 40
0.0
 40
0.4905762854
 40
1.0
 40
1.0
 40
1.0
 40
1.0
 10
11.4789625485
 20
8.8395198135
 30
0.0
 10
11.4740539577
 20
8.8378973758
 30
0.0
 10
11.4638489083
 20
8.8351799016
 30
0.0
 10
11.4534497826
 20
8.8334054098
 30
0.0
 10
11.4481301135
 20
8.8326837789
 30
0.0
  0
SPLINE
  5
3F2
100
AcDbEntity
  8
0
100
AcDbSpline
 62
7
  6
CONTINUOUS
 70
0
 71
3
 72
12
 73
8
 74
0
 42
0.0000001
 43
0.0000001
 44
0.0000000001
 40
0.0
 40
0.0
 40
0.0
 40
0.0
 40
0.1096019941
 40
0.2204666584
 40
0.4529287752
 40
0.7100530631
 40
1.0
 40
1.0
 40
1.0
 40
1.0
 10
10.5331823805
 20
8.8395198135
 30
0.0
 10
10.5326192921
 20
8.8388836734
 30
0.0
 10
10.5314000453
 20
8.8376779517
 30
0.0
 10
10.5286026762
 20
8.835543262
 30
0.0
 10
10.5244197621
 20
8.8334141018
 30
0.0
 10
10.5186060115
 20
8.8316925861
 30
0.0
 10
10.5144125021
 20
8.8310072902
 30
0.0
 10
10.512182093
 20
8.8307310011
 30
0.0
  0
LINE
  5
3F3
100
AcDbEntity
  8
0
100
AcDbLine
 62
7
  6
CONTINUOUS
 10
9.6596037449
 20
8.9040504297
 11
9.6620841487
 21
8.9039362382
  0
LINE
  5
3F4
100
AcDbEntity
  8
0
100
AcDbLine
 62
7
  6
CONTINUOUS
 10
11.7491934435
 20
8.9040918192
 11
11.8469140221
 21
8.9039590794
  0
SPLINE
  5
3F5
100
AcDbEntity
  8
0
100
AcDbSpline
 62
7
  6
CONTINUOUS
 70
0
 71
3
 72
11
 73
7
 74
0
 42
0.0000001
 43
0.0000001
 44
0.0000000001
 40
0.0
 40
0.0
 40
0.0
 40
0.0
 40
0.2414723415
 40
0.4894607195
 40
0.7427972313
 40
1.0
 40
1.0
 40
1.0
 40
1.0
 10
11.6276445921
 20
8.8272993362
 30
0.0
 10
11.6387139562
 20
8.8309975801
 30
0.0
 10
11.6606902441
 20
8.8399406412
 30
0.0
 10
11.6921813111
 20
8.8573395049
 30
0.0
 10
11.7220873936
 20
8.8786771603
 30
0.0
 10
11.740461696
 20
8.8952437327
 30
0.0
 10
11.7491934435
 20
8.9040918192
 30
0.0
  0
SPLINE
  5
3F6
100
AcDbEntity
  8
0
100
AcDbSpline
 62
7
  6
CONTINUOUS
 70
0
 71
3
 72
9
 73
5
 74
0
 42
0.0000001
 43
0.0000001
 44
0.0000000001
 40
0.0
 40
0.0
 40
0.0
 40
0.0
 40
0.5098311851
 40
1.0
 40
1.0
 40
1.0
 40
1.0
 10
11.574093128
 20
8.8170382038
 30
0.0
 10
11.5833375644
 20
8.8178694605
 30
0.0
 10
11.6014227651
 20
8.8201475066
 30
0.0
 10
11.6191807013
 20
8.8244715737
 30
0.0
 10
11.6276445921
 20
8.8272993362
 30
0.0
  0
SPLINE
  5
3F7
100
AcDbEntity
  8
0
100
AcDbSpline
 62
7
  6
CONTINUOUS
 70
0
 71
3
 72
11
 73
7
 74
0
 42
0.0000001
 43
0.0000001
 44
0.0000000001
 40
0.0
 40
0.0
 40
0.0
 40
0.0
 40
0.2686325884
 40
0.5261229042
 40
0.7703608675
 40
1.0
 40
1.0
 40
1.0
 40
1.0
 10
11.426858265
 20
8.9163728827
 30
0.0
 10
11.4188784711
 20
8.9074275118
 30
0.0
 10
11.402285185
 20
8.890739537
 30
0.0
 10
11.3754230272
 20
8.869169843
 30
0.0
 10
11.3476593161
 20
8.8518662306
 30
0.0
 10
11.3283279742
 20
8.8430897194
 30
0.0
 10
11.3186945388
 20
8.8395961985
 30
0.0
  0
SPLINE
  5
3F8
100
AcDbEntity
  8
0
100
AcDbSpline
 62
7
  6
CONTINUOUS
 70
0
 71
3
 72
11
 73
7
 74
0
 42
0.0000001
 43
0.0000001
 44
0.0000000001
 40
0.0
 40
0.0
 40
0.0
 40
0.0
 40
0.2800754174
 40
0.5382292924
 40
0.7768516359
 40
1.0
 40
1.0
 40
1.0
 40
1.0
 10
9.8728143849
 20
8.9039362382
 30
0.0
 10
9.8738833604
 20
8.8967214721
 30
0.0
 10
9.876765029
 20
8.8829567718
 30
0.0
 10
9.883691295
 20
8.8638663512
 30
0.0
 10
9.89293954
 20
8.8474522081
 30
0.0
 10
9.9007954862
 20
8.838215957
 30
0.0
 10
9.9050287711
 20
8.8342350175
 30
0.0
  0
LINE
  5
3F9
100
AcDbEntity
  8
0
100
AcDbLine
 62
7
  6
CONTINUOUS
 10
11.5984407364
 20
8.9040886861
 11
11.7110969731
 21
8.9039362382
  0
SPLINE
  5
3FA
100
AcDbEntity
  8
0
100
AcDbSpline
 62
7
  6
CONTINUOUS
 70
0
 71
3
 72
11
 73
7
 74
0
 42
0.0000001
 43
0.0000001
 44
0.0000000001
 40
0.0
 40
0.0
 40
0.0
 40
0.0
 40
0.2368457288
 40
0.4833234586
 40
0.7382529689
 40
1.0
 40
1.0
 40
1.0
 40
1.0
 10
11.482762546
 20
8.8272178338
 30
0.0
 10
11.49317256
 20
8.8309390226
 30
0.0
 10
11.5139256581
 20
8.8399617239
 30
0.0
 10
11.5437316825
 20
8.8573981537
 30
0.0
 10
11.5723139579
 20
8.8787748844
 30
0.0
 10
11.5899790132
 20
8.8952759309
 30
0.0
 10
11.5984407364
 20
8.9040886861
 30
0.0
  0
SPLINE
  5
3FB
100
AcDbEntity
  8
0
100
AcDbSpline
 62
7
  6
CONTINUOUS
 70
0
 71
3
 72
9
 73
5
 74
0
 42
0.0000001
 43
0.0000001
 44
0.0000000001
 40
0.0
 40
0.0
 40
0.0
 40
0.0
 40
0.5098932635
 40
1.0
 40
1.0
 40
1.0
 40
1.0
 10
11.449866935
 20
8.8191895906
 30
0.0
 10
11.4555602245
 20
8.8200739811
 30
0.0
 10
11.4666711389
 20
8.8221980154
 30
0.0
 10
11.4775477157
 20
8.825353728
 30
0.0
 10
11.482762546
 20
8.8272178338
 30
0.0
  0
SPLINE
  5
3FC
100
AcDbEntity
  8
0
100
AcDbSpline
 62
7
  6
CONTINUOUS
 70
0
 71
3
 72
15
 73
11
 74
0
 42
0.0000001
 43
0.0000001
 44
0.0000000001
 40
0.0
 40
0.0
 40
0.0
 40
0.0
 40
0.0990634991
 40
0.2037043561
 40
0.31517578
 40
0.4344275475
 40
0.562209375
 40
0.6990259511
 40
0.8450047199
 40
1.0
 40
1.0
 40
1.0
 40
1.0
 10
9.999946908
 20
8.8406991476
 30
0.0
 10
9.9979138307
 20
8.8424855792
 30
0.0
 10
9.9940384079
 20
8.84651746
 30
0.0
 10
9.9890352799
 20
8.8535568147
 30
0.0
 10
9.9847258271
 20
8.8616681558
 30
0.0
 10
9.9811318005
 20
8.8707987195
 30
0.0
 10
9.9782678777
 20
8.8809023828
 30
0.0
 10
9.9761516503
 20
8.891930556
 30
0.0
 10
9.9747984121
 20
8.9038242317
 30
0.0
 10
9.9744280307
 20
8.9120453201
 30
0.0
 10
9.9743652359
 20
8.916279343
 30
0.0
  0
SPLINE
  5
3FD
100
AcDbEntity
  8
0
100
AcDbSpline
 62
7
  6
CONTINUOUS
 70
0
 71
3
 72
13
 73
9
 74
0
 42
0.0000001
 43
0.0000001
 44
0.0000000001
 40
0.0
 40
0.0
 40
0.0
 40
0.0
 40
0.2758499741
 40
0.5358310689
 40
0.6591142622
 40
0.7776999183
 40
0.8913918359
 40
1.0
 40
1.0
 40
1.0
 40
1.0
 10
11.2631008004
 20
8.9163704832
 30
0.0
 10
11.2556284312
 20
8.9074814595
 30
0.0
 10
11.2402628407
 20
8.8909080664
 30
0.0
 10
11.2193418515
 20
8.8725906687
 30
0.0
 10
11.2022721019
 20
8.8601231893
 30
0.0
 10
11.1896520031
 20
8.8520547762
 30
0.0
 10
11.1770630569
 20
8.8451438935
 30
0.0
 10
11.1685424826
 20
8.841247151
 30
0.0
 10
11.164309222
 20
8.8395198135
 30
0.0
  0
SPLINE
  5
3FE
100
AcDbEntity
  8
0
100
AcDbSpline
 62
7
  6
CONTINUOUS
 70
0
 71
3
 72
18
 73
14
 74
0
 42
0.0000001
 43
0.0000001
 44
0.0000000001
 40
0.0
 40
0.0
 40
0.0
 40
0.0
 40
0.2201207879
 40
0.4128904071
 40
0.5776770794
 40
0.7139141549
 40
0.8215070588
 40
0.8647845769
 40
0.9013494364
 40
0.9317160405
 40
0.9568827409
 40
0.9786880181
 40
1.0
 40
1.0
 40
1.0
 40
1.0
 10
9.9050287711
 20
8.8342350175
 30
0.0
 10
9.9061751017
 20
8.8331570196
 30
0.0
 10
9.9083362737
 20
8.8311465862
 30
0.0
 10
9.9113734051
 20
8.8283485335
 30
0.0
 10
9.9139585231
 20
8.8259444152
 30
0.0
 10
9.9160569592
 20
8.8239126032
 30
0.0
 10
9.9174657334
 20
8.8224163042
 30
0.0
 10
9.9182954404
 20
8.8213628399
 30
0.0
 10
9.9187283269
 20
8.820702834
 30
0.0
 10
9.919015486
 20
8.8201073968
 30
0.0
 10
9.9191513699
 20
8.8195653325
 30
0.0
 10
9.9191169425
 20
8.8190676686
 30
0.0
 10
9.9189718309
 20
8.8187853051
 30
0.0
 10
9.918879794
 20
8.8186638939
 30
0.0
  0
SPLINE
  5
3FF
100
AcDbEntity
  8
0
100
AcDbSpline
 62
7
  6
CONTINUOUS
 70
0
 71
3
 72
10
 73
6
 74
0
 42
0.0000001
 43
0.0000001
 44
0.0000000001
 40
0.0
 40
0.0
 40
0.0
 40
0.0
 40
0.4773894296
 40
0.7328456018
 40
1.0
 40
1.0
 40
1.0
 40
1.0
 10
11.164309222
 20
8.8395198135
 30
0.0
 10
11.1581776422
 20
8.8370178867
 30
0.0
 10
11.1483105938
 20
8.8342677276
 30
0.0
 10
11.1346233657
 20
8.832015318
 30
0.0
 10
11.1274078786
 20
8.8312576062
 30
0.0
 10
11.1237146513
 20
8.8309503741
 30
0.0
  0
LINE
  5
400
100
AcDbEntity
  8
0
100
AcDbLine
 62
7
  6
CONTINUOUS
 10
11.4294210232
 20
8.9040918192
 11
11.5397474191
 21
8.9039590794
  0
SPLINE
  5
401
100
AcDbEntity
  8
0
100
AcDbSpline
 62
7
  6
CONTINUOUS
 70
0
 71
3
 72
11
 73
7
 74
0
 42
0.0000001
 43
0.0000001
 44
0.0000000001
 40
0.0
 40
0.0
 40
0.0
 40
0.0
 40
0.2313119045
 40
0.4759413114
 40
0.7327521836
 40
1.0
 40
1.0
 40
1.0
 40
1.0
 10
11.3212605938
 20
8.8272993362
 30
0.0
 10
11.3308596754
 20
8.8310544755
 30
0.0
 10
11.350086132
 20
8.8401676229
 30
0.0
 10
11.3777701936
 20
8.8576053429
 30
0.0
 10
11.4046281099
 20
8.878965522
 30
0.0
 10
11.421341767
 20
8.89534284
 30
0.0
 10
11.4294210232
 20
8.9040918192
 30
0.0
  0
SPLINE
  5
402
100
AcDbEntity
  8
0
100
AcDbSpline
 62
7
  6
CONTINUOUS
 70
0
 71
3
 72
11
 73
7
 74
0
 42
0.0000001
 43
0.0000001
 44
0.0000000001
 40
0.0
 40
0.0
 40
0.0
 40
0.0
 40
0.2638970365
 40
0.5186339585
 40
0.7639646076
 40
1.0
 40
1.0
 40
1.0
 40
1.0
 10
11.2733675741
 20
8.8170382038
 30
0.0
 10
11.2776689049
 20
8.8174529831
 30
0.0
 10
11.2861074988
 20
8.8184396222
 30
0.0
 10
11.2984446377
 20
8.820556847
 30
0.0
 10
11.3101692764
 20
8.8233978363
 30
0.0
 10
11.3176611619
 20
8.8258912465
 30
0.0
 10
11.3212605938
 20
8.8272993362
 30
0.0
  0
LINE
  5
403
100
AcDbEntity
  8
0
100
AcDbLine
 62
7
  6
CONTINUOUS
 10
11.264392441
 20
8.9040886861
 11
11.3871927432
 21
8.9039362382
  0
SPLINE
  5
404
100
AcDbEntity
  8
0
100
AcDbSpline
 62
7
  6
CONTINUOUS
 70
0
 71
3
 72
11
 73
7
 74
0
 42
0.0000001
 43
0.0000001
 44
0.0000000001
 40
0.0
 40
0.0
 40
0.0
 40
0.0
 40
0.2244821956
 40
0.4668802153
 40
0.726034388
 40
1.0
 40
1.0
 40
1.0
 40
1.0
 10
11.1656029851
 20
8.8272178338
 30
0.0
 10
11.1742412734
 20
8.8310131927
 30
0.0
 10
11.191632882
 20
8.8402481546
 30
0.0
 10
11.2167231021
 20
8.8577216558
 30
0.0
 10
11.2413879623
 20
8.8791158141
 30
0.0
 10
11.2568460722
 20
8.8953909283
 30
0.0
 10
11.264392441
 20
8.9040886861
 30
0.0
  0
SPLINE
  5
405
100
AcDbEntity
  8
0
100
AcDbSpline
 62
7
  6
CONTINUOUS
 70
0
 71
3
 72
11
 73
7
 74
0
 42
0.0000001
 43
0.0000001
 44
0.0000000001
 40
0.0
 40
0.0
 40
0.0
 40
0.0
 40
0.2675828508
 40
0.5231850983
 40
0.7670738502
 40
1.0
 40
1.0
 40
1.0
 40
1.0
 10
11.1223333012
 20
8.8170398134
 30
0.0
 10
11.1262912264
 20
8.8174528318
 30
0.0
 10
11.134014009
 20
8.8184315702
 30
0.0
 10
11.1452347382
 20
8.8205359906
 30
0.0
 10
11.1557690186
 20
8.8233515275
 30
0.0
 10
11.1624315806
 20
8.8258244307
 30
0.0
 10
11.1656029851
 20
8.8272178338
 30
0.0
  0
SPLINE
  5
406
100
AcDbEntity
  8
0
100
AcDbSpline
 62
7
  6
CONTINUOUS
 70
0
 71
3
 72
9
 73
5
 74
0
 42
0.0000001
 43
0.0000001
 44
0.0000000001
 40
0.0
 40
0.0
 40
0.0
 40
0.0
 40
0.5167669478
 40
1.0
 40
1.0
 40
1.0
 40
1.0
 10
11.085639686
 20
8.9163728827
 30
0.0
 10
11.0796185786
 20
8.9086514134
 30
0.0
 10
11.0674114
 20
8.8941325137
 30
0.0
 10
11.0540608101
 20
8.8806489443
 30
0.0
 10
11.0473183383
 20
8.8744542163
 30
0.0
  0
SPLINE
  5
407
100
AcDbEntity
  8
0
100
AcDbSpline
 62
7
  6
CONTINUOUS
 70
0
 71
3
 72
14
 73
10
 74
0
 42
0.0000001
 43
0.0000001
 44
0.0000000001
 40
0.0
 40
0.0
 40
0.0
 40
0.0
 40
0.2950348785
 40
0.4322749216
 40
0.5619262537
 40
0.6837356464
 40
0.7975002951
 40
0.9029847505
 40
1.0
 40
1.0
 40
1.0
 40
1.0
 10
10.917996222
 20
8.9163704832
 30
0.0
 10
10.9118510888
 20
8.9076352067
 30
0.0
 10
10.9024025613
 20
8.8951356626
 30
0.0
 10
10.8891503628
 20
8.8796968195
 30
0.0
 10
10.8795153013
 20
8.8694348039
 30
0.0
 10
10.8699968204
 20
8.86025045
 30
0.0
 10
10.8606433911
 20
8.8521801426
 30
0.0
 10
10.851509377
 20
8.84526418
 30
0.0
 10
10.8453419471
 20
8.841283415
 30
0.0
 10
10.8423049279
 20
8.8395198135
 30
0.0
  0
LINE
  5
408
100
AcDbEntity
  8
0
100
AcDbLine
 62
7
  6
CONTINUOUS
 10
11.085639686
 20
8.9040918192
 11
11.201639686
 21
8.9039590794
  0
SPLINE
  5
409
100
AcDbEntity
  8
0
100
AcDbSpline
 62
7
  6
CONTINUOUS
 70
0
 71
3
 72
10
 73
6
 74
0
 42
0.0000001
 43
0.0000001
 44
0.0000000001
 40
0.0
 40
0.0
 40
0.0
 40
0.0
 40
0.2723779349
 40
0.5291787268
 40
1.0
 40
1.0
 40
1.0
 40
1.0
 10
10.9584385153
 20
8.8170382038
 30
0.0
 10
10.9621126762
 20
8.8174479141
 30
0.0
 10
10.9692366888
 20
8.8184190515
 30
0.0
 10
10.9825286867
 20
8.821153646
 30
0.0
 10
10.991972254
 20
8.8243936266
 30
0.0
 10
10.9976637962
 20
8.8272993362
 30
0.0
  0
LINE
  5
40A
100
AcDbEntity
  8
0
100
AcDbLine
 62
7
  6
CONTINUOUS
 10
9.8108274018
 20
8.9040886861
 11
9.8728143849
 21
8.9039362382
  0
LINE
  5
40B
100
AcDbEntity
  8
0
100
AcDbLine
 62
7
  6
CONTINUOUS
 10
10.9167045813
 20
8.9040886861
 11
11.0419329544
 21
8.9039362382
  0
SPLINE
  5
40C
100
AcDbEntity
  8
0
100
AcDbSpline
 62
7
  6
CONTINUOUS
 70
0
 71
3
 72
11
 73
7
 74
0
 42
0.0000001
 43
0.0000001
 44
0.0000000001
 40
0.0
 40
0.0
 40
0.0
 40
0.0
 40
0.3311939133
 40
0.6113313338
 40
0.8356309956
 40
1.0
 40
1.0
 40
1.0
 40
1.0
 10
10.4175702279
 20
8.9163728827
 30
0.0
 10
10.4140154875
 20
8.9078766181
 30
0.0
 10
10.407438336
 20
8.8922004157
 30
0.0
 10
10.3983918367
 20
8.8707961602
 30
0.0
 10
10.3910867591
 20
8.853692549
 30
0.0
 10
10.3867868787
 20
8.8437762768
 30
0.0
 10
10.384937746
 20
8.8395961985
 30
0.0
  0
SPLINE
  5
40D
100
AcDbEntity
  8
0
100
AcDbSpline
 62
7
  6
CONTINUOUS
 70
0
 71
3
 72
14
 73
10
 74
0
 42
0.0000001
 43
0.0000001
 44
0.0000000001
 40
0.0
 40
0.0
 40
0.0
 40
0.0
 40
0.0993213841
 40
0.2063836349
 40
0.321016681
 40
0.4430218787
 40
0.5722296023
 40
0.7084311937
 40
1.0
 40
1.0
 40
1.0
 40
1.0
 10
10.8410111648
 20
8.8272178338
 30
0.0
 10
10.8440632665
 20
8.8291117612
 30
0.0
 10
10.8502477891
 20
8.8333042778
 30
0.0
 10
10.8594121386
 20
8.8404423144
 30
0.0
 10
10.8687698651
 20
8.8486332071
 30
0.0
 10
10.8782752313
 20
8.8578437885
 30
0.0
 10
10.8878873816
 20
8.8680438316
 30
0.0
 10
10.901087015
 20
8.8832649598
 30
0.0
 10
10.9105401399
 20
8.8955336275
 30
0.0
 10
10.9167045813
 20
8.9040886861
 30
0.0
  0
SPLINE
  5
40E
100
AcDbEntity
  8
0
100
AcDbSpline
 62
7
  6
CONTINUOUS
 70
0
 71
3
 72
11
 73
7
 74
0
 42
0.0000001
 43
0.0000001
 44
0.0000000001
 40
0.0
 40
0.0
 40
0.0
 40
0.0
 40
0.2766625433
 40
0.5339626821
 40
0.7739952117
 40
1.0
 40
1.0
 40
1.0
 40
1.0
 10
10.807612335
 20
8.8170398134
 30
0.0
 10
10.8108294693
 20
8.8174470699
 30
0.0
 10
10.8170194443
 20
8.8184074164
 30
0.0
 10
10.8258581964
 20
8.8205077506
 30
0.0
 10
10.833873425
 20
8.8233264023
 30
0.0
 10
10.8387602745
 20
8.8258210839
 30
0.0
 10
10.8410111648
 20
8.8272178338
 30
0.0
  0
SPLINE
  5
40F
100
AcDbEntity
  8
0
100
AcDbSpline
 62
7
  6
CONTINUOUS
 70
0
 71
3
 72
15
 73
11
 74
0
 42
0.0000001
 43
0.0000001
 44
0.0000000001
 40
0.0
 40
0.0
 40
0.0
 40
0.0
 40
0.1527338921
 40
0.2971245009
 40
0.433084623
 40
0.5607508393
 40
0.6805645075
 40
0.7931561657
 40
0.899301915
 40
1.0
 40
1.0
 40
1.0
 40
1.0
 10
9.9656366341
 20
8.9039590794
 30
0.0
 10
9.9657855712
 20
8.8998103893
 30
0.0
 10
9.9663074339
 20
8.8917453092
 30
0.0
 10
9.9678254924
 20
8.8800634388
 30
0.0
 10
9.9700412116
 20
8.8691860511
 30
0.0
 10
9.9729408951
 20
8.859162305
 30
0.0
 10
9.9765088395
 20
8.8500327347
 30
0.0
 10
9.980731497
 20
8.8418357117
 30
0.0
 10
9.9855893578
 20
8.834614675
 30
0.0
 10
9.989326285
 20
8.8303853576
 30
0.0
 10
9.9912866043
 20
8.8284752855
 30
0.0
  0
SPLINE
  5
410
100
AcDbEntity
  8
0
100
AcDbSpline
 62
7
  6
CONTINUOUS
 70
0
 71
3
 72
16
 73
12
 74
0
 42
0.0000001
 43
0.0000001
 44
0.0000000001
 40
0.0
 40
0.0
 40
0.0
 40
0.0
 40
0.2071849748
 40
0.3891081405
 40
0.545662716
 40
0.6770283809
 40
0.7840065684
 40
0.8689089814
 40
0.9371560665
 40
0.9684112962
 40
1.0
 40
1.0
 40
1.0
 40
1.0
 10
9.9912866043
 20
8.8284752855
 30
0.0
 10
9.9918678373
 20
8.8279089507
 30
0.0
 10
9.9929519932
 20
8.8268376006
 30
0.0
 10
9.9944345508
 20
8.8252976302
 30
0.0
 10
9.995657762
 20
8.823921691
 30
0.0
 10
9.9966124686
 20
8.8227028063
 30
0.0
 10
9.9972901306
 20
8.8216292561
 30
0.0
 10
9.9976869365
 20
8.8206832251
 30
0.0
 10
9.9977560433
 20
8.8199436762
 30
0.0
 10
9.9976200907
 20
8.8194434064
 30
0.0
 10
9.9974990313
 20
8.8192260715
 30
0.0
 10
9.9974274192
 20
8.8191251719
 30
0.0
  0
LINE
  5
411
100
AcDbEntity
  8
0
100
AcDbLine
 62
7
  6
CONTINUOUS
 10
10.7394504775
 20
8.9040918192
 11
10.853835375
 21
8.9039590794
  0
SPLINE
  5
412
100
AcDbEntity
  8
0
100
AcDbSpline
 62
7
  6
CONTINUOUS
 70
0
 71
3
 72
14
 73
10
 74
0
 42
0.0000001
 43
0.0000001
 44
0.0000000001
 40
0.0
 40
0.0
 40
0.0
 40
0.0
 40
0.0925505491
 40
0.1948991436
 40
0.306812989
 40
0.4280307315
 40
0.5583214586
 40
0.6974192037
 40
1.0
 40
1.0
 40
1.0
 40
1.0
 10
10.677186976
 20
8.8272993362
 30
0.0
 10
10.6795687684
 20
8.8292229883
 30
0.0
 10
10.6844259919
 20
8.8334716785
 30
0.0
 10
10.6916551378
 20
8.8406019217
 30
0.0
 10
10.6991620974
 20
8.8487808768
 30
0.0
 10
10.7069109748
 20
8.8579764458
 30
0.0
 10
10.7148696366
 20
8.8681593073
 30
0.0
 10
10.7260295108
 20
8.8834415912
 30
0.0
 10
10.7341137967
 20
8.8956237048
 30
0.0
 10
10.7394504775
 20
8.9040918192
 30
0.0
  0
SPLINE
  5
413
100
AcDbEntity
  8
0
100
AcDbSpline
 62
7
  6
CONTINUOUS
 70
0
 71
3
 72
11
 73
7
 74
0
 42
0.0000001
 43
0.0000001
 44
0.0000000001
 40
0.0
 40
0.0
 40
0.0
 40
0.0
 40
0.28250977
 40
0.5403334442
 40
0.7774922319
 40
1.0
 40
1.0
 40
1.0
 40
1.0
 10
10.6490941027
 20
8.8170382038
 30
0.0
 10
10.6519136042
 20
8.8174408882
 30
0.0
 10
10.6572847194
 20
8.8183887222
 30
0.0
 10
10.6648512691
 20
8.8204984847
 30
0.0
 10
10.6715256162
 20
8.8233513166
 30
0.0
 10
10.6754418581
 20
8.8258898936
 30
0.0
 10
10.677186976
 20
8.8272993362
 30
0.0
  0
SPLINE
  5
414
100
AcDbEntity
  8
0
100
AcDbSpline
 62
7
  6
CONTINUOUS
 70
0
 71
3
 72
13
 73
9
 74
0
 42
0.0000001
 43
0.0000001
 44
0.0000000001
 40
0.0
 40
0.0
 40
0.0
 40
0.0
 40
0.1153332694
 40
0.2271505165
 40
0.3389749251
 40
0.4541785546
 40
0.7057739822
 40
1.0
 40
1.0
 40
1.0
 40
1.0
 10
10.384937746
 20
8.8395961985
 30
0.0
 10
10.3846594539
 20
8.8389671021
 30
0.0
 10
10.3840180439
 20
8.8377661502
 30
0.0
 10
10.3827812898
 20
8.8361554527
 30
0.0
 10
10.3812972967
 20
8.8347704669
 30
0.0
 10
10.3789263987
 20
8.8331623546
 30
0.0
 10
10.3752383554
 20
8.8316618755
 30
0.0
 10
10.3720404365
 20
8.8310003657
 30
0.0
 10
10.3703064472
 20
8.8307302503
 30
0.0
  0
SPLINE
  5
415
100
AcDbEntity
  8
0
100
AcDbSpline
 62
7
  6
CONTINUOUS
 70
0
 71
3
 72
11
 73
7
 74
0
 42
0.0000001
 43
0.0000001
 44
0.0000000001
 40
0.0
 40
0.0
 40
0.0
 40
0.0
 40
0.2226861597
 40
0.4614334856
 40
0.7199233694
 40
1.0
 40
1.0
 40
1.0
 40
1.0
 10
9.9096589312
 20
8.8504583919
 30
0.0
 10
9.9059414484
 20
8.854344773
 30
0.0
 10
9.8990929048
 20
8.8632444776
 30
0.0
 10
9.8911479961
 20
8.8787978061
 30
0.0
 10
9.8853190188
 20
8.8967121498
 30
0.0
 10
9.8829964661
 20
8.9095507669
 30
0.0
 10
9.8821746954
 20
8.916264764
 30
0.0
  0
LINE
  5
416
100
AcDbEntity
  8
0
100
AcDbLine
 62
7
  6
CONTINUOUS
 10
10.5772236644
 20
8.9040886861
 11
10.6970115492
 21
8.9039362382
  0
SPLINE
  5
417
100
AcDbEntity
  8
0
100
AcDbSpline
 62
7
  6
CONTINUOUS
 70
0
 71
3
 72
14
 73
10
 74
0
 42
0.0000001
 43
0.0000001
 44
0.0000000001
 40
0.0
 40
0.0
 40
0.0
 40
0.0
 40
0.0850484979
 40
0.1822779087
 40
0.2913064455
 40
0.4117534771
 40
0.5432894046
 40
0.6855646023
 40
1.0
 40
1.0
 40
1.0
 40
1.0
 10
10.5293823829
 20
8.8272178338
 30
0.0
 10
10.5310425008
 20
8.829180685
 30
0.0
 10
10.5344715749
 20
8.8334968263
 30
0.0
 10
10.5396529723
 20
8.8406183806
 30
0.0
 10
10.5451939248
 20
8.8487945731
 30
0.0
 10
10.5510679457
 20
8.8579922334
 30
0.0
 10
10.5572512344
 20
8.8681809003
 30
0.0
 10
10.5661746574
 20
8.8835614543
 30
0.0
 10
10.5727844638
 20
8.8956846771
 30
0.0
 10
10.5772236644
 20
8.9040886861
 30
0.0
  0
SPLINE
  5
418
100
AcDbEntity
  8
0
100
AcDbSpline
 62
7
  6
CONTINUOUS
 70
0
 71
3
 72
11
 73
7
 74
0
 42
0.0000001
 43
0.0000001
 44
0.0000000001
 40
0.0
 40
0.0
 40
0.0
 40
0.0
 40
0.2870354463
 40
0.5437401623
 40
0.7777138026
 40
1.0
 40
1.0
 40
1.0
 40
1.0
 10
10.5079529785
 20
8.8170398134
 30
0.0
 10
10.5102324447
 20
8.8174383372
 30
0.0
 10
10.514524748
 20
8.8183714302
 30
0.0
 10
10.5204557005
 20
8.8204756119
 30
0.0
 10
10.5254846486
 20
8.8233335782
 30
0.0
 10
10.5282251349
 20
8.825849554
 30
0.0
 10
10.5293823829
 20
8.8272178338
 30
0.0
  0
SPLINE
  5
419
100
AcDbEntity
  8
0
100
AcDbSpline
 62
7
  6
CONTINUOUS
 70
0
 71
3
 72
11
 73
7
 74
0
 42
0.0000001
 43
0.0000001
 44
0.0000000001
 40
0.0
 40
0.0
 40
0.0
 40
0.0
 40
0.2251580182
 40
0.4647625176
 40
0.7222896705
 40
1.0
 40
1.0
 40
1.0
 40
1.0
 10
10.8423049279
 20
8.8395198135
 30
0.0
 10
10.8400561428
 20
8.8382139406
 30
0.0
 10
10.8351733788
 20
8.8359226264
 30
0.0
 10
10.8271869105
 20
8.8334495939
 30
0.0
 10
10.8183928815
 20
8.8317240658
 30
0.0
 10
10.8122470864
 20
8.831014011
 30
0.0
 10
10.8090521971
 20
8.8307310011
 30
0.0
  0
LINE
  5
41A
100
AcDbEntity
  8
0
100
AcDbLine
 62
7
  6
CONTINUOUS
 10
10.412605739
 20
8.9040918192
 11
10.5181883102
 21
8.9039590794
  0
SPLINE
  5
41B
100
AcDbEntity
  8
0
100
AcDbSpline
 62
7
  6
CONTINUOUS
 70
0
 71
3
 72
11
 73
7
 74
0
 42
0.0000001
 43
0.0000001
 44
0.0000000001
 40
0.0
 40
0.0
 40
0.0
 40
0.0
 40
0.1716344057
 40
0.3978452971
 40
0.6752823099
 40
1.0
 40
1.0
 40
1.0
 40
1.0
 10
10.3799668706
 20
8.8272993362
 30
0.0
 10
10.3818886692
 20
8.8316692369
 30
0.0
 10
10.38628455
 20
8.8418243965
 30
0.0
 10
10.3936594445
 20
8.85909817
 30
0.0
 10
10.4026326504
 20
8.8803191031
 30
0.0
 10
10.4091169427
 20
8.895761204
 30
0.0
 10
10.412605739
 20
8.9040918192
 30
0.0
  0
SPLINE
  5
41C
100
AcDbEntity
  8
0
100
AcDbSpline
 62
7
  6
CONTINUOUS
 70
0
 71
3
 72
13
 73
9
 74
0
 42
0.0000001
 43
0.0000001
 44
0.0000000001
 40
0.0
 40
0.0
 40
0.0
 40
0.0
 40
0.28922159
 40
0.540666843
 40
0.6570943847
 40
0.7705343671
 40
0.8838472422
 40
1.0
 40
1.0
 40
1.0
 40
1.0
 10
10.3647715834
 20
8.8170382038
 30
0.0
 10
10.366568328
 20
8.8174291506
 30
0.0
 10
10.3698950859
 20
8.8183405391
 30
0.0
 10
10.3736935488
 20
8.8201681476
 30
0.0
 10
10.3761470636
 20
8.8220121639
 30
0.0
 10
10.3776933192
 20
8.8235628053
 30
0.0
 10
10.3789886999
 20
8.8253262319
 30
0.0
 10
10.3796695864
 20
8.8266233537
 30
0.0
 10
10.3799668706
 20
8.8272993362
 30
0.0
  0
SPLINE
  5
41D
100
AcDbEntity
  8
0
100
AcDbSpline
 62
7
  6
CONTINUOUS
 70
0
 71
3
 72
17
 73
13
 74
0
 42
0.0000001
 43
0.0000001
 44
0.0000000001
 40
0.0
 40
0.0
 40
0.0
 40
0.0
 40
0.0266595207
 40
0.0532298721
 40
0.0820293065
 40
0.1148382342
 40
0.1965634245
 40
0.3034142084
 40
0.4369866256
 40
0.5976713176
 40
0.7854200673
 40
1.0
 40
1.0
 40
1.0
 40
1.0
 10
10.0067787783
 20
8.8323243106
 30
0.0
 10
10.0068367563
 20
8.8324059131
 30
0.0
 10
10.0069313665
 20
8.8325858485
 30
0.0
 10
10.0069860691
 20
8.8328933807
 30
0.0
 10
10.0069534388
 20
8.8332261564
 30
0.0
 10
10.0067894487
 20
8.8337416604
 30
0.0
 10
10.0063579012
 20
8.8344615161
 30
0.0
 10
10.0055952849
 20
8.8354011409
 30
0.0
 10
10.0045557141
 20
8.8364928399
 30
0.0
 10
10.0032488302
 20
8.8377450932
 30
0.0
 10
10.0016842874
 20
8.8391670961
 30
0.0
 10
10.0005521616
 20
8.8401673212
 30
0.0
 10
9.999946908
 20
8.8406991476
 30
0.0
  0
LINE
  5
41E
100
AcDbEntity
  8
0
100
AcDbLine
 62
7
  6
CONTINUOUS
 10
9.8965912092
 20
8.9040918192
 11
9.9656366341
 21
8.9039590794
  0
LINE
  5
41F
100
AcDbEntity
  8
0
100
AcDbLine
 62
7
  6
CONTINUOUS
 10
10.2672805247
 20
8.9040886861
 11
10.3741012078
 21
8.9039362382
  0
SPLINE
  5
420
100
AcDbEntity
  8
0
100
AcDbSpline
 62
7
  6
CONTINUOUS
 70
0
 71
3
 72
11
 73
7
 74
0
 42
0.0000001
 43
0.0000001
 44
0.0000000001
 40
0.0
 40
0.0
 40
0.0
 40
0.0
 40
0.2842704669
 40
0.5372110193
 40
0.7707055625
 40
1.0
 40
1.0
 40
1.0
 40
1.0
 10
10.2421839313
 20
8.8170398134
 30
0.0
 10
10.2429997691
 20
8.8172963157
 30
0.0
 10
10.2445178028
 20
8.8178682654
 30
0.0
 10
10.2465351013
 20
8.8190391569
 30
0.0
 10
10.2481368985
 20
8.8205068964
 30
0.0
 10
10.2489067402
 20
8.8216873576
 30
0.0
 10
10.2492117621
 20
8.8223060748
 30
0.0
  0
SPLINE
  5
421
100
AcDbEntity
  8
0
100
AcDbSpline
 62
7
  6
CONTINUOUS
 70
0
 71
3
 72
11
 73
7
 74
0
 42
0.0000001
 43
0.0000001
 44
0.0000000001
 40
0.0
 40
0.0
 40
0.0
 40
0.0
 40
0.233047815
 40
0.4750237398
 40
0.7298967267
 40
1.0
 40
1.0
 40
1.0
 40
1.0
 10
9.8324603609
 20
8.8498373874
 30
0.0
 10
9.82771027
 20
8.8536575881
 30
0.0
 10
9.8187698441
 20
8.8624095432
 30
0.0
 10
9.8077084905
 20
8.8780820451
 30
0.0
 10
9.7989696217
 20
8.8962297355
 30
0.0
 10
9.7949104389
 20
8.9094044684
 30
0.0
 10
9.7932828312
 20
8.916279343
 30
0.0
  0
SPLINE
  5
422
100
AcDbEntity
  8
0
100
AcDbSpline
 62
7
  6
CONTINUOUS
 70
0
 71
3
 72
14
 73
10
 74
0
 42
0.0000001
 43
0.0000001
 44
0.0000000001
 40
0.0
 40
0.0
 40
0.0
 40
0.0
 40
0.3022095884
 40
0.4403843284
 40
0.5696581706
 40
0.690071737
 40
0.8017662013
 40
0.9049563192
 40
1.0
 40
1.0
 40
1.0
 40
1.0
 10
10.0934915746
 20
8.9039362382
 30
0.0
 10
10.0928932943
 20
8.8968232987
 30
0.0
 10
10.0923976692
 20
8.8864158952
 30
0.0
 10
10.0927383362
 20
8.8729604372
 30
0.0
 10
10.0934625452
 20
8.8638227752
 30
0.0
 10
10.0946566629
 20
8.8553649954
 30
0.0
 10
10.0963161656
 20
8.8476131762
 30
0.0
 10
10.0984338222
 20
8.8405966362
 30
0.0
 10
10.1002182961
 20
8.8362563384
 30
0.0
 10
10.1011949182
 20
8.8342350175
 30
0.0
  0
SPLINE
  5
423
100
AcDbEntity
  8
0
100
AcDbSpline
 62
7
  6
CONTINUOUS
 70
0
 71
3
 72
13
 73
9
 74
0
 42
0.0000001
 43
0.0000001
 44
0.0000000001
 40
0.0
 40
0.0
 40
0.0
 40
0.0
 40
0.3105277234
 40
0.5828794043
 40
0.7036292116
 40
0.8136448806
 40
0.9125594896
 40
1.0
 40
1.0
 40
1.0
 40
1.0
 10
10.3741012078
 20
8.9039362382
 30
0.0
 10
10.3718907945
 20
8.8968311532
 30
0.0
 10
10.3678861501
 20
8.8834488531
 30
0.0
 10
10.3635024046
 20
8.867164595
 30
0.0
 10
10.3607069129
 20
8.8554364921
 30
0.0
 10
10.3590475669
 20
8.8477119565
 30
0.0
 10
10.3577444892
 20
8.8407298547
 30
0.0
 10
10.3570743321
 20
8.8363134922
 30
0.0
 10
10.3568094793
 20
8.8342350175
 30
0.0
  0
LINE
  5
424
100
AcDbEntity
  8
0
100
AcDbLine
 62
7
  6
CONTINUOUS
 10
10.1256423274
 20
8.9040918192
 11
10.215788431
 21
8.9039590794
  0
SPLINE
  5
425
100
AcDbEntity
  8
0
100
AcDbSpline
 62
7
  6
CONTINUOUS
 70
0
 71
3
 72
14
 73
10
 74
0
 42
0.0000001
 43
0.0000001
 44
0.0000000001
 40
0.0
 40
0.0
 40
0.0
 40
0.0
 40
0.0829469025
 40
0.1703606752
 40
0.2676999424
 40
0.378850289
 40
0.5062945802
 40
0.6516519212
 40
1.0
 40
1.0
 40
1.0
 40
1.0
 10
10.1113867803
 20
8.8347546712
 30
0.0
 10
10.1115693293
 20
8.8350369177
 30
0.0
 10
10.111868669
 20
8.8356693493
 30
0.0
 10
10.1120717667
 20
8.8367444963
 30
0.0
 10
10.1120478354
 20
8.8379498211
 30
0.0
 10
10.1118119505
 20
8.8392943953
 30
0.0
 10
10.111372991
 20
8.8407895706
 30
0.0
 10
10.1104683968
 20
8.8431405614
 30
0.0
 10
10.1095798664
 20
8.8449374995
 30
0.0
 10
10.1089219872
 20
8.8461864827
 30
0.0
  0
SPLINE
  5
426
100
AcDbEntity
  8
0
100
AcDbSpline
 62
7
  6
CONTINUOUS
 70
0
 71
3
 72
14
 73
10
 74
0
 42
0.0000001
 43
0.0000001
 44
0.0000000001
 40
0.0
 40
0.0
 40
0.0
 40
0.0
 40
0.3367196911
 40
0.4792439321
 40
0.6058843456
 40
0.7182840809
 40
0.8188640119
 40
0.9111978923
 40
1.0
 40
1.0
 40
1.0
 40
1.0
 10
10.1011949182
 20
8.8342350175
 30
0.0
 10
10.10182479
 20
8.8329313678
 30
0.0
 10
10.1026643992
 20
8.8310437996
 30
0.0
 10
10.1034755987
 20
8.8285656992
 30
0.0
 10
10.1038480444
 20
8.8269650339
 30
0.0
 10
10.1040132129
 20
8.8255098963
 30
0.0
 10
10.1039618383
 20
8.8241915421
 30
0.0
 10
10.1036813267
 20
8.8230042891
 30
0.0
 10
10.1033328753
 20
8.8222986276
 30
0.0
 10
10.1031255053
 20
8.8219780103
 30
0.0
  0
SPLINE
  5
427
100
AcDbEntity
  8
0
100
AcDbSpline
 62
7
  6
CONTINUOUS
 70
0
 71
3
 72
15
 73
11
 74
0
 42
0.0000001
 43
0.0000001
 44
0.0000000001
 40
0.0
 40
0.0
 40
0.0
 40
0.0
 40
0.1658870428
 40
0.3208761447
 40
0.4643584759
 40
0.5958908633
 40
0.7152696521
 40
0.8223939127
 40
0.9172431746
 40
1.0
 40
1.0
 40
1.0
 40
1.0
 10
10.215788431
 20
8.9039590794
 30
0.0
 10
10.2149732648
 20
8.8998284116
 30
0.0
 10
10.2135077507
 20
8.8918158042
 30
0.0
 10
10.2117597385
 20
8.880158172
 30
0.0
 10
10.2105367436
 20
8.8693102648
 30
0.0
 10
10.2098410602
 20
8.8593208491
 30
0.0
 10
10.2096715929
 20
8.85023065
 30
0.0
 10
10.2100269972
 20
8.8420753388
 30
0.0
 10
10.2109035323
 20
8.8348941343
 30
0.0
 10
10.2119007081
 20
8.8304847155
 30
0.0
 10
10.2125122562
 20
8.8284752855
 30
0.0
  0
LINE
  5
428
100
AcDbEntity
  8
0
100
AcDbLine
 62
7
  6
CONTINUOUS
 10
10.0063500296
 20
8.9040886861
 11
10.0934915746
 21
8.9039362382
  0
ENDSEC
  0
SECTION
  2
OBJECTS
  0
DICTIONARY
  5
C
100
AcDbDictionary
280
0
281
1
  3
ACAD_GROUP
350
D
  3
ACAD_MLINESTYLE
350
17
  3
ACAD_LAYOUT
350
1A
  3
ACAD_PLOTSETTINGS
350
19
  3
ACAD_PLOTSTYLENAME
350
E
  0
DICTIONARY
  5
D
102
{ACAD_REACTORS
330
C
102
}
100
AcDbDictionary
280
0
281
1
  0
ACDBDICTIONARYWDFLT
  5
E
102
{ACAD_REACTORS
330
C
102
}
100
AcDbDictionary
281
1
  3
Normal
350
F
100
AcDbDictionaryWithDefault
340
F
  0
DICTIONARY
  5
17
102
{ACAD_REACTORS
330
C
102
}
100
AcDbDictionary
280
0
281
1
  3
Standard
350
18
  0
DICTIONARY
  5
19
102
{ACAD_REACTORS
330
C
102
}
100
AcDbDictionary
281
1
  0
DICTIONARY
  5
1A
102
{ACAD_REACTORS
330
C
102
}
100
AcDbDictionary
281
1
  3
Model
350
429
  3
Layout1
350
42A
  0
ACDBPLACEHOLDER
  5
F
102
{ACAD_REACTORS
330
E
102
}
  0
MLINESTYLE
  5
18
102
{ACAD_REACTORS
330
17
102
}
100
AcDbMlineStyle
  2
STANDARD
 70
0
  3

 62
256
 51
90.0
 52
90.0
 71
2
 49
0.5
 62
256
  6
BYLAYER
 49
-0.5
 62
256
  6
BYLAYER
  0
LAYOUT
  5
429
102
{ACAD_REACTORS
330
1A
102
}
100
AcDbPlotSettings
  1

  2
none_device
  4
ANSI_C_(22.00_x_17.00_Inches)
  6

 40
0.0
 41
0.0
 42
0.0
 43
0.0
 44
558.8
 45
431.8
 46
0.0
 47
0.0
 48
0.0
 49
0.0
140
0.0
141
0.0
142
1.0
143
1.0
 70
1024
 72
0
 73
0
 74
0
  7

 75
0
147
1.0
148
0.0
149
0.0
100
AcDbLayout
  1
Model
 70
0
 71
0
 10
0.0
 20
0.0
 11
22.0
 21
17.0
 12
0.0
 22
0.0
 32
0.0
 14
0.0
 24
0.0
 34
0.0
 15
0.0
 25
0.0
 35
0.0
146
0.0
 13
0.0
 23
0.0
 33
0.0
 16
1.0
 26
0.0
 36
0.0
 17
0.0
 27
1.0
 37
0.0
 76
0
330
205
345
0
346
0
  0
LAYOUT
  5
42A
102
{ACAD_REACTORS
330
1A
102
}
100
AcDbPlotSettings
  1

  2
none_device
  4
ANSI_C_(22.00_x_17.00_Inches)
  6

 40
0.0
 41
0.0
 42
0.0
 43
0.0
 44
558.8
 45
431.8
 46
0.0
 47
0.0
 48
0.0
 49
0.0
140
0.0
141
0.0
142
1.0
143
1.0
 70
0
 72
0
 73
0
 74
0
  7

 75
0
147
1.0
148
0.0
149
0.0
100
AcDbLayout
  1
Layout1
 70
0
 71
1
 10
0.0
 20
0.0
 11
22.0
 21
17.0
 12
0.0
 22
0.0
 32
0.0
 14
0.0
 24
0.0
 34
0.0
 15
0.0
 25
0.0
 35
0.0
146
0.0
 13
0.0
 23
0.0
 33
0.0
 16
1.0
 26
0.0
 36
0.0
 17
0.0
 27
1.0
 37
0.0
 76
0
330
206
345
0
346
0
  0
ENDSEC
  0
EOF
