999
DXF file: 1500-4263_top.dxf
999
Pro/ENGINEER 2019352 by Parametric Technology Corporation
  0
SECTION
  2
HEADER
  9
$ACADVER
  1
AC1032
  9
$DWGCODEPAGE
  3
ANSI_1252
  9
$EXTMAX
 10
11.0
 20
8.5
 30
0.0
  9
$EXTMIN
 10
0.0
 20
0.0
 30
0.0
  9
$LIMMIN
 10
0.0
 20
0.0
  9
$LIMMAX
 10
11.0
 20
8.5
  9
$VIEWCTR
 10
5.5
 20
4.25
  9
$VIEWSIZE
 40
8.5
  9
$CLAYER
  8
0
  9
$LTSCALE
 40
0.605
  9
$CELTYPE
  6
BYLAYER
  9
$DIMSCALE
 40
1.0
  9
$DIMASZ
 40
0.1
  9
$DIMEXO
 40
0.0625
  9
$DIMDLI
 40
0.418
  9
$DIMEXE
 40
0.125
  9
$DIMCEN
 40
0.099
  9
$DIMLFAC
 40
1.0
  9
$DIMBLK
  1
_FILLED
  9
$DIMALT
 70
1
  9
$DIMALTD
 70
2
  9
$DIMALTTD
 70
2
  9
$DIMALTF
 40
25.4
  9
$DIMTXT
 40
0.08
  9
$DIMTOL
 70
1
  9
$DIMLIM
 70
0
  9
$DIMTFAC
 40
1.0
  9
$DIMTP
 40
0.001
  9
$DIMTM
 40
0.001
  9
$DIMGAP
 40
0.09
  9
$DIMDSEP
 70
46
  9
$AUNITS
 70
0
  9
$PDMODE
 70
3
  9
$PDSIZE
 40
0.3125
  9
$HANDSEED
  5
291
  9
$TILEMODE
 70
1
  9
$MEASUREMENT
 70
0
  9
$INSUNITS
 70
1
  0
ENDSEC
  0
SECTION
  2
CLASSES
  0
CLASS
  1
ACDBDICTIONARYWDFLT
  2
AcDbDictionaryWithDefault
  3
AutoCAD 2000
 90
0
 91
1
280
0
281
0
  0
CLASS
  1
ACDBPLACEHOLDER
  2
AcDbPlaceHolder
  3
AutoCAD 2000
 90
0
 91
1
280
0
281
0
  0
CLASS
  1
LAYOUT
  2
AcDbLayout
  3
AutoCAD 2000
 90
0
 91
0
280
0
281
0
  0
ENDSEC
  0
SECTION
  2
TABLES
  0
TABLE
  2
VPORT
  5
8
100
AcDbSymbolTable
 70
2
  0
VPORT
  5
1F4
100
AcDbSymbolTableRecord
100
AcDbViewportTableRecord
  2
*ACTIVE
 70
0
 10
0.0
 20
0.0
 11
1.0
 21
1.0
 12
5.5
 22
4.25
 13
0.0
 23
0.0
 14
1.0
 24
1.0
 15
0.0
 25
0.0
 16
0.0
 26
0.0
 36
1.0
 17
0.0
 27
0.0
 37
0.0
 40
8.5
 41
1.2941176471
 42
50.0
 43
0.0
 44
0.0
 50
0.0
 51
0.0
 71
0
 72
100
 73
1
 74
1
 75
0
 76
0
 77
0
 78
0
  0
ENDTAB
  0
TABLE
  2
LTYPE
  5
5
100
AcDbSymbolTable
 70
6
  0
LTYPE
  5
14
100
AcDbSymbolTableRecord
100
AcDbLinetypeTableRecord
  2
BYBLOCK
 70
0
  3

 72
65
 73
0
 40
0.0
  0
LTYPE
  5
15
100
AcDbSymbolTableRecord
100
AcDbLinetypeTableRecord
  2
BYLAYER
 70
0
  3

 72
65
 73
0
 40
0.0
  0
LTYPE
  5
16
100
AcDbSymbolTableRecord
100
AcDbLinetypeTableRecord
  2
CONTINUOUS
 70
64
  3
Solid line
 72
65
 73
0
 40
0.0
  0
LTYPE
  5
1F5
100
AcDbSymbolTableRecord
100
AcDbLinetypeTableRecord
  2
CENTER
 70
64
  3
____ _ ____ _ ____ _ ____ _ ____ _ ____ _ ____
 72
65
 73
4
 40
0.6
 49
0.375
 74
0
 49
-0.075
 74
0
 49
0.075
 74
0
 49
-0.075
 74
0
  0
LTYPE
  5
1F6
100
AcDbSymbolTableRecord
100
AcDbLinetypeTableRecord
  2
HIDDEN
 70
64
  3
- - - - - - - - - - - - - - - - - - - -
 72
65
 73
2
 40
0.2
 49
0.1
 74
0
 49
-0.1
 74
0
  0
LTYPE
  5
1F7
100
AcDbSymbolTableRecord
100
AcDbLinetypeTableRecord
  2
PHANTOM
 70
64
  3
_____ _ _ _____ _ _ _____ _ _ _____
 72
65
 73
6
 40
0.8
 49
0.45
 74
0
 49
-0.05
 74
0
 49
0.1
 74
0
 49
-0.05
 74
0
 49
0.1
 74
0
 49
-0.05
 74
0
  0
LTYPE
  5
1F8
100
AcDbSymbolTableRecord
100
AcDbLinetypeTableRecord
  2
DOT
 70
64
  3
. . . . . . . . . . . . . . . . . . . .
 72
65
 73
2
 40
0.2
 49
0.1
 74
0
 49
-0.1
 74
0
  0
LTYPE
  5
1F9
100
AcDbSymbolTableRecord
100
AcDbLinetypeTableRecord
  2
DASHED
 70
64
  3
- - - - - - - - - - - - - - - - - - - -
 72
65
 73
2
 40
0.2
 49
0.1
 74
0
 49
-0.1
 74
0
  0
ENDTAB
  0
TABLE
  2
LAYER
  5
2
100
AcDbSymbolTable
 70
36
  0
LAYER
  5
10
100
AcDbSymbolTableRecord
100
AcDbLayerTableRecord
  2
0
 70
0
 62
7
  6
CONTINUOUS
370
-3
390
F
  0
LAYER
  5
1FA
100
AcDbSymbolTableRecord
100
AcDbLayerTableRecord
  2
DEFAULT_1
 70
0
 62
7
  6
CENTER
370
-3
390
F
  0
LAYER
  5
1FB
100
AcDbSymbolTableRecord
100
AcDbLayerTableRecord
  2
DEFAULT_2
 70
0
 62
8
  6
HIDDEN
370
-3
390
F
  0
LAYER
  5
1FC
100
AcDbSymbolTableRecord
100
AcDbLayerTableRecord
  2
DEFAULT_3
 70
0
 62
7
  6
PHANTOM
370
-3
390
F
  0
LAYER
  5
1FD
100
AcDbSymbolTableRecord
100
AcDbLayerTableRecord
  2
DEFAULT_COORDINATE_SYSTEM
 70
0
 62
7
  6
CONTINUOUS
370
-3
390
F
  0
LAYER
  5
1FE
100
AcDbSymbolTableRecord
100
AcDbLayerTableRecord
  2
DEFAULT_DATUM_AXES
 70
0
 62
7
  6
CONTINUOUS
370
-3
390
F
  0
LAYER
  5
1FF
100
AcDbSymbolTableRecord
100
AcDbLayerTableRecord
  2
DEFAULT_DATUM_PLANES
 70
0
 62
7
  6
CONTINUOUS
370
-3
390
F
  0
ENDTAB
  0
TABLE
  2
STYLE
  5
3
100
AcDbSymbolTable
 70
1
  0
STYLE
  5
11
100
AcDbSymbolTableRecord
100
AcDbTextStyleTableRecord
  2
STANDARD
 70
0
 40
0.0
 41
0.8
 50
0.0
 71
0
 42
0.2
  3
txt
  4

  0
STYLE
  5
200
100
AcDbSymbolTableRecord
100
AcDbTextStyleTableRecord
  2
TEXTSTYLE_1
 70
0
 40
0.0
 41
0.8
 50
0.0
 71
0
 42
0.2
  3
gdt
  4

  0
ENDTAB
  0
TABLE
  2
VIEW
  5
6
100
AcDbSymbolTable
 70
0
  0
ENDTAB
  0
TABLE
  2
UCS
  5
7
100
AcDbSymbolTable
 70
0
  0
ENDTAB
  0
TABLE
  2
APPID
  5
9
100
AcDbSymbolTable
 70
1
  0
APPID
  5
201
100
AcDbSymbolTableRecord
100
AcDbRegAppTableRecord
  2
ACAD
 70
0
  0
ENDTAB
  0
TABLE
  2
BLOCK_RECORD
  5
1
100
AcDbSymbolTable
 70
0
  0
BLOCK_RECORD
  5
202
100
AcDbSymbolTableRecord
100
AcDbBlockTableRecord
  2
*Model_Space
  0
BLOCK_RECORD
  5
203
100
AcDbSymbolTableRecord
100
AcDbBlockTableRecord
  2
*Paper_Space
  0
BLOCK_RECORD
  5
204
100
AcDbSymbolTableRecord
100
AcDbBlockTableRecord
  2
_FILLED
  0
ENDTAB
  0
TABLE
  2
DIMSTYLE
  5
A
100
AcDbSymbolTable
 70
1
100
AcDbDimStyleTable
 71
0
  0
DIMSTYLE
105
205
100
AcDbSymbolTableRecord
100
AcDbDimStyleTableRecord
  2
STANDARD
 70
0
  3

  4

 40
1.0
 41
0.1
 42
0.0625
 43
0.38
 44
0.125
 45
0.0
 46
0.0
 47
0.001
 48
0.001
140
0.08
141
0.09
142
0.0
143
25.4
144
1.0
145
0.0
146
1.0
147
0.09
 71
1.0
 72
0.0
 73
1
 74
1
 75
0
 76
0
 77
0
 78
4
 79
1
170
1
171
2
172
0
173
0
174
0
175
0
176
0
177
0
178
0
270
2
179
3
271
3
272
3
273
2
274
2
275
0
280
0
281
0
282
0
283
1
284
4
285
0
286
0
287
3
288
0
340
11
278
46
341
204
342
204
343
204
344
204
  0
ENDTAB
  0
ENDSEC
  0
SECTION
  2
BLOCKS
  0
BLOCK
  5
20
100
AcDbEntity
  8
0
100
AcDbBlockBegin
  2
*Model_Space
 70
0
 10
0.0
 20
0.0
 30
0.0
  3
*Model_Space
  1

  0
ENDBLK
  5
21
100
AcDbEntity
  8
0
100
AcDbBlockEnd
  0
BLOCK
  5
1C
100
AcDbEntity
  8
0
100
AcDbBlockBegin
  2
*Paper_Space
 70
0
 10
0.0
 20
0.0
 30
0.0
  3
*Paper_Space
  1

  0
ENDBLK
  5
1D
100
AcDbEntity
  8
0
100
AcDbBlockEnd
  0
BLOCK
  5
206
100
AcDbEntity
  8
0
100
AcDbBlockBegin
  2
_FILLED
 70
64
 10
0.0
 20
0.0
  3
_FILLED
  1

  0
SOLID
  5
207
100
AcDbEntity
  8
0
  6
BYBLOCK
 62
0
100
AcDbTrace
 10
0.0
 20
0.0
 11
-1.0
 21
0.2
 12
-1.0
 22
-0.2
 13
-1.0
 23
-0.2
  0
ENDBLK
  5
208
100
AcDbEntity
  8
0
  6
BYBLOCK
 62
0
100
AcDbBlockEnd
  0
ENDSEC
  0
SECTION
  2
ENTITIES
  0
MTEXT
  5
209
100
AcDbEntity
  8
0
100
AcDbMText
 62
2
  6
CONTINUOUS
  7
STANDARD
 71
3
 72
1
 10
4.9119157779
 20
3.0386162955
 30
0.0
 11
1.0
 21
0.0
 31
0.0
 73
2
 44
0.9
  1
SCALE 0.125
 40
0.08
 41
0.704
  0
LINE
  5
20A
100
AcDbEntity
  8
0
100
AcDbLine
 62
7
  6
CONTINUOUS
 10
0.0
 20
0.0
 11
0.0
 21
8.5
  0
LINE
  5
20B
100
AcDbEntity
  8
0
100
AcDbLine
 62
7
  6
CONTINUOUS
 10
0.0
 20
0.0
 11
11.0
 21
0.0
  0
LINE
  5
20C
100
AcDbEntity
  8
0
100
AcDbLine
 62
7
  6
CONTINUOUS
 10
0.0
 20
8.5
 11
11.0
 21
8.5
  0
LINE
  5
20D
100
AcDbEntity
  8
0
100
AcDbLine
 62
7
  6
CONTINUOUS
 10
11.0
 20
0.0
 11
11.0
 21
8.5
  0
LINE
  5
20E
100
AcDbEntity
  8
0
100
AcDbLine
 62
7
  6
CONTINUOUS
 10
3.7686612632
 20
4.9399404015
 11
3.7711612632
 21
4.9424404015
  0
LINE
  5
20F
100
AcDbEntity
  8
0
100
AcDbLine
 62
7
  6
CONTINUOUS
 10
3.7686612632
 20
4.8668154015
 11
3.7686612632
 21
4.9399404015
  0
LINE
  5
210
100
AcDbEntity
  8
0
100
AcDbLine
 62
7
  6
CONTINUOUS
 10
3.7711612632
 20
4.8643154015
 11
3.7711612632
 21
4.9424404015
  0
LINE
  5
211
100
AcDbEntity
  8
0
100
AcDbLine
 62
7
  6
CONTINUOUS
 10
4.2530362633
 20
4.8668154015
 11
4.2505362633
 21
4.8643154015
  0
LINE
  5
212
100
AcDbEntity
  8
0
100
AcDbLine
 62
7
  6
CONTINUOUS
 10
4.2505362632
 20
4.9424404015
 11
4.2505362632
 21
4.8643154015
  0
LINE
  5
213
100
AcDbEntity
  8
0
100
AcDbLine
 62
7
  6
CONTINUOUS
 10
4.2530362632
 20
4.9399404015
 11
4.2530362632
 21
4.8668154015
  0
LINE
  5
214
100
AcDbEntity
  8
0
100
AcDbLine
 62
7
  6
CONTINUOUS
 10
3.7686612632
 20
4.8668154015
 11
3.7711612632
 21
4.8643154015
  0
LINE
  5
215
100
AcDbEntity
  8
0
100
AcDbLine
 62
7
  6
CONTINUOUS
 10
4.9106612632
 20
4.9399404015
 11
4.9131612632
 21
4.9424404015
  0
LINE
  5
216
100
AcDbEntity
  8
0
100
AcDbLine
 62
7
  6
CONTINUOUS
 10
4.5099737632
 20
4.8127529015
 11
4.5099737632
 21
4.7315029015
  0
LINE
  5
217
100
AcDbEntity
  8
0
100
AcDbLine
 62
7
  6
CONTINUOUS
 10
4.5193487632
 20
3.7783779015
 11
4.5193487632
 21
4.9033779015
  0
LINE
  5
218
100
AcDbEntity
  8
0
100
AcDbLine
 62
7
  6
CONTINUOUS
 10
4.6443487632
 20
3.7783779015
 11
4.6443487632
 21
4.9033779015
  0
LINE
  5
219
100
AcDbEntity
  8
0
100
AcDbLine
 62
7
  6
CONTINUOUS
 10
4.6537237632
 20
4.8127529015
 11
4.6537237632
 21
4.7315029015
  0
LINE
  5
21A
100
AcDbEntity
  8
0
100
AcDbLine
 62
7
  6
CONTINUOUS
 10
5.6214192727
 20
4.9467077334
 11
5.6182988882
 21
4.9446279015
  0
LINE
  5
21B
100
AcDbEntity
  8
0
100
AcDbLine
 62
7
  6
CONTINUOUS
 10
4.2530362633
 20
4.9399404015
 11
4.2505362633
 21
4.9424404015
  0
LINE
  5
21C
100
AcDbEntity
  8
0
100
AcDbLine
 62
7
  6
CONTINUOUS
 10
5.3950362633
 20
4.8668154015
 11
5.3925362633
 21
4.8643154015
  0
LINE
  5
21D
100
AcDbEntity
  8
0
100
AcDbLine
 62
7
  6
CONTINUOUS
 10
4.9106612632
 20
4.8668154015
 11
4.9106612632
 21
4.9399404015
  0
LINE
  5
21E
100
AcDbEntity
  8
0
100
AcDbLine
 62
7
  6
CONTINUOUS
 10
4.9131612632
 20
4.8643154015
 11
4.9131612632
 21
4.9424404015
  0
LINE
  5
21F
100
AcDbEntity
  8
0
100
AcDbLine
 62
7
  6
CONTINUOUS
 10
5.4904777685
 20
4.9452860141
 11
5.4903912545
 21
4.9451513718
  0
LINE
  5
220
100
AcDbEntity
  8
0
100
AcDbLine
 62
7
  6
CONTINUOUS
 10
4.5099737632
 20
4.7315029015
 11
4.5193487632
 21
4.7315029015
  0
LINE
  5
221
100
AcDbEntity
  8
0
100
AcDbLine
 62
7
  6
CONTINUOUS
 10
4.6443487632
 20
4.7315029015
 11
4.6537237632
 21
4.7315029015
  0
LINE
  5
222
100
AcDbEntity
  8
0
100
AcDbLine
 62
7
  6
CONTINUOUS
 10
5.0214107982
 20
4.8252529015
 11
4.6662237632
 21
4.8252529015
  0
LINE
  5
223
100
AcDbEntity
  8
0
100
AcDbLine
 62
7
  6
CONTINUOUS
 10
4.4974737632
 20
4.8252529015
 11
4.1424433191
 21
4.8252529015
  0
LINE
  5
224
100
AcDbEntity
  8
0
100
AcDbLine
 62
7
  6
CONTINUOUS
 10
5.6182988882
 20
4.8621279015
 11
5.6033653632
 21
4.8621279015
  0
LINE
  5
225
100
AcDbEntity
  8
0
100
AcDbLine
 62
7
  6
CONTINUOUS
 10
5.3925362632
 20
4.8643154015
 11
4.9131612632
 21
4.8643154015
  0
LINE
  5
226
100
AcDbEntity
  8
0
100
AcDbLine
 62
7
  6
CONTINUOUS
 10
3.7711612632
 20
4.8643154015
 11
4.2505362632
 21
4.8643154015
  0
LINE
  5
227
100
AcDbEntity
  8
0
100
AcDbLine
 62
7
  6
CONTINUOUS
 10
5.6182988882
 20
4.8658779015
 11
5.6064102418
 21
4.8658779015
  0
LINE
  5
228
100
AcDbEntity
  8
0
100
AcDbLine
 62
7
  6
CONTINUOUS
 10
5.4812238141
 20
4.8683779015
 11
5.3950362632
 21
4.8683779015
  0
LINE
  5
229
100
AcDbEntity
  8
0
100
AcDbLine
 62
7
  6
CONTINUOUS
 10
5.6081903904
 20
4.8683779015
 11
5.6242357321
 21
4.8683779015
  0
LINE
  5
22A
100
AcDbEntity
  8
0
100
AcDbLine
 62
7
  6
CONTINUOUS
 10
5.4157862632
 20
4.8690029015
 11
5.4767636016
 21
4.8690029015
  0
LINE
  5
22B
100
AcDbEntity
  8
0
100
AcDbLine
 62
7
  6
CONTINUOUS
 10
4.9106612632
 20
4.8668154015
 11
4.9131612632
 21
4.8643154015
  0
LINE
  5
22C
100
AcDbEntity
  8
0
100
AcDbLine
 62
7
  6
CONTINUOUS
 10
5.3950362632
 20
4.8799404015
 11
5.4157862632
 21
4.8799404015
  0
LINE
  5
22D
100
AcDbEntity
  8
0
100
AcDbLine
 62
7
  6
CONTINUOUS
 10
5.3950362632
 20
4.9268154015
 11
5.4157862632
 21
4.9268154015
  0
LINE
  5
22E
100
AcDbEntity
  8
0
100
AcDbLine
 62
7
  6
CONTINUOUS
 10
5.4157862632
 20
4.9377529015
 11
5.4767636016
 21
4.9377529015
  0
LINE
  5
22F
100
AcDbEntity
  8
0
100
AcDbLine
 62
7
  6
CONTINUOUS
 10
5.4812238141
 20
4.9383779015
 11
5.3950362632
 21
4.9383779015
  0
LINE
  5
230
100
AcDbEntity
  8
0
100
AcDbLine
 62
7
  6
CONTINUOUS
 10
5.6081903904
 20
4.9383779015
 11
5.6242357321
 21
4.9383779015
  0
LINE
  5
231
100
AcDbEntity
  8
0
100
AcDbLine
 62
7
  6
CONTINUOUS
 10
5.6064102418
 20
4.9408779015
 11
5.6182988882
 21
4.9408779015
  0
LINE
  5
232
100
AcDbEntity
  8
0
100
AcDbLine
 62
7
  6
CONTINUOUS
 10
5.3925362632
 20
4.9424404015
 11
4.9131612632
 21
4.9424404015
  0
LINE
  5
233
100
AcDbEntity
  8
0
100
AcDbLine
 62
7
  6
CONTINUOUS
 10
3.7711612632
 20
4.9424404015
 11
4.2505362632
 21
4.9424404015
  0
LINE
  5
234
100
AcDbEntity
  8
0
100
AcDbLine
 62
7
  6
CONTINUOUS
 10
5.6033653632
 20
4.9446279015
 11
5.6182988882
 21
4.9446279015
  0
LINE
  5
235
100
AcDbEntity
  8
0
100
AcDbLine
 62
7
  6
CONTINUOUS
 10
5.5314112632
 20
4.8454099614
 11
5.5294575913
 21
4.8399322419
  0
LINE
  5
236
100
AcDbEntity
  8
0
100
AcDbLine
 62
7
  6
CONTINUOUS
 10
5.0212476428
 20
4.9815029015
 11
4.1422867283
 21
4.9815029015
  0
LINE
  5
237
100
AcDbEntity
  8
0
100
AcDbLine
 62
7
  6
CONTINUOUS
 10
5.3925362632
 20
4.9424404015
 11
5.3925362632
 21
4.8643154015
  0
LINE
  5
238
100
AcDbEntity
  8
0
100
AcDbLine
 62
7
  6
CONTINUOUS
 10
5.3950362632
 20
4.9399404015
 11
5.3950362632
 21
4.8668154015
  0
LINE
  5
239
100
AcDbEntity
  8
0
100
AcDbLine
 62
7
  6
CONTINUOUS
 10
5.4157862632
 20
4.8690029015
 11
5.4157862632
 21
4.9377529015
  0
LINE
  5
23A
100
AcDbEntity
  8
0
100
AcDbLine
 62
7
  6
CONTINUOUS
 10
5.5738987634
 20
4.8430247812
 11
5.5716443866
 21
4.8355810524
  0
LINE
  5
23B
100
AcDbEntity
  8
0
100
AcDbLine
 62
7
  6
CONTINUOUS
 10
5.5526737631
 20
4.8409148062
 11
5.550476901
 21
4.8344023174
  0
LINE
  5
23C
100
AcDbEntity
  8
0
100
AcDbLine
 62
7
  6
CONTINUOUS
 10
5.5315140478
 20
4.8460528125
 11
5.5314112632
 21
4.8454099614
  0
LINE
  5
23D
100
AcDbEntity
  8
0
100
AcDbLine
 62
7
  6
CONTINUOUS
 10
5.5739624436
 20
4.843394006
 11
5.5738987634
 21
4.8430247812
  0
LINE
  5
23E
100
AcDbEntity
  8
0
100
AcDbLine
 62
7
  6
CONTINUOUS
 10
5.5526888225
 20
4.840991091
 11
5.5526737631
 21
4.8409148062
  0
LINE
  5
23F
100
AcDbEntity
  8
0
100
AcDbLine
 62
7
  6
CONTINUOUS
 10
5.5951612632
 20
4.8524569107
 11
5.5929513171
 21
4.8440014877
  0
LINE
  5
240
100
AcDbEntity
  8
0
100
AcDbLine
 62
7
  6
CONTINUOUS
 10
5.5174564602
 20
4.854504346
 11
5.5176612632
 21
4.8524569107
  0
LINE
  5
241
100
AcDbEntity
  8
0
100
AcDbLine
 62
7
  6
CONTINUOUS
 10
5.5953660663
 20
4.854504346
 11
5.5951612632
 21
4.8524569107
  0
LINE
  5
242
100
AcDbEntity
  8
0
100
AcDbLine
 62
7
  6
CONTINUOUS
 10
5.6182988882
 20
4.9446279015
 11
5.6182988882
 21
4.9408779015
  0
LINE
  5
243
100
AcDbEntity
  8
0
100
AcDbLine
 62
7
  6
CONTINUOUS
 10
5.6182988882
 20
4.8658779015
 11
5.6182988882
 21
4.8621279015
  0
LINE
  5
244
100
AcDbEntity
  8
0
100
AcDbLine
 62
7
  6
CONTINUOUS
 10
5.6182988882
 20
4.8621279015
 11
5.6214192727
 21
4.8600480696
  0
LINE
  5
245
100
AcDbEntity
  8
0
100
AcDbLine
 62
7
  6
CONTINUOUS
 10
5.3950362633
 20
4.9399404015
 11
5.3925362633
 21
4.9424404015
  0
LINE
  5
246
100
AcDbEntity
  8
0
100
AcDbLine
 62
7
  6
CONTINUOUS
 10
5.4903912535
 20
4.8616044328
 11
5.4904273786
 21
4.8615485112
  0
LINE
  5
247
100
AcDbEntity
  8
0
100
AcDbLine
 62
7
  6
CONTINUOUS
 10
5.5389237631
 20
4.8430247812
 11
5.5411781399
 21
4.8355810524
  0
LINE
  5
248
100
AcDbEntity
  8
0
100
AcDbLine
 62
7
  6
CONTINUOUS
 10
5.5176612632
 20
4.8524569107
 11
5.5198712094
 21
4.8440014876
  0
LINE
  5
249
100
AcDbEntity
  8
0
100
AcDbLine
 62
7
  6
CONTINUOUS
 10
5.560133704
 20
4.840991091
 11
5.5601487634
 21
4.8409148062
  0
LINE
  5
24A
100
AcDbEntity
  8
0
100
AcDbLine
 62
7
  6
CONTINUOUS
 10
5.5388600829
 20
4.843394006
 11
5.5389237631
 21
4.8430247812
  0
LINE
  5
24B
100
AcDbEntity
  8
0
100
AcDbLine
 62
7
  6
CONTINUOUS
 10
5.5813084787
 20
4.8460528125
 11
5.5814112632
 21
4.8454099614
  0
LINE
  5
24C
100
AcDbEntity
  8
0
100
AcDbLine
 62
7
  6
CONTINUOUS
 10
5.5814112632
 20
4.8454099614
 11
5.5833649352
 21
4.8399322418
  0
LINE
  5
24D
100
AcDbEntity
  8
0
100
AcDbLine
 62
7
  6
CONTINUOUS
 10
5.5601487634
 20
4.8409148062
 11
5.5623456255
 21
4.8344023174
  0
ARC
  5
24E
100
AcDbEntity
  8
0
100
AcDbCircle
 62
7
  6
CONTINUOUS
 10
4.5818487632
 20
3.7783779015
 40
0.0625
100
AcDbArc
 50
180.0
 51
360.0
  0
ARC
  5
24F
100
AcDbEntity
  8
0
100
AcDbCircle
 62
7
  6
CONTINUOUS
 10
4.1422862632
 20
4.9033779015
 40
0.171875
100
AcDbArc
 50
27.0358065526
 51
166.8631552622
  0
ARC
  5
250
100
AcDbEntity
  8
0
100
AcDbCircle
 62
7
  6
CONTINUOUS
 10
4.1422862632
 20
4.9033779015
 40
0.171875
100
AcDbArc
 50
193.1368447378
 51
332.9641934474
  0
ARC
  5
251
100
AcDbEntity
  8
0
100
AcDbCircle
 62
7
  6
CONTINUOUS
 10
4.1422862632
 20
4.9033779015
 40
0.168125
100
AcDbArc
 50
193.4350655076
 51
332.3101012806
  0
ARC
  5
252
100
AcDbEntity
  8
0
100
AcDbCircle
 62
7
  6
CONTINUOUS
 10
4.1422862632
 20
4.9033779015
 40
0.168125
100
AcDbArc
 50
27.6898987143
 51
166.5649344894
  0
ARC
  5
253
100
AcDbEntity
  8
0
100
AcDbCircle
 62
7
  6
CONTINUOUS
 10
4.5818487632
 20
4.9033779015
 40
0.078125
100
AcDbArc
 50
323.1349866808
 51
216.8650133192
  0
ARC
  5
254
100
AcDbEntity
  8
0
100
AcDbCircle
 62
7
  6
CONTINUOUS
 10
4.1422862632
 20
4.9033779015
 40
0.078125
100
AcDbArc
 50
30.0011424854
 51
149.9988575146
  0
ARC
  5
255
100
AcDbEntity
  8
0
100
AcDbCircle
 62
7
  6
CONTINUOUS
 10
4.1422862632
 20
4.9033779015
 40
0.078125
100
AcDbArc
 50
210.0011424854
 51
329.9988575146
  0
ARC
  5
256
100
AcDbEntity
  8
0
100
AcDbCircle
 62
7
  6
CONTINUOUS
 10
4.1422862632
 20
4.9033779015
 40
0.074375
100
AcDbArc
 50
31.6833511444
 51
148.3166488546
  0
ARC
  5
257
100
AcDbEntity
  8
0
100
AcDbCircle
 62
7
  6
CONTINUOUS
 10
4.1422862632
 20
4.9033779015
 40
0.074375
100
AcDbArc
 50
211.6833511444
 51
328.3166488546
  0
ARC
  5
258
100
AcDbEntity
  8
0
100
AcDbCircle
 62
7
  6
CONTINUOUS
 10
4.5818487632
 20
4.9033779015
 40
0.0625
100
AcDbArc
 50
0.0
 51
180.0
  0
ARC
  5
259
100
AcDbEntity
  8
0
100
AcDbCircle
 62
7
  6
CONTINUOUS
 10
4.4974737632
 20
4.8127529015
 40
0.0125
100
AcDbArc
 50
0.0
 51
90.0000000004
  0
ARC
  5
25A
100
AcDbEntity
  8
0
100
AcDbCircle
 62
7
  6
CONTINUOUS
 10
4.6662231904
 20
4.8127534565
 40
0.0124999151
100
AcDbArc
 50
89.9973740298
 51
180.0025439312
  0
ARC
  5
25B
100
AcDbEntity
  8
0
100
AcDbCircle
 62
7
  6
CONTINUOUS
 10
5.0214112632
 20
4.9033779015
 40
0.171875
100
AcDbArc
 50
13.1368447378
 51
152.9641934474
  0
ARC
  5
25C
100
AcDbEntity
  8
0
100
AcDbCircle
 62
7
  6
CONTINUOUS
 10
5.0214112632
 20
4.9033779015
 40
0.171875
100
AcDbArc
 50
207.0358065526
 51
346.8631552622
  0
ARC
  5
25D
100
AcDbEntity
  8
0
100
AcDbCircle
 62
7
  6
CONTINUOUS
 10
5.0214112632
 20
4.9033779015
 40
0.168125
100
AcDbArc
 50
207.6898987143
 51
346.5649344894
  0
ARC
  5
25E
100
AcDbEntity
  8
0
100
AcDbCircle
 62
7
  6
CONTINUOUS
 10
5.0214112632
 20
4.9033779015
 40
0.168125
100
AcDbArc
 50
13.4350655076
 51
152.3101012806
  0
ARC
  5
25F
100
AcDbEntity
  8
0
100
AcDbCircle
 62
7
  6
CONTINUOUS
 10
5.0214112632
 20
4.9033779015
 40
0.078125
100
AcDbArc
 50
210.0000000006
 51
329.9999999994
  0
ARC
  5
260
100
AcDbEntity
  8
0
100
AcDbCircle
 62
7
  6
CONTINUOUS
 10
5.0214112632
 20
4.9033779015
 40
0.078125
100
AcDbArc
 50
30.0000000006
 51
149.9999999994
  0
ARC
  5
261
100
AcDbEntity
  8
0
100
AcDbCircle
 62
7
  6
CONTINUOUS
 10
5.0214112632
 20
4.9033779015
 40
0.074375
100
AcDbArc
 50
211.6833511444
 51
328.3166488546
  0
ARC
  5
262
100
AcDbEntity
  8
0
100
AcDbCircle
 62
7
  6
CONTINUOUS
 10
5.0214112632
 20
4.9033779015
 40
0.074375
100
AcDbArc
 50
31.6833511444
 51
148.3166488546
  0
ARC
  5
263
100
AcDbEntity
  8
0
100
AcDbCircle
 62
7
  6
CONTINUOUS
 10
5.5285157048
 20
4.8402681731
 40
0.001
100
AcDbArc
 50
246.1537673917
 51
340.3708257109
  0
ARC
  5
264
100
AcDbEntity
  8
0
100
AcDbCircle
 62
7
  6
CONTINUOUS
 10
5.5208387096
 20
4.8442543577
 40
0.001
100
AcDbArc
 50
194.6474175818
 51
238.9661592908
  0
ARC
  5
265
100
AcDbEntity
  8
0
100
AcDbCircle
 62
7
  6
CONTINUOUS
 10
5.5421352107
 20
4.8358709069
 40
0.001
100
AcDbArc
 50
196.8492439121
 51
258.0592943439
  0
ARC
  5
266
100
AcDbEntity
  8
0
100
AcDbCircle
 62
7
  6
CONTINUOUS
 10
5.4767636016
 20
4.8527529015
 40
0.01625
100
AcDbArc
 50
32.4405244247
 51
32.9874849752
  0
ARC
  5
267
100
AcDbEntity
  8
0
100
AcDbCircle
 62
7
  6
CONTINUOUS
 10
5.4767636016
 20
4.8527529015
 40
0.01625
100
AcDbArc
 50
33.0048221302
 51
90.0000000001
  0
ARC
  5
268
100
AcDbEntity
  8
0
100
AcDbCircle
 62
7
  6
CONTINUOUS
 10
5.5495293601
 20
4.834721952
 40
0.001
100
AcDbArc
 50
264.2759321528
 51
341.3591723378
  0
ARC
  5
269
100
AcDbEntity
  8
0
100
AcDbCircle
 62
7
  6
CONTINUOUS
 10
5.5706873158
 20
4.8358709069
 40
0.001
100
AcDbArc
 50
281.9407056562
 51
343.1507561468
  0
ARC
  5
26A
100
AcDbEntity
  8
0
100
AcDbCircle
 62
7
  6
CONTINUOUS
 10
5.5632931664
 20
4.834721952
 40
0.001
100
AcDbArc
 50
198.6408276687
 51
275.724067847
  0
ARC
  5
26B
100
AcDbEntity
  8
0
100
AcDbCircle
 62
7
  6
CONTINUOUS
 10
5.5919838169
 20
4.8442543577
 40
0.001
100
AcDbArc
 50
301.033840713
 51
345.3525838161
  0
ARC
  5
26C
100
AcDbEntity
  8
0
100
AcDbCircle
 62
7
  6
CONTINUOUS
 10
5.5843068217
 20
4.8402681731
 40
0.001
100
AcDbArc
 50
199.6291732009
 51
293.846232609
  0
ARC
  5
26D
100
AcDbEntity
  8
0
100
AcDbCircle
 62
7
  6
CONTINUOUS
 10
5.6182988882
 20
4.8621279015
 40
0.00375
100
AcDbArc
 50
326.3153273875
 51
90.0
  0
ARC
  5
26E
100
AcDbEntity
  8
0
100
AcDbCircle
 62
7
  6
CONTINUOUS
 10
5.4767636016
 20
4.9540029015
 40
0.01625
100
AcDbArc
 50
269.9999999999
 51
326.994946865
  0
ARC
  5
26F
100
AcDbEntity
  8
0
100
AcDbCircle
 62
7
  6
CONTINUOUS
 10
5.5564112632
 20
4.9033779015
 40
0.078125
100
AcDbArc
 50
33.6846726125
 51
326.3153273875
  0
ARC
  5
270
100
AcDbEntity
  8
0
100
AcDbCircle
 62
7
  6
CONTINUOUS
 10
5.5564112632
 20
4.9033779015
 40
0.074375
100
AcDbArc
 50
33.684672613
 51
326.3153273869
  0
ARC
  5
271
100
AcDbEntity
  8
0
100
AcDbCircle
 62
7
  6
CONTINUOUS
 10
5.5564112632
 20
4.9033779015
 40
0.07
100
AcDbArc
 50
293.8462325994
 51
301.0338407167
  0
ARC
  5
272
100
AcDbEntity
  8
0
100
AcDbCircle
 62
7
  6
CONTINUOUS
 10
5.5564112632
 20
4.9033779015
 40
0.07
100
AcDbArc
 50
275.724067847
 51
281.9407056562
  0
ARC
  5
273
100
AcDbEntity
  8
0
100
AcDbCircle
 62
7
  6
CONTINUOUS
 10
5.5564112632
 20
4.9033779015
 40
0.07
100
AcDbArc
 50
258.0592943438
 51
264.2759321531
  0
ARC
  5
274
100
AcDbEntity
  8
0
100
AcDbCircle
 62
7
  6
CONTINUOUS
 10
5.5564112632
 20
4.9033779015
 40
0.07
100
AcDbArc
 50
238.9661592833
 51
246.1537674006
  0
CIRCLE
  5
275
100
AcDbEntity
  8
0
100
AcDbCircle
 62
7
  6
CONTINUOUS
 10
5.5564112632
 20
4.9033779015
 40
0.0625
  0
CIRCLE
  5
276
100
AcDbEntity
  8
0
100
AcDbCircle
 62
7
  6
CONTINUOUS
 10
5.5564112632
 20
4.9033779015
 40
0.0575
  0
CIRCLE
  5
277
100
AcDbEntity
  8
0
100
AcDbCircle
 62
7
  6
CONTINUOUS
 10
5.5564112632
 20
4.9033779015
 40
0.05625
  0
ARC
  5
278
100
AcDbEntity
  8
0
100
AcDbCircle
 62
7
  6
CONTINUOUS
 10
5.556411259
 20
4.9111279491
 40
0.0703125407
100
AcDbArc
 50
290.8274864128
 51
303.4432548232
  0
ARC
  5
279
100
AcDbEntity
  8
0
100
AcDbCircle
 62
7
  6
CONTINUOUS
 10
5.5564112675
 20
4.9111279491
 40
0.0703125407
100
AcDbArc
 50
236.5567451768
 51
249.1725135872
  0
ARC
  5
27A
100
AcDbEntity
  8
0
100
AcDbCircle
 62
7
  6
CONTINUOUS
 10
5.556411263
 20
4.9111278999
 40
0.0703124983
100
AcDbArc
 50
255.5987442368
 51
266.9529749549
  0
ARC
  5
27B
100
AcDbEntity
  8
0
100
AcDbCircle
 62
7
  6
CONTINUOUS
 10
5.5564112635
 20
4.9111278999
 40
0.0703124983
100
AcDbArc
 50
273.0470250451
 51
284.4012557632
  0
ARC
  5
27C
100
AcDbEntity
  8
0
100
AcDbCircle
 62
7
  6
CONTINUOUS
 10
5.6242362578
 20
4.9033779015
 40
0.035
100
AcDbArc
 50
270.0
 51
90.0
  0
ARC
  5
27D
100
AcDbEntity
  8
0
100
AcDbCircle
 62
7
  6
CONTINUOUS
 10
5.6182988882
 20
4.9446279015
 40
0.00375
100
AcDbArc
 50
270.0
 51
33.6846726125
  0
LINE
  5
27E
100
AcDbEntity
  8
0
100
AcDbLine
 62
7
  6
CONTINUOUS
 10
4.5193476313
 20
4.8424196236
 11
4.4974737632
 21
4.8252529015
  0
LINE
  5
27F
100
AcDbEntity
  8
0
100
AcDbLine
 62
7
  6
CONTINUOUS
 10
4.6662237505
 20
4.825252907
 11
4.6443499005
 21
4.8424197146
  0
LINE
  5
280
100
AcDbEntity
  8
0
100
AcDbLine
 62
7
  6
CONTINUOUS
 10
4.5193464761
 20
4.822896625
 11
4.5099737632
 21
4.8127529015
  0
SPLINE
  5
281
100
AcDbEntity
  8
0
100
AcDbSpline
 62
7
  6
CONTINUOUS
 70
0
 71
3
 72
78
 73
74
 74
0
 42
0.0000001
 43
0.0000001
 44
0.0000000001
 40
0.0
 40
0.0
 40
0.0
 40
0.0
 40
0.0000127513
 40
0.0000508407
 40
0.0001142173
 40
0.0002028303
 40
0.0003166288
 40
0.0004555623
 40
0.0008086307
 40
0.0012616293
 40
0.001814078
 40
0.0024653557
 40
0.0032148261
 40
0.0050057934
 40
0.0071807619
 40
0.0097310477
 40
0.012647521
 40
0.0159197095
 40
0.0195363716
 40
0.0234862515
 40
0.027758008
 40
0.0372215546
 40
0.0478334956
 40
0.0595027403
 40
0.072146325
 40
0.0856882901
 40
0.1000592365
 40
0.1310487631
 40
0.1647116284
 40
0.2007383784
 40
0.2388886613
 40
0.2789612041
 40
0.3207632296
 40
0.3640775548
 40
0.4086317546
 40
0.4540785937
 40
0.4999953253
 40
0.5229884439
 40
0.5459214022
 40
0.5913682658
 40
0.6359225471
 40
0.6792368288
 40
0.7210388118
 40
0.7611113722
 40
0.7992616597
 40
0.8352883011
 40
0.8689512823
 40
0.899940679
 40
0.9143116654
 40
0.9278537033
 40
0.9404973573
 40
0.9521666302
 40
0.962778502
 40
0.9722419841
 40
0.9765137395
 40
0.9804636076
 40
0.9840802276
 40
0.9873523802
 40
0.9902688791
 40
0.9928192628
 40
0.994994331
 40
0.996785331
 40
0.9975347916
 40
0.9981860478
 40
0.9987384672
 40
0.9991914332
 40
0.9995444705
 40
0.9996833906
 40
0.9997971781
 40
0.999885783
 40
0.9999491551
 40
0.9999872441
 40
1.0
 40
1.0
 40
1.0
 40
1.0
 10
5.4767636016
 20
4.8690029015
 30
0.0
 10
5.4767633085
 20
4.8690030433
 30
0.0
 10
5.476762582
 20
4.869004214
 30
0.0
 10
5.4767604183
 20
4.869006114
 30
0.0
 10
5.4767571781
 20
4.8690097693
 30
0.0
 10
5.4767524832
 20
4.8690146538
 30
0.0
 10
5.4767465253
 20
4.8690210233
 30
0.0
 10
5.4767359242
 20
4.8690322868
 30
0.0
 10
5.4767194227
 20
4.8690498972
 30
0.0
 10
5.4766957249
 20
4.8690752325
 30
0.0
 10
5.4766668675
 20
4.8691061703
 30
0.0
 10
5.4766328839
 20
4.869142679
 30
0.0
 10
5.4765774111
 20
4.8692023937
 30
0.0
 10
5.47649558
 20
4.8692907305
 30
0.0
 10
5.4763827254
 20
4.8694130138
 30
0.0
 10
5.4762507564
 20
4.8695567667
 30
0.0
 10
5.4761003298
 20
4.8697216095
 30
0.0
 10
5.4759322128
 20
4.8699071726
 30
0.0
 10
5.4757472298
 20
4.8701130618
 30
0.0
 10
5.4755462138
 20
4.8703388569
 30
0.0
 10
5.4752475597
 20
4.8706776262
 30
0.0
 10
5.4748400603
 20
4.871147226
 30
0.0
 10
5.4743160939
 20
4.8717658086
 30
0.0
 10
5.4737490005
 20
4.8724541865
 30
0.0
 10
5.4731454959
 20
4.8732093817
 30
0.0
 10
5.4725121489
 20
4.8740288878
 30
0.0
 10
5.4716134288
 20
4.8752351198
 30
0.0
 10
5.4704553828
 20
4.8768884709
 30
0.0
 10
5.4690722875
 20
4.8790567857
 30
0.0
 10
5.4677052293
 20
4.881448748
 30
0.0
 10
5.4663952168
 20
4.8840573679
 30
0.0
 10
5.4651834271
 20
4.8868747803
 30
0.0
 10
5.4641110908
 20
4.88988899
 30
0.0
 10
5.4632199055
 20
4.8930810985
 30
0.0
 10
5.4625487222
 20
4.8964220491
 30
0.0
 10
5.4621307475
 20
4.8998712281
 30
0.0
 10
5.4620127183
 20
4.9027925615
 30
0.0
 10
5.4620599704
 20
4.9051379779
 30
0.0
 10
5.4622016115
 20
4.9074675652
 30
0.0
 10
5.462548541
 20
4.910333865
 30
0.0
 10
5.4632199539
 20
4.9136746779
 30
0.0
 10
5.4641111356
 20
4.9168668052
 30
0.0
 10
5.4651834058
 20
4.919881032
 30
0.0
 10
5.4663952252
 20
4.9226984345
 30
0.0
 10
5.4677052572
 20
4.9253070391
 30
0.0
 10
5.4690722465
 20
4.9276990429
 30
0.0
 10
5.4704554148
 20
4.9298673073
 30
0.0
 10
5.4716134078
 20
4.9315206954
 30
0.0
 10
5.4725121411
 20
4.9327269175
 30
0.0
 10
5.4731454995
 20
4.9335464206
 30
0.0
 10
5.4737490139
 20
4.9343016135
 30
0.0
 10
5.4743161116
 20
4.9349899888
 30
0.0
 10
5.4748400683
 20
4.9356085759
 30
0.0
 10
5.4752475591
 20
4.9360781787
 30
0.0
 10
5.4755462125
 20
4.936416946
 30
0.0
 10
5.4757472273
 20
4.9366427403
 30
0.0
 10
5.4759322056
 20
4.9368486306
 30
0.0
 10
5.4761003184
 20
4.9370341957
 30
0.0
 10
5.4762507476
 20
4.9371990392
 30
0.0
 10
5.4763827273
 20
4.93734279
 30
0.0
 10
5.4764955933
 20
4.9374650708
 30
0.0
 10
5.4765774286
 20
4.9375534079
 30
0.0
 10
5.4766329005
 20
4.9376131235
 30
0.0
 10
5.4766668817
 20
4.9376496324
 30
0.0
 10
5.4766957358
 20
4.9376805703
 30
0.0
 10
5.4767194302
 20
4.9377059055
 30
0.0
 10
5.4767359287
 20
4.9377235162
 30
0.0
 10
5.476746528
 20
4.9377347791
 30
0.0
 10
5.4767524841
 20
4.9377411498
 30
0.0
 10
5.4767571796
 20
4.9377460313
 30
0.0
 10
5.4767604159
 20
4.9377496938
 30
0.0
 10
5.4767625853
 20
4.9377515813
 30
0.0
 10
5.4767633058
 20
4.9377527652
 30
0.0
 10
5.4767636016
 20
4.9377529015
 30
0.0
  0
SPLINE
  5
282
100
AcDbEntity
  8
0
100
AcDbSpline
 62
7
  6
CONTINUOUS
 70
0
 71
3
 72
26
 73
22
 74
0
 42
0.0000001
 43
0.0000001
 44
0.0000000001
 40
0.0
 40
0.0
 40
0.0
 40
0.0
 40
0.0559848389
 40
0.1121085938
 40
0.1684941934
 40
0.2252700587
 40
0.2825760676
 40
0.340566715
 40
0.3994156165
 40
0.4593192466
 40
0.52049843
 40
0.5831980679
 40
0.6476739695
 40
0.6806676674
 40
0.7141920321
 40
0.7828558789
 40
0.8536632237
 40
0.8897982692
 40
0.9263078463
 40
0.9630840008
 40
1.0
 40
1.0
 40
1.0
 40
1.0
 10
4.5832740931
 20
4.9814932153
 30
0.0
 10
4.5857232047
 20
4.9814599861
 30
0.0
 10
4.5906269194
 20
4.9812220591
 30
0.0
 10
4.5979524226
 20
4.9803481388
 30
0.0
 10
4.6052319527
 20
4.978949643
 30
0.0
 10
4.6124412938
 20
4.9770141998
 30
0.0
 10
4.6195535105
 20
4.9745246439
 30
0.0
 10
4.6265367129
 20
4.9714584743
 30
0.0
 10
4.6333522569
 20
4.9677876619
 30
0.0
 10
4.6399520625
 20
4.9634788389
 30
0.0
 10
4.6462747807
 20
4.9584931741
 30
0.0
 10
4.6522409037
 20
4.9527901563
 30
0.0
 10
4.6567955459
 20
4.9474459261
 30
0.0
 10
4.6601452466
 20
4.9427924986
 30
0.0
 10
4.6633226186
 20
4.9378009293
 30
0.0
 10
4.6668074366
 20
4.9310598084
 30
0.0
 10
4.6694454697
 20
4.9238184278
 30
0.0
 10
4.6709877663
 20
4.9177305433
 30
0.0
 10
4.6718390518
 20
4.9130154605
 30
0.0
 10
4.6723575343
 20
4.908218214
 30
0.0
 10
4.6724737496
 20
4.9049929767
 30
0.0
 10
4.6724737632
 20
4.9033779015
 30
0.0
  0
SPLINE
  5
283
100
AcDbEntity
  8
0
100
AcDbSpline
 62
7
  6
CONTINUOUS
 70
0
 71
3
 72
17
 73
13
 74
0
 42
0.0000001
 43
0.0000001
 44
0.0000000001
 40
0.0
 40
0.0
 40
0.0
 40
0.0
 40
0.1138981834
 40
0.2306007475
 40
0.2901425736
 40
0.3505288848
 40
0.4117973959
 40
0.4739754228
 40
0.6010421757
 40
0.7316031366
 40
0.8649961228
 40
1.0
 40
1.0
 40
1.0
 40
1.0
 10
4.5193469763
 20
4.8468059511
 30
0.0
 10
4.5174316547
 20
4.848378437
 30
0.0
 10
4.5136891592
 20
4.8517310594
 30
0.0
 10
4.5093800515
 20
4.8563577005
 30
0.0
 10
4.506150869
 20
4.8603699314
 30
0.0
 10
4.503834546
 20
4.8635622115
 30
0.0
 10
4.5016552736
 20
4.8669184438
 30
0.0
 10
4.4989356843
 20
4.8716445214
 30
0.0
 10
4.4959753062
 20
4.8779597073
 30
0.0
 10
4.4932938498
 20
4.8860558519
 30
0.0
 10
4.4916072986
 20
4.8945937352
 30
0.0
 10
4.4912238149
 20
4.9004405565
 30
0.0
 10
4.4912237632
 20
4.9033779015
 30
0.0
  0
SPLINE
  5
284
100
AcDbEntity
  8
0
100
AcDbSpline
 62
7
  6
CONTINUOUS
 70
0
 71
3
 72
30
 73
26
 74
0
 42
0.0000001
 43
0.0000001
 44
0.0000000001
 40
0.0
 40
0.0
 40
0.0
 40
0.0
 40
0.0369126934
 40
0.0736857059
 40
0.091982473
 40
0.1101978126
 40
0.1283191016
 40
0.1463352435
 40
0.1820109698
 40
0.217175228
 40
0.2517970142
 40
0.2858658277
 40
0.3193874879
 40
0.3523786214
 40
0.4168492964
 40
0.4795439165
 40
0.5407181067
 40
0.600616931
 40
0.6594611249
 40
0.7174470589
 40
0.7747483584
 40
0.8315195485
 40
0.8879005272
 40
0.9440196334
 40
1.0
 40
1.0
 40
1.0
 40
1.0
 10
4.4912237655
 20
4.9033779015
 30
0.0
 10
4.4912238388
 20
4.9049929373
 30
0.0
 10
4.4913411535
 20
4.908217973
 30
0.0
 10
4.491773309
 20
4.9122227162
 30
0.0
 10
4.4922866402
 20
4.91538838
 30
0.0
 10
4.492752828
 20
4.9177333635
 30
0.0
 10
4.4932974637
 20
4.9200487474
 30
0.0
 10
4.4941214542
 20
4.923081327
 30
0.0
 10
4.4953302694
 20
4.9267796903
 30
0.0
 10
4.4970522765
 20
4.931063998
 30
0.0
 10
4.4990131244
 20
4.935166399
 30
0.0
 10
4.5011873492
 20
4.9390774584
 30
0.0
 10
4.5035518763
 20
4.9427920604
 30
0.0
 10
4.506901542
 20
4.9474452187
 30
0.0
 10
4.5114560081
 20
4.9527895491
 30
0.0
 10
4.5174220058
 20
4.9584924841
 30
0.0
 10
4.5237445344
 20
4.9634781921
 30
0.0
 10
4.5303441931
 20
4.967787018
 30
0.0
 10
4.5371595849
 20
4.9714578608
 30
0.0
 10
4.544142628
 20
4.9745240887
 30
0.0
 10
4.5512546841
 20
4.9770137198
 30
0.0
 10
4.5584638698
 20
4.9789492525
 30
0.0
 10
4.5657432506
 20
4.9803478453
 30
0.0
 10
4.5730686164
 20
4.9812218985
 30
0.0
 10
4.5779722476
 20
4.9814598959
 30
0.0
 10
4.5804213223
 20
4.9814931803
 30
0.0
  0
SPLINE
  5
285
100
AcDbEntity
  8
0
100
AcDbSpline
 62
7
  6
CONTINUOUS
 70
0
 71
3
 72
21
 73
17
 74
0
 42
0.0000001
 43
0.0000001
 44
0.0000000001
 40
0.0
 40
0.0
 40
0.0
 40
0.0
 40
0.05852777
 40
0.1171578328
 40
0.1759690434
 40
0.2350435391
 40
0.2944622437
 40
0.3543123285
 40
0.4146855517
 40
0.4756798678
 40
0.5999028472
 40
0.7279647417
 40
0.793798384
 40
0.8609945339
 40
0.9296882409
 40
1.0
 40
1.0
 40
1.0
 40
1.0
 10
4.1442677865
 20
4.8252733866
 30
0.0
 10
4.1459336686
 20
4.825308422
 30
0.0
 10
4.1492671164
 20
4.8254685128
 30
0.0
 10
4.1542534959
 20
4.8259744926
 30
0.0
 10
4.1592211274
 20
4.8267498223
 30
0.0
 10
4.1641614099
 20
4.8277979045
 30
0.0
 10
4.1690655371
 20
4.8291226907
 30
0.0
 10
4.1739235734
 20
4.8307297456
 30
0.0
 10
4.1787248409
 20
4.8326258461
 30
0.0
 10
4.1850716061
 20
4.835566915
 30
0.0
 10
4.1928168749
 20
4.8400357296
 30
0.0
 10
4.2000541507
 20
4.8455259686
 30
0.0
 10
4.2055020543
 20
4.8505900582
 30
0.0
 10
4.2094286939
 20
4.8547878798
 30
0.0
 10
4.213119844
 20
4.8593591832
 30
0.0
 10
4.2153679303
 20
4.8626217986
 30
0.0
 10
4.2164383474
 20
4.8643132904
 30
0.0
  0
SPLINE
  5
286
100
AcDbEntity
  8
0
100
AcDbSpline
 62
7
  6
CONTINUOUS
 70
0
 71
3
 72
51
 73
47
 74
0
 42
0.0000001
 43
0.0000001
 44
0.0000000001
 40
0.0
 40
0.0
 40
0.0
 40
0.0
 40
0.0000428905
 40
0.0001707913
 40
0.0003835707
 40
0.0006810965
 40
0.0015298592
 40
0.0027159877
 40
0.0042377702
 40
0.00609297
 40
0.0082793337
 40
0.0107942398
 40
0.0167946773
 40
0.0240623975
 40
0.03255875
 40
0.0422415814
 40
0.0530665192
 40
0.0649863131
 40
0.0919014645
 40
0.1225729712
 40
0.1565817881
 40
0.1935209653
 40
0.2329977149
 40
0.2746245607
 40
0.3180342373
 40
0.4088097711
 40
0.502554676
 40
0.5964586901
 40
0.687565557
 40
0.77274477
 40
0.8120919557
 40
0.8487079903
 40
0.8821886175
 40
0.9121459382
 40
0.9382077028
 40
0.9600316715
 40
0.9692621962
 40
0.9773298734
 40
0.9842057965
 40
0.9898647069
 40
0.9942859444
 40
0.9974550658
 40
0.9985669752
 40
0.999362352
 40
0.9998403182
 40
1.0
 40
1.0
 40
1.0
 40
1.0
 10
5.5929513171
 20
4.8440014876
 30
0.0
 10
5.5929512283
 20
4.8440013679
 30
0.0
 10
5.5929505973
 20
4.844001216
 30
0.0
 10
5.5929495147
 20
4.8440004852
 30
0.0
 10
5.5929474892
 20
4.8439995308
 30
0.0
 10
5.5929433309
 20
4.8439973177
 30
0.0
 10
5.5929361099
 20
4.8439936184
 30
0.0
 10
5.5929251509
 20
4.8439879156
 30
0.0
 10
5.5929110696
 20
4.8439806243
 30
0.0
 10
5.5928939064
 20
4.8439717314
 30
0.0
 10
5.5928736723
 20
4.8439612627
 30
0.0
 10
5.5928406381
 20
4.8439441905
 30
0.0
 10
5.5927918981
 20
4.8439190516
 30
0.0
 10
5.5927246517
 20
4.8438844538
 30
0.0
 10
5.5926459773
 20
4.8438441001
 30
0.0
 10
5.5925562397
 20
4.843798233
 30
0.0
 10
5.5924558306
 20
4.8437471079
 30
0.0
 10
5.5923019296
 20
4.8436690774
 30
0.0
 10
5.5920861506
 20
4.843560596
 30
0.0
 10
5.5918011682
 20
4.843418898
 30
0.0
 10
5.5914842061
 20
4.8432632942
 30
0.0
 10
5.5911387925
 20
4.8430962323
 30
0.0
 10
5.5907685221
 20
4.8429197848
 30
0.0
 10
5.5903767848
 20
4.8427361403
 30
0.0
 10
5.5898219279
 20
4.8424805505
 30
0.0
 10
5.5890990696
 20
4.8421568826
 30
0.0
 10
5.5882105999
 20
4.8417739822
 30
0.0
 10
5.587315769
 20
4.8414031628
 30
0.0
 10
5.5864433619
 20
4.8410562573
 30
0.0
 10
5.5857439826
 20
4.8407873998
 30
0.0
 10
5.5852193514
 20
4.8405917621
 30
0.0
 10
5.5848623716
 20
4.8404606851
 30
0.0
 10
5.5845354621
 20
4.8403423831
 30
0.0
 10
5.5842426034
 20
4.8402377667
 30
0.0
 10
5.5839875368
 20
4.8401477631
 30
0.0
 10
5.5838001694
 20
4.8400823396
 30
0.0
 10
5.5836717441
 20
4.840037777
 30
0.0
 10
5.5835923552
 20
4.8400103369
 30
0.0
 10
5.5835246739
 20
4.8399870144
 30
0.0
 10
5.5834689524
 20
4.8399678735
 30
0.0
 10
5.5834254123
 20
4.8399529219
 30
0.0
 10
5.5833967895
 20
4.8399431648
 30
0.0
 10
5.5833801209
 20
4.8399374053
 30
0.0
 10
5.5833722447
 20
4.8399348061
 30
0.0
 10
5.5833675936
 20
4.8399330486
 30
0.0
 10
5.5833654345
 20
4.8399324839
 30
0.0
 10
5.5833649352
 20
4.8399322418
 30
0.0
  0
SPLINE
  5
287
100
AcDbEntity
  8
0
100
AcDbSpline
 62
7
  6
CONTINUOUS
 70
0
 71
3
 72
21
 73
17
 74
0
 42
0.0000001
 43
0.0000001
 44
0.0000000001
 40
0.0
 40
0.0
 40
0.0
 40
0.0
 40
0.0703130667
 40
0.1390074971
 40
0.2062039036
 40
0.2720373728
 40
0.4000983041
 40
0.5243197143
 40
0.5853133849
 40
0.6456860445
 40
0.7055356497
 40
0.7649540741
 40
0.8240285651
 40
0.8828399595
 40
0.9414706366
 40
1.0
 40
1.0
 40
1.0
 40
1.0
 10
4.2164382761
 20
4.9424426491
 30
0.0
 10
4.2153674528
 20
4.9441347423
 30
0.0
 10
4.2131185185
 20
4.9473985008
 30
0.0
 10
4.2094258531
 20
4.9519712667
 30
0.0
 10
4.2054975529
 20
4.9561702756
 30
0.0
 10
4.200047356
 20
4.9612356225
 30
0.0
 10
4.1928069516
 20
4.9667268043
 30
0.0
 10
4.1850584004
 20
4.9711959239
 30
0.0
 10
4.1787089757
 20
4.9741367911
 30
0.0
 10
4.1739057187
 20
4.9760325579
 30
0.0
 10
4.1690456975
 20
4.9776390982
 30
0.0
 10
4.164139593
 20
4.9789631837
 30
0.0
 10
4.1591973498
 20
4.9800103822
 30
0.0
 10
4.1542277789
 20
4.9807846515
 30
0.0
 10
4.1492394698
 20
4.9812893711
 30
0.0
 10
4.1459047641
 20
4.9814485131
 30
0.0
 10
4.1442382532
 20
4.9814830458
 30
0.0
  0
SPLINE
  5
288
100
AcDbEntity
  8
0
100
AcDbSpline
 62
7
  6
CONTINUOUS
 70
0
 71
3
 72
21
 73
17
 74
0
 42
0.0000001
 43
0.0000001
 44
0.0000000001
 40
0.0
 40
0.0
 40
0.0
 40
0.0
 40
0.0676274122
 40
0.1350415348
 40
0.2020458776
 40
0.2684685604
 40
0.3341722059
 40
0.3990569082
 40
0.4630586257
 40
0.5261437809
 40
0.5883058282
 40
0.6495588677
 40
0.709930367
 40
0.7694572735
 40
0.8861301572
 40
1.0
 40
1.0
 40
1.0
 40
1.0
 10
4.6724737632
 20
4.9033779015
 30
0.0
 10
4.672473706
 20
4.9019061302
 30
0.0
 10
4.6723762276
 20
4.898966355
 30
0.0
 10
4.6719456123
 20
4.8945874511
 30
0.0
 10
4.6712368016
 20
4.8902712787
 30
0.0
 10
4.6702613512
 20
4.8860458724
 30
0.0
 10
4.6690385986
 20
4.8819335578
 30
0.0
 10
4.6675851595
 20
4.8779531976
 30
0.0
 10
4.6659211988
 20
4.8741184212
 30
0.0
 10
4.6640675349
 20
4.8704380919
 30
0.0
 10
4.6620424108
 20
4.8669182701
 30
0.0
 10
4.6598631826
 20
4.863562135
 30
0.0
 10
4.6575466109
 20
4.8603699961
 30
0.0
 10
4.6543174477
 20
4.8563577732
 30
0.0
 10
4.6500084542
 20
4.8517310135
 30
0.0
 10
4.6462658323
 20
4.8483785437
 30
0.0
 10
4.6443505358
 20
4.8468060203
 30
0.0
  0
SPLINE
  5
289
100
AcDbEntity
  8
0
100
AcDbSpline
 62
7
  6
CONTINUOUS
 70
0
 71
3
 72
21
 73
17
 74
0
 42
0.0000001
 43
0.0000001
 44
0.0000000001
 40
0.0
 40
0.0
 40
0.0
 40
0.0
 40
0.0703232233
 40
0.139023423
 40
0.2062219703
 40
0.2720547648
 40
0.400108579
 40
0.5243199408
 40
0.585308886
 40
0.6456775159
 40
0.7055242021
 40
0.764941192
 40
0.8240158931
 40
0.8828300299
 40
0.9414655159
 40
1.0
 40
1.0
 40
1.0
 40
1.0
 10
4.9472595178
 20
4.864312732
 30
0.0
 10
4.948333254
 20
4.8626160605
 30
0.0
 10
4.9505885969
 20
4.8593437872
 30
0.0
 10
4.9542925074
 20
4.8547600271
 30
0.0
 10
4.958233124
 20
4.8505520263
 30
0.0
 10
4.9637005739
 20
4.8454774128
 30
0.0
 10
4.9709641681
 20
4.8399788783
 30
0.0
 10
4.9787374055
 20
4.8355076987
 30
0.0
 10
4.9851066766
 20
4.8325682336
 30
0.0
 10
4.989924795
 20
4.8306749305
 30
0.0
 10
4.9947996734
 20
4.8290722481
 30
0.0
 10
4.9997205729
 20
4.8277533972
 30
0.0
 10
5.0046775042
 20
4.8267127781
 30
0.0
 10
5.0096616034
 20
4.8259465036
 30
0.0
 10
5.0146641422
 20
4.8254510846
 30
0.0
 10
5.0180080515
 20
4.8252991168
 30
0.0
 10
5.0196790607
 20
4.8252684583
 30
0.0
  0
SPLINE
  5
28A
100
AcDbEntity
  8
0
100
AcDbSpline
 62
7
  6
CONTINUOUS
 70
0
 71
3
 72
21
 73
17
 74
0
 42
0.0000001
 43
0.0000001
 44
0.0000000001
 40
0.0
 40
0.0
 40
0.0
 40
0.0
 40
0.0585333065
 40
0.1171680548
 40
0.1759818003
 40
0.2350564535
 40
0.2944736726
 40
0.3543208317
 40
0.4146900587
 40
0.4756796966
 40
0.5998927607
 40
0.7279476668
 40
0.7937806482
 40
0.8609789005
 40
0.9296782711
 40
1.0
 40
1.0
 40
1.0
 40
1.0
 10
5.0196450194
 20
4.9814866977
 30
0.0
 10
5.0179747093
 20
4.9814554526
 30
0.0
 10
5.0146322186
 20
4.9813023847
 30
0.0
 10
5.0096318712
 20
4.9808055019
 30
0.0
 10
5.0046499975
 20
4.9800379859
 30
0.0
 10
4.9996953176
 20
4.9789963366
 30
0.0
 10
4.9947766874
 20
4.9776766616
 30
0.0
 10
4.9899040885
 20
4.9760733692
 30
0.0
 10
4.9850882538
 20
4.9741796655
 30
0.0
 10
4.9787220359
 20
4.9712399445
 30
0.0
 10
4.9709525743
 20
4.9667690739
 30
0.0
 10
4.9636925735
 20
4.9612715944
 30
0.0
 10
4.9582277694
 20
4.9561983899
 30
0.0
 10
4.9542890641
 20
4.9519917334
 30
0.0
 10
4.9505869043
 20
4.9474096291
 30
0.0
 10
4.9483325437
 20
4.9441386533
 30
0.0
 10
4.9472592764
 20
4.9424426662
 30
0.0
  0
SPLINE
  5
28B
100
AcDbEntity
  8
0
100
AcDbSpline
 62
7
  6
CONTINUOUS
 70
0
 71
3
 72
49
 73
45
 74
0
 42
0.0000001
 43
0.0000001
 44
0.0000000001
 40
0.0
 40
0.0
 40
0.0
 40
0.0
 40
0.0006376593
 40
0.0014330303
 40
0.0025449349
 40
0.0057140584
 40
0.0101353004
 40
0.0157942094
 40
0.0226701183
 40
0.0307377862
 40
0.0399683359
 40
0.0617922887
 40
0.0878540026
 40
0.1178113697
 40
0.1512919888
 40
0.2272547131
 40
0.3124342286
 40
0.4035415067
 40
0.4974453776
 40
0.5911899452
 40
0.6819654813
 40
0.7253761803
 40
0.7670029762
 40
0.8064781723
 40
0.8434178197
 40
0.8774271261
 40
0.9080989463
 40
0.9350137769
 40
0.9469334441
 40
0.9577587571
 40
0.9674416747
 40
0.9759370781
 40
0.983204596
 40
0.9892063798
 40
0.9917216327
 40
0.9939076473
 40
0.9957620755
 40
0.9972831432
 40
0.9984690804
 40
0.9993182249
 40
0.9996160195
 40
0.9998290409
 40
0.9999570981
 40
1.0
 40
1.0
 40
1.0
 40
1.0
 10
5.5294575913
 20
4.8399322419
 30
0.0
 10
5.5294555786
 20
4.8399331682
 30
0.0
 10
5.5294507349
 20
4.8399344486
 30
0.0
 10
5.529442436
 20
4.8399374806
 30
0.0
 10
5.5294257079
 20
4.8399430927
 30
0.0
 10
5.5293971292
 20
4.839952959
 30
0.0
 10
5.5293535676
 20
4.8399678574
 30
0.0
 10
5.5292978542
 20
4.8399870179
 30
0.0
 10
5.5292301713
 20
4.8400103369
 30
0.0
 10
5.5291507847
 20
4.8400377833
 30
0.0
 10
5.5290223537
 20
4.8400823295
 30
0.0
 10
5.5288349894
 20
4.8401477612
 30
0.0
 10
5.5285799285
 20
4.8402377801
 30
0.0
 10
5.528287061
 20
4.8403423721
 30
0.0
 10
5.5278316036
 20
4.8405072245
 30
0.0
 10
5.5271973338
 20
4.8407418292
 30
0.0
 10
5.5263791577
 20
4.8410562379
 30
0.0
 10
5.5255067193
 20
4.8414030745
 30
0.0
 10
5.5246119692
 20
4.8417740866
 30
0.0
 10
5.5237234391
 20
4.8421568394
 30
0.0
 10
5.5230005741
 20
4.8424805008
 30
0.0
 10
5.5224457534
 20
4.8427361765
 30
0.0
 10
5.5220540208
 20
4.8429198256
 30
0.0
 10
5.5216837157
 20
4.8430961911
 30
0.0
 10
5.5213383218
 20
4.8432632889
 30
0.0
 10
5.5210213574
 20
4.8434188978
 30
0.0
 10
5.5207363779
 20
4.8435606052
 30
0.0
 10
5.5205205966
 20
4.8436690809
 30
0.0
 10
5.5203666933
 20
4.8437471064
 30
0.0
 10
5.5202662862
 20
4.8437982377
 30
0.0
 10
5.5201765528
 20
4.8438441092
 30
0.0
 10
5.5200978744
 20
4.8438844469
 30
0.0
 10
5.5200306233
 20
4.8439190371
 30
0.0
 10
5.5199818879
 20
4.8439441963
 30
0.0
 10
5.5199488534
 20
4.8439612781
 30
0.0
 10
5.5199286199
 20
4.843971742
 30
0.0
 10
5.5199114579
 20
4.8439806234
 30
0.0
 10
5.5198973776
 20
4.8439879036
 30
0.0
 10
5.5198864179
 20
4.8439936017
 30
0.0
 10
5.5198791981
 20
4.8439973057
 30
0.0
 10
5.5198750378
 20
4.8439995232
 30
0.0
 10
5.5198730138
 20
4.8440004829
 30
0.0
 10
5.5198719267
 20
4.8440012131
 30
0.0
 10
5.5198713
 20
4.8440013693
 30
0.0
 10
5.5198712094
 20
4.8440014877
 30
0.0
  0
SPLINE
  5
28C
100
AcDbEntity
  8
0
100
AcDbSpline
 62
7
  6
CONTINUOUS
 70
0
 71
3
 72
63
 73
59
 74
0
 42
0.0000001
 43
0.0000001
 44
0.0000000001
 40
0.0
 40
0.0
 40
0.0
 40
0.0
 40
0.0000364512
 40
0.0001461842
 40
0.0003297788
 40
0.000587815
 40
0.0009208728
 40
0.001329532
 40
0.0023759726
 40
0.0037297767
 40
0.0053879396
 40
0.0073464673
 40
0.0096013725
 40
0.0149882068
 40
0.0215307409
 40
0.0292159638
 40
0.0380378117
 40
0.0479815495
 40
0.0590134884
 40
0.0711009562
 40
0.0842165455
 40
0.113419468
 40
0.1463716781
 40
0.1827472992
 40
0.2221514741
 40
0.264189248
 40
0.308476161
 40
0.4021153555
 40
0.4994342286
 40
0.5483081981
 40
0.5967074278
 40
0.6441892438
 40
0.6903031953
 40
0.7345968282
 40
0.7766526563
 40
0.8160830434
 40
0.8524992991
 40
0.8855324121
 40
0.9148925992
 40
0.9281142759
 40
0.9403169023
 40
0.9514623681
 40
0.9615125487
 40
0.9704312538
 40
0.9782023668
 40
0.9848208617
 40
0.9902729824
 40
0.9925559054
 40
0.9945392266
 40
0.996218861
 40
0.997590711
 40
0.9986515492
 40
0.9990659299
 40
0.9994037026
 40
0.9996654316
 40
0.9998516813
 40
0.999963016
 40
1.0
 40
1.0
 40
1.0
 40
1.0
 10
5.550476901
 20
4.8344023174
 30
0.0
 10
5.5504768573
 20
4.8344022121
 30
0.0
 10
5.550476231
 20
4.8344025252
 30
0.0
 10
5.5504753688
 20
4.8344023352
 30
0.0
 10
5.5504735558
 20
4.8344026227
 30
0.0
 10
5.5504711838
 20
4.8344027417
 30
0.0
 10
5.550468052
 20
4.8344030112
 30
0.0
 10
5.5504624878
 20
4.8344034338
 30
0.0
 10
5.55045373
 20
4.8344041291
 30
0.0
 10
5.5504410865
 20
4.8344051227
 30
0.0
 10
5.5504255984
 20
4.834406352
 30
0.0
 10
5.5504073043
 20
4.8344078099
 30
0.0
 10
5.5503773934
 20
4.834410208
 30
0.0
 10
5.5503332028
 20
4.8344137777
 30
0.0
 10
5.5502720951
 20
4.8344187253
 30
0.0
 10
5.5502002865
 20
4.8344245475
 30
0.0
 10
5.5501178864
 20
4.8344312866
 30
0.0
 10
5.5500250681
 20
4.8344389691
 30
0.0
 10
5.549922088
 20
4.8344476188
 30
0.0
 10
5.5498092408
 20
4.8344572419
 30
0.0
 10
5.5496398194
 20
4.834471877
 30
0.0
 10
5.5494054559
 20
4.8344924834
 30
0.0
 10
5.5490987345
 20
4.8345201868
 30
0.0
 10
5.5487603742
 20
4.834552032
 30
0.0
 10
5.5483938722
 20
4.8345879056
 30
0.0
 10
5.5480029018
 20
4.8346276103
 30
0.0
 10
5.5474435054
 20
4.8346866139
 30
0.0
 10
5.5467127742
 20
4.834768417
 30
0.0
 10
5.5459685673
 20
4.8348584592
 30
0.0
 10
5.5453652651
 20
4.8349356682
 30
0.0
 10
5.5449168031
 20
4.8349956184
 30
0.0
 10
5.5444771862
 20
4.8350565769
 30
0.0
 10
5.5440504911
 20
4.8351172762
 30
0.0
 10
5.543640886
 20
4.8351776584
 30
0.0
 10
5.5432522188
 20
4.8352367985
 30
0.0
 10
5.5428881122
 20
4.8352936537
 30
0.0
 10
5.542552039
 20
4.8353472307
 30
0.0
 10
5.5422472335
 20
4.835396999
 30
0.0
 10
5.5420141389
 20
4.8354360562
 30
0.0
 10
5.5418453301
 20
4.8354647812
 30
0.0
 10
5.5417326722
 20
4.8354841051
 30
0.0
 10
5.5416297972
 20
4.8355018268
 30
0.0
 10
5.5415370479
 20
4.8355178665
 30
0.0
 10
5.5414547097
 20
4.8355322148
 30
0.0
 10
5.5413829546
 20
4.8355448143
 30
0.0
 10
5.5413218802
 20
4.8355555898
 30
0.0
 10
5.5412777028
 20
4.835563406
 30
0.0
 10
5.5412477904
 20
4.8355686938
 30
0.0
 10
5.5412294899
 20
4.8355719267
 30
0.0
 10
5.5412139909
 20
4.8355746642
 30
0.0
 10
5.54120134
 20
4.8355769066
 30
0.0
 10
5.5411925652
 20
4.8355784593
 30
0.0
 10
5.5411870072
 20
4.8355794643
 30
0.0
 10
5.5411838454
 20
4.8355800061
 30
0.0
 10
5.5411815372
 20
4.8355804845
 30
0.0
 10
5.5411795713
 20
4.8355806954
 30
0.0
 10
5.5411789708
 20
4.8355810544
 30
0.0
 10
5.5411780724
 20
4.8355809586
 30
0.0
 10
5.5411781399
 20
4.8355810524
 30
0.0
  0
SPLINE
  5
28D
100
AcDbEntity
  8
0
100
AcDbSpline
 62
7
  6
CONTINUOUS
 70
0
 71
3
 72
58
 73
54
 74
0
 42
0.0000001
 43
0.0000001
 44
0.0000000001
 40
0.0
 40
0.0
 40
0.0
 40
0.0
 40
0.0000370217
 40
0.0001483889
 40
0.0003346655
 40
0.000596416
 40
0.0013485958
 40
0.002409438
 40
0.0037812615
 40
0.0054608495
 40
0.0074441238
 40
0.0097270191
 40
0.0151791546
 40
0.0217976718
 40
0.0295687818
 40
0.0384875005
 40
0.0485376523
 40
0.0596830516
 40
0.0851074435
 40
0.114467559
 40
0.1475004076
 40
0.1839171482
 40
0.2233474998
 40
0.2654033077
 40
0.3096962469
 40
0.3558115295
 40
0.403292907
 40
0.5005656647
 40
0.5978850639
 40
0.6915235704
 40
0.7358106401
 40
0.7778488608
 40
0.8172525898
 40
0.8536282463
 40
0.8865805451
 40
0.9157835036
 40
0.9409864744
 40
0.9520184222
 40
0.9619622273
 40
0.9707841008
 40
0.9784692844
 40
0.9850117966
 40
0.9903986347
 40
0.9926535354
 40
0.9946120543
 40
0.9962702084
 40
0.9976240072
 40
0.9986704439
 40
0.999412156
 40
0.9996701926
 40
0.9998537914
 40
0.9999635334
 40
1.0
 40
1.0
 40
1.0
 40
1.0
 10
5.5716443866
 20
4.8355810524
 30
0.0
 10
5.5716443225
 20
4.835580956
 30
0.0
 10
5.5716437448
 20
4.8355810571
 30
0.0
 10
5.571642833
 20
4.8355806925
 30
0.0
 10
5.5716410456
 20
4.8355804833
 30
0.0
 10
5.5716373944
 20
4.835579757
 30
0.0
 10
5.5716309802
 20
4.8355786611
 30
0.0
 10
5.5716211943
 20
4.8355768953
 30
0.0
 10
5.5716085317
 20
4.8355746648
 30
0.0
 10
5.5715930372
 20
4.8355719242
 30
0.0
 10
5.5715747355
 20
4.8355686936
 30
0.0
 10
5.5715448238
 20
4.835563406
 30
0.0
 10
5.5715006461
 20
4.8355555897
 30
0.0
 10
5.5714395719
 20
4.8355448131
 30
0.0
 10
5.5713678167
 20
4.8355322135
 30
0.0
 10
5.5712854785
 20
4.8355178655
 30
0.0
 10
5.5711927294
 20
4.8355018264
 30
0.0
 10
5.5710491284
 20
4.8354770896
 30
0.0
 10
5.5708460057
 20
4.8354423509
 30
0.0
 10
5.5705752942
 20
4.8353969989
 30
0.0
 10
5.5702704862
 20
4.8353472442
 30
0.0
 10
5.5699344159
 20
4.8352936452
 30
0.0
 10
5.5695703075
 20
4.8352367945
 30
0.0
 10
5.5691816445
 20
4.8351776419
 30
0.0
 10
5.5687720221
 20
4.8351173662
 30
0.0
 10
5.5683453536
 20
4.835056477
 30
0.0
 10
5.5677544009
 20
4.8349746848
 30
0.0
 10
5.5670041668
 20
4.8348764069
 30
0.0
 10
5.5661097355
 20
4.8347685488
 30
0.0
 10
5.5653790243
 20
4.8346865751
 30
0.0
 10
5.5648196272
 20
4.8346275791
 30
0.0
 10
5.5644286501
 20
4.8345879382
 30
0.0
 10
5.5640621525
 20
4.8345520201
 30
0.0
 10
5.5637237921
 20
4.8345201871
 30
0.0
 10
5.5634170704
 20
4.8344924829
 30
0.0
 10
5.5631450708
 20
4.834468572
 30
0.0
 10
5.562941289
 20
4.8344510486
 30
0.0
 10
5.5627974584
 20
4.8344389675
 30
0.0
 10
5.5627046395
 20
4.8344312885
 30
0.0
 10
5.5626222394
 20
4.8344245497
 30
0.0
 10
5.562550431
 20
4.8344187255
 30
0.0
 10
5.5624893236
 20
4.8344137777
 30
0.0
 10
5.5624451329
 20
4.834410208
 30
0.0
 10
5.5624152223
 20
4.8344078103
 30
0.0
 10
5.5623969277
 20
4.8344063505
 30
0.0
 10
5.5623814416
 20
4.8344051257
 30
0.0
 10
5.562368793
 20
4.8344041188
 30
0.0
 10
5.5623590098
 20
4.8344033743
 30
0.0
 10
5.5623526187
 20
4.8344028278
 30
0.0
 10
5.562348951
 20
4.8344026066
 30
0.0
 10
5.5623472004
 20
4.8344023672
 30
0.0
 10
5.5623462296
 20
4.834402475
 30
0.0
 10
5.5623457151
 20
4.8344022468
 30
0.0
 10
5.5623456255
 20
4.8344023174
 30
0.0
  0
LINE
  5
28E
100
AcDbEntity
  8
0
100
AcDbLine
 62
7
  6
CONTINUOUS
 10
4.6537237632
 20
4.8127529015
 11
4.6443509782
 21
4.8228966352
  0
ENDSEC
  0
SECTION
  2
OBJECTS
  0
DICTIONARY
  5
C
100
AcDbDictionary
280
0
281
1
  3
ACAD_GROUP
350
D
  3
ACAD_MLINESTYLE
350
17
  3
ACAD_LAYOUT
350
1A
  3
ACAD_PLOTSETTINGS
350
19
  3
ACAD_PLOTSTYLENAME
350
E
  0
DICTIONARY
  5
D
102
{ACAD_REACTORS
330
C
102
}
100
AcDbDictionary
280
0
281
1
  0
ACDBDICTIONARYWDFLT
  5
E
102
{ACAD_REACTORS
330
C
102
}
100
AcDbDictionary
281
1
  3
Normal
350
F
100
AcDbDictionaryWithDefault
340
F
  0
DICTIONARY
  5
17
102
{ACAD_REACTORS
330
C
102
}
100
AcDbDictionary
280
0
281
1
  3
Standard
350
18
  0
DICTIONARY
  5
19
102
{ACAD_REACTORS
330
C
102
}
100
AcDbDictionary
281
1
  0
DICTIONARY
  5
1A
102
{ACAD_REACTORS
330
C
102
}
100
AcDbDictionary
281
1
  3
Model
350
28F
  3
Layout1
350
290
  0
ACDBPLACEHOLDER
  5
F
102
{ACAD_REACTORS
330
E
102
}
  0
MLINESTYLE
  5
18
102
{ACAD_REACTORS
330
17
102
}
100
AcDbMlineStyle
  2
STANDARD
 70
0
  3

 62
256
 51
90.0
 52
90.0
 71
2
 49
0.5
 62
256
  6
BYLAYER
 49
-0.5
 62
256
  6
BYLAYER
  0
LAYOUT
  5
28F
102
{ACAD_REACTORS
330
1A
102
}
100
AcDbPlotSettings
  1

  2
none_device
  4
ANSI_A_(11.00_x_8.50_Inches)
  6

 40
0.0
 41
0.0
 42
0.0
 43
0.0
 44
279.4
 45
215.9
 46
0.0
 47
0.0
 48
0.0
 49
0.0
140
0.0
141
0.0
142
1.0
143
1.0
 70
1024
 72
0
 73
0
 74
0
  7

 75
0
147
1.0
148
0.0
149
0.0
100
AcDbLayout
  1
Model
 70
0
 71
0
 10
0.0
 20
0.0
 11
11.0
 21
8.5
 12
0.0
 22
0.0
 32
0.0
 14
0.0
 24
0.0
 34
0.0
 15
0.0
 25
0.0
 35
0.0
146
0.0
 13
0.0
 23
0.0
 33
0.0
 16
1.0
 26
0.0
 36
0.0
 17
0.0
 27
1.0
 37
0.0
 76
0
330
202
345
0
346
0
  0
LAYOUT
  5
290
102
{ACAD_REACTORS
330
1A
102
}
100
AcDbPlotSettings
  1

  2
none_device
  4
ANSI_A_(11.00_x_8.50_Inches)
  6

 40
0.0
 41
0.0
 42
0.0
 43
0.0
 44
279.4
 45
215.9
 46
0.0
 47
0.0
 48
0.0
 49
0.0
140
0.0
141
0.0
142
1.0
143
1.0
 70
0
 72
0
 73
0
 74
0
  7

 75
0
147
1.0
148
0.0
149
0.0
100
AcDbLayout
  1
Layout1
 70
0
 71
1
 10
0.0
 20
0.0
 11
11.0
 21
8.5
 12
0.0
 22
0.0
 32
0.0
 14
0.0
 24
0.0
 34
0.0
 15
0.0
 25
0.0
 35
0.0
146
0.0
 13
0.0
 23
0.0
 33
0.0
 16
1.0
 26
0.0
 36
0.0
 17
0.0
 27
1.0
 37
0.0
 76
0
330
203
345
0
346
0
  0
ENDSEC
  0
EOF
