999
DXF file: 1500-4282_top.dxf
999
Pro/ENGINEER 2019352 by Parametric Technology Corporation
  0
SECTION
  2
HEADER
  9
$ACADVER
  1
AC1032
  9
$DWGCODEPAGE
  3
ANSI_1252
  9
$EXTMAX
 10
11.0
 20
8.5
 30
0.0
  9
$EXTMIN
 10
0.0
 20
0.0
 30
0.0
  9
$LIMMIN
 10
0.0
 20
0.0
  9
$LIMMAX
 10
11.0
 20
8.5
  9
$VIEWCTR
 10
5.5
 20
4.25
  9
$VIEWSIZE
 40
8.5
  9
$CLAYER
  8
0
  9
$LTSCALE
 40
0.605
  9
$CELTYPE
  6
BYLAYER
  9
$DIMSCALE
 40
1.0
  9
$DIMASZ
 40
0.1
  9
$DIMEXO
 40
0.0625
  9
$DIMDLI
 40
0.418
  9
$DIMEXE
 40
0.125
  9
$DIMCEN
 40
0.099
  9
$DIMLFAC
 40
1.0
  9
$DIMBLK
  1
_FILLED
  9
$DIMALT
 70
1
  9
$DIMALTD
 70
2
  9
$DIMALTTD
 70
2
  9
$DIMALTF
 40
25.4
  9
$DIMTXT
 40
0.08
  9
$DIMTOL
 70
1
  9
$DIMLIM
 70
0
  9
$DIMTFAC
 40
1.0
  9
$DIMTP
 40
0.001
  9
$DIMTM
 40
0.001
  9
$DIMGAP
 40
0.09
  9
$DIMDSEP
 70
46
  9
$AUNITS
 70
0
  9
$PDMODE
 70
3
  9
$PDSIZE
 40
0.3125
  9
$HANDSEED
  5
2F4
  9
$TILEMODE
 70
1
  9
$MEASUREMENT
 70
0
  9
$INSUNITS
 70
1
  0
ENDSEC
  0
SECTION
  2
CLASSES
  0
CLASS
  1
ACDBDICTIONARYWDFLT
  2
AcDbDictionaryWithDefault
  3
AutoCAD 2000
 90
0
 91
1
280
0
281
0
  0
CLASS
  1
ACDBPLACEHOLDER
  2
AcDbPlaceHolder
  3
AutoCAD 2000
 90
0
 91
1
280
0
281
0
  0
CLASS
  1
LAYOUT
  2
AcDbLayout
  3
AutoCAD 2000
 90
0
 91
0
280
0
281
0
  0
ENDSEC
  0
SECTION
  2
TABLES
  0
TABLE
  2
VPORT
  5
8
100
AcDbSymbolTable
 70
2
  0
VPORT
  5
1F4
100
AcDbSymbolTableRecord
100
AcDbViewportTableRecord
  2
*ACTIVE
 70
0
 10
0.0
 20
0.0
 11
1.0
 21
1.0
 12
5.5
 22
4.25
 13
0.0
 23
0.0
 14
1.0
 24
1.0
 15
0.0
 25
0.0
 16
0.0
 26
0.0
 36
1.0
 17
0.0
 27
0.0
 37
0.0
 40
8.5
 41
1.2941176471
 42
50.0
 43
0.0
 44
0.0
 50
0.0
 51
0.0
 71
0
 72
100
 73
1
 74
1
 75
0
 76
0
 77
0
 78
0
  0
ENDTAB
  0
TABLE
  2
LTYPE
  5
5
100
AcDbSymbolTable
 70
6
  0
LTYPE
  5
14
100
AcDbSymbolTableRecord
100
AcDbLinetypeTableRecord
  2
BYBLOCK
 70
0
  3

 72
65
 73
0
 40
0.0
  0
LTYPE
  5
15
100
AcDbSymbolTableRecord
100
AcDbLinetypeTableRecord
  2
BYLAYER
 70
0
  3

 72
65
 73
0
 40
0.0
  0
LTYPE
  5
16
100
AcDbSymbolTableRecord
100
AcDbLinetypeTableRecord
  2
CONTINUOUS
 70
64
  3
Solid line
 72
65
 73
0
 40
0.0
  0
LTYPE
  5
1F5
100
AcDbSymbolTableRecord
100
AcDbLinetypeTableRecord
  2
CENTER
 70
64
  3
____ _ ____ _ ____ _ ____ _ ____ _ ____ _ ____
 72
65
 73
4
 40
0.6
 49
0.375
 74
0
 49
-0.075
 74
0
 49
0.075
 74
0
 49
-0.075
 74
0
  0
LTYPE
  5
1F6
100
AcDbSymbolTableRecord
100
AcDbLinetypeTableRecord
  2
HIDDEN
 70
64
  3
- - - - - - - - - - - - - - - - - - - -
 72
65
 73
2
 40
0.2
 49
0.1
 74
0
 49
-0.1
 74
0
  0
LTYPE
  5
1F7
100
AcDbSymbolTableRecord
100
AcDbLinetypeTableRecord
  2
PHANTOM
 70
64
  3
_____ _ _ _____ _ _ _____ _ _ _____
 72
65
 73
6
 40
0.8
 49
0.45
 74
0
 49
-0.05
 74
0
 49
0.1
 74
0
 49
-0.05
 74
0
 49
0.1
 74
0
 49
-0.05
 74
0
  0
LTYPE
  5
1F8
100
AcDbSymbolTableRecord
100
AcDbLinetypeTableRecord
  2
DOT
 70
64
  3
. . . . . . . . . . . . . . . . . . . .
 72
65
 73
2
 40
0.2
 49
0.1
 74
0
 49
-0.1
 74
0
  0
LTYPE
  5
1F9
100
AcDbSymbolTableRecord
100
AcDbLinetypeTableRecord
  2
DASHED
 70
64
  3
- - - - - - - - - - - - - - - - - - - -
 72
65
 73
2
 40
0.2
 49
0.1
 74
0
 49
-0.1
 74
0
  0
ENDTAB
  0
TABLE
  2
LAYER
  5
2
100
AcDbSymbolTable
 70
36
  0
LAYER
  5
10
100
AcDbSymbolTableRecord
100
AcDbLayerTableRecord
  2
0
 70
0
 62
7
  6
CONTINUOUS
370
-3
390
F
  0
LAYER
  5
1FA
100
AcDbSymbolTableRecord
100
AcDbLayerTableRecord
  2
DEFAULT_1
 70
0
 62
7
  6
CENTER
370
-3
390
F
  0
LAYER
  5
1FB
100
AcDbSymbolTableRecord
100
AcDbLayerTableRecord
  2
DEFAULT_2
 70
0
 62
8
  6
HIDDEN
370
-3
390
F
  0
LAYER
  5
1FC
100
AcDbSymbolTableRecord
100
AcDbLayerTableRecord
  2
DEFAULT_3
 70
0
 62
7
  6
PHANTOM
370
-3
390
F
  0
LAYER
  5
1FD
100
AcDbSymbolTableRecord
100
AcDbLayerTableRecord
  2
DEFAULT_COORDINATE_SYSTEM
 70
0
 62
7
  6
CONTINUOUS
370
-3
390
F
  0
LAYER
  5
1FE
100
AcDbSymbolTableRecord
100
AcDbLayerTableRecord
  2
DEFAULT_DATUM_AXES
 70
0
 62
7
  6
CONTINUOUS
370
-3
390
F
  0
LAYER
  5
1FF
100
AcDbSymbolTableRecord
100
AcDbLayerTableRecord
  2
DEFAULT_DATUM_PLANES
 70
0
 62
7
  6
CONTINUOUS
370
-3
390
F
  0
ENDTAB
  0
TABLE
  2
STYLE
  5
3
100
AcDbSymbolTable
 70
1
  0
STYLE
  5
11
100
AcDbSymbolTableRecord
100
AcDbTextStyleTableRecord
  2
STANDARD
 70
0
 40
0.0
 41
0.8
 50
0.0
 71
0
 42
0.2
  3
txt
  4

  0
STYLE
  5
200
100
AcDbSymbolTableRecord
100
AcDbTextStyleTableRecord
  2
TEXTSTYLE_1
 70
0
 40
0.0
 41
0.8
 50
0.0
 71
0
 42
0.2
  3
gdt
  4

  0
ENDTAB
  0
TABLE
  2
VIEW
  5
6
100
AcDbSymbolTable
 70
0
  0
ENDTAB
  0
TABLE
  2
UCS
  5
7
100
AcDbSymbolTable
 70
0
  0
ENDTAB
  0
TABLE
  2
APPID
  5
9
100
AcDbSymbolTable
 70
1
  0
APPID
  5
201
100
AcDbSymbolTableRecord
100
AcDbRegAppTableRecord
  2
ACAD
 70
0
  0
ENDTAB
  0
TABLE
  2
BLOCK_RECORD
  5
1
100
AcDbSymbolTable
 70
0
  0
BLOCK_RECORD
  5
202
100
AcDbSymbolTableRecord
100
AcDbBlockTableRecord
  2
*Model_Space
  0
BLOCK_RECORD
  5
203
100
AcDbSymbolTableRecord
100
AcDbBlockTableRecord
  2
*Paper_Space
  0
BLOCK_RECORD
  5
204
100
AcDbSymbolTableRecord
100
AcDbBlockTableRecord
  2
_FILLED
  0
ENDTAB
  0
TABLE
  2
DIMSTYLE
  5
A
100
AcDbSymbolTable
 70
1
100
AcDbDimStyleTable
 71
0
  0
DIMSTYLE
105
205
100
AcDbSymbolTableRecord
100
AcDbDimStyleTableRecord
  2
STANDARD
 70
0
  3

  4

 40
1.0
 41
0.1
 42
0.0625
 43
0.38
 44
0.125
 45
0.0
 46
0.0
 47
0.001
 48
0.001
140
0.08
141
0.09
142
0.0
143
25.4
144
1.0
145
0.0
146
1.0
147
0.09
 71
1.0
 72
0.0
 73
1
 74
1
 75
0
 76
0
 77
0
 78
4
 79
1
170
1
171
2
172
0
173
0
174
0
175
0
176
0
177
0
178
0
270
2
179
3
271
3
272
3
273
2
274
2
275
0
280
0
281
0
282
0
283
1
284
4
285
0
286
0
287
3
288
0
340
11
278
46
341
204
342
204
343
204
344
204
  0
ENDTAB
  0
ENDSEC
  0
SECTION
  2
BLOCKS
  0
BLOCK
  5
20
100
AcDbEntity
  8
0
100
AcDbBlockBegin
  2
*Model_Space
 70
0
 10
0.0
 20
0.0
 30
0.0
  3
*Model_Space
  1

  0
ENDBLK
  5
21
100
AcDbEntity
  8
0
100
AcDbBlockEnd
  0
BLOCK
  5
1C
100
AcDbEntity
  8
0
100
AcDbBlockBegin
  2
*Paper_Space
 70
0
 10
0.0
 20
0.0
 30
0.0
  3
*Paper_Space
  1

  0
ENDBLK
  5
1D
100
AcDbEntity
  8
0
100
AcDbBlockEnd
  0
BLOCK
  5
206
100
AcDbEntity
  8
0
100
AcDbBlockBegin
  2
_FILLED
 70
64
 10
0.0
 20
0.0
  3
_FILLED
  1

  0
SOLID
  5
207
100
AcDbEntity
  8
0
  6
BYBLOCK
 62
0
100
AcDbTrace
 10
0.0
 20
0.0
 11
-1.0
 21
0.2
 12
-1.0
 22
-0.2
 13
-1.0
 23
-0.2
  0
ENDBLK
  5
208
100
AcDbEntity
  8
0
  6
BYBLOCK
 62
0
100
AcDbBlockEnd
  0
ENDSEC
  0
SECTION
  2
ENTITIES
  0
MTEXT
  5
209
100
AcDbEntity
  8
0
100
AcDbMText
 62
2
  6
CONTINUOUS
  7
STANDARD
 71
3
 72
1
 10
5.3120973926
 20
2.798071319
 30
0.0
 11
1.0
 21
0.0
 31
0.0
 73
2
 44
0.9
  1
SCALE 0.175
 40
0.08
 41
0.704
  0
LINE
  5
20A
100
AcDbEntity
  8
0
100
AcDbLine
 62
7
  6
CONTINUOUS
 10
0.0
 20
0.0
 11
0.0
 21
8.5
  0
LINE
  5
20B
100
AcDbEntity
  8
0
100
AcDbLine
 62
7
  6
CONTINUOUS
 10
0.0
 20
0.0
 11
11.0
 21
0.0
  0
LINE
  5
20C
100
AcDbEntity
  8
0
100
AcDbLine
 62
7
  6
CONTINUOUS
 10
0.0
 20
8.5
 11
11.0
 21
8.5
  0
LINE
  5
20D
100
AcDbEntity
  8
0
100
AcDbLine
 62
7
  6
CONTINUOUS
 10
11.0
 20
0.0
 11
11.0
 21
8.5
  0
LWPOLYLINE
  5
20E
100
AcDbEntity
  8
0
100
AcDbPolyline
 62
7
  6
CONTINUOUS
 90
148
 70
0
 10
3.922540604
 20
4.7719440184
 10
3.9225431023
 20
4.7714492064
 10
3.9225531301
 20
4.7708361064
 10
3.9225708289
 20
4.7702231799
 10
3.9225961958
 20
4.769610523
 10
3.9226292269
 20
4.7689982314
 10
3.922669917
 20
4.7683864012
 10
3.9227182597
 20
4.767775128
 10
3.9227742476
 20
4.7671645076
 10
3.9228378717
 20
4.7665546357
 10
3.9229091221
 20
4.7659456076
 10
3.9229879878
 20
4.7653375187
 10
3.9230744563
 20
4.7647304643
 10
3.9231685141
 20
4.7641245394
 10
3.9232701464
 20
4.7635198389
 10
3.9233793374
 20
4.7629164576
 10
3.92349607
 20
4.7623144899
 10
3.9236203258
 20
4.7617140301
 10
3.9237520854
 20
4.7611151723
 10
3.9238913281
 20
4.7605180104
 10
3.9240380321
 20
4.7599226379
 10
3.9241921745
 20
4.7593291479
 10
3.924353731
 20
4.7587376335
 10
3.9245226764
 20
4.7581481873
 10
3.9246989843
 20
4.7575609011
 10
3.9248826272
 20
4.7569758671
 10
3.9250735762
 20
4.7563931767
 10
3.9252718016
 20
4.7558129209
 10
3.9254772724
 20
4.7552351903
 10
3.9256899565
 20
4.7546600755
 10
3.9259098205
 20
4.7540876669
 10
3.9261368301
 20
4.7535180535
 10
3.9263709496
 20
4.7529513251
 10
3.9266121415
 20
4.7523875725
 10
3.9268603676
 20
4.7518268847
 10
3.9271155893
 20
4.7512693486
 10
3.9273777666
 20
4.7507150515
 10
3.927646857
 20
4.7501640829
 10
3.9279228196
 20
4.7496165263
 10
3.9282056149
 20
4.74907246
 10
3.9284952001
 20
4.7485319675
 10
3.9287915289
 20
4.7479951353
 10
3.9290945557
 20
4.7474620468
 10
3.9294042388
 20
4.7469327762
 10
3.9297205248
 20
4.7464074159
 10
3.9300433481
 20
4.7458860741
 10
3.9303726536
 20
4.7453688381
 10
3.9307083928
 20
4.7448557822
 10
3.9310505077
 20
4.7443469931
 10
3.9313989211
 20
4.7438425821
 10
3.9317535995
 20
4.7433425946
 10
3.9321145518
 20
4.7428470194
 10
3.9324817317
 20
4.7423559256
 10
3.9328550767
 20
4.7418694023
 10
3.933234575
 20
4.7413874718
 10
3.9336202371
 20
4.7409101331
 10
3.9340119434
 20
4.7404375462
 10
3.9344094815
 20
4.7399699695
 10
3.9348128055
 20
4.7395074525
 10
3.9352218311
 20
4.7390500877
 10
3.9356362703
 20
4.7385981832
 10
3.936055981
 20
4.7381518681
 10
3.9364809503
 20
4.7377111311
 10
3.9369110722
 20
4.7372760586
 10
3.9373460314
 20
4.7368469367
 10
3.9377859787
 20
4.7364235841
 10
3.93823153
 20
4.7360054091
 10
3.9386825767
 20
4.7355925374
 10
3.939139112
 20
4.7351849985
 10
3.9396019567
 20
4.7347821139
 10
3.9400715939
 20
4.734383562
 10
3.940547486
 20
4.7339898978
 10
3.941028928
 20
4.7336017645
 10
3.9415172886
 20
4.7332181418
 10
3.9420111101
 20
4.7328402566
 10
3.9425052812
 20
4.732471909
 10
3.9429993652
 20
4.7321131603
 10
3.9434933961
 20
4.7317637263
 10
3.9439827149
 20
4.7314265329
 10
3.9444655613
 20
4.7311022745
 10
3.9449430917
 20
4.73078967
 10
3.9454149207
 20
4.730488515
 10
3.9458805063
 20
4.7301987017
 10
3.9463398686
 20
4.7299197756
 10
3.946793494
 20
4.7296510341
 10
3.947241161
 20
4.7293922272
 10
3.9476826605
 20
4.7291431043
 10
3.9481185384
 20
4.7289030102
 10
3.9485486118
 20
4.728671722
 10
3.9489727073
 20
4.7284490171
 10
3.9493914202
 20
4.7282342885
 10
3.9498045665
 20
4.7280273564
 10
3.9502120363
 20
4.7278280077
 10
3.9506145684
 20
4.7276356346
 10
3.9510119744
 20
4.7274500995
 10
3.9514042037
 20
4.7272712032
 10
3.9517922342
 20
4.7270982997
 10
3.9521759635
 20
4.7269312554
 10
3.9525553058
 20
4.7267699318
 10
3.9529312936
 20
4.7266137337
 10
3.95330397
 20
4.7264625079
 10
3.953673146
 20
4.7263161977
 10
3.9540395297
 20
4.7261744006
 10
3.9544032773
 20
4.7260369495
 10
3.954764115
 20
4.7259038429
 10
3.9551221174
 20
4.7257749484
 10
3.9554772538
 20
4.7256501756
 10
3.9558294488
 20
4.725529451
 10
3.9561787143
 20
4.7254126726
 10
3.9565250016
 20
4.7252997604
 10
3.9568682636
 20
4.725190635
 10
3.9572085178
 20
4.7250851983
 10
3.957545721
 20
4.7249833727
 10
3.9578798305
 20
4.7248850817
 10
3.958210867
 20
4.7247902317
 10
3.9585388328
 20
4.7246987365
 10
3.958863649
 20
4.7246105341
 10
3.9591852159
 20
4.7245255673
 10
3.9595035693
 20
4.7244437437
 10
3.959818604
 20
4.7243650086
 10
3.960130009
 20
4.7242893552
 10
3.9604377559
 20
4.7242167045
 10
3.9607418083
 20
4.7241469803
 10
3.9610418419
 20
4.7240801706
 10
3.9613377512
 20
4.7240162101
 10
3.9616295819
 20
4.7239550019
 10
3.9619172371
 20
4.7238964803
 10
3.9622006007
 20
4.7238405834
 10
3.9624797359
 20
4.7237872141
 10
3.9627548178
 20
4.7237362589
 10
3.9630258189
 20
4.7236876456
 10
3.9632927221
 20
4.7236413013
 10
3.9635557206
 20
4.7235971197
 10
3.963814802
 20
4.7235550333
 10
3.9640699412
 20
4.7235149776
 10
3.9643213157
 20
4.7234768587
 10
3.9645689243
 20
4.7234406139
 10
3.9648127367
 20
4.7234061854
 10
3.9650528882
 20
4.7233734942
 10
3.9652893743
 20
4.723342483
 10
3.965522173
 20
4.7233130979
 10
3.9657513951
 20
4.7232852698
 10
3.9659770971
 20
4.7232589392
 10
3.9661992002
 20
4.7232340631
 10
3.9664176134
 20
4.7232105999
 10
3.9666323803
 20
4.7231884934
 10
3.9668434382
 20
4.7231676997
 10
3.96725385
 20
4.7231299032
  0
LINE
  5
20F
100
AcDbEntity
  8
0
100
AcDbLine
 62
7
  6
CONTINUOUS
 10
4.0505093671
 20
4.8108815184
 11
4.0505093671
 21
4.7330065184
  0
LINE
  5
210
100
AcDbEntity
  8
0
100
AcDbLine
 62
7
  6
CONTINUOUS
 10
4.0833218671
 20
5.3328190184
 11
4.0833218671
 21
5.4019440184
  0
LINE
  5
211
100
AcDbEntity
  8
0
100
AcDbLine
 62
7
  6
CONTINUOUS
 10
4.1817593671
 20
4.8108815184
 11
4.1817593671
 21
5.3275690184
  0
LINE
  5
212
100
AcDbEntity
  8
0
100
AcDbLine
 62
7
  6
CONTINUOUS
 10
4.2521968671
 20
5.0125690184
 11
4.2521968671
 21
4.8247693127
  0
LINE
  5
213
100
AcDbEntity
  8
0
100
AcDbLine
 62
7
  6
CONTINUOUS
 10
4.2521968671
 20
4.5313190184
 11
4.2521968671
 21
4.7191187241
  0
LINE
  5
214
100
AcDbEntity
  8
0
100
AcDbLine
 62
7
  6
CONTINUOUS
 10
4.3300718671
 20
5.0125690184
 11
4.3300718671
 21
4.8247693127
  0
LINE
  5
215
100
AcDbEntity
  8
0
100
AcDbLine
 62
7
  6
CONTINUOUS
 10
4.3300718671
 20
4.5313190184
 11
4.3300718671
 21
4.7191187241
  0
LINE
  5
216
100
AcDbEntity
  8
0
100
AcDbLine
 62
7
  6
CONTINUOUS
 10
4.4005093671
 20
4.8813190184
 11
4.4005093671
 21
5.3275690184
  0
LINE
  5
217
100
AcDbEntity
  8
0
100
AcDbLine
 62
7
  6
CONTINUOUS
 10
4.4989468671
 20
5.3328190184
 11
4.4989468671
 21
5.4019440184
  0
LINE
  5
218
100
AcDbEntity
  8
0
100
AcDbLine
 62
7
  6
CONTINUOUS
 10
4.5317593671
 20
4.8108815184
 11
4.5317593671
 21
4.7330065184
  0
LINE
  5
219
100
AcDbEntity
  8
0
100
AcDbLine
 62
7
  6
CONTINUOUS
 10
4.8058968671
 20
4.6450690184
 11
4.8058968671
 21
4.5313190184
  0
LINE
  5
21A
100
AcDbEntity
  8
0
100
AcDbLine
 62
7
  6
CONTINUOUS
 10
4.8190218671
 20
3.1969440184
 11
4.8190218671
 21
4.7719440184
  0
LINE
  5
21B
100
AcDbEntity
  8
0
100
AcDbLine
 62
7
  6
CONTINUOUS
 10
4.9940218671
 20
3.1969440184
 11
4.9940218671
 21
4.7719440184
  0
LINE
  5
21C
100
AcDbEntity
  8
0
100
AcDbLine
 62
7
  6
CONTINUOUS
 10
5.0071468671
 20
4.6450690184
 11
5.0071468671
 21
4.5313190184
  0
LINE
  5
21D
100
AcDbEntity
  8
0
100
AcDbLine
 62
7
  6
CONTINUOUS
 10
5.2812843671
 20
4.7330065184
 11
5.2812843671
 21
4.8108815184
  0
LINE
  5
21E
100
AcDbEntity
  8
0
100
AcDbLine
 62
7
  6
CONTINUOUS
 10
5.3140968671
 20
5.3328190184
 11
5.3140968671
 21
5.4019440184
  0
LINE
  5
21F
100
AcDbEntity
  8
0
100
AcDbLine
 62
7
  6
CONTINUOUS
 10
5.4125343671
 20
4.8813190184
 11
5.4125343671
 21
5.3275690184
  0
LINE
  5
220
100
AcDbEntity
  8
0
100
AcDbLine
 62
7
  6
CONTINUOUS
 10
6.3619205803
 20
4.8326057831
 11
6.3575520421
 21
4.8296940184
  0
LINE
  5
221
100
AcDbEntity
  8
0
100
AcDbLine
 62
7
  6
CONTINUOUS
 10
5.4829718671
 20
5.0125690184
 11
5.4829718671
 21
4.8247693127
  0
LINE
  5
222
100
AcDbEntity
  8
0
100
AcDbLine
 62
7
  6
CONTINUOUS
 10
5.4829718671
 20
4.5313190184
 11
5.4829718671
 21
4.7191187241
  0
LINE
  5
223
100
AcDbEntity
  8
0
100
AcDbLine
 62
7
  6
CONTINUOUS
 10
4.2521968841
 20
4.5313190184
 11
4.3300718502
 21
4.5313190184
  0
LINE
  5
224
100
AcDbEntity
  8
0
100
AcDbLine
 62
7
  6
CONTINUOUS
 10
4.8058968671
 20
4.5313190184
 11
4.8190218671
 21
4.5313190184
  0
LINE
  5
225
100
AcDbEntity
  8
0
100
AcDbLine
 62
7
  6
CONTINUOUS
 10
4.9940218671
 20
4.5313190184
 11
5.0071468671
 21
4.5313190184
  0
LINE
  5
226
100
AcDbEntity
  8
0
100
AcDbLine
 62
7
  6
CONTINUOUS
 10
5.4829718841
 20
4.5313190184
 11
5.5608468502
 21
4.5313190184
  0
LINE
  5
227
100
AcDbEntity
  8
0
100
AcDbLine
 62
7
  6
CONTINUOUS
 10
5.5608468671
 20
5.0125690184
 11
5.5608468671
 21
4.8247693127
  0
LINE
  5
228
100
AcDbEntity
  8
0
100
AcDbLine
 62
7
  6
CONTINUOUS
 10
5.5608468671
 20
4.5313190184
 11
5.5608468671
 21
4.7191187241
  0
LINE
  5
229
100
AcDbEntity
  8
0
100
AcDbLine
 62
7
  6
CONTINUOUS
 10
5.6312843671
 20
4.8108815184
 11
5.6312843671
 21
5.3275690184
  0
LINE
  5
22A
100
AcDbEntity
  8
0
100
AcDbLine
 62
7
  6
CONTINUOUS
 10
4.0030071018
 20
4.722931425
 11
4.0197296281
 21
4.7229447683
  0
LINE
  5
22B
100
AcDbEntity
  8
0
100
AcDbLine
 62
7
  6
CONTINUOUS
 10
5.4829718671
 20
4.6625690184
 11
5.0246468671
 21
4.6625690184
  0
LINE
  5
22C
100
AcDbEntity
  8
0
100
AcDbLine
 62
7
  6
CONTINUOUS
 10
4.7883968671
 20
4.6625690184
 11
4.3300718671
 21
4.6625690184
  0
LINE
  5
22D
100
AcDbEntity
  8
0
100
AcDbLine
 62
7
  6
CONTINUOUS
 10
6.3575520421
 20
4.7141940184
 11
6.3366437486
 21
4.7141940184
  0
LINE
  5
22E
100
AcDbEntity
  8
0
100
AcDbLine
 62
7
  6
CONTINUOUS
 10
6.3575520421
 20
4.7194440184
 11
6.340908306
 21
4.7194440184
  0
LINE
  5
22F
100
AcDbEntity
  8
0
100
AcDbLine
 62
7
  6
CONTINUOUS
 10
6.1656496706
 20
4.7229440184
 11
5.6196935414
 21
4.7229440184
  0
LINE
  5
230
100
AcDbEntity
  8
0
100
AcDbLine
 62
7
  6
CONTINUOUS
 10
6.3434012831
 20
4.7229440184
 11
6.4021051403
 21
4.7229440184
  0
LWPOLYLINE
  5
231
100
AcDbEntity
  8
0
100
AcDbPolyline
 62
7
  6
CONTINUOUS
 90
4
 70
0
 10
4.1706582698
 20
4.7229407212
 10
4.1885075048
 20
4.7229442013
 10
4.1931744216
 20
4.7229443206
 10
4.1933500424
 20
4.7229443236
  0
LINE
  5
232
100
AcDbEntity
  8
0
100
AcDbLine
 62
7
  6
CONTINUOUS
 10
4.1793230884
 20
4.7229438201
 11
4.1838903263
 21
4.7229440362
  0
LWPOLYLINE
  5
233
100
AcDbEntity
  8
0
100
AcDbPolyline
 62
7
  6
CONTINUOUS
 90
5
 70
0
 10
4.184102755
 20
4.7229430823
 10
4.1868988386
 20
4.7229434336
 10
4.1897318619
 20
4.7229436884
 10
4.1926031724
 20
4.7229438193
 10
4.1933502938
 20
4.7229438138
  0
LINE
  5
234
100
AcDbEntity
  8
0
100
AcDbLine
 62
7
  6
CONTINUOUS
 10
6.0740343671
 20
4.7238190184
 11
6.1594026409
 21
4.7238190184
  0
LINE
  5
235
100
AcDbEntity
  8
0
100
AcDbLine
 62
7
  6
CONTINUOUS
 10
4.1394628568
 20
4.7229412543
 11
4.1793230884
 21
4.7229438201
  0
LINE
  5
236
100
AcDbEntity
  8
0
100
AcDbLine
 62
7
  6
CONTINUOUS
 10
4.0197296281
 20
4.7229447683
 11
4.1405425429
 21
4.7229414349
  0
LINE
  5
237
100
AcDbEntity
  8
0
100
AcDbLine
 62
7
  6
CONTINUOUS
 10
4.1416827632
 20
4.7229406087
 11
4.1439317235
 21
4.7229400673
  0
LINE
  5
238
100
AcDbEntity
  8
0
100
AcDbLine
 62
7
  6
CONTINUOUS
 10
4.0313761506
 20
4.722946654
 11
4.0315942511
 21
4.7229464523
  0
LINE
  5
239
100
AcDbEntity
  8
0
100
AcDbLine
 62
7
  6
CONTINUOUS
 10
3.9857729209
 20
4.7229338007
 11
4.0030071018
 21
4.722931425
  0
LINE
  5
23A
100
AcDbEntity
  8
0
100
AcDbLine
 62
7
  6
CONTINUOUS
 10
3.9782518927
 20
4.722944372
 11
3.9857729209
 21
4.7229338007
  0
LINE
  5
23B
100
AcDbEntity
  8
0
100
AcDbLine
 62
7
  6
CONTINUOUS
 10
3.9715953289
 20
4.722941572
 11
3.9782518927
 21
4.722944372
  0
LWPOLYLINE
  5
23C
100
AcDbEntity
  8
0
100
AcDbPolyline
 62
7
  6
CONTINUOUS
 90
3
 70
0
 10
3.9729177519
 20
4.7229419815
 10
3.974160808
 20
4.7229395254
 10
3.981678312
 20
4.7229401435
  0
LINE
  5
23D
100
AcDbEntity
  8
0
100
AcDbLine
 62
7
  6
CONTINUOUS
 10
3.9709033897
 20
4.722945997
 11
3.9715585037
 21
4.7229415629
  0
LINE
  5
23E
100
AcDbEntity
  8
0
100
AcDbLine
 62
7
  6
CONTINUOUS
 10
3.9706876361
 20
4.7229493017
 11
3.9709033897
 21
4.722945997
  0
LINE
  5
23F
100
AcDbEntity
  8
0
100
AcDbLine
 62
7
  6
CONTINUOUS
 10
3.9704560309
 20
4.7229539004
 11
3.9706876361
 21
4.7229493017
  0
LINE
  5
240
100
AcDbEntity
  8
0
100
AcDbLine
 62
7
  6
CONTINUOUS
 10
3.970229701
 20
4.7229594492
 11
3.9704560309
 21
4.7229539004
  0
LINE
  5
241
100
AcDbEntity
  8
0
100
AcDbLine
 62
7
  6
CONTINUOUS
 10
3.9700076933
 20
4.7229659067
 11
3.970229701
 21
4.7229594492
  0
LINE
  5
242
100
AcDbEntity
  8
0
100
AcDbLine
 62
7
  6
CONTINUOUS
 10
3.9697945177
 20
4.7229730541
 11
3.9700076933
 21
4.7229659067
  0
LINE
  5
243
100
AcDbEntity
  8
0
100
AcDbLine
 62
7
  6
CONTINUOUS
 10
3.9695338335
 20
4.7229830562
 11
3.9697945177
 21
4.7229730541
  0
LINE
  5
244
100
AcDbEntity
  8
0
100
AcDbLine
 62
7
  6
CONTINUOUS
 10
3.9692969785
 20
4.7229933488
 11
3.9695338335
 21
4.7229830562
  0
LINE
  5
245
100
AcDbEntity
  8
0
100
AcDbLine
 62
7
  6
CONTINUOUS
 10
3.9690120795
 20
4.7230072501
 11
3.9692969785
 21
4.7229933488
  0
LINE
  5
246
100
AcDbEntity
  8
0
100
AcDbLine
 62
7
  6
CONTINUOUS
 10
3.9687870827
 20
4.7230194035
 11
3.9690120795
 21
4.7230072501
  0
LINE
  5
247
100
AcDbEntity
  8
0
100
AcDbLine
 62
7
  6
CONTINUOUS
 10
3.9685181283
 20
4.723035293
 11
3.9687870827
 21
4.7230194035
  0
LINE
  5
248
100
AcDbEntity
  8
0
100
AcDbLine
 62
7
  6
CONTINUOUS
 10
3.9682020022
 20
4.7230558673
 11
3.9685181283
 21
4.723035293
  0
LINE
  5
249
100
AcDbEntity
  8
0
100
AcDbLine
 62
7
  6
CONTINUOUS
 10
3.9678392837
 20
4.7230820039
 11
3.9682020022
 21
4.7230558673
  0
LWPOLYLINE
  5
24A
100
AcDbEntity
  8
0
100
AcDbPolyline
 62
7
  6
CONTINUOUS
 90
3
 70
0
 10
3.96725385
 20
4.7231299032
 10
3.9674531875
 20
4.7231128004
 10
3.9678392837
 20
4.7230820039
  0
LINE
  5
24B
100
AcDbEntity
  8
0
100
AcDbLine
 62
7
  6
CONTINUOUS
 10
5.7297218671
 20
5.3328190184
 11
5.7297218671
 21
5.4019440184
  0
LINE
  5
24C
100
AcDbEntity
  8
0
100
AcDbLine
 62
7
  6
CONTINUOUS
 10
5.7625343671
 20
4.7330065184
 11
5.7625343671
 21
4.8108815184
  0
LINE
  5
24D
100
AcDbEntity
  8
0
100
AcDbLine
 62
7
  6
CONTINUOUS
 10
6.1785022143
 20
4.8304583685
 11
6.1785303067
 21
4.8305026188
  0
LINE
  5
24E
100
AcDbEntity
  8
0
100
AcDbLine
 62
7
  6
CONTINUOUS
 10
6.178534698
 20
4.8305094723
 11
6.1784811782
 21
4.8304266049
  0
LINE
  5
24F
100
AcDbEntity
  8
0
100
AcDbLine
 62
7
  6
CONTINUOUS
 10
3.9710198924
 20
4.8209434335
 11
3.9707961088
 21
4.8209405143
  0
LINE
  5
250
100
AcDbEntity
  8
0
100
AcDbLine
 62
7
  6
CONTINUOUS
 10
3.9712527112
 20
4.820945409
 11
3.9710198924
 21
4.8209434335
  0
LINE
  5
251
100
AcDbEntity
  8
0
100
AcDbLine
 62
7
  6
CONTINUOUS
 10
3.9715953289
 20
4.722941572
 11
3.9719659367
 21
4.7229437152
  0
LINE
  5
252
100
AcDbEntity
  8
0
100
AcDbLine
 62
7
  6
CONTINUOUS
 10
3.9715158473
 20
4.8209464153
 11
3.9712527112
 21
4.820945409
  0
LINE
  5
253
100
AcDbEntity
  8
0
100
AcDbLine
 62
7
  6
CONTINUOUS
 10
3.9890353604
 20
4.8209578829
 11
3.9782519161
 21
4.8209436648
  0
LINE
  5
254
100
AcDbEntity
  8
0
100
AcDbLine
 62
7
  6
CONTINUOUS
 10
5.4690840728
 20
4.7330065184
 11
5.2812843671
 21
4.7330065184
  0
LINE
  5
255
100
AcDbEntity
  8
0
100
AcDbLine
 62
7
  6
CONTINUOUS
 10
4.2383090728
 20
4.7330065184
 11
4.0505093671
 21
4.7330065184
  0
LINE
  5
256
100
AcDbEntity
  8
0
100
AcDbLine
 62
7
  6
CONTINUOUS
 10
4.3439596614
 20
4.7330065184
 11
4.5317593671
 21
4.7330065184
  0
LINE
  5
257
100
AcDbEntity
  8
0
100
AcDbLine
 62
7
  6
CONTINUOUS
 10
5.5747346614
 20
4.7330065184
 11
5.7625343671
 21
4.7330065184
  0
LINE
  5
258
100
AcDbEntity
  8
0
100
AcDbLine
 62
7
  6
CONTINUOUS
 10
5.7625343671
 20
4.7391315184
 11
6.0740343671
 21
4.7391315184
  0
LINE
  5
259
100
AcDbEntity
  8
0
100
AcDbLine
 62
7
  6
CONTINUOUS
 10
5.7625343671
 20
4.8047565184
 11
6.0740343671
 21
4.8047565184
  0
LINE
  5
25A
100
AcDbEntity
  8
0
100
AcDbLine
 62
7
  6
CONTINUOUS
 10
5.4690840728
 20
4.8108815184
 11
5.2812843671
 21
4.8108815184
  0
LINE
  5
25B
100
AcDbEntity
  8
0
100
AcDbLine
 62
7
  6
CONTINUOUS
 10
4.2383090728
 20
4.8108815184
 11
4.0505093671
 21
4.8108815184
  0
LINE
  5
25C
100
AcDbEntity
  8
0
100
AcDbLine
 62
7
  6
CONTINUOUS
 10
4.3439596614
 20
4.8108815184
 11
4.5317593671
 21
4.8108815184
  0
LINE
  5
25D
100
AcDbEntity
  8
0
100
AcDbLine
 62
7
  6
CONTINUOUS
 10
5.5747346614
 20
4.8108815184
 11
5.7625343671
 21
4.8108815184
  0
LINE
  5
25E
100
AcDbEntity
  8
0
100
AcDbLine
 62
7
  6
CONTINUOUS
 10
6.0740343671
 20
4.8200690184
 11
6.1594026409
 21
4.8200690184
  0
LINE
  5
25F
100
AcDbEntity
  8
0
100
AcDbLine
 62
7
  6
CONTINUOUS
 10
6.1656496706
 20
4.8209440184
 11
5.6312843671
 21
4.8209440184
  0
LINE
  5
260
100
AcDbEntity
  8
0
100
AcDbLine
 62
7
  6
CONTINUOUS
 10
6.3434012831
 20
4.8209440184
 11
6.4021051403
 21
4.8209440184
  0
LWPOLYLINE
  5
261
100
AcDbEntity
  8
0
100
AcDbPolyline
 62
7
  6
CONTINUOUS
 90
4
 70
0
 10
4.0586231388
 20
4.8209442265
 10
4.055857064
 20
4.820943981
 10
4.0531368375
 20
4.8209437056
 10
4.0504624843
 20
4.8209434049
  0
LINE
  5
262
100
AcDbEntity
  8
0
100
AcDbLine
 62
7
  6
CONTINUOUS
 10
3.9769306595
 20
4.8209523251
 11
3.9727719687
 21
4.8209440161
  0
LINE
  5
263
100
AcDbEntity
  8
0
100
AcDbLine
 62
7
  6
CONTINUOUS
 10
6.340908306
 20
4.8244440184
 11
6.3575520421
 21
4.8244440184
  0
LINE
  5
264
100
AcDbEntity
  8
0
100
AcDbLine
 62
7
  6
CONTINUOUS
 10
6.3366437486
 20
4.8296940184
 11
6.3575520421
 21
4.8296940184
  0
LWPOLYLINE
  5
265
100
AcDbEntity
  8
0
100
AcDbPolyline
 62
7
  6
CONTINUOUS
 90
6
 70
0
 10
4.1706582801
 20
4.8209473156
 10
4.1680721078
 20
4.8209477653
 10
4.1655187404
 20
4.8209481677
 10
4.162997832
 20
4.8209485092
 10
4.160508251
 20
4.8209487779
 10
4.1462099784
 20
4.8209484035
  0
LWPOLYLINE
  5
266
100
AcDbEntity
  8
0
100
AcDbPolyline
 62
7
  6
CONTINUOUS
 90
4
 70
0
 10
4.1817593671
 20
4.8209453128
 10
4.181343142
 20
4.8209453764
 10
4.1786196625
 20
4.8209458448
 10
4.1706582801
 20
4.8209473156
  0
LINE
  5
267
100
AcDbEntity
  8
0
100
AcDbLine
 62
7
  6
CONTINUOUS
 10
4.0504624843
 20
4.8209434049
 11
4.0261507995
 21
4.8209415786
  0
LINE
  5
268
100
AcDbEntity
  8
0
100
AcDbLine
 62
7
  6
CONTINUOUS
 10
4.148789981
 20
4.820946191
 11
4.0586231388
 21
4.8209442265
  0
LWPOLYLINE
  5
269
100
AcDbEntity
  8
0
100
AcDbPolyline
 62
7
  6
CONTINUOUS
 90
3
 70
0
 10
4.1817593671
 20
4.8209441015
 10
4.1793235113
 20
4.8209442167
 10
4.148789981
 20
4.820946191
  0
LWPOLYLINE
  5
26A
100
AcDbEntity
  8
0
100
AcDbPolyline
 62
7
  6
CONTINUOUS
 90
4
 70
0
 10
3.9782519161
 20
4.8209436648
 10
3.9753894188
 20
4.8209436373
 10
3.9749180318
 20
4.8209437764
 10
3.9740748616
 20
4.8209439849
  0
LINE
  5
26B
100
AcDbEntity
  8
0
100
AcDbLine
 62
7
  6
CONTINUOUS
 10
4.0261507995
 20
4.8209415786
 11
4.0156829217
 21
4.8209456432
  0
LINE
  5
26C
100
AcDbEntity
  8
0
100
AcDbLine
 62
7
  6
CONTINUOUS
 10
4.00138972
 20
4.8209577857
 11
3.9890353604
 21
4.8209578829
  0
LINE
  5
26D
100
AcDbEntity
  8
0
100
AcDbLine
 62
7
  6
CONTINUOUS
 10
4.0156829217
 20
4.8209456432
 11
4.00138972
 21
4.8209577857
  0
LWPOLYLINE
  5
26E
100
AcDbEntity
  8
0
100
AcDbPolyline
 62
7
  6
CONTINUOUS
 90
3
 70
0
 10
3.9816783209
 20
4.8209478933
 10
3.9811159605
 20
4.8209487415
 10
3.9769306595
 20
4.8209523251
  0
LINE
  5
26F
100
AcDbEntity
  8
0
100
AcDbLine
 62
7
  6
CONTINUOUS
 10
3.9729177553
 20
4.8209460554
 11
3.9715158473
 21
4.8209464153
  0
LINE
  5
270
100
AcDbEntity
  8
0
100
AcDbLine
 62
7
  6
CONTINUOUS
 10
3.9718196445
 20
4.8209449452
 11
3.9716123383
 21
4.8209462973
  0
LINE
  5
271
100
AcDbEntity
  8
0
100
AcDbLine
 62
7
  6
CONTINUOUS
 10
3.9665119126
 20
4.8206872611
 11
3.9660967138
 21
4.8206426224
  0
LINE
  5
272
100
AcDbEntity
  8
0
100
AcDbLine
 62
7
  6
CONTINUOUS
 10
3.9669179985
 20
4.8207274625
 11
3.9665119126
 21
4.8206872611
  0
LINE
  5
273
100
AcDbEntity
  8
0
100
AcDbLine
 62
7
  6
CONTINUOUS
 10
3.9673142256
 20
4.8207634003
 11
3.9669179985
 21
4.8207274625
  0
LINE
  5
274
100
AcDbEntity
  8
0
100
AcDbLine
 62
7
  6
CONTINUOUS
 10
3.9677004589
 20
4.8207953133
 11
3.9673142256
 21
4.8207634003
  0
LINE
  5
275
100
AcDbEntity
  8
0
100
AcDbLine
 62
7
  6
CONTINUOUS
 10
3.9680673892
 20
4.8208227853
 11
3.9677004589
 21
4.8207953133
  0
LINE
  5
276
100
AcDbEntity
  8
0
100
AcDbLine
 62
7
  6
CONTINUOUS
 10
3.9683802945
 20
4.8208440256
 11
3.9680673892
 21
4.8208227853
  0
LINE
  5
277
100
AcDbEntity
  8
0
100
AcDbLine
 62
7
  6
CONTINUOUS
 10
3.9686495291
 20
4.8208606922
 11
3.9683802945
 21
4.8208440256
  0
LINE
  5
278
100
AcDbEntity
  8
0
100
AcDbLine
 62
7
  6
CONTINUOUS
 10
3.9688799183
 20
4.8208737736
 11
3.9686495291
 21
4.8208606922
  0
LINE
  5
279
100
AcDbEntity
  8
0
100
AcDbLine
 62
7
  6
CONTINUOUS
 10
3.9691763256
 20
4.8208890037
 11
3.9688799183
 21
4.8208737736
  0
LINE
  5
27A
100
AcDbEntity
  8
0
100
AcDbLine
 62
7
  6
CONTINUOUS
 10
3.9694267114
 20
4.8209004677
 11
3.9691763256
 21
4.8208890037
  0
LINE
  5
27B
100
AcDbEntity
  8
0
100
AcDbLine
 62
7
  6
CONTINUOUS
 10
3.969706521
 20
4.8209117617
 11
3.9694267114
 21
4.8209004677
  0
LINE
  5
27C
100
AcDbEntity
  8
0
100
AcDbLine
 62
7
  6
CONTINUOUS
 10
3.96993717
 20
4.8209198683
 11
3.969706521
 21
4.8209117617
  0
LINE
  5
27D
100
AcDbEntity
  8
0
100
AcDbLine
 62
7
  6
CONTINUOUS
 10
3.9701727733
 20
4.8209270276
 11
3.96993717
 21
4.8209198683
  0
LINE
  5
27E
100
AcDbEntity
  8
0
100
AcDbLine
 62
7
  6
CONTINUOUS
 10
3.9704091558
 20
4.8209330729
 11
3.9701727733
 21
4.8209270276
  0
LINE
  5
27F
100
AcDbEntity
  8
0
100
AcDbLine
 62
7
  6
CONTINUOUS
 10
3.9706499266
 20
4.8209380607
 11
3.9704091558
 21
4.8209330729
  0
LINE
  5
280
100
AcDbEntity
  8
0
100
AcDbLine
 62
7
  6
CONTINUOUS
 10
3.9707961088
 20
4.8209405143
 11
3.9706499266
 21
4.8209380607
  0
LINE
  5
281
100
AcDbEntity
  8
0
100
AcDbLine
 62
7
  6
CONTINUOUS
 10
5.4829718671
 20
4.8813190184
 11
4.3300718671
 21
4.8813190184
  0
LWPOLYLINE
  5
282
100
AcDbEntity
  8
0
100
AcDbPolyline
 62
7
  6
CONTINUOUS
 90
160
 70
0
 10
3.9656731005
 20
4.8205933851
 10
3.9654585032
 20
4.8205670147
 10
3.9652420576
 20
4.8205394427
 10
3.9650240949
 20
4.8205106869
 10
3.9648046297
 20
4.8204807267
 10
3.9645836622
 20
4.8204495396
 10
3.9643615009
 20
4.8204171482
 10
3.9641382343
 20
4.8203835474
 10
3.9639137885
 20
4.8203487075
 10
3.963688228
 20
4.8203126202
 10
3.9634615955
 20
4.8202752739
 10
3.963233864
 20
4.8202366462
 10
3.9630049936
 20
4.8201967112
 10
3.9627749938
 20
4.8201554513
 10
3.9625438722
 20
4.8201128483
 10
3.9623115866
 20
4.8200688744
 10
3.9620781464
 20
4.8200235107
 10
3.9618435607
 20
4.8199767384
 10
3.961607787
 20
4.8199285277
 10
3.9613708353
 20
4.8198788589
 10
3.9611327158
 20
4.8198277122
 10
3.9608933868
 20
4.819775056
 10
3.9606528589
 20
4.8197208698
 10
3.9604111434
 20
4.8196651326
 10
3.9601681998
 20
4.8196078115
 10
3.9599240398
 20
4.8195488846
 10
3.9596786755
 20
4.8194883304
 10
3.9594320675
 20
4.8194261138
 10
3.9591842395
 20
4.8193622151
 10
3.9589351935
 20
4.8192966089
 10
3.9586848586
 20
4.8192292494
 10
3.9584332676
 20
4.819160118
 10
3.9581804158
 20
4.8190891852
 10
3.9579261778
 20
4.8190163864
 10
3.957670571
 20
4.8189416955
 10
3.9574136096
 20
4.8188650854
 10
3.9571551648
 20
4.8187864848
 10
3.9568952541
 20
4.8187058646
 10
3.9566338952
 20
4.8186231955
 10
3.9563709622
 20
4.8185384012
 10
3.9561064745
 20
4.8184514498
 10
3.955840452
 20
4.8183623093
 10
3.9555727716
 20
4.8182708983
 10
3.9553034551
 20
4.8181771822
 10
3.9550325248
 20
4.8180811261
 10
3.9547598607
 20
4.8179826433
 10
3.9544854958
 20
4.8178816995
 10
3.9542094464
 20
4.817778254
 10
3.9539315707
 20
4.8176722049
 10
3.9536519624
 20
4.8175635372
 10
3.9533705828
 20
4.8174521849
 10
3.9530870967
 20
4.8173379589
 10
3.9528015672
 20
4.8172208241
 10
3.9525139963
 20
4.8171007198
 10
3.9522239641
 20
4.8169774033
 10
3.9519315095
 20
4.8168508171
 10
3.9516366719
 20
4.8167209037
 10
3.9513390419
 20
4.8165874016
 10
3.9510386591
 20
4.8164502406
 10
3.9507355771
 20
4.8163093561
 10
3.950429418
 20
4.8161644764
 10
3.9501201997
 20
4.8160155069
 10
3.9498080149
 20
4.8158623871
 10
3.9494926067
 20
4.8157048806
 10
3.9491740254
 20
4.8155428956
 10
3.9488523486
 20
4.8153763528
 10
3.9485273704
 20
4.8152050208
 10
3.9481991656
 20
4.8150288085
 10
3.947867806
 20
4.8148476212
 10
3.9475330905
 20
4.8146612092
 10
3.947195169
 20
4.8144695103
 10
3.9468540592
 20
4.8142723863
 10
3.9465093754
 20
4.8140694544
 10
3.9461612837
 20
4.8138606426
 10
3.9458098159
 20
4.8136457969
 10
3.945454407
 20
4.8134243822
 10
3.9450951743
 20
4.8131962663
 10
3.9447322409
 20
4.8129613173
 10
3.9443650778
 20
4.8127189657
 10
3.9439937511
 20
4.8124690086
 10
3.9436184851
 20
4.8122113447
 10
3.943239015
 20
4.811945527
 10
3.9428554384
 20
4.8116713416
 10
3.9424679959
 20
4.8113886718
 10
3.9420766583
 20
4.811097197
 10
3.9416815953
 20
4.8107967316
 10
3.9412830197
 20
4.8104871181
 10
3.9408809852
 20
4.8101680673
 10
3.940475634
 20
4.8098393472
 10
3.9400672541
 20
4.8095008381
 10
3.9396561302
 20
4.8091524169
 10
3.9392424741
 20
4.8087938963
 10
3.9388265422
 20
4.8084251225
 10
3.9384086914
 20
4.80804603
 10
3.9379891044
 20
4.8076563945
 10
3.9375681041
 20
4.8072561158
 10
3.9371462545
 20
4.8068453326
 10
3.9367233002
 20
4.8064233802
 10
3.9363000355
 20
4.8059906243
 10
3.9358785303
 20
4.8055488328
 10
3.9354587521
 20
4.8050976763
 10
3.9350411601
 20
4.8046373461
 10
3.934628394
 20
4.8041705582
 10
3.9342206955
 20
4.8036974999
 10
3.9338180435
 20
4.8032180595
 10
3.9334224892
 20
4.8027346766
 10
3.9330347648
 20
4.8022483708
 10
3.9326541533
 20
4.8017583695
 10
3.9322804498
 20
4.8012644899
 10
3.9319138767
 20
4.8007671071
 10
3.9315542545
 20
4.8002660601
 10
3.9312008269
 20
4.7997603236
 10
3.9308534142
 20
4.7992496098
 10
3.9305123317
 20
4.7987343509
 10
3.930177608
 20
4.7982145711
 10
3.9298492303
 20
4.7976902239
 10
3.9295273398
 20
4.7971615076
 10
3.9292121847
 20
4.7966288207
 10
3.9289038703
 20
4.7960923502
 10
3.9286023841
 20
4.7955520835
 10
3.9283077829
 20
4.7950081281
 10
3.9280201297
 20
4.7944606087
 10
3.9277394478
 20
4.793909578
 10
3.9274657353
 20
4.7933550354
 10
3.9271990235
 20
4.7927970414
 10
3.9269393688
 20
4.7922357118
 10
3.9266868098
 20
4.7916711279
 10
3.9264413829
 20
4.7911033686
 10
3.926203133
 20
4.7905325345
 10
3.9259721082
 20
4.7899587405
 10
3.925748348
 20
4.7893820846
 10
3.9255318852
 20
4.7888026522
 10
3.9253227558
 20
4.78822054
 10
3.9251209938
 20
4.7876358438
 10
3.92492663
 20
4.7870486539
 10
3.9247396939
 20
4.7864590596
 10
3.924560215
 20
4.7858671544
 10
3.9243882219
 20
4.785273033
 10
3.924223741
 20
4.7846767863
 10
3.9240667981
 20
4.7840785079
 10
3.9239174188
 20
4.7834782945
 10
3.9237756269
 20
4.7828762417
 10
3.9236414449
 20
4.7822724449
 10
3.9235148944
 20
4.7816670009
 10
3.9233959959
 20
4.7810600072
 10
3.9232847684
 20
4.7804515609
 10
3.9231812295
 20
4.7798417585
 10
3.9230853959
 20
4.7792306984
 10
3.922997283
 20
4.7786184783
 10
3.9229169047
 20
4.7780051952
 10
3.9228442737
 20
4.7773909469
 10
3.9227794016
 20
4.7767758311
 10
3.9227222988
 20
4.7761599459
 10
3.9226729743
 20
4.775543389
 10
3.9226314359
 20
4.7749262586
 10
3.9225976902
 20
4.774308653
 10
3.9225717427
 20
4.7736906702
 10
3.9225535975
 20
4.7730724086
 10
3.9225432575
 20
4.7724539667
 10
3.922540604
 20
4.7719440184
  0
LINE
  5
283
100
AcDbEntity
  8
0
100
AcDbLine
 62
7
  6
CONTINUOUS
 10
3.9660967138
 20
4.8206426224
 11
3.9656731005
 21
4.8205933851
  0
LINE
  5
284
100
AcDbEntity
  8
0
100
AcDbLine
 62
7
  6
CONTINUOUS
 10
4.2521968841
 20
5.0125690184
 11
4.3300718502
 21
5.0125690184
  0
LINE
  5
285
100
AcDbEntity
  8
0
100
AcDbLine
 62
7
  6
CONTINUOUS
 10
5.4829718841
 20
5.0125690184
 11
5.5608468502
 21
5.0125690184
  0
LINE
  5
286
100
AcDbEntity
  8
0
100
AcDbLine
 62
7
  6
CONTINUOUS
 10
6.0740343671
 20
4.7238190184
 11
6.0740343671
 21
4.8200690184
  0
LINE
  5
287
100
AcDbEntity
  8
0
100
AcDbLine
 62
7
  6
CONTINUOUS
 10
6.2656768669
 20
4.684495685
 11
6.2626012599
 21
4.6753782006
  0
LINE
  5
288
100
AcDbEntity
  8
0
100
AcDbLine
 62
7
  6
CONTINUOUS
 10
6.2359093671
 20
4.6907889022
 11
6.2331742264
 21
4.683120095
  0
LINE
  5
289
100
AcDbEntity
  8
0
100
AcDbLine
 62
7
  6
CONTINUOUS
 10
6.2360531169
 20
4.6916879648
 11
6.2359093671
 21
4.6907889022
  0
LINE
  5
28A
100
AcDbEntity
  8
0
100
AcDbLine
 62
7
  6
CONTINUOUS
 10
6.2954810137
 20
4.6879665303
 11
6.2953918673
 21
4.68744965
  0
LINE
  5
28B
100
AcDbEntity
  8
0
100
AcDbLine
 62
7
  6
CONTINUOUS
 10
6.2656974595
 20
4.6845999987
 11
6.2656768669
 21
4.684495685
  0
LINE
  5
28C
100
AcDbEntity
  8
0
100
AcDbLine
 62
7
  6
CONTINUOUS
 10
6.3251593671
 20
4.7006546313
 11
6.3220654425
 21
4.688817039
  0
LINE
  5
28D
100
AcDbEntity
  8
0
100
AcDbLine
 62
7
  6
CONTINUOUS
 10
6.2953918673
 20
4.68744965
 11
6.2922357398
 21
4.6770284297
  0
LINE
  5
28E
100
AcDbEntity
  8
0
100
AcDbLine
 62
7
  6
CONTINUOUS
 10
6.3575520421
 20
4.7141940184
 11
6.3619205803
 21
4.7112822537
  0
LINE
  5
28F
100
AcDbEntity
  8
0
100
AcDbLine
 62
7
  6
CONTINUOUS
 10
6.2163726988
 20
4.7035204813
 11
6.2166593671
 21
4.7006546313
  0
LINE
  5
290
100
AcDbEntity
  8
0
100
AcDbLine
 62
7
  6
CONTINUOUS
 10
6.3254460354
 20
4.7035204813
 11
6.3251593671
 21
4.7006546313
  0
LINE
  5
291
100
AcDbEntity
  8
0
100
AcDbLine
 62
7
  6
CONTINUOUS
 10
5.7244718671
 20
5.3275690184
 11
5.3193468671
 21
5.3275690184
  0
LINE
  5
292
100
AcDbEntity
  8
0
100
AcDbLine
 62
7
  6
CONTINUOUS
 10
4.4936968671
 20
5.3275690184
 11
4.0885718671
 21
5.3275690184
  0
LINE
  5
293
100
AcDbEntity
  8
0
100
AcDbLine
 62
7
  6
CONTINUOUS
 10
5.7297218671
 20
5.3328190184
 11
5.3140968671
 21
5.3328190184
  0
LINE
  5
294
100
AcDbEntity
  8
0
100
AcDbLine
 62
7
  6
CONTINUOUS
 10
4.4989468671
 20
5.3328190184
 11
4.0833218671
 21
5.3328190184
  0
LINE
  5
295
100
AcDbEntity
  8
0
100
AcDbLine
 62
7
  6
CONTINUOUS
 10
4.0833218671
 20
5.4019440184
 11
4.4989468671
 21
5.4019440184
  0
LINE
  5
296
100
AcDbEntity
  8
0
100
AcDbLine
 62
7
  6
CONTINUOUS
 10
5.3140968671
 20
5.4019440184
 11
5.7297218671
 21
5.4019440184
  0
LINE
  5
297
100
AcDbEntity
  8
0
100
AcDbLine
 62
7
  6
CONTINUOUS
 10
6.1784811768
 20
4.7134614341
 11
6.1785328043
 21
4.7133815036
  0
LINE
  5
298
100
AcDbEntity
  8
0
100
AcDbLine
 62
7
  6
CONTINUOUS
 10
6.1785281529
 20
4.7133887691
 11
6.17853462
 21
4.7133786848
  0
LINE
  5
299
100
AcDbEntity
  8
0
100
AcDbLine
 62
7
  6
CONTINUOUS
 10
6.2464268669
 20
4.68744965
 11
6.2495829945
 21
4.6770284297
  0
LINE
  5
29A
100
AcDbEntity
  8
0
100
AcDbLine
 62
7
  6
CONTINUOUS
 10
6.2166593671
 20
4.7006546313
 11
6.2197532917
 21
4.6888170389
  0
LINE
  5
29B
100
AcDbEntity
  8
0
100
AcDbLine
 62
7
  6
CONTINUOUS
 10
6.2761212748
 20
4.6845999987
 11
6.2761418673
 21
4.684495685
  0
LINE
  5
29C
100
AcDbEntity
  8
0
100
AcDbLine
 62
7
  6
CONTINUOUS
 10
6.2463377205
 20
4.6879665303
 11
6.2464268669
 21
4.68744965
  0
LINE
  5
29D
100
AcDbEntity
  8
0
100
AcDbLine
 62
7
  6
CONTINUOUS
 10
6.3575520421
 20
4.8296940184
 11
6.3575520421
 21
4.8244440184
  0
LINE
  5
29E
100
AcDbEntity
  8
0
100
AcDbLine
 62
7
  6
CONTINUOUS
 10
6.3575520421
 20
4.7194440184
 11
6.3575520421
 21
4.7141940184
  0
LINE
  5
29F
100
AcDbEntity
  8
0
100
AcDbLine
 62
7
  6
CONTINUOUS
 10
6.3059093671
 20
4.6907889022
 11
6.3086445079
 21
4.6831200948
  0
LINE
  5
2A0
100
AcDbEntity
  8
0
100
AcDbLine
 62
7
  6
CONTINUOUS
 10
6.2761418673
 20
4.684495685
 11
6.2792174743
 21
4.6753782006
  0
LINE
  5
2A1
100
AcDbEntity
  8
0
100
AcDbLine
 62
7
  6
CONTINUOUS
 10
6.3057656174
 20
4.6916879648
 11
6.3059093671
 21
4.6907889022
  0
ARC
  5
2A2
100
AcDbEntity
  8
0
100
AcDbCircle
 62
7
  6
CONTINUOUS
 10
4.9065218671
 20
3.1969440184
 40
0.0875
100
AcDbArc
 50
180.0
 51
360.0
  0
ARC
  5
2A3
100
AcDbEntity
  8
0
100
AcDbCircle
 62
7
  6
CONTINUOUS
 10
4.9065218671
 20
4.7719440184
 40
0.109375
100
AcDbArc
 50
323.1315822431
 51
216.869862756
  0
ARC
  5
2A4
100
AcDbEntity
  8
0
100
AcDbCircle
 62
7
  6
CONTINUOUS
 10
4.2911343671
 20
4.7719440184
 40
0.109375
100
AcDbArc
 50
20.8551894754
 51
69.1448105246
  0
ARC
  5
2A5
100
AcDbEntity
  8
0
100
AcDbCircle
 62
7
  6
CONTINUOUS
 10
4.2911343671
 20
4.7719440184
 40
0.109375
100
AcDbArc
 50
110.8551894754
 51
159.1448105246
  0
ARC
  5
2A6
100
AcDbEntity
  8
0
100
AcDbCircle
 62
7
  6
CONTINUOUS
 10
4.2911343671
 20
4.7719440184
 40
0.109375
100
AcDbArc
 50
200.8551894754
 51
249.1448105246
  0
ARC
  5
2A7
100
AcDbEntity
  8
0
100
AcDbCircle
 62
7
  6
CONTINUOUS
 10
4.2911343671
 20
4.7719440184
 40
0.109375
100
AcDbArc
 50
290.8551894754
 51
339.1448105246
  0
ARC
  5
2A8
100
AcDbEntity
  8
0
100
AcDbCircle
 62
7
  6
CONTINUOUS
 10
4.2911343671
 20
4.7719440184
 40
0.104125
100
AcDbArc
 50
21.9598491293
 51
68.0403702874
  0
ARC
  5
2A9
100
AcDbEntity
  8
0
100
AcDbCircle
 62
7
  6
CONTINUOUS
 10
4.2911343671
 20
4.7719440184
 40
0.104125
100
AcDbArc
 50
111.9596297132
 51
158.0401508704
  0
ARC
  5
2AA
100
AcDbEntity
  8
0
100
AcDbCircle
 62
7
  6
CONTINUOUS
 10
4.2911343671
 20
4.7719440184
 40
0.104125
100
AcDbArc
 50
201.9598491293
 51
248.0403702874
  0
ARC
  5
2AB
100
AcDbEntity
  8
0
100
AcDbCircle
 62
7
  6
CONTINUOUS
 10
4.2911343671
 20
4.7719440184
 40
0.104125
100
AcDbArc
 50
291.9596297132
 51
338.0401508704
  0
ARC
  5
2AC
100
AcDbEntity
  8
0
100
AcDbCircle
 62
7
  6
CONTINUOUS
 10
4.9065218671
 20
4.7719440184
 40
0.104125
100
AcDbArc
 50
327.1768409039
 51
212.8231590798
  0
ARC
  5
2AD
100
AcDbEntity
  8
0
100
AcDbCircle
 62
7
  6
CONTINUOUS
 10
4.9065218671
 20
4.7719440184
 40
0.0875
100
AcDbArc
 50
0.0
 51
180.0
  0
CIRCLE
  5
2AE
100
AcDbEntity
  8
0
100
AcDbCircle
 62
7
  6
CONTINUOUS
 10
4.2911343671
 20
4.7719440184
 40
0.065625
  0
ARC
  5
2AF
100
AcDbEntity
  8
0
100
AcDbCircle
 62
7
  6
CONTINUOUS
 10
4.7883968671
 20
4.6450690184
 40
0.0175
100
AcDbArc
 50
0.0
 51
90.0000000004
  0
ARC
  5
2B0
100
AcDbEntity
  8
0
100
AcDbCircle
 62
7
  6
CONTINUOUS
 10
5.024646064
 20
4.6450697964
 40
0.017499881
100
AcDbArc
 50
89.9973704479
 51
180.0025474063
  0
ARC
  5
2B1
100
AcDbEntity
  8
0
100
AcDbCircle
 62
7
  6
CONTINUOUS
 10
4.0885718671
 20
5.3328190184
 40
0.00525
100
AcDbArc
 50
180.0
 51
270.0
  0
ARC
  5
2B2
100
AcDbEntity
  8
0
100
AcDbCircle
 62
7
  6
CONTINUOUS
 10
4.4936968671
 20
5.3328190184
 40
0.00525
100
AcDbArc
 50
270.0
 51
360.0
  0
ARC
  5
2B3
100
AcDbEntity
  8
0
100
AcDbCircle
 62
7
  6
CONTINUOUS
 10
5.5219093671
 20
4.7719440184
 40
0.109375
100
AcDbArc
 50
200.8549843235
 51
249.1448444044
  0
ARC
  5
2B4
100
AcDbEntity
  8
0
100
AcDbCircle
 62
7
  6
CONTINUOUS
 10
5.5219093671
 20
4.7719440184
 40
0.109375
100
AcDbArc
 50
290.8551555956
 51
339.1450156765
  0
ARC
  5
2B5
100
AcDbEntity
  8
0
100
AcDbCircle
 62
7
  6
CONTINUOUS
 10
5.5219093671
 20
4.7719440184
 40
0.109375
100
AcDbArc
 50
20.8549843235
 51
69.1448444044
  0
ARC
  5
2B6
100
AcDbEntity
  8
0
100
AcDbCircle
 62
7
  6
CONTINUOUS
 10
5.5219093671
 20
4.7719440184
 40
0.109375
100
AcDbArc
 50
110.8551555956
 51
159.1450156765
  0
ARC
  5
2B7
100
AcDbEntity
  8
0
100
AcDbCircle
 62
7
  6
CONTINUOUS
 10
5.5219093671
 20
4.7719440184
 40
0.104125
100
AcDbArc
 50
201.9598587709
 51
248.0401805044
  0
ARC
  5
2B8
100
AcDbEntity
  8
0
100
AcDbCircle
 62
7
  6
CONTINUOUS
 10
5.5219093671
 20
4.7719440184
 40
0.104125
100
AcDbArc
 50
291.9598194961
 51
338.0401412295
  0
ARC
  5
2B9
100
AcDbEntity
  8
0
100
AcDbCircle
 62
7
  6
CONTINUOUS
 10
5.5219093671
 20
4.7719440184
 40
0.104125
100
AcDbArc
 50
21.9598587709
 51
68.0401805044
  0
ARC
  5
2BA
100
AcDbEntity
  8
0
100
AcDbCircle
 62
7
  6
CONTINUOUS
 10
5.5219093671
 20
4.7719440184
 40
0.104125
100
AcDbArc
 50
111.9598194961
 51
158.0401412295
  0
CIRCLE
  5
2BB
100
AcDbEntity
  8
0
100
AcDbCircle
 62
7
  6
CONTINUOUS
 10
5.5219093671
 20
4.7719440184
 40
0.065625
  0
ARC
  5
2BC
100
AcDbEntity
  8
0
100
AcDbCircle
 62
7
  6
CONTINUOUS
 10
5.3193468671
 20
5.3328190184
 40
0.00525
100
AcDbArc
 50
180.0
 51
270.0
  0
ARC
  5
2BD
100
AcDbEntity
  8
0
100
AcDbCircle
 62
7
  6
CONTINUOUS
 10
5.7244718671
 20
5.3328190184
 40
0.00525
100
AcDbArc
 50
270.0
 51
360.0
  0
ARC
  5
2BE
100
AcDbEntity
  8
0
100
AcDbCircle
 62
7
  6
CONTINUOUS
 10
6.1594026409
 20
4.7010690184
 40
0.02275
100
AcDbArc
 50
32.4405244247
 51
32.9881217488
  0
ARC
  5
2BF
100
AcDbEntity
  8
0
100
AcDbCircle
 62
7
  6
CONTINUOUS
 10
6.1594026409
 20
4.7010690184
 40
0.02275
100
AcDbArc
 50
33.0056387615
 51
90.0000000001
  0
ARC
  5
2C0
100
AcDbEntity
  8
0
100
AcDbCircle
 62
7
  6
CONTINUOUS
 10
6.2509228935
 20
4.6774342259
 40
0.0014
100
AcDbArc
 50
196.8492439121
 51
258.0525623664
  0
ARC
  5
2C1
100
AcDbEntity
  8
0
100
AcDbCircle
 62
7
  6
CONTINUOUS
 10
6.2318555853
 20
4.6835903987
 40
0.0014
100
AcDbArc
 50
246.1537673741
 51
340.3708257369
  0
ARC
  5
2C2
100
AcDbEntity
  8
0
100
AcDbCircle
 62
7
  6
CONTINUOUS
 10
6.2612747027
 20
4.675825689
 40
0.0014
100
AcDbArc
 50
264.2819240394
 51
341.3591723378
  0
ARC
  5
2C3
100
AcDbEntity
  8
0
100
AcDbCircle
 62
7
  6
CONTINUOUS
 10
6.2805440316
 20
4.675825689
 40
0.0014
100
AcDbArc
 50
198.6408276687
 51
275.724067847
  0
ARC
  5
2C4
100
AcDbEntity
  8
0
100
AcDbCircle
 62
7
  6
CONTINUOUS
 10
6.221107792
 20
4.6891710571
 40
0.0014
100
AcDbArc
 50
194.6474175538
 51
238.966159306
  0
ARC
  5
2C5
100
AcDbEntity
  8
0
100
AcDbCircle
 62
7
  6
CONTINUOUS
 10
6.1594026409
 20
4.8428190184
 40
0.02275
100
AcDbArc
 50
327.0118354466
 51
327.5594755753
  0
ARC
  5
2C6
100
AcDbEntity
  8
0
100
AcDbCircle
 62
7
  6
CONTINUOUS
 10
6.1594026409
 20
4.8428190184
 40
0.02275
100
AcDbArc
 50
269.9999999999
 51
326.994129045
  0
ARC
  5
2C7
100
AcDbEntity
  8
0
100
AcDbCircle
 62
7
  6
CONTINUOUS
 10
6.2709093671
 20
4.7719440184
 40
0.109375
100
AcDbArc
 50
33.6846726125
 51
326.3153273875
  0
ARC
  5
2C8
100
AcDbEntity
  8
0
100
AcDbCircle
 62
7
  6
CONTINUOUS
 10
6.2709093671
 20
4.7719440184
 40
0.104125
100
AcDbArc
 50
33.684672613
 51
326.3153273869
  0
ARC
  5
2C9
100
AcDbEntity
  8
0
100
AcDbCircle
 62
7
  6
CONTINUOUS
 10
6.2709094947
 20
4.7827948501
 40
0.0984383373
100
AcDbArc
 50
255.5987928153
 51
266.9529263764
  0
ARC
  5
2CA
100
AcDbEntity
  8
0
100
AcDbCircle
 62
7
  6
CONTINUOUS
 10
6.2709092395
 20
4.7827948501
 40
0.0984383373
100
AcDbArc
 50
273.0470736236
 51
284.4012071847
  0
ARC
  5
2CB
100
AcDbEntity
  8
0
100
AcDbCircle
 62
7
  6
CONTINUOUS
 10
6.2709093731
 20
4.782794085
 40
0.098437557
100
AcDbArc
 50
236.5567451768
 51
249.1725135872
  0
ARC
  5
2CC
100
AcDbEntity
  8
0
100
AcDbCircle
 62
7
  6
CONTINUOUS
 10
6.2709093611
 20
4.782794085
 40
0.098437557
100
AcDbArc
 50
290.8274864128
 51
303.4432548232
  0
ARC
  5
2CD
100
AcDbEntity
  8
0
100
AcDbCircle
 62
7
  6
CONTINUOUS
 10
6.2709093671
 20
4.7719440184
 40
0.098
100
AcDbArc
 50
293.8462325994
 51
301.0338407167
  0
ARC
  5
2CE
100
AcDbEntity
  8
0
100
AcDbCircle
 62
7
  6
CONTINUOUS
 10
6.2709093671
 20
4.7719440184
 40
0.098
100
AcDbArc
 50
275.7240678469
 51
281.9407056562
  0
ARC
  5
2CF
100
AcDbEntity
  8
0
100
AcDbCircle
 62
7
  6
CONTINUOUS
 10
6.2709093671
 20
4.7719440184
 40
0.098
100
AcDbArc
 50
258.0592943438
 51
264.2759321531
  0
ARC
  5
2D0
100
AcDbEntity
  8
0
100
AcDbCircle
 62
7
  6
CONTINUOUS
 10
6.2709093671
 20
4.7719440184
 40
0.098
100
AcDbArc
 50
238.9661592833
 51
246.1537674006
  0
CIRCLE
  5
2D1
100
AcDbEntity
  8
0
100
AcDbCircle
 62
7
  6
CONTINUOUS
 10
6.2709093671
 20
4.7719440184
 40
0.0875
  0
ARC
  5
2D2
100
AcDbEntity
  8
0
100
AcDbCircle
 62
7
  6
CONTINUOUS
 10
6.2908958407
 20
4.6774342259
 40
0.0014
100
AcDbArc
 50
281.9469902609
 51
343.1507561468
  0
ARC
  5
2D3
100
AcDbEntity
  8
0
100
AcDbCircle
 62
7
  6
CONTINUOUS
 10
6.309963149
 20
4.6835903987
 40
0.0014
100
AcDbArc
 50
199.629173168
 51
293.846232633
  0
ARC
  5
2D4
100
AcDbEntity
  8
0
100
AcDbCircle
 62
7
  6
CONTINUOUS
 10
6.3207109422
 20
4.6891710571
 40
0.0014
100
AcDbArc
 50
301.0338407131
 51
345.3525838163
  0
ARC
  5
2D5
100
AcDbEntity
  8
0
100
AcDbCircle
 62
7
  6
CONTINUOUS
 10
6.3575520421
 20
4.7141940184
 40
0.00525
100
AcDbArc
 50
326.3153273875
 51
90.0
  0
ARC
  5
2D6
100
AcDbEntity
  8
0
100
AcDbCircle
 62
7
  6
CONTINUOUS
 10
6.4021051407
 20
4.7719440184
 40
0.049
100
AcDbArc
 50
270.0
 51
90.0
  0
ARC
  5
2D7
100
AcDbEntity
  8
0
100
AcDbCircle
 62
7
  6
CONTINUOUS
 10
6.400202572
 20
4.7722429909
 40
0.0487010273
100
AcDbArc
 50
87.7627562377
 51
89.9998889626
  0
ARC
  5
2D8
100
AcDbEntity
  8
0
100
AcDbCircle
 62
7
  6
CONTINUOUS
 10
6.3575520421
 20
4.8296940184
 40
0.00525
100
AcDbArc
 50
270.0
 51
33.6846726125
  0
SPLINE
  5
2D9
100
AcDbEntity
  8
0
100
AcDbSpline
 62
7
  6
CONTINUOUS
 70
0
 71
3
 72
30
 73
26
 74
0
 42
0.0000001
 43
0.0000001
 44
0.0000000001
 40
0.0
 40
0.0
 40
0.0
 40
0.0
 40
0.1077521406
 40
0.2101877141
 40
0.307047573
 40
0.3980917501
 40
0.4831012626
 40
0.5618806313
 40
0.6342609793
 40
0.7001045076
 40
0.75931133
 40
0.7864098012
 40
0.8118349484
 40
0.8355910097
 40
0.8576882794
 40
0.8781446866
 40
0.8969878718
 40
0.9142582383
 40
0.9300132867
 40
0.9443335362
 40
0.9573307286
 40
0.9691584071
 40
0.9800234672
 40
0.990194653
 40
1.0
 40
1.0
 40
1.0
 40
1.0
 10
5.865839337
 20
4.804756861
 30
0.0
 10
5.8659132933
 20
4.8053767037
 30
0.0
 10
5.8660648407
 20
4.8065849541
 30
0.0
 10
5.8663101515
 20
4.8083468312
 30
0.0
 10
5.8665672121
 20
4.8100091654
 30
0.0
 10
5.8668352963
 20
4.8115674246
 30
0.0
 10
5.8671136418
 20
4.8130173758
 30
0.0
 10
5.8674014524
 20
4.81435509
 30
0.0
 10
5.8676978889
 20
4.8155769816
 30
0.0
 10
5.8680021039
 20
4.8166797666
 30
0.0
 10
5.8682686083
 20
4.8175202765
 30
0.0
 10
5.8684868424
 20
4.8181297342
 30
0.0
 10
5.8686471033
 20
4.8185416276
 30
0.0
 10
5.8688087008
 20
4.818921713
 30
0.0
 10
5.8689715331
 20
4.8192697499
 30
0.0
 10
5.8691354933
 20
4.819585528
 30
0.0
 10
5.8693004842
 20
4.8198688664
 30
0.0
 10
5.8694664228
 20
4.820119616
 30
0.0
 10
5.8696332506
 20
4.8203376582
 30
0.0
 10
5.8698009499
 20
4.8205228962
 30
0.0
 10
5.8699695687
 20
4.8206752284
 30
0.0
 10
5.8701392137
 20
4.8207944932
 30
0.0
 10
5.8703100526
 20
4.8208803748
 30
0.0
 10
5.870482
 20
4.820932335
 30
0.0
 10
5.8705980312
 20
4.8209440181
 30
0.0
 10
5.8706548364
 20
4.8209440181
 30
0.0
  0
SPLINE
  5
2DA
100
AcDbEntity
  8
0
100
AcDbSpline
 62
7
  6
CONTINUOUS
 70
0
 71
3
 72
31
 73
27
 74
0
 42
0.0000001
 43
0.0000001
 44
0.0000000001
 40
0.0
 40
0.0
 40
0.0
 40
0.0
 40
0.0313033076
 40
0.0626060083
 40
0.0939078716
 40
0.1252083364
 40
0.1877846258
 40
0.2503503425
 40
0.281637699
 40
0.3129213712
 40
0.34420108
 40
0.3754765844
 40
0.4379954184
 40
0.5004955696
 40
0.5629766658
 40
0.6254390679
 40
0.6566730009
 40
0.6879027232
 40
0.7191284753
 40
0.7503505358
 40
0.8127659775
 40
0.8751708192
 40
0.9063797378
 40
0.9375872694
 40
0.9687938689
 40
1.0
 40
1.0
 40
1.0
 40
1.0
 10
6.4490504684
 20
4.7719440184
 30
0.0
 10
6.4490504684
 20
4.7711423382
 30
0.0
 10
6.4490112266
 20
4.7695387137
 30
0.0
 10
6.4488347845
 20
4.7671393024
 30
0.0
 10
6.4485411713
 20
4.764751355
 30
0.0
 10
6.4479945958
 20
4.7615913786
 30
0.0
 10
6.4470224082
 20
4.7576975788
 30
0.0
 10
6.4456741405
 20
4.7539178553
 30
0.0
 10
6.4443783618
 20
4.7509855624
 30
0.0
 10
6.4432999613
 20
4.7488364337
 30
0.0
 10
6.4421177126
 20
4.746742978
 30
0.0
 10
6.4404073099
 20
4.7440334602
 30
0.0
 10
6.4380236236
 20
4.7408092086
 30
0.0
 10
6.4347993129
 20
4.7372406177
 30
0.0
 10
6.4312418834
 20
4.7340061363
 30
0.0
 10
6.4280271987
 20
4.7316145457
 30
0.0
 10
6.4253257075
 20
4.7298985414
 30
0.0
 10
6.4232387457
 20
4.728712587
 30
0.0
 10
6.4210962795
 20
4.7276308031
 30
0.0
 10
6.4181733832
 20
4.7263310953
 30
0.0
 10
6.4144056383
 20
4.7249786298
 30
0.0
 10
6.4105234894
 20
4.7240032444
 30
0.0
 10
6.4073730946
 20
4.7234549183
 30
0.0
 10
6.4049925283
 20
4.72316038
 30
0.0
 10
6.4026005351
 20
4.7229833842
 30
0.0
 10
6.4010018579
 20
4.7229440187
 30
0.0
 10
6.4002026664
 20
4.7229440187
 30
0.0
  0
SPLINE
  5
2DB
100
AcDbEntity
  8
0
100
AcDbSpline
 62
7
  6
CONTINUOUS
 70
0
 71
3
 72
61
 73
57
 74
0
 42
0.0000001
 43
0.0000001
 44
0.0000000001
 40
0.0
 40
0.0
 40
0.0
 40
0.0
 40
0.0001598038
 40
0.0003591372
 40
0.0006378959
 40
0.0014331086
 40
0.0025445266
 40
0.0039715512
 40
0.0057134779
 40
0.0101354211
 40
0.0157941659
 40
0.0226694217
 40
0.0307369934
 40
0.0399678552
 40
0.0503300218
 40
0.0617912343
 40
0.087852269
 40
0.1178099546
 40
0.1512896465
 40
0.1879057277
 40
0.2272525315
 40
0.3124321901
 40
0.4035397377
 40
0.4974442926
 40
0.5445149319
 40
0.5911903184
 40
0.6371231257
 40
0.6819671536
 40
0.725378405
 40
0.7670052242
 40
0.8064806613
 40
0.8434202807
 40
0.8774292986
 40
0.9081008336
 40
0.92205356
 40
0.9350155558
 40
0.9469349577
 40
0.9577590742
 40
0.9674426036
 40
0.9759392289
 40
0.9832046224
 40
0.9863654702
 40
0.9892059622
 40
0.9917214449
 40
0.9939080865
 40
0.9957630573
 40
0.9972838397
 40
0.997918479
 40
0.9984691266
 40
0.9989356646
 40
0.9993179576
 40
0.9996157849
 40
0.9998288992
 40
0.9999036118
 40
0.9999570533
 40
1.0
 40
1.0
 40
1.0
 40
1.0
 10
6.2331742264
 20
4.683120095
 30
0.0
 10
6.2331735202
 20
4.6831204199
 30
0.0
 10
6.2331718204
 20
4.6831208682
 30
0.0
 10
6.2331689079
 20
4.6831219313
 30
0.0
 10
6.2331630331
 20
4.6831239004
 30
0.0
 10
6.2331529846
 20
4.6831273669
 30
0.0
 10
6.2331376372
 20
4.6831326072
 30
0.0
 10
6.2331179397
 20
4.683139357
 30
0.0
 10
6.2330830034
 20
4.683151316
 30
0.0
 10
6.2330285994
 20
4.6831699654
 30
0.0
 10
6.232950595
 20
4.6831967756
 30
0.0
 10
6.2328558447
 20
4.6832294243
 30
0.0
 10
6.2327447044
 20
4.6832678466
 30
0.0
 10
6.2326175815
 20
4.6833119517
 30
0.0
 10
6.2324749212
 20
4.683361638
 30
0.0
 10
6.2322550549
 20
4.6834385682
 30
0.0
 10
6.231945531
 20
4.6835478848
 30
0.0
 10
6.2315355027
 20
4.6836942571
 30
0.0
 10
6.2310778354
 20
4.6838598912
 30
0.0
 10
6.2305780842
 20
4.6840434386
 30
0.0
 10
6.2298435987
 20
4.6843173309
 30
0.0
 10
6.2288644539
 20
4.6846937079
 30
0.0
 10
6.2276430165
 20
4.6851792335
 30
0.0
 10
6.2266001185
 20
4.6856117378
 30
0.0
 10
6.2257605005
 20
4.6859699592
 30
0.0
 10
6.225137448
 20
4.6862410709
 30
0.0
 10
6.2245262596
 20
4.6865122554
 30
0.0
 10
6.2239314433
 20
4.6867811498
 30
0.0
 10
6.22335764
 20
4.6870456331
 30
0.0
 10
6.2228091956
 20
4.6873027124
 30
0.0
 10
6.2222907741
 20
4.6875496407
 30
0.0
 10
6.2218072187
 20
4.6877835706
 30
0.0
 10
6.2213634763
 20
4.6880014337
 30
0.0
 10
6.2210209592
 20
4.6881717327
 30
0.0
 10
6.220770548
 20
4.6882973038
 30
0.0
 10
6.2206018817
 20
4.6883823865
 30
0.0
 10
6.2204469586
 20
4.6884609207
 30
0.0
 10
6.2203063791
 20
4.6885324772
 30
0.0
 10
6.2201807539
 20
4.6885967077
 30
0.0
 10
6.2200706252
 20
4.6886532187
 30
0.0
 10
6.21998875
 20
4.6886952891
 30
0.0
 10
6.2199313921
 20
4.6887248707
 30
0.0
 10
6.2198945848
 20
4.6887438895
 30
0.0
 10
6.2198619928
 20
4.6887607426
 30
0.0
 10
6.2198336594
 20
4.6887753939
 30
0.0
 10
6.2198096264
 20
4.6887878269
 30
0.0
 10
6.2197923025
 20
4.6887967977
 30
0.0
 10
6.2197806147
 20
4.6888028544
 30
0.0
 10
6.2197734817
 20
4.6888065537
 30
0.0
 10
6.2197674373
 20
4.6888096871
 30
0.0
 10
6.2197624901
 20
4.6888122612
 30
0.0
 10
6.2197586244
 20
4.6888142525
 30
0.0
 10
6.2197561163
 20
4.6888155898
 30
0.0
 10
6.2197546169
 20
4.6888163243
 30
0.0
 10
6.2197539255
 20
4.6888167643
 30
0.0
 10
6.2197534187
 20
4.6888168732
 30
0.0
 10
6.2197532917
 20
4.6888170391
 30
0.0
  0
SPLINE
  5
2DC
100
AcDbEntity
  8
0
100
AcDbSpline
 62
7
  6
CONTINUOUS
 70
0
 71
3
 72
78
 73
74
 74
0
 42
0.0000001
 43
0.0000001
 44
0.0000000001
 40
0.0
 40
0.0
 40
0.0
 40
0.0
 40
0.0000090769
 40
0.0000363605
 40
0.0000819362
 40
0.000145889
 40
0.0002283043
 40
0.0003292671
 40
0.0005871761
 40
0.0009202977
 40
0.0013293109
 40
0.0018146536
 40
0.0023763239
 40
0.0037284526
 40
0.0053852784
 40
0.0073446121
 40
0.0096015266
 40
0.0121509406
 40
0.0149896827
 40
0.0181165193
 40
0.0215303246
 40
0.0292156924
 40
0.0380386074
 40
0.0479809972
 40
0.0590135409
 40
0.071101189
 40
0.0842163167
 40
0.0983320936
 40
0.113419356
 40
0.1463713183
 40
0.1827471302
 40
0.2221511913
 40
0.264189195
 40
0.3084753196
 40
0.3546037742
 40
0.4021152072
 40
0.4505463742
 40
0.4994343458
 40
0.5483083224
 40
0.5967076604
 40
0.6441893668
 40
0.6903040159
 40
0.7345969092
 40
0.77665321
 40
0.8160830089
 40
0.8525001399
 40
0.8855323113
 40
0.9006879585
 40
0.914893088
 40
0.9281142039
 40
0.9403167387
 40
0.9514637161
 40
0.9615126251
 40
0.9704310515
 40
0.9782026834
 40
0.9848195624
 40
0.9876922886
 40
0.9902726971
 40
0.9925576556
 40
0.994541943
 40
0.9962204001
 40
0.9975905286
 40
0.9981598062
 40
0.998651815
 40
0.9990665336
 40
0.999404359
 40
0.9996659527
 40
0.9997683707
 40
0.9998519804
 40
0.999916865
 40
0.9999631076
 40
0.9999907916
 40
1.0
 40
1.0
 40
1.0
 40
1.0
 10
6.2626012599
 20
4.6753782006
 30
0.0
 10
6.2626012447
 20
4.6753781639
 30
0.0
 10
6.2626010266
 20
4.675378273
 30
0.0
 10
6.2626007267
 20
4.675378207
 30
0.0
 10
6.2626000969
 20
4.6753783069
 30
0.0
 10
6.2625992741
 20
4.6753783481
 30
0.0
 10
6.2625981894
 20
4.6753784412
 30
0.0
 10
6.2625962669
 20
4.6753785866
 30
0.0
 10
6.2625932462
 20
4.6753788247
 30
0.0
 10
6.2625888842
 20
4.6753791637
 30
0.0
 10
6.2625835289
 20
4.6753795824
 30
0.0
 10
6.2625771771
 20
4.6753800792
 30
0.0
 10
6.2625667108
 20
4.6753809002
 30
0.0
 10
6.2625511346
 20
4.6753821274
 30
0.0
 10
6.2625294621
 20
4.6753838474
 30
0.0
 10
6.2625038439
 20
4.6753858938
 30
0.0
 10
6.2624743331
 20
4.6753882615
 30
0.0
 10
6.2624409872
 20
4.6753909456
 30
0.0
 10
6.2624038474
 20
4.6753939429
 30
0.0
 10
6.2623629381
 20
4.6753972521
 30
0.0
 10
6.2623008905
 20
4.6754022812
 30
0.0
 10
6.2622140007
 20
4.675409344
 30
0.0
 10
6.2620986381
 20
4.6754187411
 30
0.0
 10
6.2619686907
 20
4.6754294936
 30
0.0
 10
6.2618245236
 20
4.675441635
 30
0.0
 10
6.2616665359
 20
4.6754551064
 30
0.0
 10
6.2614951198
 20
4.6754698935
 30
0.0
 10
6.2613106438
 20
4.6754860113
 30
0.0
 10
6.2610397233
 20
4.6755100172
 30
0.0
 10
6.2606718261
 20
4.6755431887
 30
0.0
 10
6.2601981268
 20
4.6755878207
 30
0.0
 10
6.2596850194
 20
4.6756380129
 30
0.0
 10
6.259137665
 20
4.6756936132
 30
0.0
 10
6.2585612666
 20
4.6757544152
 30
0.0
 10
6.257961312
 20
4.6758201752
 30
0.0
 10
6.2573436418
 20
4.6758907253
 30
0.0
 10
6.256714305
 20
4.6759654822
 30
0.0
 10
6.2560793789
 20
4.6760436819
 30
0.0
 10
6.2554449725
 20
4.6761249088
 30
0.0
 10
6.2548171208
 20
4.6762088032
 30
0.0
 10
6.2542016571
 20
4.6762941707
 30
0.0
 10
6.2536042857
 20
4.6763791586
 30
0.0
 10
6.2530308315
 20
4.6764636607
 30
0.0
 10
6.2524867072
 20
4.676546498
 30
0.0
 10
6.251976946
 20
4.6766260416
 30
0.0
 10
6.2515064558
 20
4.6767011104
 30
0.0
 10
6.2511410654
 20
4.6767607215
 30
0.0
 10
6.2508717565
 20
4.6768056048
 30
0.0
 10
6.2506880139
 20
4.6768365653
 30
0.0
 10
6.2505170598
 20
4.6768656487
 30
0.0
 10
6.250359333
 20
4.6768926915
 30
0.0
 10
6.2502153122
 20
4.6769175302
 30
0.0
 10
6.2500854667
 20
4.6769400053
 30
0.0
 10
6.2499701888
 20
4.6769600412
 30
0.0
 10
6.249869739
 20
4.676977688
 30
0.0
 10
6.2497953569
 20
4.6769908229
 30
0.0
 10
6.2497433465
 20
4.6770000169
 30
0.0
 10
6.2497100028
 20
4.6770059125
 30
0.0
 10
6.2496804872
 20
4.6770111297
 30
0.0
 10
6.2496548583
 20
4.6770156604
 30
0.0
 10
6.2496331716
 20
4.6770194957
 30
0.0
 10
6.2496175828
 20
4.6770222557
 30
0.0
 10
6.2496071068
 20
4.6770241144
 30
0.0
 10
6.2496007479
 20
4.677025245
 30
0.0
 10
6.2495953858
 20
4.6770262009
 30
0.0
 10
6.2495910195
 20
4.6770269837
 30
0.0
 10
6.2495879921
 20
4.6770275249
 30
0.0
 10
6.2495860715
 20
4.6770278751
 30
0.0
 10
6.2495849763
 20
4.6770280642
 30
0.0
 10
6.2495841756
 20
4.6770282311
 30
0.0
 10
6.2495834926
 20
4.6770283051
 30
0.0
 10
6.2495832838
 20
4.6770284302
 30
0.0
 10
6.2495829709
 20
4.677028397
 30
0.0
 10
6.2495829945
 20
4.6770284297
 30
0.0
  0
SPLINE
  5
2DD
100
AcDbEntity
  8
0
100
AcDbSpline
 62
7
  6
CONTINUOUS
 70
0
 71
3
 72
72
 73
68
 74
0
 42
0.0000001
 43
0.0000001
 44
0.0000000001
 40
0.0
 40
0.0
 40
0.0
 40
0.0
 40
0.0000092271
 40
0.0000369266
 40
0.0000831818
 40
0.0001480762
 40
0.000334115
 40
0.0005957096
 40
0.0009335264
 40
0.0013482276
 40
0.0018402101
 40
0.0024094578
 40
0.0037795409
 40
0.0054580125
 40
0.0074423766
 40
0.0097274203
 40
0.0123078698
 40
0.0151805783
 40
0.0217972801
 40
0.0295687666
 40
0.0384873613
 40
0.0485363799
 40
0.0596832765
 40
0.0718858014
 40
0.0851069661
 40
0.0993121737
 40
0.1144677692
 40
0.1474996683
 40
0.1839170814
 40
0.2233470698
 40
0.2654033157
 40
0.3096952999
 40
0.3558114912
 40
0.403292597
 40
0.5005655764
 40
0.5978850471
 40
0.6453964755
 40
0.6915242344
 40
0.7358105068
 40
0.7778490591
 40
0.8172527098
 40
0.8536285689
 40
0.8865806269
 40
0.9157836824
 40
0.9288987886
 40
0.9409863844
 40
0.9520190099
 40
0.9619614187
 40
0.9707842792
 40
0.9784696831
 40
0.9850103152
 40
0.9878490376
 40
0.9903984464
 40
0.9926553764
 40
0.9946147306
 40
0.9962715647
 40
0.9976236858
 40
0.9981853495
 40
0.9986706857
 40
0.9990796927
 40
0.9994128082
 40
0.9996707131
 40
0.9998540909
 40
0.9999180458
 40
0.9999636253
 40
0.9999909149
 40
1.0
 40
1.0
 40
1.0
 40
1.0
 10
6.2922357398
 20
4.6770284297
 30
0.0
 10
6.2922357174
 20
4.677028396
 30
0.0
 10
6.2922355162
 20
4.6770284309
 30
0.0
 10
6.2922351989
 20
4.6770283039
 30
0.0
 10
6.292234578
 20
4.6770282304
 30
0.0
 10
6.2922333125
 20
4.6770279772
 30
0.0
 10
6.2922310948
 20
4.677027595
 30
0.0
 10
6.2922277171
 20
4.6770269793
 30
0.0
 10
6.2922233469
 20
4.6770262004
 30
0.0
 10
6.2922179864
 20
4.6770252435
 30
0.0
 10
6.2922116273
 20
4.677024114
 30
0.0
 10
6.2922011517
 20
4.6770222563
 30
0.0
 10
6.2921855628
 20
4.6770194977
 30
0.0
 10
6.2921638761
 20
4.6770156619
 30
0.0
 10
6.2921382468
 20
4.6770111289
 30
0.0
 10
6.2921087307
 20
4.677005909
 30
0.0
 10
6.2920753868
 20
4.6770000122
 30
0.0
 10
6.292023377
 20
4.676990819
 30
0.0
 10
6.2919489955
 20
4.6769776897
 30
0.0
 10
6.2918485453
 20
4.6769600493
 30
0.0
 10
6.2917332684
 20
4.6769400042
 30
0.0
 10
6.2916034226
 20
4.6769175265
 30
0.0
 10
6.2914594009
 20
4.6768926925
 30
0.0
 10
6.2913016746
 20
4.6768656491
 30
0.0
 10
6.2911307203
 20
4.6768365646
 30
0.0
 10
6.2909469782
 20
4.6768055994
 30
0.0
 10
6.29067767
 20
4.6767607193
 30
0.0
 10
6.290312277
 20
4.6767011266
 30
0.0
 10
6.2898417893
 20
4.6766260388
 30
0.0
 10
6.2893320269
 20
4.6765464931
 30
0.0
 10
6.2887879115
 20
4.6764636198
 30
0.0
 10
6.288214425
 20
4.6763793243
 30
0.0
 10
6.2876171021
 20
4.6762939974
 30
0.0
 10
6.2867897575
 20
4.6761795373
 30
0.0
 10
6.2857394356
 20
4.6760419066
 30
0.0
 10
6.284687621
 20
4.6759151032
 30
0.0
 10
6.2838574105
 20
4.6758202565
 30
0.0
 10
6.2832574747
 20
4.6757543484
 30
0.0
 10
6.2826810738
 20
4.6756935712
 30
0.0
 10
6.2821337091
 20
4.6756380632
 30
0.0
 10
6.2816206081
 20
4.6755878021
 30
0.0
 10
6.2811469082
 20
4.6755431902
 30
0.0
 10
6.2807174919
 20
4.6755044657
 30
0.0
 10
6.2803893897
 20
4.6754755655
 30
0.0
 10
6.280152198
 20
4.6754551083
 30
0.0
 10
6.279994211
 20
4.6754416296
 30
0.0
 10
6.2798500431
 20
4.6754294957
 30
0.0
 10
6.2797200955
 20
4.6754187446
 30
0.0
 10
6.2796047336
 20
4.6754093412
 30
0.0
 10
6.279504206
 20
4.6754011736
 30
0.0
 10
6.2794297766
 20
4.6753951451
 30
0.0
 10
6.2793777473
 20
4.6753909444
 30
0.0
 10
6.2793444014
 20
4.6753882602
 30
0.0
 10
6.2793148904
 20
4.6753858934
 30
0.0
 10
6.279289272
 20
4.6753838481
 30
0.0
 10
6.2792675994
 20
4.6753821284
 30
0.0
 10
6.2792520232
 20
4.6753809006
 30
0.0
 10
6.2792415572
 20
4.6753800794
 30
0.0
 10
6.2792352052
 20
4.6753795818
 30
0.0
 10
6.2792298507
 20
4.6753791646
 30
0.0
 10
6.279225487
 20
4.675378821
 30
0.0
 10
6.279222111
 20
4.675378566
 30
0.0
 10
6.2792199017
 20
4.6753783778
 30
0.0
 10
6.2792186307
 20
4.6753783012
 30
0.0
 10
6.2792180225
 20
4.6753782181
 30
0.0
 10
6.2792176848
 20
4.6753782554
 30
0.0
 10
6.2792175055
 20
4.675378176
 30
0.0
 10
6.2792174743
 20
4.6753782006
 30
0.0
  0
SPLINE
  5
2DE
100
AcDbEntity
  8
0
100
AcDbSpline
 62
7
  6
CONTINUOUS
 70
0
 71
3
 72
31
 73
27
 74
0
 42
0.0000001
 43
0.0000001
 44
0.0000000001
 40
0.0
 40
0.0
 40
0.0
 40
0.0
 40
0.0312049928
 40
0.0624107904
 40
0.0936178279
 40
0.1248265288
 40
0.18723256
 40
0.2496498858
 40
0.2808725953
 40
0.3120990642
 40
0.3433295374
 40
0.3745642233
 40
0.437028946
 40
0.4995120409
 40
0.5620137038
 40
0.6245334527
 40
0.6558087103
 40
0.6870880077
 40
0.7183711061
 40
0.7496577319
 40
0.812222474
 40
0.8747973008
 40
0.9060964336
 40
0.9373969023
 40
0.968698159
 40
1.0
 40
1.0
 40
1.0
 40
1.0
 10
6.4021037309
 20
4.8209068959
 30
0.0
 10
6.4028825345
 20
4.8208764689
 30
0.0
 10
6.4044389616
 20
4.8207781936
 30
0.0
 10
6.4067636545
 20
4.8205189052
 30
0.0
 10
6.4090734185
 20
4.8201483022
 30
0.0
 10
6.412125412
 20
4.8195070556
 30
0.0
 10
6.4158779211
 20
4.8184317023
 30
0.0
 10
6.419510355
 20
4.8170013933
 30
0.0
 10
6.422323516
 20
4.8156526932
 30
0.0
 10
6.4243832887
 20
4.8145407712
 30
0.0
 10
6.4263876507
 20
4.8133312318
 30
0.0
 10
6.4289797602
 20
4.8115923826
 30
0.0
 10
6.4320599836
 20
4.8091881731
 30
0.0
 10
6.4354632885
 20
4.8059627545
 30
0.0
 10
6.4385436862
 20
4.8024258346
 30
0.0
 10
6.4408182939
 20
4.7992452222
 30
0.0
 10
6.4424492961
 20
4.7965797091
 30
0.0
 10
6.4435761379
 20
4.7945235595
 30
0.0
 10
6.444603583
 20
4.7924156724
 30
0.0
 10
6.4458376962
 20
4.7895431122
 30
0.0
 10
6.4471211198
 20
4.7858462127
 30
0.0
 10
6.4480461211
 20
4.7820434431
 30
0.0
 10
6.4485660668
 20
4.7789595368
 30
0.0
 10
6.4488453375
 20
4.7766299416
 30
0.0
 10
6.4490131479
 20
4.7742897131
 30
0.0
 10
6.4490504684
 20
4.7727258351
 30
0.0
 10
6.4490504684
 20
4.7719440184
 30
0.0
  0
SPLINE
  5
2DF
100
AcDbEntity
  8
0
100
AcDbSpline
 62
7
  6
CONTINUOUS
 70
0
 71
3
 72
26
 73
22
 74
0
 42
0.0000001
 43
0.0000001
 44
0.0000000001
 40
0.0
 40
0.0
 40
0.0
 40
0.0
 40
0.0676203343
 40
0.1013681359
 40
0.1350371462
 40
0.1686030408
 40
0.2020434167
 40
0.2353378089
 40
0.2684678397
 40
0.3341652479
 40
0.3990440573
 40
0.4630401106
 40
0.5261198755
 40
0.5882768247
 40
0.649524946
 40
0.7098918892
 40
0.7694147169
 40
0.8281385277
 40
0.8861116386
 40
0.9433820142
 40
1.0
 40
1.0
 40
1.0
 40
1.0
 10
5.0333968671
 20
4.7719440184
 30
0.0
 10
5.0333967869
 20
4.7698835194
 30
0.0
 10
5.0332943655
 20
4.7667934376
 30
0.0
 10
5.0329577198
 20
4.7626919655
 30
0.0
 10
5.0326069293
 20
4.7596343326
 30
0.0
 10
5.0321587105
 20
4.7565989858
 30
0.0
 10
5.0316145057
 20
4.7535909703
 30
0.0
 10
5.0309770853
 20
4.7506148931
 30
0.0
 10
5.03001023
 20
4.7467061981
 30
0.0
 10
5.0285875583
 20
4.7419213634
 30
0.0
 10
5.0265525436
 20
4.7363488934
 30
0.0
 10
5.0242229623
 20
4.7309800337
 30
0.0
 10
5.0216277176
 20
4.7258274487
 30
0.0
 10
5.0187923864
 20
4.7208995876
 30
0.0
 10
5.0157412946
 20
4.7162008547
 30
0.0
 10
5.0124979998
 20
4.7117317567
 30
0.0
 10
5.0090840107
 20
4.7074901944
 30
0.0
 10
5.0055173542
 20
4.703473434
 30
0.0
 10
5.0018145521
 20
4.6996773173
 30
0.0
 10
4.9979911942
 20
4.6960962218
 30
0.0
 10
4.9953557325
 20
4.6938364498
 30
0.0
 10
4.9940223113
 20
4.6927417165
 30
0.0
  0
SPLINE
  5
2E0
100
AcDbEntity
  8
0
100
AcDbSpline
 62
7
  6
CONTINUOUS
 70
0
 71
3
 72
21
 73
17
 74
0
 42
0.0000001
 43
0.0000001
 44
0.0000000001
 40
0.0
 40
0.0
 40
0.0
 40
0.0
 40
0.0704843446
 40
0.1396400064
 40
0.207473237
 40
0.2740231403
 40
0.3393515236
 40
0.4035332383
 40
0.4666505392
 40
0.5287879852
 40
0.5900297129
 40
0.6504577002
 40
0.7101504712
 40
0.7691826943
 40
0.8855120188
 40
1.0
 40
1.0
 40
1.0
 40
1.0
 10
5.4098883062
 20
4.7330061399
 30
0.0
 10
5.4107990541
 20
4.730824915
 30
0.0
 10
5.4127515948
 20
4.7265637773
 30
0.0
 10
5.4160692011
 20
4.7204425322
 30
0.0
 10
5.4197052887
 20
4.7146603411
 30
0.0
 10
5.4236201058
 20
4.7092210496
 30
0.0
 10
5.4277785649
 20
4.7041231791
 30
0.0
 10
5.4321493043
 20
4.6993616474
 30
0.0
 10
5.436705102
 20
4.6949293851
 30
0.0
 10
5.4414221162
 20
4.6908180229
 30
0.0
 10
5.4462796297
 20
4.6870186741
 30
0.0
 10
5.451259576
 20
4.6835224539
 30
0.0
 10
5.4563463135
 20
4.6803206233
 30
0.0
 10
5.4632177592
 20
4.6764526143
 30
0.0
 10
5.4720213953
 20
4.6722966365
 30
0.0
 10
5.4793076229
 20
4.6696479218
 30
0.0
 10
5.4829713629
 20
4.6684998457
 30
0.0
  0
SPLINE
  5
2E1
100
AcDbEntity
  8
0
100
AcDbSpline
 62
7
  6
CONTINUOUS
 70
0
 71
3
 72
21
 73
17
 74
0
 42
0.0000001
 43
0.0000001
 44
0.0000000001
 40
0.0
 40
0.0
 40
0.0
 40
0.0
 40
0.1144879795
 40
0.2308173099
 40
0.2898494621
 40
0.3495422715
 40
0.4099701556
 40
0.4712119827
 40
0.5333493332
 40
0.5964666744
 40
0.6606483481
 40
0.7259767152
 40
0.7925266207
 40
0.8603598027
 40
0.9295155151
 40
1.0
 40
1.0
 40
1.0
 40
1.0
 10
5.4829714246
 20
4.8753882101
 30
0.0
 10
5.479307678
 20
4.8742401341
 30
0.0
 10
5.4720214384
 20
4.8715914166
 30
0.0
 10
5.4632177789
 20
4.8674354526
 30
0.0
 10
5.4563463352
 20
4.8635674165
 30
0.0
 10
5.4512595753
 20
4.8603656102
 30
0.0
 10
5.4462796497
 20
4.8568693421
 30
0.0
 10
5.4414220889
 20
4.8530700423
 30
0.0
 10
5.436705107
 20
4.8489586244
 30
0.0
 10
5.4321492716
 20
4.8445263917
 30
0.0
 10
5.4277785479
 20
4.8397648301
 30
0.0
 10
5.4236200882
 20
4.8346669497
 30
0.0
 10
5.4197052546
 20
4.8292276592
 30
0.0
 10
5.4160692053
 20
4.8234454248
 30
0.0
 10
5.4127516822
 20
4.8173241306
 30
0.0
 10
5.4107987763
 20
4.8130631421
 30
0.0
 10
5.4098880422
 20
4.8108819021
 30
0.0
  0
SPLINE
  5
2E2
100
AcDbEntity
  8
0
100
AcDbSpline
 62
7
  6
CONTINUOUS
 70
0
 71
3
 72
36
 73
32
 74
0
 42
0.0000001
 43
0.0000001
 44
0.0000000001
 40
0.0
 40
0.0
 40
0.0
 40
0.0
 40
0.0559856046
 40
0.1121077842
 40
0.1684884462
 40
0.2252567061
 40
0.2825525022
 40
0.3405306877
 40
0.3993650153
 40
0.4291704299
 40
0.4592661665
 40
0.4896805917
 40
0.5204438896
 40
0.5515876232
 40
0.583143797
 40
0.6151455272
 40
0.6476240671
 40
0.680609077
 40
0.7141252824
 40
0.7481896025
 40
0.7828078833
 40
0.8179697714
 40
0.8536445914
 40
0.8716607407
 40
0.889782406
 40
0.9079984709
 40
0.926296186
 40
0.9446612843
 40
0.9630781724
 40
0.9815302102
 40
1.0
 40
1.0
 40
1.0
 40
1.0
 10
4.9081820236
 20
4.8813096288
 30
0.0
 10
4.9116177471
 20
4.8812708481
 30
0.0
 10
4.9184973035
 20
4.8809522513
 30
0.0
 10
4.9287756278
 20
4.8797478204
 30
0.0
 10
4.9389902674
 20
4.8778062604
 30
0.0
 10
4.9491071288
 20
4.875110475
 30
0.0
 10
4.959088529
 20
4.8716363174
 30
0.0
 10
4.9688892948
 20
4.8673525997
 30
0.0
 10
4.9768281126
 20
4.8630929826
 30
0.0
 10
4.9830208901
 20
4.8592488604
 30
0.0
 10
4.987600563
 20
4.8561231123
 30
0.0
 10
4.9920830548
 20
4.8527605543
 30
0.0
 10
4.9964555708
 20
4.8491539625
 30
0.0
 10
5.0007035557
 20
4.8452962121
 30
0.0
 10
5.0048098032
 20
4.8411795852
 30
0.0
 10
5.008755824
 20
4.8367979477
 30
0.0
 10
5.0125190794
 20
4.8321447042
 30
0.0
 10
5.016075203
 20
4.8272159036
 30
0.0
 10
5.0193964199
 20
4.8220096469
 30
0.0
 10
5.0224511285
 20
4.8165272776
 30
0.0
 10
5.025206357
 20
4.8107758074
 30
0.0
 10
5.0276250119
 20
4.8047679782
 30
0.0
 10
5.0293248993
 20
4.7995819142
 30
0.0
 10
5.0304827013
 20
4.7953286935
 30
0.0
 10
5.0312478173
 20
4.7920811096
 30
0.0
 10
5.0319027104
 20
4.7887919103
 30
0.0
 10
5.0324435008
 20
4.7854668746
 30
0.0
 10
5.032867672
 20
4.7821125307
 30
0.0
 10
5.0331723776
 20
4.7787356945
 30
0.0
 10
5.0333558528
 20
4.7753437165
 30
0.0
 10
5.0333968576
 20
4.7730775443
 30
0.0
 10
5.0333968671
 20
4.7719440184
 30
0.0
  0
SPLINE
  5
2E3
100
AcDbEntity
  8
0
100
AcDbSpline
 62
7
  6
CONTINUOUS
 70
0
 71
3
 72
36
 73
32
 74
0
 42
0.0000001
 43
0.0000001
 44
0.0000000001
 40
0.0
 40
0.0
 40
0.0
 40
0.0
 40
0.036915825
 40
0.0553327007
 40
0.0736977821
 40
0.0919954753
 40
0.1102115318
 40
0.1283332066
 40
0.1463493576
 40
0.1642505634
 40
0.1820291245
 40
0.2171910991
 40
0.2518093865
 40
0.2858736229
 40
0.3193898831
 40
0.3523750419
 40
0.3848536416
 40
0.4168553836
 40
0.4484116528
 40
0.4795554539
 40
0.5103187207
 40
0.5407332651
 40
0.5708290365
 40
0.600634523
 40
0.6594689839
 40
0.7174472422
 40
0.7747430998
 40
0.8315113567
 40
0.88789208
 40
0.9440142656
 40
1.0
 40
1.0
 40
1.0
 40
1.0
 10
4.7796468703
 20
4.7719440184
 30
0.0
 10
4.7796469731
 20
4.7742095737
 30
0.0
 10
4.7797708069
 20
4.7776070217
 30
0.0
 10
4.7801772619
 20
4.7821122384
 30
0.0
 10
4.7806004506
 20
4.7854667133
 30
0.0
 10
4.7811408344
 20
4.7887917439
 30
0.0
 10
4.7817959843
 20
4.792080849
 30
0.0
 10
4.7825614034
 20
4.7953282726
 30
0.0
 10
4.7834328165
 20
4.79852882
 30
0.0
 10
4.7844059568
 20
4.8016779027
 30
0.0
 10
4.7858285635
 20
4.8057868946
 30
0.0
 10
4.7878375954
 20
4.8107752491
 30
0.0
 10
4.7905923977
 20
4.8165266121
 30
0.0
 10
4.7936467556
 20
4.8220091085
 30
0.0
 10
4.7969679571
 20
4.8272152528
 30
0.0
 10
4.8005241317
 20
4.832143909
 30
0.0
 10
4.804287269
 20
4.836797129
 30
0.0
 10
4.8082331393
 20
4.8411787822
 30
0.0
 10
4.812339317
 20
4.8452953551
 30
0.0
 10
4.816587202
 20
4.8491530783
 30
0.0
 10
4.8209595546
 20
4.8527597326
 30
0.0
 10
4.8254419796
 20
4.8561222335
 30
0.0
 10
4.8300215279
 20
4.8592480189
 30
0.0
 10
4.8362141757
 20
4.8630921435
 30
0.0
 10
4.8441528173
 20
4.8673517966
 30
0.0
 10
4.853953368
 20
4.8716355913
 30
0.0
 10
4.8639345541
 20
4.8751098377
 30
0.0
 10
4.8740512045
 20
4.877805749
 30
0.0
 10
4.8842656429
 20
4.8797474349
 30
0.0
 10
4.8945437812
 20
4.8809520383
 30
0.0
 10
4.9014232229
 20
4.8812707387
 30
0.0
 10
4.9048588949
 20
4.8813095905
 30
0.0
  0
SPLINE
  5
2E4
100
AcDbEntity
  8
0
100
AcDbSpline
 62
7
  6
CONTINUOUS
 70
0
 71
3
 72
101
 73
97
 74
0
 42
0.0000001
 43
0.0000001
 44
0.0000000001
 40
0.0
 40
0.0
 40
0.0
 40
0.0
 40
0.0000032011
 40
0.0000127359
 40
0.0000285996
 40
0.0000507871
 40
0.0000792938
 40
0.0001141146
 40
0.0002026793
 40
0.0003164424
 40
0.0004553649
 40
0.0006194022
 40
0.0008084904
 40
0.0012615486
 40
0.0018139975
 40
0.0024652695
 40
0.0032147007
 40
0.0040616051
 40
0.0050052692
 40
0.0060448586
 40
0.0071795058
 40
0.0097299788
 40
0.0126466197
 40
0.0159185049
 40
0.0195346278
 40
0.0234840035
 40
0.0277555485
 40
0.0323377342
 40
0.0372187845
 40
0.0478298366
 40
0.0594983897
 40
0.0721414798
 40
0.0856825931
 40
0.1000528839
 40
0.1151910391
 40
0.131042836
 40
0.1647043643
 40
0.2007297291
 40
0.2388784205
 40
0.2789492029
 40
0.2996484075
 40
0.3207550026
 40
0.3422406541
 40
0.3640737185
 40
0.3862182338
 40
0.4086332336
 40
0.4312727481
 40
0.4540858252
 40
0.4999993606
 40
0.5229908137
 40
0.5459222437
 40
0.5687353225
 40
0.5913748299
 40
0.6359263245
 40
0.6577593668
 40
0.6792450585
 40
0.700351638
 40
0.7210508239
 40
0.7611216151
 40
0.7992703136
 40
0.8352956041
 40
0.8689572443
 40
0.8848089847
 40
0.8999469934
 40
0.9143173785
 40
0.9278585456
 40
0.9405017238
 40
0.9521703038
 40
0.9627812622
 40
0.9676622741
 40
0.9722444624
 40
0.9765160171
 40
0.9804653581
 40
0.984081429
 40
0.9873532854
 40
0.9902699479
 40
0.992820499
 40
0.9939552017
 40
0.9949948439
 40
0.9959385441
 40
0.996785458
 40
0.9975348776
 40
0.9981861258
 40
0.9987385465
 40
0.9991915753
 40
0.999380649
 40
0.9995446722
 40
0.9996835814
 40
0.9997973327
 40
0.9998858882
 40
0.9999207057
 40
0.9999492099
 40
0.9999713963
 40
0.9999872599
 40
0.999996796
 40
1.0
 40
1.0
 40
1.0
 40
1.0
 10
6.1594026409
 20
4.7238190184
 30
0.0
 10
6.1594025378
 20
4.7238190682
 30
0.0
 10
6.1594022819
 20
4.7238194778
 30
0.0
 10
6.1594015234
 20
4.7238201439
 30
0.0
 10
6.1594003859
 20
4.7238214234
 30
0.0
 10
6.1593987377
 20
4.7238231339
 30
0.0
 10
6.1593966443
 20
4.7238253646
 30
0.0
 10
6.1593929154
 20
4.7238293115
 30
0.0
 10
6.1593871028
 20
4.723835485
 30
0.0
 10
6.1593787416
 20
4.7238443699
 30
0.0
 10
6.1593685395
 20
4.7238552282
 30
0.0
 10
6.1593565013
 20
4.7238680566
 30
0.0
 10
6.1593367911
 20
4.7238890875
 30
0.0
 10
6.1593076146
 20
4.7239202789
 30
0.0
 10
6.1592672004
 20
4.7239635854
 30
0.0
 10
6.1592196156
 20
4.7240146937
 30
0.0
 10
6.1591649209
 20
4.7240735665
 30
0.0
 10
6.1591031811
 20
4.7241401632
 30
0.0
 10
6.1590344648
 20
4.7242144383
 30
0.0
 10
6.158958845
 20
4.7242963417
 30
0.0
 10
6.1588443794
 20
4.724420569
 30
0.0
 10
6.1586847074
 20
4.7245943975
 30
0.0
 10
6.158474056
 20
4.7248251537
 30
0.0
 10
6.1582387018
 20
4.7250849443
 30
0.0
 10
6.1579797766
 20
4.7253731989
 30
0.0
 10
6.1576983902
 20
4.7256893149
 30
0.0
 10
6.1573956577
 20
4.7260326645
 30
0.0
 10
6.1570727743
 20
4.7264026482
 30
0.0
 10
6.1566038305
 20
4.7269459822
 30
0.0
 10
6.1559762123
 20
4.72768702
 30
0.0
 10
6.1551822754
 20
4.7286507347
 30
0.0
 10
6.154337343
 20
4.7297079907
 30
0.0
 10
6.1534506737
 20
4.7308553173
 30
0.0
 10
6.1525310744
 20
4.7320896505
 30
0.0
 10
6.1515869612
 20
4.7334084119
 30
0.0
 10
6.1502800772
 20
4.7353151444
 30
0.0
 10
6.1486347767
 20
4.7378944866
 30
0.0
 10
6.1467208839
 20
4.7412432755
 30
0.0
 10
6.1448869092
 20
4.7448953525
 30
0.0
 10
6.1434884356
 20
4.7481464623
 30
0.0
 10
6.1424616651
 20
4.7508882872
 30
0.0
 10
6.1417391069
 20
4.7530331641
 30
0.0
 10
6.1410801001
 20
4.7552407777
 30
0.0
 10
6.1404916673
 20
4.7575066402
 30
0.0
 10
6.1399798934
 20
4.7598251193
 30
0.0
 10
6.1395518064
 20
4.7621898362
 30
0.0
 10
6.1392126851
 20
4.7645931578
 30
0.0
 10
6.1388837702
 20
4.767843815
 30
0.0
 10
6.1387514305
 20
4.7711246184
 30
0.0
 10
6.1388175546
 20
4.7744080502
 30
0.0
 10
6.1389667025
 20
4.7768617426
 30
0.0
 10
6.1392126983
 20
4.7792949374
 30
0.0
 10
6.1396621707
 20
4.7824819572
 30
0.0
 10
6.1402903191
 20
4.7856059856
 30
0.0
 10
6.1410800044
 20
4.7886472562
 30
0.0
 10
6.141739204
 20
4.7908548525
 30
0.0
 10
6.1424616786
 20
4.792999745
 30
0.0
 10
6.1434884252
 20
4.7957415828
 30
0.0
 10
6.1448869192
 20
4.7989926831
 30
0.0
 10
6.1467209152
 20
4.802644745
 30
0.0
 10
6.1486347369
 20
4.8059935778
 30
0.0
 10
6.1502801079
 20
4.8085728752
 30
0.0
 10
6.1515869743
 20
4.8104796145
 30
0.0
 10
6.1525310293
 20
4.8117984133
 30
0.0
 10
6.1534506698
 20
4.8130327162
 30
0.0
 10
6.1543373432
 20
4.8141800501
 30
0.0
 10
6.1551822975
 20
4.8152372965
 30
0.0
 10
6.1559762401
 20
4.8162010072
 30
0.0
 10
6.1566038419
 20
4.816942054
 30
0.0
 10
6.1570727756
 20
4.8174853906
 30
0.0
 10
6.1573956592
 20
4.8178553729
 30
0.0
 10
6.1576983938
 20
4.8181987196
 30
0.0
 10
6.1579797742
 20
4.8185148372
 30
0.0
 10
6.1582386908
 20
4.818803094
 30
0.0
 10
6.1584740403
 20
4.8190628859
 30
0.0
 10
6.1586846951
 20
4.8192936424
 30
0.0
 10
6.1588443769
 20
4.8194674696
 30
0.0
 10
6.1589588541
 20
4.8195916953
 30
0.0
 10
6.1590344822
 20
4.8196735979
 30
0.0
 10
6.1591032043
 20
4.8197478724
 30
0.0
 10
6.1591649458
 20
4.8198144692
 30
0.0
 10
6.1592196388
 20
4.8198733424
 30
0.0
 10
6.15926722
 20
4.8199244509
 30
0.0
 10
6.1593076297
 20
4.8199677576
 30
0.0
 10
6.1593368023
 20
4.8199989492
 30
0.0
 10
6.1593565094
 20
4.8200199802
 30
0.0
 10
6.1593685454
 20
4.8200328085
 30
0.0
 10
6.1593787455
 20
4.8200436668
 30
0.0
 10
6.159387105
 20
4.8200525516
 30
0.0
 10
6.1593929163
 20
4.8200587252
 30
0.0
 10
6.1593966446
 20
4.8200626718
 30
0.0
 10
6.1593987374
 20
4.8200649029
 30
0.0
 10
6.1594003858
 20
4.8200666125
 30
0.0
 10
6.1594015222
 20
4.8200678944
 30
0.0
 10
6.1594022827
 20
4.8200685564
 30
0.0
 10
6.1594025368
 20
4.8200689705
 30
0.0
 10
6.1594026409
 20
4.8200690184
 30
0.0
  0
LINE
  5
2E5
100
AcDbEntity
  8
0
100
AcDbLine
 62
7
  6
CONTINUOUS
 10
5.0071468671
 20
4.6450690184
 11
4.9940219921
 21
4.65927343
  0
SPLINE
  5
2E6
100
AcDbEntity
  8
0
100
AcDbSpline
 62
7
  6
CONTINUOUS
 70
0
 71
3
 72
22
 73
18
 74
0
 42
0.0000001
 43
0.0000001
 44
0.0000000001
 40
0.0
 40
0.0
 40
0.0
 40
0.0
 40
0.1156586212
 40
0.2328596128
 40
0.292200871
 40
0.352112234
 40
0.4126647236
 40
0.4739345708
 40
0.5360031152
 40
0.5989561742
 40
0.6628829006
 40
0.7278731171
 40
0.7940133405
 40
0.8613801161
 40
0.8955475268
 40
0.9300411059
 40
1.0
 40
1.0
 40
1.0
 40
1.0
 10
5.6260061052
 20
4.8108820277
 30
0.0
 10
5.6249088511
 20
4.814829204
 30
0.0
 10
5.6223541679
 20
4.8226846223
 30
0.0
 10
5.6182800673
 20
4.8322159382
 30
0.0
 10
5.6144556992
 20
4.8396705462
 30
0.0
 10
5.6112773258
 20
4.8451928759
 30
0.0
 10
5.6077913475
 20
4.8506078951
 30
0.0
 10
5.6039870698
 20
4.8558989578
 30
0.0
 10
5.5998532218
 20
4.8610465868
 30
0.0
 10
5.5953781252
 20
4.8660281569
 30
0.0
 10
5.5905502365
 20
4.8708172647
 30
0.0
 10
5.5853587274
 20
4.8753830993
 30
0.0
 10
5.5797948723
 20
4.8796896604
 30
0.0
 10
5.5748661567
 20
4.8830124726
 30
0.0
 10
5.5707377178
 20
4.8854986726
 30
0.0
 10
5.5664447104
 20
4.8878833747
 30
0.0
 10
5.5631142356
 20
4.8895049253
 30
0.0
 10
5.5608476226
 20
4.8905065897
 30
0.0
  0
SPLINE
  5
2E7
100
AcDbEntity
  8
0
100
AcDbSpline
 62
7
  6
CONTINUOUS
 70
0
 71
3
 72
9
 73
5
 74
0
 42
0.0000001
 43
0.0000001
 44
0.0000000001
 40
0.0
 40
0.0
 40
0.0
 40
0.0
 40
0.5060933057
 40
1.0
 40
1.0
 40
1.0
 40
1.0
 10
5.4829711121
 20
4.8905065898
 30
0.0
 10
5.4800554252
 20
4.8892180834
 30
0.0
 10
5.4744123659
 20
4.886396341
 30
0.0
 10
5.4690511454
 20
4.8830729147
 30
0.0
 10
5.4664809024
 20
4.8813202454
 30
0.0
  0
LINE
  5
2E8
100
AcDbEntity
  8
0
100
AcDbLine
 62
7
  6
CONTINUOUS
 10
4.8190217089
 20
4.659273487
 11
4.8058968671
 21
4.6450690184
  0
SPLINE
  5
2E9
100
AcDbEntity
  8
0
100
AcDbSpline
 62
7
  6
CONTINUOUS
 70
0
 71
3
 72
30
 73
26
 74
0
 42
0.0000001
 43
0.0000001
 44
0.0000000001
 40
0.0
 40
0.0
 40
0.0
 40
0.0
 40
0.009805347
 40
0.0199765328
 40
0.0308415929
 40
0.0426692714
 40
0.0556664638
 40
0.0699867133
 40
0.0857417617
 40
0.1030121282
 40
0.1218553134
 40
0.1423117206
 40
0.1644089903
 40
0.1881650516
 40
0.2135901988
 40
0.24068867
 40
0.2998954924
 40
0.3657390207
 40
0.4381193687
 40
0.5168987374
 40
0.6019082499
 40
0.692952427
 40
0.7898122859
 40
0.8922478594
 40
1.0
 40
1.0
 40
1.0
 40
1.0
 10
5.8706548364
 20
4.7229440187
 30
0.0
 10
5.8705980312
 20
4.7229440187
 30
0.0
 10
5.870482
 20
4.7229557018
 30
0.0
 10
5.8703100526
 20
4.723007662
 30
0.0
 10
5.8701392137
 20
4.7230935436
 30
0.0
 10
5.8699695687
 20
4.7232128084
 30
0.0
 10
5.8698009499
 20
4.7233651406
 30
0.0
 10
5.8696332506
 20
4.7235503786
 30
0.0
 10
5.8694664228
 20
4.7237684208
 30
0.0
 10
5.8693004842
 20
4.7240191704
 30
0.0
 10
5.8691354933
 20
4.7243025089
 30
0.0
 10
5.8689715331
 20
4.7246182869
 30
0.0
 10
5.8688087008
 20
4.7249663238
 30
0.0
 10
5.8686471033
 20
4.7253464092
 30
0.0
 10
5.8684868424
 20
4.7257583026
 30
0.0
 10
5.8682686083
 20
4.7263677603
 30
0.0
 10
5.8680021039
 20
4.7272082702
 30
0.0
 10
5.8676978889
 20
4.7283110552
 30
0.0
 10
5.8674014524
 20
4.7295329468
 30
0.0
 10
5.8671136418
 20
4.730870661
 30
0.0
 10
5.8668352963
 20
4.7323206122
 30
0.0
 10
5.8665672121
 20
4.7338788714
 30
0.0
 10
5.8663101515
 20
4.7355412056
 30
0.0
 10
5.8660648407
 20
4.7373030828
 30
0.0
 10
5.8659132933
 20
4.7385113331
 30
0.0
 10
5.865839337
 20
4.7391311758
 30
0.0
  0
SPLINE
  5
2EA
100
AcDbEntity
  8
0
100
AcDbSpline
 62
7
  6
CONTINUOUS
 70
0
 71
3
 72
64
 73
60
 74
0
 42
0.0000001
 43
0.0000001
 44
0.0000000001
 40
0.0
 40
0.0
 40
0.0
 40
0.0
 40
0.0000429436
 40
0.0000963305
 40
0.0001709617
 40
0.0003838595
 40
0.000681442
 40
0.0010635142
 40
0.0015298997
 40
0.0020804811
 40
0.0027151536
 40
0.0042363507
 40
0.0060921322
 40
0.0082794232
 40
0.010794779
 40
0.0136345043
 40
0.016794698
 40
0.0240604693
 40
0.0325577153
 40
0.0422411624
 40
0.0530649894
 40
0.0649845446
 40
0.077946727
 40
0.0918994982
 40
0.1067915342
 40
0.1225707385
 40
0.1565792796
 40
0.1935183943
 40
0.2329952575
 40
0.2746223293
 40
0.3180323429
 40
0.3628763244
 40
0.408809176
 40
0.4554848485
 40
0.5025555268
 40
0.5496681525
 40
0.5964607912
 40
0.6875679526
 40
0.7727473168
 40
0.812094262
 40
0.8487104017
 40
0.8821901055
 40
0.9121476933
 40
0.9382088046
 40
0.9496700274
 40
0.9600321598
 40
0.9692630097
 40
0.9773305853
 40
0.9842058424
 40
0.9898645862
 40
0.9922312633
 40
0.9942865268
 40
0.9960284521
 40
0.9974554748
 40
0.9985668924
 40
0.9993621092
 40
0.9996408706
 40
0.9998402052
 40
1.0
 40
1.0
 40
1.0
 40
1.0
 10
6.3220654425
 20
4.688817039
 30
0.0
 10
6.322065318
 20
4.6888168712
 30
0.0
 10
6.3220648073
 20
4.6888167659
 30
0.0
 10
6.322064118
 20
4.6888163256
 30
0.0
 10
6.322062618
 20
4.6888155946
 30
0.0
 10
6.3220601117
 20
4.6888142606
 30
0.0
 10
6.3220562468
 20
4.6888122744
 30
0.0
 10
6.322051301
 20
4.6888097045
 30
0.0
 10
6.3220452574
 20
4.6888065742
 30
0.0
 10
6.3220381247
 20
4.6888028762
 30
0.0
 10
6.3220264356
 20
4.6887968179
 30
0.0
 10
6.3220091093
 20
4.6887878385
 30
0.0
 10
6.3219850752
 20
4.6887753876
 30
0.0
 10
6.3219567417
 20
4.6887607224
 30
0.0
 10
6.321924149
 20
4.6887438732
 30
0.0
 10
6.321887341
 20
4.688724872
 30
0.0
 10
6.3218299798
 20
4.6886953079
 30
0.0
 10
6.3217481105
 20
4.6886532222
 30
0.0
 10
6.3216379833
 20
4.6885966984
 30
0.0
 10
6.3215123551
 20
4.6885324711
 30
0.0
 10
6.3213717724
 20
4.6884609226
 30
0.0
 10
6.3212168521
 20
4.6883823822
 30
0.0
 10
6.3210481854
 20
4.6882972962
 30
0.0
 10
6.3208663927
 20
4.6882061263
 30
0.0
 10
6.3206721216
 20
4.6881092713
 30
0.0
 10
6.3203902334
 20
4.6879694975
 30
0.0
 10
6.3200115151
 20
4.6877835836
 30
0.0
 10
6.3195279386
 20
4.6875496923
 30
0.0
 10
6.3190095549
 20
4.6873026707
 30
0.0
 10
6.3184611207
 20
4.6870455628
 30
0.0
 10
6.3178872613
 20
4.6867812126
 30
0.0
 10
6.3172924658
 20
4.6865122866
 30
0.0
 10
6.3166812646
 20
4.6862411263
 30
0.0
 10
6.3160582561
 20
4.6859699097
 30
0.0
 10
6.3154280207
 20
4.6857009599
 30
0.0
 10
6.3147953678
 20
4.6854362708
 30
0.0
 10
6.3139627126
 20
4.6850946475
 30
0.0
 10
6.3129542709
 20
4.6846937306
 30
0.0
 10
6.311975159
 20
4.6843172744
 30
0.0
 10
6.311240654
 20
4.684043434
 30
0.0
 10
6.3107409006
 20
4.6838598889
 30
0.0
 10
6.3102832244
 20
4.683694279
 30
0.0
 10
6.3098732149
 20
4.6835478534
 30
0.0
 10
6.3095636787
 20
4.6834385711
 30
0.0
 10
6.3093438068
 20
4.6833616555
 30
0.0
 10
6.3092011528
 20
4.6833119514
 30
0.0
 10
6.3090740312
 20
4.683267843
 30
0.0
 10
6.3089628897
 20
4.6832294244
 30
0.0
 10
6.3088681389
 20
4.6831967768
 30
0.0
 10
6.3087995896
 20
4.6831732162
 30
0.0
 10
6.3087532038
 20
4.6831573071
 30
0.0
 10
6.3087248382
 20
4.6831475882
 30
0.0
 10
6.3087007941
 20
4.683139358
 30
0.0
 10
6.3086810972
 20
4.6831326071
 30
0.0
 10
6.3086657486
 20
4.683127369
 30
0.0
 10
6.3086557025
 20
4.6831238974
 30
0.0
 10
6.3086498246
 20
4.6831219348
 30
0.0
 10
6.3086469176
 20
4.6831208599
 30
0.0
 10
6.3086452073
 20
4.683120434
 30
0.0
 10
6.3086445079
 20
4.6831200948
 30
0.0
  0
SPLINE
  5
2EB
100
AcDbEntity
  8
0
100
AcDbSpline
 62
7
  6
CONTINUOUS
 70
0
 71
3
 72
21
 73
17
 74
0
 42
0.0000001
 43
0.0000001
 44
0.0000000001
 40
0.0
 40
0.0
 40
0.0
 40
0.0
 40
0.0704843887
 40
0.139640087
 40
0.2074733493
 40
0.2740232701
 40
0.3393516687
 40
0.4035333957
 40
0.4666507
 40
0.5287881393
 40
0.5900298438
 40
0.6504578056
 40
0.7101505489
 40
0.7691827457
 40
0.8855120307
 40
1.0
 40
1.0
 40
1.0
 40
1.0
 10
4.4031554897
 20
4.8108817492
 30
0.0
 10
4.4022447432
 20
4.8130629805
 30
0.0
 10
4.4002922036
 20
4.8173241301
 30
0.0
 10
4.3969745988
 20
4.8234453932
 30
0.0
 10
4.3933385101
 20
4.8292276
 30
0.0
 10
4.3894236909
 20
4.8346669061
 30
0.0
 10
4.3852652284
 20
4.8397647897
 30
0.0
 10
4.380894485
 20
4.8445263334
 30
0.0
 10
4.3763386826
 20
4.848958606
 30
0.0
 10
4.3716216629
 20
4.853069976
 30
0.0
 10
4.3667641456
 20
4.8568693331
 30
0.0
 10
4.3617841941
 20
4.8603655588
 30
0.0
 10
4.356697452
 20
4.8635673951
 30
0.0
 10
4.3498259987
 20
4.8674354106
 30
0.0
 10
4.3410223515
 20
4.8715913956
 30
0.0
 10
4.3337361137
 20
4.8742401144
 30
0.0
 10
4.3300723682
 20
4.8753881921
 30
0.0
  0
SPLINE
  5
2EC
100
AcDbEntity
  8
0
100
AcDbSpline
 62
7
  6
CONTINUOUS
 70
0
 71
3
 72
38
 73
34
 74
0
 42
0.0000001
 43
0.0000001
 44
0.0000000001
 40
0.0
 40
0.0
 40
0.0
 40
0.0
 40
0.00009527
 40
0.000200493
 40
0.0003439628
 40
0.0007452008
 40
0.0012981006
 40
0.0020017799
 40
0.0028554424
 40
0.0038589126
 40
0.0050122906
 40
0.0077691674
 40
0.0111266172
 40
0.0150830003
 40
0.0196355305
 40
0.0247810252
 40
0.0305150408
 40
0.0437287475
 40
0.0592261421
 40
0.0769494014
 40
0.0968401655
 40
0.1188383341
 40
0.1428823117
 40
0.16890689
 40
0.2266028621
 40
0.2913380616
 40
0.3625447856
 40
0.4396829775
 40
0.5222276083
 40
0.609679698
 40
0.7015762799
 40
0.7975049407
 40
1.0
 40
1.0
 40
1.0
 40
1.0
 10
5.0246468306
 20
4.6625690367
 30
0.0
 10
5.0246457712
 20
4.6625696739
 30
0.0
 10
5.0246437805
 20
4.662571372
 30
0.0
 10
5.0246402058
 20
4.6625740367
 30
0.0
 10
5.0246335623
 20
4.6625792374
 30
0.0
 10
5.0246223315
 20
4.6625879936
 30
0.0
 10
5.0246054459
 20
4.6626013249
 30
0.0
 10
5.0245839954
 20
4.6626183459
 30
0.0
 10
5.0245580315
 20
4.662639086
 30
0.0
 10
5.0245275536
 20
4.6626635246
 30
0.0
 10
5.0244778535
 20
4.6627034699
 30
0.0
 10
5.024404398
 20
4.6627626187
 30
0.0
 10
5.0243026023
 20
4.6628445677
 30
0.0
 10
5.024182625
 20
4.66294109
 30
0.0
 10
5.024044526
 20
4.6630521026
 30
0.0
 10
5.0238883921
 20
4.6631774978
 30
0.0
 10
5.0236445465
 20
4.6633731684
 30
0.0
 10
5.0232957332
 20
4.6636526652
 30
0.0
 10
5.0228253699
 20
4.6640292721
 30
0.0
 10
5.0222873402
 20
4.6644599957
 30
0.0
 10
5.0216833826
 20
4.6649433473
 30
0.0
 10
5.021015231
 20
4.6654777539
 30
0.0
 10
5.0202846232
 20
4.6660615053
 30
0.0
 10
5.0191914954
 20
4.6669336402
 30
0.0
 10
5.0176846302
 20
4.6681338598
 30
0.0
 10
5.0157176333
 20
4.6696974521
 30
0.0
 10
5.013551002
 20
4.6714153449
 30
0.0
 10
5.0111999947
 20
4.6732726685
 30
0.0
 10
5.0086796443
 20
4.6752556938
 30
0.0
 10
5.0060042969
 20
4.677351426
 30
0.0
 10
5.0031873377
 20
4.6795480079
 30
0.0
 10
4.9991849652
 20
4.6826520823
 30
0.0
 10
4.9961133064
 20
4.6850103692
 30
0.0
 10
4.9940230993
 20
4.6866027718
 30
0.0
  0
SPLINE
  5
2ED
100
AcDbEntity
  8
0
100
AcDbSpline
 62
7
  6
CONTINUOUS
 70
0
 71
3
 72
9
 73
5
 74
0
 42
0.0000001
 43
0.0000001
 44
0.0000000001
 40
0.0
 40
0.0
 40
0.0
 40
0.0
 40
0.4939066926
 40
1.0
 40
1.0
 40
1.0
 40
1.0
 10
4.3465628321
 20
4.8813202451
 30
0.0
 10
4.3439925898
 20
4.8830729153
 30
0.0
 10
4.3386313674
 20
4.8863963382
 30
0.0
 10
4.3329883104
 20
4.8892180854
 30
0.0
 10
4.3300726226
 20
4.8905065897
 30
0.0
  0
SPLINE
  5
2EE
100
AcDbEntity
  8
0
100
AcDbSpline
 62
7
  6
CONTINUOUS
 70
0
 71
3
 72
22
 73
18
 74
0
 42
0.0000001
 43
0.0000001
 44
0.0000000001
 40
0.0
 40
0.0
 40
0.0
 40
0.0
 40
0.069958895
 40
0.1044524741
 40
0.1386198858
 40
0.2059866607
 40
0.272126888
 40
0.3371171012
 40
0.4010438248
 40
0.4639968993
 40
0.5260654288
 40
0.5873352707
 40
0.6478877841
 40
0.7077991382
 40
0.7671403814
 40
0.8843413981
 40
1.0
 40
1.0
 40
1.0
 40
1.0
 10
4.2521961121
 20
4.8905065898
 30
0.0
 10
4.2499294997
 20
4.8895049238
 30
0.0
 10
4.2465990242
 20
4.8878833748
 30
0.0
 10
4.2423060161
 20
4.8854986736
 30
0.0
 10
4.2381775784
 20
4.8830124716
 30
0.0
 10
4.2332488605
 20
4.8796896625
 30
0.0
 10
4.2276850084
 20
4.8753830972
 30
0.0
 10
4.2224934974
 20
4.8708172653
 30
0.0
 10
4.2176656057
 20
4.8660281596
 30
0.0
 10
4.213190517
 20
4.8610465826
 30
0.0
 10
4.2090566625
 20
4.8558989592
 30
0.0
 10
4.2052523831
 20
4.8506078972
 30
0.0
 10
4.2017664117
 20
4.8451928731
 30
0.0
 10
4.198588035
 20
4.8396705454
 30
0.0
 10
4.1947636635
 20
4.8322159389
 30
0.0
 10
4.1906895696
 20
4.8226846205
 30
0.0
 10
4.1881348823
 20
4.8148292034
 30
0.0
 10
4.1870376284
 20
4.8108820277
 30
0.0
  0
SPLINE
  5
2EF
100
AcDbEntity
  8
0
100
AcDbSpline
 62
7
  6
CONTINUOUS
 70
0
 71
3
 72
48
 73
44
 74
0
 42
0.0000001
 43
0.0000001
 44
0.0000000001
 40
0.0
 40
0.0
 40
0.0
 40
0.0
 40
0.1029765812
 40
0.2026372466
 40
0.2986318208
 40
0.3905827998
 40
0.478080194
 40
0.5606633671
 40
0.6378326465
 40
0.7090615434
 40
0.7422789769
 40
0.7738045931
 40
0.8035657674
 40
0.8314880896
 40
0.8574984611
 40
0.8815271829
 40
0.9035094975
 40
0.9233817727
 40
0.9410806081
 40
0.9565446803
 40
0.9634201885
 40
0.9697152575
 40
0.9754252281
 40
0.9805469431
 40
0.9850772258
 40
0.9890127168
 40
0.9923500213
 40
0.993793513
 40
0.9950867522
 40
0.99622967
 40
0.9972221982
 40
0.9980642671
 40
0.9987555907
 40
0.9990445205
 40
0.9992955139
 40
0.9995084842
 40
0.9996833449
 40
0.9998200096
 40
0.9999183923
 40
0.9999532014
 40
0.999978409
 40
0.9999940069
 40
1.0
 40
1.0
 40
1.0
 40
1.0
 10
4.8190206705
 20
4.6866026252
 30
0.0
 10
4.8179577991
 20
4.6857927225
 30
0.0
 10
4.8158691949
 20
4.6841951692
 30
0.0
 10
4.8127993019
 20
4.6818302171
 30
0.0
 10
4.8098499737
 20
4.6795432354
 30
0.0
 10
4.8070314299
 20
4.6773451925
 30
0.0
 10
4.8043547959
 20
4.6752481945
 30
0.0
 10
4.8018333028
 20
4.6732642109
 30
0.0
 10
4.7994813218
 20
4.6714061991
 30
0.0
 10
4.7976345144
 20
4.6699421212
 30
0.0
 10
4.7962529209
 20
4.6688446433
 30
0.0
 10
4.7952931174
 20
4.6680813102
 30
0.0
 10
4.7943874806
 20
4.6673602588
 30
0.0
 10
4.7935382338
 20
4.6666832832
 30
0.0
 10
4.7927475417
 20
4.6660521905
 30
0.0
 10
4.7920174261
 20
4.6654687655
 30
0.0
 10
4.791349726
 20
4.6649348251
 30
0.0
 10
4.7907462752
 20
4.664452061
 30
0.0
 10
4.7902089634
 20
4.6640220239
 30
0.0
 10
4.7898034304
 20
4.6636972394
 30
0.0
 10
4.7895135327
 20
4.6634647967
 30
0.0
 10
4.7893224772
 20
4.6633114192
 30
0.0
 10
4.7891492449
 20
4.6631721938
 30
0.0
 10
4.7889939018
 20
4.6630472661
 30
0.0
 10
4.7888565036
 20
4.6629367678
 30
0.0
 10
4.7887371422
 20
4.66284079
 30
0.0
 10
4.7886489878
 20
4.6627699239
 30
0.0
 10
4.7885875413
 20
4.6627205589
 30
0.0
 10
4.7885482794
 20
4.6626890461
 30
0.0
 10
4.7885135603
 20
4.6626612225
 30
0.0
 10
4.7884833812
 20
4.6626370957
 30
0.0
 10
4.7884577405
 20
4.6626166769
 30
0.0
 10
4.7884392017
 20
4.6626019964
 30
0.0
 10
4.7884266522
 20
4.6625921078
 30
0.0
 10
4.7884189683
 20
4.6625860737
 30
0.0
 10
4.7884124385
 20
4.6625809671
 30
0.0
 10
4.7884070688
 20
4.6625767838
 30
0.0
 10
4.7884028606
 20
4.6625735335
 30
0.0
 10
4.788400086
 20
4.6625713905
 30
0.0
 10
4.7883984431
 20
4.6625701642
 30
0.0
 10
4.7883976644
 20
4.6625695522
 30
0.0
 10
4.7883971597
 20
4.6625692404
 30
0.0
 10
4.7883969439
 20
4.6625690305
 30
0.0
 10
4.7883968671
 20
4.6625690184
 30
0.0
  0
SPLINE
  5
2F0
100
AcDbEntity
  8
0
100
AcDbSpline
 62
7
  6
CONTINUOUS
 70
0
 71
3
 72
27
 73
23
 74
0
 42
0.0000001
 43
0.0000001
 44
0.0000000001
 40
0.0
 40
0.0
 40
0.0
 40
0.0
 40
0.0566176523
 40
0.1138872865
 40
0.1718599146
 40
0.2305836794
 40
0.2901059284
 40
0.3504720918
 40
0.4117198601
 40
0.4738767197
 40
0.5369562979
 40
0.6009518328
 40
0.6332874361
 40
0.665837456
 40
0.6985928709
 40
0.7315423411
 40
0.7646721477
 40
0.7979662756
 40
0.8649635443
 40
0.8986323524
 40
0.9323799773
 40
1.0
 40
1.0
 40
1.0
 40
1.0
 10
4.8190214234
 20
4.6927415969
 30
0.0
 10
4.8176879785
 20
4.6938363088
 30
0.0
 10
4.815052508
 20
4.6960960692
 30
0.0
 10
4.8112292466
 20
4.6996772669
 30
0.0
 10
4.807526501
 20
4.7034734419
 30
0.0
 10
4.8039596371
 20
4.7074900346
 30
0.0
 10
4.8005457254
 20
4.7117316748
 30
0.0
 10
4.797302721
 20
4.7162009773
 30
0.0
 10
4.7942516165
 20
4.7208997004
 30
0.0
 10
4.7914159786
 20
4.7258274369
 30
0.0
 10
4.7888203416
 20
4.7309797718
 30
0.0
 10
4.7868857529
 20
4.7354387416
 30
0.0
 10
4.7854837572
 20
4.7391077329
 30
0.0
 10
4.7845056331
 20
4.741918163
 30
0.0
 10
4.7836077339
 20
4.7447748464
 30
0.0
 10
4.7827934205
 20
4.7476748383
 30
0.0
 10
4.7820662639
 20
4.7506148772
 30
0.0
 10
4.7812154602
 20
4.7545909672
 30
0.0
 10
4.7805525903
 20
4.7586221914
 30
0.0
 10
4.7800848091
 20
4.7626918397
 30
0.0
 10
4.7797486278
 20
4.7667934237
 30
0.0
 10
4.7796469033
 20
4.769883511
 30
0.0
 10
4.7796468671
 20
4.7719440184
 30
0.0
  0
SPLINE
  5
2F1
100
AcDbEntity
  8
0
100
AcDbSpline
 62
7
  6
CONTINUOUS
 70
0
 71
3
 72
21
 73
17
 74
0
 42
0.0000001
 43
0.0000001
 44
0.0000000001
 40
0.0
 40
0.0
 40
0.0
 40
0.0
 40
0.1144879657
 40
0.2308172831
 40
0.2898494278
 40
0.3495422287
 40
0.4099701012
 40
0.4712119203
 40
0.5333492645
 40
0.5964665985
 40
0.6606482696
 40
0.7259766409
 40
0.7925265535
 40
0.8603597549
 40
0.9295154921
 40
1.0
 40
1.0
 40
1.0
 40
1.0
 10
4.3300723295
 20
4.6684998329
 30
0.0
 10
4.3337360765
 20
4.6696479098
 30
0.0
 10
4.3410223172
 20
4.6722966291
 30
0.0
 10
4.3498259777
 20
4.6764525954
 30
0.0
 10
4.3566974218
 20
4.6803206341
 30
0.0
 10
4.3617841821
 20
4.6835224416
 30
0.0
 10
4.3667641073
 20
4.687018712
 30
0.0
 10
4.3716216681
 20
4.6908180135
 30
0.0
 10
4.3763386504
 20
4.694929433
 30
0.0
 10
4.3808944853
 20
4.6993616684
 30
0.0
 10
4.3852652087
 20
4.7041232327
 30
0.0
 10
4.3894236685
 20
4.7092211163
 30
0.0
 10
4.3933385019
 20
4.7146604108
 30
0.0
 10
4.3969745512
 20
4.7204426498
 30
0.0
 10
4.4002920738
 20
4.7265639494
 30
0.0
 10
4.4022449789
 20
4.7308249417
 30
0.0
 10
4.4031557125
 20
4.7330061835
 30
0.0
  0
ENDSEC
  0
SECTION
  2
OBJECTS
  0
DICTIONARY
  5
C
100
AcDbDictionary
280
0
281
1
  3
ACAD_GROUP
350
D
  3
ACAD_MLINESTYLE
350
17
  3
ACAD_LAYOUT
350
1A
  3
ACAD_PLOTSETTINGS
350
19
  3
ACAD_PLOTSTYLENAME
350
E
  0
DICTIONARY
  5
D
102
{ACAD_REACTORS
330
C
102
}
100
AcDbDictionary
280
0
281
1
  0
ACDBDICTIONARYWDFLT
  5
E
102
{ACAD_REACTORS
330
C
102
}
100
AcDbDictionary
281
1
  3
Normal
350
F
100
AcDbDictionaryWithDefault
340
F
  0
DICTIONARY
  5
17
102
{ACAD_REACTORS
330
C
102
}
100
AcDbDictionary
280
0
281
1
  3
Standard
350
18
  0
DICTIONARY
  5
19
102
{ACAD_REACTORS
330
C
102
}
100
AcDbDictionary
281
1
  0
DICTIONARY
  5
1A
102
{ACAD_REACTORS
330
C
102
}
100
AcDbDictionary
281
1
  3
Model
350
2F2
  3
Layout1
350
2F3
  0
ACDBPLACEHOLDER
  5
F
102
{ACAD_REACTORS
330
E
102
}
  0
MLINESTYLE
  5
18
102
{ACAD_REACTORS
330
17
102
}
100
AcDbMlineStyle
  2
STANDARD
 70
0
  3

 62
256
 51
90.0
 52
90.0
 71
2
 49
0.5
 62
256
  6
BYLAYER
 49
-0.5
 62
256
  6
BYLAYER
  0
LAYOUT
  5
2F2
102
{ACAD_REACTORS
330
1A
102
}
100
AcDbPlotSettings
  1

  2
none_device
  4
ANSI_A_(11.00_x_8.50_Inches)
  6

 40
0.0
 41
0.0
 42
0.0
 43
0.0
 44
279.4
 45
215.9
 46
0.0
 47
0.0
 48
0.0
 49
0.0
140
0.0
141
0.0
142
1.0
143
1.0
 70
1024
 72
0
 73
0
 74
0
  7

 75
0
147
1.0
148
0.0
149
0.0
100
AcDbLayout
  1
Model
 70
0
 71
0
 10
0.0
 20
0.0
 11
11.0
 21
8.5
 12
0.0
 22
0.0
 32
0.0
 14
0.0
 24
0.0
 34
0.0
 15
0.0
 25
0.0
 35
0.0
146
0.0
 13
0.0
 23
0.0
 33
0.0
 16
1.0
 26
0.0
 36
0.0
 17
0.0
 27
1.0
 37
0.0
 76
0
330
202
345
0
346
0
  0
LAYOUT
  5
2F3
102
{ACAD_REACTORS
330
1A
102
}
100
AcDbPlotSettings
  1

  2
none_device
  4
ANSI_A_(11.00_x_8.50_Inches)
  6

 40
0.0
 41
0.0
 42
0.0
 43
0.0
 44
279.4
 45
215.9
 46
0.0
 47
0.0
 48
0.0
 49
0.0
140
0.0
141
0.0
142
1.0
143
1.0
 70
0
 72
0
 73
0
 74
0
  7

 75
0
147
1.0
148
0.0
149
0.0
100
AcDbLayout
  1
Layout1
 70
0
 71
1
 10
0.0
 20
0.0
 11
11.0
 21
8.5
 12
0.0
 22
0.0
 32
0.0
 14
0.0
 24
0.0
 34
0.0
 15
0.0
 25
0.0
 35
0.0
146
0.0
 13
0.0
 23
0.0
 33
0.0
 16
1.0
 26
0.0
 36
0.0
 17
0.0
 27
1.0
 37
0.0
 76
0
330
203
345
0
346
0
  0
ENDSEC
  0
EOF
