999
DXF file: E:\BT Custom\CADOUTPUT\_FRONT.dxf
999
Pro/ENGINEER 2018400 by Parametric Technology Corporation
  0
SECTION
  2
HEADER
  9
$ACADVER
  1
AC1018
  9
$DWGCODEPAGE
  3
ANSI_1252
  9
$EXTMAX
 10
22.0
 20
17.0
 30
0.0
  9
$EXTMIN
 10
0.0
 20
0.0
 30
0.0
  9
$LIMMIN
 10
0.0
 20
0.0
  9
$LIMMAX
 10
22.0
 20
17.0
  9
$VIEWCTR
 10
11.0
 20
8.5
  9
$VIEWSIZE
 40
17.0
  9
$CLAYER
  8
0
  9
$LTSCALE
 40
1.21
  9
$CELTYPE
  6
BYLAYER
  9
$DIMSCALE
 40
1.0
  9
$DIMASZ
 40
0.1
  9
$DIMEXO
 40
0.0625
  9
$DIMDLI
 40
0.836
  9
$DIMEXE
 40
0.125
  9
$DIMCEN
 40
0.198
  9
$DIMLFAC
 40
1.0
  9
$DIMBLK
  1
_FILLED
  9
$DIMALT
 70
1
  9
$DIMALTD
 70
2
  9
$DIMALTTD
 70
2
  9
$DIMALTF
 40
25.4
  9
$DIMTXT
 40
0.08
  9
$DIMTOL
 70
1
  9
$DIMLIM
 70
0
  9
$DIMTFAC
 40
1.0
  9
$DIMTP
 40
0.001
  9
$DIMTM
 40
0.001
  9
$DIMGAP
 40
0.09
  9
$DIMDSEP
 70
46
  9
$AUNITS
 70
0
  9
$PDMODE
 70
3
  9
$PDSIZE
 40
0.06
  9
$HANDSEED
  5
36E
  9
$TILEMODE
 70
1
  9
$MEASUREMENT
 70
0
  9
$INSUNITS
 70
1
  0
ENDSEC
  0
SECTION
  2
CLASSES
  0
CLASS
  1
ACDBDICTIONARYWDFLT
  2
AcDbDictionaryWithDefault
  3
AutoCAD 2000
 90
0
 91
1
280
0
281
0
  0
CLASS
  1
ACDBPLACEHOLDER
  2
AcDbPlaceHolder
  3
AutoCAD 2000
 90
0
 91
1
280
0
281
0
  0
CLASS
  1
LAYOUT
  2
AcDbLayout
  3
AutoCAD 2000
 90
0
 91
0
280
0
281
0
  0
ENDSEC
  0
SECTION
  2
TABLES
  0
TABLE
  2
VPORT
  5
8
100
AcDbSymbolTable
 70
2
  0
VPORT
  5
1F4
100
AcDbSymbolTableRecord
100
AcDbViewportTableRecord
  2
*ACTIVE
 70
0
 10
0.0
 20
0.0
 11
1.0
 21
1.0
 12
11.0
 22
8.5
 13
0.0
 23
0.0
 14
1.0
 24
1.0
 15
0.0
 25
0.0
 16
0.0
 26
0.0
 36
1.0
 17
0.0
 27
0.0
 37
0.0
 40
17.0
 41
1.2941176471
 42
50.0
 43
0.0
 44
0.0
 50
0.0
 51
0.0
 71
0
 72
100
 73
1
 74
1
 75
0
 76
0
 77
0
 78
0
  0
ENDTAB
  0
TABLE
  2
LTYPE
  5
5
100
AcDbSymbolTable
 70
6
  0
LTYPE
  5
14
100
AcDbSymbolTableRecord
100
AcDbLinetypeTableRecord
  2
BYBLOCK
 70
0
  3

 72
65
 73
0
 40
0.0
  0
LTYPE
  5
15
100
AcDbSymbolTableRecord
100
AcDbLinetypeTableRecord
  2
BYLAYER
 70
0
  3

 72
65
 73
0
 40
0.0
  0
LTYPE
  5
16
100
AcDbSymbolTableRecord
100
AcDbLinetypeTableRecord
  2
CONTINUOUS
 70
64
  3
Solid line
 72
65
 73
0
 40
0.0
  0
LTYPE
  5
1F5
100
AcDbSymbolTableRecord
100
AcDbLinetypeTableRecord
  2
CENTER
 70
64
  3
____ _ ____ _ ____ _ ____ _ ____ _ ____ _ ____
 72
65
 73
4
 40
0.6
 49
0.375
 74
0
 49
-0.075
 74
0
 49
0.075
 74
0
 49
-0.075
 74
0
  0
LTYPE
  5
1F6
100
AcDbSymbolTableRecord
100
AcDbLinetypeTableRecord
  2
HIDDEN
 70
64
  3
- - - - - - - - - - - - - - - - - - - -
 72
65
 73
2
 40
0.2
 49
0.1
 74
0
 49
-0.1
 74
0
  0
LTYPE
  5
1F7
100
AcDbSymbolTableRecord
100
AcDbLinetypeTableRecord
  2
PHANTOM
 70
64
  3
_____ _ _ _____ _ _ _____ _ _ _____
 72
65
 73
6
 40
0.8
 49
0.45
 74
0
 49
-0.05
 74
0
 49
0.1
 74
0
 49
-0.05
 74
0
 49
0.1
 74
0
 49
-0.05
 74
0
  0
LTYPE
  5
1F8
100
AcDbSymbolTableRecord
100
AcDbLinetypeTableRecord
  2
DOT
 70
64
  3
. . . . . . . . . . . . . . . . . . . .
 72
65
 73
2
 40
0.2
 49
0.1
 74
0
 49
-0.1
 74
0
  0
LTYPE
  5
1F9
100
AcDbSymbolTableRecord
100
AcDbLinetypeTableRecord
  2
DASHED
 70
64
  3
- - - - - - - - - - - - - - - - - - - -
 72
65
 73
2
 40
0.2
 49
0.1
 74
0
 49
-0.1
 74
0
  0
ENDTAB
  0
TABLE
  2
LAYER
  5
2
100
AcDbSymbolTable
 70
36
  0
LAYER
  5
10
100
AcDbSymbolTableRecord
100
AcDbLayerTableRecord
  2
0
 70
0
 62
7
  6
CONTINUOUS
370
-3
390
F
  0
LAYER
  5
1FA
100
AcDbSymbolTableRecord
100
AcDbLayerTableRecord
  2
DEFAULT_1
 70
0
 62
7
  6
CENTER
370
-3
390
F
  0
LAYER
  5
1FB
100
AcDbSymbolTableRecord
100
AcDbLayerTableRecord
  2
DEFAULT_2
 70
0
 62
8
  6
HIDDEN
370
-3
390
F
  0
LAYER
  5
1FC
100
AcDbSymbolTableRecord
100
AcDbLayerTableRecord
  2
DEFAULT_3
 70
0
 62
7
  6
PHANTOM
370
-3
390
F
  0
LAYER
  5
1FD
100
AcDbSymbolTableRecord
100
AcDbLayerTableRecord
  2
ALL_FEATURES
 70
0
 62
7
  6
CONTINUOUS
370
-3
390
F
  0
LAYER
  5
1FE
100
AcDbSymbolTableRecord
100
AcDbLayerTableRecord
  2
AXES_FEATURES
 70
0
 62
7
  6
CONTINUOUS
370
-3
390
F
  0
LAYER
  5
1FF
100
AcDbSymbolTableRecord
100
AcDbLayerTableRecord
  2
DIMENSIONS
 70
0
 62
7
  6
CONTINUOUS
370
-3
390
F
  0
ENDTAB
  0
TABLE
  2
STYLE
  5
3
100
AcDbSymbolTable
 70
1
  0
STYLE
  5
11
100
AcDbSymbolTableRecord
100
AcDbTextStyleTableRecord
  2
STANDARD
 70
0
 40
0.0
 41
0.8
 50
0.0
 71
0
 42
0.2
  3
txt
  4

  0
STYLE
  5
200
100
AcDbSymbolTableRecord
100
AcDbTextStyleTableRecord
  2
TEXTSTYLE_1
 70
0
 40
0.0
 41
0.8
 50
0.0
 71
0
 42
0.2
  3
gdt
  4

  0
ENDTAB
  0
TABLE
  2
VIEW
  5
6
100
AcDbSymbolTable
 70
0
  0
ENDTAB
  0
TABLE
  2
UCS
  5
7
100
AcDbSymbolTable
 70
0
  0
ENDTAB
  0
TABLE
  2
APPID
  5
9
100
AcDbSymbolTable
 70
1
  0
APPID
  5
201
100
AcDbSymbolTableRecord
100
AcDbRegAppTableRecord
  2
ACAD
 70
0
  0
ENDTAB
  0
TABLE
  2
BLOCK_RECORD
  5
1
100
AcDbSymbolTable
 70
0
  0
BLOCK_RECORD
  5
202
100
AcDbSymbolTableRecord
100
AcDbBlockTableRecord
  2
*Model_Space
  0
BLOCK_RECORD
  5
203
100
AcDbSymbolTableRecord
100
AcDbBlockTableRecord
  2
*Paper_Space
  0
BLOCK_RECORD
  5
204
100
AcDbSymbolTableRecord
100
AcDbBlockTableRecord
  2
_FILLED
  0
ENDTAB
  0
TABLE
  2
DIMSTYLE
  5
A
100
AcDbSymbolTable
 70
1
100
AcDbDimStyleTable
 71
0
  0
DIMSTYLE
105
205
100
AcDbSymbolTableRecord
100
AcDbDimStyleTableRecord
  2
STANDARD
 70
0
  3

  4

 40
1.0
 41
0.1
 42
0.0625
 43
0.38
 44
0.125
 45
0.0
 46
0.0
 47
0.001
 48
0.001
140
0.08
141
0.09
142
0.0
143
25.4
144
1.0
145
0.0
146
1.0
147
0.09
 71
1.0
 72
0.0
 73
1
 74
1
 75
0
 76
0
 77
0
 78
4
 79
1
170
1
171
2
172
0
173
0
174
0
175
0
176
0
177
0
178
0
270
2
179
3
271
3
272
3
273
2
274
2
275
0
280
0
281
0
282
0
283
1
284
4
285
0
286
0
287
3
288
0
340
11
278
46
341
204
342
204
343
204
344
204
  0
ENDTAB
  0
ENDSEC
  0
SECTION
  2
BLOCKS
  0
BLOCK
  5
20
100
AcDbEntity
  8
0
100
AcDbBlockBegin
  2
*Model_Space
 70
0
 10
0.0
 20
0.0
 30
0.0
  3
*Model_Space
  1

  0
ENDBLK
  5
21
100
AcDbEntity
  8
0
100
AcDbBlockEnd
  0
BLOCK
  5
1C
100
AcDbEntity
  8
0
100
AcDbBlockBegin
  2
*Paper_Space
 70
0
 10
0.0
 20
0.0
 30
0.0
  3
*Paper_Space
  1

  0
ENDBLK
  5
1D
100
AcDbEntity
  8
0
100
AcDbBlockEnd
  0
BLOCK
  5
206
100
AcDbEntity
  8
0
100
AcDbBlockBegin
  2
_FILLED
 70
64
 10
0.0
 20
0.0
  3
_FILLED
  1

  0
SOLID
  5
207
100
AcDbEntity
  8
0
  6
BYBLOCK
 62
0
100
AcDbTrace
 10
0.0
 20
0.0
 11
-1.0
 21
0.2
 12
-1.0
 22
-0.2
 13
-1.0
 23
-0.2
  0
ENDBLK
  5
208
100
AcDbEntity
  8
0
  6
BYBLOCK
 62
0
100
AcDbBlockEnd
  0
ENDSEC
  0
SECTION
  2
ENTITIES
  0
LINE
  5
209
100
AcDbEntity
  8
0
100
AcDbLine
 62
7
  6
CONTINUOUS
 10
8.7892131004
 20
1.133584488
 11
10.6892131004
 21
1.133584488
  0
LINE
  5
20A
100
AcDbEntity
  8
0
100
AcDbLine
 62
7
  6
CONTINUOUS
 10
12.1569274487
 20
4.3745278522
 11
12.1508574708
 21
4.373584488
  0
LINE
  5
20B
100
AcDbEntity
  8
0
100
AcDbLine
 62
7
  6
CONTINUOUS
 10
12.511142966
 20
4.4472942096
 11
12.51171923
 21
4.4473538056
  0
LINE
  5
20C
100
AcDbEntity
  8
0
100
AcDbLine
 62
7
  6
CONTINUOUS
 10
10.7892131004
 20
4.373584488
 11
11.6342131004
 21
4.373584488
  0
LINE
  5
20D
100
AcDbEntity
  8
0
100
AcDbLine
 62
7
  6
CONTINUOUS
 10
11.7242131004
 20
4.373584488
 11
12.1508574708
 21
4.373584488
  0
LINE
  5
20E
100
AcDbEntity
  8
0
100
AcDbLine
 62
7
  6
CONTINUOUS
 10
12.5482341521
 20
4.373584488
 11
13.0681920486
 21
4.373584488
  0
LINE
  5
20F
100
AcDbEntity
  8
0
100
AcDbLine
 62
9
  6
CONTINUOUS
 10
12.5282131004
 20
4.393584488
 11
13.0882131004
 21
4.393584488
  0
LINE
  5
210
100
AcDbEntity
  8
0
100
AcDbLine
 62
7
  6
CONTINUOUS
 10
12.5759781078
 20
4.4494739546
 11
12.8042131004
 21
4.4494739546
  0
LINE
  5
211
100
AcDbEntity
  8
0
100
AcDbLine
 62
9
  6
CONTINUOUS
 10
12.8042131004
 20
4.4511987152
 11
12.5759781078
 21
4.4511987152
  0
LINE
  5
212
100
AcDbEntity
  8
0
100
AcDbLine
 62
7
  6
CONTINUOUS
 10
11.6642131004
 20
4.468584488
 11
11.7042131004
 21
4.468584488
  0
LINE
  5
213
100
AcDbEntity
  8
0
100
AcDbLine
 62
7
  6
CONTINUOUS
 10
11.6642131004
 20
6.078584488
 11
11.7042131004
 21
6.078584488
  0
LINE
  5
214
100
AcDbEntity
  8
0
100
AcDbLine
 62
7
  6
CONTINUOUS
 10
11.6342131004
 20
6.173584488
 11
10.7892131004
 21
6.173584488
  0
LINE
  5
215
100
AcDbEntity
  8
0
100
AcDbLine
 62
7
  6
CONTINUOUS
 10
11.7242131004
 20
6.173584488
 11
12.4667131004
 21
6.173584488
  0
LWPOLYLINE
  5
216
100
AcDbEntity
  8
0
100
AcDbPolyline
 62
7
  6
CONTINUOUS
 90
6
 70
0
 10
12.8047048813
 20
6.0979378333
 10
12.745746139
 20
6.1016109717
 10
12.6728753528
 20
6.112159593
 10
12.6062366934
 20
6.1274034052
 10
12.5502167875
 20
6.1441295222
 10
12.5082129307
 20
6.1588775038
  0
LINE
  5
217
100
AcDbEntity
  8
0
100
AcDbLine
 62
7
  6
CONTINUOUS
 10
12.4742530085
 20
6.1721087906
 11
12.4667131004
 21
6.173584488
  0
LINE
  5
218
100
AcDbEntity
  8
0
100
AcDbLine
 62
7
  6
CONTINUOUS
 10
12.5082129307
 20
6.1588775038
 11
12.4826148404
 21
6.168745716
  0
LINE
  5
219
100
AcDbEntity
  8
0
100
AcDbLine
 62
7
  6
CONTINUOUS
 10
12.4826148404
 20
6.168745716
 11
12.4742597687
 21
6.1721060375
  0
LINE
  5
21A
100
AcDbEntity
  8
0
100
AcDbLine
 62
7
  6
CONTINUOUS
 10
8.7892131004
 20
7.353584488
 11
8.7892131004
 21
1.133584488
  0
LINE
  5
21B
100
AcDbEntity
  8
0
100
AcDbLine
 62
7
  6
CONTINUOUS
 10
9.1692131004
 20
16.840090601
 11
9.1692131004
 21
13.378584488
  0
LINE
  5
21C
100
AcDbEntity
  8
0
100
AcDbLine
 62
7
  6
CONTINUOUS
 10
9.1692131004
 20
10.7343633408
 11
9.1692131004
 21
13.0078992805
  0
LINE
  5
21D
100
AcDbEntity
  8
0
100
AcDbLine
 62
7
  6
CONTINUOUS
 10
9.1693405687
 20
13.378584488
 11
9.1693405687
 21
13.0078992805
  0
LINE
  5
21E
100
AcDbEntity
  8
0
100
AcDbLine
 62
7
  6
CONTINUOUS
 10
9.1693405687
 20
7.403584488
 11
9.1693405687
 21
10.7343633408
  0
LINE
  5
21F
100
AcDbEntity
  8
0
100
AcDbLine
 62
7
  6
CONTINUOUS
 10
9.6626021737
 20
10.6465953875
 11
9.6782551906
 21
10.6615443823
  0
LINE
  5
220
100
AcDbEntity
  8
0
100
AcDbLine
 62
7
  6
CONTINUOUS
 10
9.7754788016
 20
10.7543951896
 11
9.7911318185
 21
10.7693441844
  0
LINE
  5
221
100
AcDbEntity
  8
0
100
AcDbLine
 62
7
  6
CONTINUOUS
 10
9.6872943822
 20
10.6460038274
 11
9.7029473991
 21
10.6609528222
  0
LINE
  5
222
100
AcDbEntity
  8
0
100
AcDbLine
 62
7
  6
CONTINUOUS
 10
9.8001710101
 20
10.7538036294
 11
9.815824027
 21
10.7687526242
  0
LINE
  5
223
100
AcDbEntity
  8
0
100
AcDbLine
 62
7
  6
CONTINUOUS
 10
9.7289370768
 20
10.6706409128
 11
9.7353022387
 21
10.6767197903
  0
LINE
  5
224
100
AcDbEntity
  8
0
100
AcDbLine
 62
7
  6
CONTINUOUS
 10
9.8476780654
 20
10.7853190043
 11
9.8353173856
 21
10.7755585699
  0
LINE
  5
225
100
AcDbEntity
  8
0
100
AcDbLine
 62
7
  6
CONTINUOUS
 10
9.5415717402
 20
10.6531657484
 11
9.5869985645
 21
10.6666514314
  0
LINE
  5
226
100
AcDbEntity
  8
0
100
AcDbLine
 62
7
  6
CONTINUOUS
 10
9.8691524731
 20
10.7504133547
 11
9.9145792974
 21
10.7638990378
  0
LINE
  5
227
100
AcDbEntity
  8
0
100
AcDbLine
 62
7
  6
CONTINUOUS
 10
9.9368544605
 20
10.7621822634
 11
9.8914276362
 21
10.7486965804
  0
LINE
  5
228
100
AcDbEntity
  8
0
100
AcDbLine
 62
7
  6
CONTINUOUS
 10
9.6092737276
 20
10.664934657
 11
9.5638469033
 21
10.651448974
  0
LINE
  5
229
100
AcDbEntity
  8
0
100
AcDbLine
 62
9
  6
CONTINUOUS
 10
10.6892131004
 20
7.353584488
 11
8.7892789821
 21
7.353584488
  0
LINE
  5
22A
100
AcDbEntity
  8
0
100
AcDbLine
 62
7
  6
CONTINUOUS
 10
10.6592131004
 20
7.383584488
 11
8.8192769016
 21
7.383584488
  0
LINE
  5
22B
100
AcDbEntity
  8
0
100
AcDbLine
 62
7
  6
CONTINUOUS
 10
9.1692148292
 20
7.403584488
 11
10.3092113715
 21
7.403584488
  0
LINE
  5
22C
100
AcDbEntity
  8
0
100
AcDbLine
 62
7
  6
CONTINUOUS
 10
9.4762131004
 20
10.742954153
 11
9.4762131004
 21
10.7373288225
  0
LINE
  5
22D
100
AcDbEntity
  8
0
100
AcDbLine
 62
7
  6
CONTINUOUS
 10
9.7392131004
 20
10.7879175386
 11
9.7392131004
 21
10.7778609749
  0
LINE
  5
22E
100
AcDbEntity
  8
0
100
AcDbLine
 62
7
  6
CONTINUOUS
 10
9.7392131004
 20
10.6817324428
 11
9.7392131004
 21
10.6837767447
  0
LINE
  5
22F
100
AcDbEntity
  8
0
100
AcDbLine
 62
7
  6
CONTINUOUS
 10
10.1453726955
 20
10.6981609349
 11
10.1750193813
 21
10.7271213668
  0
LINE
  5
230
100
AcDbEntity
  8
0
100
AcDbLine
 62
7
  6
CONTINUOUS
 10
10.0022131004
 20
10.742954153
 11
10.0022131004
 21
10.7373288225
  0
LINE
  5
231
100
AcDbEntity
  8
0
100
AcDbLine
 62
7
  6
CONTINUOUS
 10
10.309085632
 20
13.378584488
 11
10.309085632
 21
13.0078992805
  0
LINE
  5
232
100
AcDbEntity
  8
0
100
AcDbLine
 62
7
  6
CONTINUOUS
 10
10.309085632
 20
7.403584488
 11
10.309085632
 21
10.7343633408
  0
LINE
  5
233
100
AcDbEntity
  8
0
100
AcDbLine
 62
7
  6
CONTINUOUS
 10
10.3092131004
 20
16.840090601
 11
10.3092131004
 21
13.378584488
  0
LINE
  5
234
100
AcDbEntity
  8
0
100
AcDbLine
 62
7
  6
CONTINUOUS
 10
10.3092131004
 20
10.7343633408
 11
10.3092131004
 21
13.0078992811
  0
LINE
  5
235
100
AcDbEntity
  8
0
100
AcDbLine
 62
7
  6
CONTINUOUS
 10
10.6892131004
 20
1.133584488
 11
10.6892131004
 21
4.273584488
  0
LINE
  5
236
100
AcDbEntity
  8
0
100
AcDbLine
 62
7
  6
CONTINUOUS
 10
10.6892131004
 20
6.273584488
 11
10.6892131004
 21
7.353584488
  0
LINE
  5
237
100
AcDbEntity
  8
0
100
AcDbLine
 62
9
  6
CONTINUOUS
 10
13.0882131004
 20
8.853584488
 11
12.5282131004
 21
8.853584488
  0
LINE
  5
238
100
AcDbEntity
  8
0
100
AcDbLine
 62
7
  6
CONTINUOUS
 10
13.0681928118
 20
8.873584488
 11
12.5482333889
 21
8.873584488
  0
LINE
  5
239
100
AcDbEntity
  8
0
100
AcDbLine
 62
7
  6
CONTINUOUS
 10
9.3330535052
 20
10.6981609349
 11
9.3034068194
 21
10.7271213668
  0
LINE
  5
23A
100
AcDbEntity
  8
0
100
AcDbLine
 62
7
  6
CONTINUOUS
 10
9.6307481353
 20
10.7853190043
 11
9.6431088151
 21
10.7755585699
  0
LINE
  5
23B
100
AcDbEntity
  8
0
100
AcDbLine
 62
7
  6
CONTINUOUS
 10
9.743123962
 20
10.6767197903
 11
9.749489124
 21
10.6706409128
  0
LINE
  5
23C
100
AcDbEntity
  8
0
100
AcDbLine
 62
7
  6
CONTINUOUS
 10
9.7911318185
 20
10.6460038274
 11
9.7754788016
 21
10.6609528222
  0
LINE
  5
23D
100
AcDbEntity
  8
0
100
AcDbLine
 62
7
  6
CONTINUOUS
 10
9.6782551906
 20
10.7538036294
 11
9.6626021737
 21
10.7687526242
  0
LINE
  5
23E
100
AcDbEntity
  8
0
100
AcDbLine
 62
7
  6
CONTINUOUS
 10
9.6872943822
 20
10.7693441844
 11
9.7029473991
 21
10.7543951896
  0
LINE
  5
23F
100
AcDbEntity
  8
0
100
AcDbLine
 62
7
  6
CONTINUOUS
 10
9.8001710101
 20
10.6615443823
 11
9.815824027
 21
10.6465953875
  0
LINE
  5
240
100
AcDbEntity
  8
0
100
AcDbLine
 62
9
  6
CONTINUOUS
 10
11.6342131004
 20
4.373584488
 11
11.6342131004
 21
6.173584488
  0
LINE
  5
241
100
AcDbEntity
  8
0
100
AcDbLine
 62
7
  6
CONTINUOUS
 10
11.6642131004
 20
4.403584488
 11
11.6642131004
 21
6.143584488
  0
LINE
  5
242
100
AcDbEntity
  8
0
100
AcDbLine
 62
7
  6
CONTINUOUS
 10
11.7042131004
 20
6.153584488
 11
11.7042131004
 21
4.393584488
  0
LINE
  5
243
100
AcDbEntity
  8
0
100
AcDbLine
 62
9
  6
CONTINUOUS
 10
11.7242131004
 20
6.173584488
 11
11.7242131004
 21
4.373584488
  0
LINE
  5
244
100
AcDbEntity
  8
0
100
AcDbLine
 62
7
  6
CONTINUOUS
 10
9.9145792974
 20
10.651448974
 11
9.8691524731
 21
10.664934657
  0
LINE
  5
245
100
AcDbEntity
  8
0
100
AcDbLine
 62
7
  6
CONTINUOUS
 10
9.5869985645
 20
10.7486965804
 11
9.5415717402
 21
10.7621822634
  0
LINE
  5
246
100
AcDbEntity
  8
0
100
AcDbLine
 62
7
  6
CONTINUOUS
 10
9.5638469033
 20
10.7638990378
 11
9.6092737276
 21
10.7504133547
  0
LINE
  5
247
100
AcDbEntity
  8
0
100
AcDbLine
 62
7
  6
CONTINUOUS
 10
9.8914276362
 20
10.6666514314
 11
9.9368544605
 21
10.6531657484
  0
LINE
  5
248
100
AcDbEntity
  8
0
100
AcDbLine
 62
7
  6
CONTINUOUS
 10
12.5282131004
 20
8.853584488
 11
12.5282131004
 21
6.1518552406
  0
LINE
  5
249
100
AcDbEntity
  8
0
100
AcDbLine
 62
7
  6
CONTINUOUS
 10
12.5282131004
 20
4.4478681046
 11
12.5282131004
 21
4.393584488
  0
LINE
  5
24A
100
AcDbEntity
  8
0
100
AcDbLine
 62
9
  6
CONTINUOUS
 10
12.5759781078
 20
4.4511987152
 11
12.5759781078
 21
4.4494739546
  0
LINE
  5
24B
100
AcDbEntity
  8
0
100
AcDbLine
 62
7
  6
CONTINUOUS
 10
10.0385383806
 20
10.7502762545
 11
9.967784443
 21
10.7395739558
  0
LINE
  5
24C
100
AcDbEntity
  8
0
100
AcDbLine
 62
7
  6
CONTINUOUS
 10
9.5283194273
 20
10.6731001171
 11
9.4575654897
 21
10.6623978185
  0
LINE
  5
24D
100
AcDbEntity
  8
0
100
AcDbLine
 62
7
  6
CONTINUOUS
 10
9.4398878201
 20
10.6650717573
 11
9.5106417578
 21
10.6757740559
  0
LINE
  5
24E
100
AcDbEntity
  8
0
100
AcDbLine
 62
7
  6
CONTINUOUS
 10
9.9501067734
 20
10.7422478946
 11
10.0208607111
 21
10.7529501933
  0
LINE
  5
24F
100
AcDbEntity
  8
0
100
AcDbLine
 62
7
  6
CONTINUOUS
 10
10.1109222568
 20
10.7342000407
 11
10.0217670942
 21
10.727328742
  0
LINE
  5
250
100
AcDbEntity
  8
0
100
AcDbLine
 62
7
  6
CONTINUOUS
 10
9.4680088691
 20
10.6846499103
 11
9.3788537065
 21
10.6777786116
  0
LINE
  5
251
100
AcDbEntity
  8
0
100
AcDbLine
 62
7
  6
CONTINUOUS
 10
9.367503944
 20
10.6811479711
 11
9.4566591066
 21
10.6880192698
  0
LINE
  5
252
100
AcDbEntity
  8
0
100
AcDbLine
 62
7
  6
CONTINUOUS
 10
10.0104173317
 20
10.7306981014
 11
10.0995724943
 21
10.7375694001
  0
LINE
  5
253
100
AcDbEntity
  8
0
100
AcDbLine
 62
7
  6
CONTINUOUS
 10
10.1469206508
 20
10.7155272738
 11
10.0480913918
 21
10.7131595856
  0
LINE
  5
254
100
AcDbEntity
  8
0
100
AcDbLine
 62
7
  6
CONTINUOUS
 10
9.4342456706
 20
10.6984534624
 11
9.3354164115
 21
10.6960857743
  0
LINE
  5
255
100
AcDbEntity
  8
0
100
AcDbLine
 62
7
  6
CONTINUOUS
 10
9.3315055499
 20
10.699820738
 11
9.4303348089
 21
10.7021884262
  0
LINE
  5
256
100
AcDbEntity
  8
0
100
AcDbLine
 62
7
  6
CONTINUOUS
 10
10.0441805302
 20
10.7168945493
 11
10.1430097892
 21
10.7192622375
  0
LINE
  5
257
100
AcDbEntity
  8
0
100
AcDbLine
 62
7
  6
CONTINUOUS
 10
9.3024235685
 20
10.7358724658
 11
9.300713003
 21
10.7358314851
  0
LINE
  5
258
100
AcDbEntity
  8
0
100
AcDbLine
 62
7
  6
CONTINUOUS
 10
9.3315055499
 20
10.7155272738
 11
9.4303348089
 21
10.7131595856
  0
LINE
  5
259
100
AcDbEntity
  8
0
100
AcDbLine
 62
7
  6
CONTINUOUS
 10
10.0441805302
 20
10.6984534624
 11
10.1430097892
 21
10.6960857743
  0
LINE
  5
25A
100
AcDbEntity
  8
0
100
AcDbLine
 62
7
  6
CONTINUOUS
 10
9.3354164115
 20
10.7192622375
 11
9.4342456706
 21
10.7168945493
  0
LINE
  5
25B
100
AcDbEntity
  8
0
100
AcDbLine
 62
7
  6
CONTINUOUS
 10
10.0480913918
 20
10.7021884262
 11
10.1469206508
 21
10.699820738
  0
LINE
  5
25C
100
AcDbEntity
  8
0
100
AcDbLine
 62
7
  6
CONTINUOUS
 10
10.1776754543
 20
10.7358323894
 11
10.1760026322
 21
10.7358724658
  0
LINE
  5
25D
100
AcDbEntity
  8
0
100
AcDbLine
 62
7
  6
CONTINUOUS
 10
10.0995724943
 20
10.6777786116
 11
10.0104173317
 21
10.6846499103
  0
LINE
  5
25E
100
AcDbEntity
  8
0
100
AcDbLine
 62
7
  6
CONTINUOUS
 10
9.4566591066
 20
10.727328742
 11
9.367503944
 21
10.7342000407
  0
LINE
  5
25F
100
AcDbEntity
  8
0
100
AcDbLine
 62
7
  6
CONTINUOUS
 10
9.3788537065
 20
10.7375694001
 11
9.4680088691
 21
10.7306981014
  0
LINE
  5
260
100
AcDbEntity
  8
0
100
AcDbLine
 62
7
  6
CONTINUOUS
 10
10.0217670942
 20
10.6880192698
 11
10.1109222568
 21
10.6811479711
  0
LINE
  5
261
100
AcDbEntity
  8
0
100
AcDbLine
 62
7
  6
CONTINUOUS
 10
10.0208607111
 20
10.6623978185
 11
9.9501067734
 21
10.6731001171
  0
LINE
  5
262
100
AcDbEntity
  8
0
100
AcDbLine
 62
7
  6
CONTINUOUS
 10
9.5106417578
 20
10.7395739558
 11
9.4398878201
 21
10.7502762545
  0
LINE
  5
263
100
AcDbEntity
  8
0
100
AcDbLine
 62
7
  6
CONTINUOUS
 10
9.4575654897
 20
10.7529501933
 11
9.5283194273
 21
10.7422478946
  0
LINE
  5
264
100
AcDbEntity
  8
0
100
AcDbLine
 62
7
  6
CONTINUOUS
 10
9.967784443
 20
10.6757740559
 11
10.0385383806
 21
10.6650717573
  0
LINE
  5
265
100
AcDbEntity
  8
0
100
AcDbLine
 62
9
  6
CONTINUOUS
 10
12.8042131004
 20
4.4494739546
 11
12.8042131004
 21
6.0962260833
  0
LINE
  5
266
100
AcDbEntity
  8
0
100
AcDbLine
 62
7
  6
CONTINUOUS
 10
12.8242131004
 20
4.469473726
 11
12.8242131004
 21
6.0779434747
  0
LINE
  5
267
100
AcDbEntity
  8
0
100
AcDbLine
 62
7
  6
CONTINUOUS
 10
13.0882131004
 20
8.853584488
 11
13.0882131004
 21
4.393584488
  0
LINE
  5
268
100
AcDbEntity
  8
0
100
AcDbLine
 62
9
  6
CONTINUOUS
 10
12.8042129745
 20
6.0962245904
 11
12.8047044943
 21
6.0979376674
  0
LINE
  5
269
100
AcDbEntity
  8
0
100
AcDbLine
 62
7
  6
CONTINUOUS
 10
12.1569274487
 20
4.3745278522
 11
12.1640243064
 21
4.3767755703
  0
LINE
  5
26A
100
AcDbEntity
  8
0
100
AcDbLine
 62
7
  6
CONTINUOUS
 10
12.163879698
 20
4.3767298891
 11
12.1857534391
 21
4.3834953889
  0
LWPOLYLINE
  5
26B
100
AcDbEntity
  8
0
100
AcDbPolyline
 62
7
  6
CONTINUOUS
 90
7
 70
0
 10
12.1857534391
 20
4.3834953889
 10
12.223176578
 20
4.3944722481
 10
12.2776674287
 20
4.4090052393
 10
12.3474429803
 20
4.4248342429
 10
12.4272764708
 20
4.4385986523
 10
12.5104587043
 20
4.4472712048
 10
12.5759781078
 20
4.449473956
  0
ARC
  5
26C
100
AcDbEntity
  8
0
100
AcDbCircle
 62
7
  6
CONTINUOUS
 10
9.7392177575
 20
7.8935767063
 40
2.8982149194
100
AcDbArc
 50
87.8506511477
 51
92.1671356976
  0
ARC
  5
26D
100
AcDbEntity
  8
0
100
AcDbCircle
 62
7
  6
CONTINUOUS
 10
9.7405916332
 20
8.144122763
 40
2.6257078705
100
AcDbArc
 50
88.358123272
 51
88.8970905022
  0
ARC
  5
26E
100
AcDbEntity
  8
0
100
AcDbCircle
 62
7
  6
CONTINUOUS
 10
9.7375393149
 20
8.1564468514
 40
2.6133803829
100
AcDbArc
 50
91.1016383164
 51
91.6431479095
  0
ARC
  5
26F
100
AcDbEntity
  8
0
100
AcDbCircle
 62
7
  6
CONTINUOUS
 10
9.7382122609
 20
8.7667783792
 40
1.9879296253
100
AcDbArc
 50
91.0164513418
 51
91.7283348841
  0
ARC
  5
270
100
AcDbEntity
  8
0
100
AcDbCircle
 62
7
  6
CONTINUOUS
 10
9.7405092183
 20
8.779103548
 40
1.9756011594
100
AcDbArc
 50
88.2694438817
 51
88.9857698924
  0
ARC
  5
271
100
AcDbEntity
  8
0
100
AcDbCircle
 62
7
  6
CONTINUOUS
 10
9.7756327845
 20
8.8156981725
 40
1.9531494426
100
AcDbArc
 50
85.2651632381
 51
85.9205481703
  0
ARC
  5
272
100
AcDbEntity
  8
0
100
AcDbCircle
 62
7
  6
CONTINUOUS
 10
9.7005501368
 20
8.8448047436
 40
1.923957038
100
AcDbArc
 50
94.0744796616
 51
94.7398089299
  0
ARC
  5
273
100
AcDbEntity
  8
0
100
AcDbCircle
 62
7
  6
CONTINUOUS
 10
9.6748773603
 20
8.9672706692
 40
1.8223763095
100
AcDbArc
 50
95.3053413623
 51
95.484951012
  0
ARC
  5
274
100
AcDbEntity
  8
0
100
AcDbCircle
 62
7
  6
CONTINUOUS
 10
9.804361437
 20
8.9758754127
 40
1.813733292
100
AcDbArc
 50
84.5149990629
 51
84.6952161576
  0
ARC
  5
275
100
AcDbEntity
  8
0
100
AcDbCircle
 62
7
  6
CONTINUOUS
 10
9.6702707756
 20
9.0153994771
 40
1.77402755
100
AcDbArc
 50
95.4854311342
 51
95.6401979479
  0
ARC
  5
276
100
AcDbEntity
  8
0
100
AcDbCircle
 62
7
  6
CONTINUOUS
 10
9.8086951657
 20
9.0209423086
 40
1.7684585057
100
AcDbArc
 50
84.370975697
 51
84.5151985997
  0
ARC
  5
277
100
AcDbEntity
  8
0
100
AcDbCircle
 62
7
  6
CONTINUOUS
 10
9.6600303573
 20
9.1182507597
 40
1.6706677644
100
AcDbArc
 50
95.6373685093
 51
96.363549162
  0
ARC
  5
278
100
AcDbEntity
  8
0
100
AcDbCircle
 62
7
  6
CONTINUOUS
 10
9.8215228388
 20
9.148049962
 40
1.6407055844
100
AcDbArc
 50
83.6291510031
 51
84.3813893572
  0
ARC
  5
279
100
AcDbEntity
  8
0
100
AcDbCircle
 62
7
  6
CONTINUOUS
 10
9.7392118102
 20
9.1560958992
 40
1.6184430851
100
AcDbArc
 50
89.8105960976
 51
90.1893663441
  0
ARC
  5
27A
100
AcDbEntity
  8
0
100
AcDbCircle
 62
7
  6
CONTINUOUS
 10
9.7119482067
 20
9.2728424554
 40
1.4811339612
100
AcDbArc
 50
93.9750193478
 51
94.8392692437
  0
ARC
  5
27B
100
AcDbEntity
  8
0
100
AcDbCircle
 62
7
  6
CONTINUOUS
 10
9.7687214701
 20
9.3019515783
 40
1.4519393596
100
AcDbArc
 50
85.1520417142
 51
86.0336696942
  0
ARC
  5
27C
100
AcDbEntity
  8
0
100
AcDbCircle
 62
7
  6
CONTINUOUS
 10
9.7265183221
 20
9.4718009979
 40
1.3024544888
100
AcDbArc
 50
93.4156338964
 51
93.5874133837
  0
ARC
  5
27D
100
AcDbEntity
  8
0
100
AcDbCircle
 62
7
  6
CONTINUOUS
 10
9.7522955964
 20
9.4781286756
 40
1.2961149485
100
AcDbArc
 50
86.3927871414
 51
86.5845862365
  0
ARC
  5
27E
100
AcDbEntity
  8
0
100
AcDbCircle
 62
7
  6
CONTINUOUS
 10
9.7236281254
 20
9.5174007089
 40
1.256763255
100
AcDbArc
 50
93.6616944728
 51
93.9724569798
  0
ARC
  5
27F
100
AcDbEntity
  8
0
100
AcDbCircle
 62
7
  6
CONTINUOUS
 10
9.7553116406
 20
9.5250967478
 40
1.2490501293
100
AcDbArc
 50
86.0274554108
 51
86.3401296141
  0
ARC
  5
280
100
AcDbEntity
  8
0
100
AcDbCircle
 62
7
  6
CONTINUOUS
 10
10.7892582926
 20
4.2735395956
 40
0.1000473694
100
AcDbArc
 50
90.0258814022
 51
179.9742904965
  0
ARC
  5
281
100
AcDbEntity
  8
0
100
AcDbCircle
 62
7
  6
CONTINUOUS
 10
10.7892582439
 20
6.273629309
 40
0.1000473525
100
AcDbArc
 50
180.0256686219
 51
269.9741465137
  0
ARC
  5
282
100
AcDbEntity
  8
0
100
AcDbCircle
 62
7
  6
CONTINUOUS
 10
8.8192131004
 20
7.353584488
 40
0.03
100
AcDbArc
 50
90.0
 51
180.0
  0
ARC
  5
283
100
AcDbEntity
  8
0
100
AcDbCircle
 62
7
  6
CONTINUOUS
 10
10.6592131004
 20
7.353584488
 40
0.03
100
AcDbArc
 50
0.0
 51
90.0
  0
ARC
  5
284
100
AcDbEntity
  8
0
100
AcDbCircle
 62
7
  6
CONTINUOUS
 10
9.726319186
 20
13.195578158
 40
2.538177294
100
AcDbArc
 50
267.0456753211
 51
267.3428561895
  0
ARC
  5
285
100
AcDbEntity
  8
0
100
AcDbCircle
 62
7
  6
CONTINUOUS
 10
9.7027934163
 20
12.5996498392
 40
1.9531494425
100
AcDbArc
 50
265.2651632381
 51
265.9205481703
  0
ARC
  5
286
100
AcDbEntity
  8
0
100
AcDbCircle
 62
7
  6
CONTINUOUS
 10
9.6751147977
 20
12.4832433736
 40
1.8239491114
100
AcDbArc
 50
264.3519617941
 51
265.0133525113
  0
ARC
  5
287
100
AcDbEntity
  8
0
100
AcDbCircle
 62
7
  6
CONTINUOUS
 10
9.7097047306
 20
12.1133964334
 40
1.4519393596
100
AcDbArc
 50
265.1520417142
 51
266.0336696943
  0
ARC
  5
288
100
AcDbEntity
  8
0
100
AcDbCircle
 62
7
  6
CONTINUOUS
 10
9.5994528157
 20
11.6602001022
 40
1.0078399728
100
AcDbArc
 50
260.8903864256
 51
261.9068084509
  0
ARC
  5
289
100
AcDbEntity
  8
0
100
AcDbCircle
 62
7
  6
CONTINUOUS
 10
9.5708778282
 20
9.8018150922
 40
0.9812297547
100
AcDbArc
 50
99.0383083676
 51
99.315452422
  0
ARC
  5
28A
100
AcDbEntity
  8
0
100
AcDbCircle
 62
7
  6
CONTINUOUS
 10
9.595134007
 20
9.7836999742
 40
0.9789642915
100
AcDbArc
 50
98.0782008682
 51
99.1246042553
  0
ARC
  5
28B
100
AcDbEntity
  8
0
100
AcDbCircle
 62
7
  6
CONTINUOUS
 10
9.5645957678
 20
11.6083762694
 40
0.941958848
100
AcDbArc
 50
260.321004745
 51
261.0010325497
  0
ARC
  5
28C
100
AcDbEntity
  8
0
100
AcDbCircle
 62
7
  6
CONTINUOUS
 10
9.5638884622
 20
9.8445448385
 40
0.9379321559
100
AcDbArc
 50
99.3166418954
 51
99.5688602311
  0
ARC
  5
28D
100
AcDbEntity
  8
0
100
AcDbCircle
 62
7
  6
CONTINUOUS
 10
9.5575389955
 20
9.8823003974
 40
0.8996464181
100
AcDbArc
 50
99.5698212832
 51
99.8070924208
  0
ARC
  5
28E
100
AcDbEntity
  8
0
100
AcDbCircle
 62
7
  6
CONTINUOUS
 10
9.634020681
 20
9.983675256
 40
0.7659015623
100
AcDbArc
 50
97.9326478392
 51
99.2701572843
  0
ARC
  5
28F
100
AcDbEntity
  8
0
100
AcDbCircle
 62
7
  6
CONTINUOUS
 10
9.6297014936
 20
11.4031181877
 40
0.737024224
100
AcDbArc
 50
260.7036389832
 51
262.0935558934
  0
ARC
  5
290
100
AcDbEntity
  8
0
100
AcDbCircle
 62
7
  6
CONTINUOUS
 10
9.4632439092
 20
10.3401346282
 40
0.4320816075
100
AcDbArc
 50
104.1279640803
 51
104.4525646198
  0
ARC
  5
291
100
AcDbEntity
  8
0
100
AcDbCircle
 62
7
  6
CONTINUOUS
 10
9.4592269139
 20
10.3557726796
 40
0.4159358735
100
AcDbArc
 50
104.4543614224
 51
104.5816219175
  0
ARC
  5
292
100
AcDbEntity
  8
0
100
AcDbCircle
 62
7
  6
CONTINUOUS
 10
9.4094886509
 20
10.9231712874
 40
0.23876035
100
AcDbArc
 50
251.2503516476
 51
251.6370125065
  0
ARC
  5
293
100
AcDbEntity
  8
0
100
AcDbCircle
 62
7
  6
CONTINUOUS
 10
9.4061215029
 20
10.9132638721
 40
0.2282963857
100
AcDbArc
 50
250.9135139665
 51
251.2513263752
  0
ARC
  5
294
100
AcDbEntity
  8
0
100
AcDbCircle
 62
7
  6
CONTINUOUS
 10
9.321132496
 20
10.7125609035
 40
0.0310414101
100
AcDbArc
 50
132.0527492306
 51
133.982578912
  0
ARC
  5
295
100
AcDbEntity
  8
0
100
AcDbCircle
 62
7
  6
CONTINUOUS
 10
9.1928411441
 20
12.9733025189
 40
0.0236280438
100
AcDbArc
 50
178.4573288801
 51
180.0012718513
  0
ARC
  5
296
100
AcDbEntity
  8
0
100
AcDbCircle
 62
9
  6
CONTINUOUS
 10
9.1822906532
 20
10.7343626303
 40
0.0130775529
100
AcDbArc
 50
175.9455432246
 51
179.996887266
  0
ARC
  5
297
100
AcDbEntity
  8
0
100
AcDbCircle
 62
9
  6
CONTINUOUS
 10
9.1822711277
 20
12.973301774
 40
0.0130580273
100
AcDbArc
 50
177.253926892
 51
179.999032629
  0
ARC
  5
298
100
AcDbEntity
  8
0
100
AcDbCircle
 62
9
  6
CONTINUOUS
 10
9.1920612225
 20
10.7244777039
 40
0.0128481221
100
AcDbArc
 50
175.9455432251
 51
179.9968872659
  0
ARC
  5
299
100
AcDbEntity
  8
0
100
AcDbCircle
 62
7
  6
CONTINUOUS
 10
9.73109575
 20
13.2989730491
 40
2.6416824563
100
AcDbArc
 50
267.343330856
 51
268.0069953641
  0
ARC
  5
29A
100
AcDbEntity
  8
0
100
AcDbCircle
 62
7
  6
CONTINUOUS
 10
9.7378345675
 20
13.2712252488
 40
2.6257078707
100
AcDbArc
 50
268.358123272
 51
268.8970905022
  0
ARC
  5
29B
100
AcDbEntity
  8
0
100
AcDbCircle
 62
7
  6
CONTINUOUS
 10
9.7408868859
 20
13.2589011608
 40
2.6133803834
100
AcDbArc
 50
271.1016383164
 51
271.6431479094
  0
ARC
  5
29C
100
AcDbEntity
  8
0
100
AcDbCircle
 62
7
  6
CONTINUOUS
 10
9.7515119991
 20
13.2077004592
 40
2.5503141574
100
AcDbArc
 50
272.6575906858
 51
272.9536888091
  0
ARC
  5
29D
100
AcDbEntity
  8
0
100
AcDbCircle
 62
7
  6
CONTINUOUS
 10
9.73756247
 20
12.8615466763
 40
2.1909230871
100
AcDbArc
 50
269.7744329832
 51
270.0431663263
  0
ARC
  5
29E
100
AcDbEntity
  8
0
100
AcDbCircle
 62
7
  6
CONTINUOUS
 10
9.7402139398
 20
12.6485696327
 40
1.9879296255
100
AcDbArc
 50
271.0164513419
 51
271.728334884
  0
ARC
  5
29F
100
AcDbEntity
  8
0
100
AcDbCircle
 62
7
  6
CONTINUOUS
 10
9.7379169824
 20
12.6362444635
 40
1.9756011592
100
AcDbArc
 50
268.2694438816
 51
268.9857698925
  0
ARC
  5
2A0
100
AcDbEntity
  8
0
100
AcDbCircle
 62
7
  6
CONTINUOUS
 10
9.7778760639
 20
12.5705432682
 40
1.9239570381
100
AcDbArc
 50
274.0744796616
 51
274.7398089299
  0
ARC
  5
2A1
100
AcDbEntity
  8
0
100
AcDbCircle
 62
7
  6
CONTINUOUS
 10
9.800399133
 20
12.5145322228
 40
1.8553726887
100
AcDbArc
 50
274.9922272278
 51
275.6426263154
  0
ARC
  5
2A2
100
AcDbEntity
  8
0
100
AcDbCircle
 62
7
  6
CONTINUOUS
 10
9.766477994
 20
12.1425055563
 40
1.4811339613
100
AcDbArc
 50
273.9750193478
 51
274.8392692437
  0
ARC
  5
2A3
100
AcDbEntity
  8
0
100
AcDbCircle
 62
7
  6
CONTINUOUS
 10
9.878973385
 20
9.7551479095
 40
1.0078399729
100
AcDbArc
 50
80.8903864256
 51
81.9068084509
  0
ARC
  5
2A4
100
AcDbEntity
  8
0
100
AcDbCircle
 62
7
  6
CONTINUOUS
 10
9.8832921938
 20
11.6316480375
 40
0.9789642915
100
AcDbArc
 50
278.0782008682
 51
279.1246042553
  0
ARC
  5
2A5
100
AcDbEntity
  8
0
100
AcDbCircle
 62
7
  6
CONTINUOUS
 10
9.9087781923
 20
9.8094288034
 40
0.9735173795
100
AcDbArc
 50
80.6828117552
 51
80.9623197814
  0
ARC
  5
2A6
100
AcDbEntity
  8
0
100
AcDbCircle
 62
7
  6
CONTINUOUS
 10
9.910902348
 20
11.6261813707
 40
0.9600027981
100
AcDbArc
 50
279.0045119379
 51
279.6728193479
  0
ARC
  5
2A7
100
AcDbEntity
  8
0
100
AcDbCircle
 62
7
  6
CONTINUOUS
 10
9.9156470841
 20
9.8512157106
 40
0.9311696864
100
AcDbArc
 50
80.4293123438
 51
80.6836102621
  0
ARC
  5
2A8
100
AcDbEntity
  8
0
100
AcDbCircle
 62
7
  6
CONTINUOUS
 10
9.9219138849
 20
9.8883141282
 40
0.8935456882
100
AcDbArc
 50
80.1914760549
 51
80.4300454092
  0
ARC
  5
2A9
100
AcDbEntity
  8
0
100
AcDbCircle
 62
7
  6
CONTINUOUS
 10
9.8444055198
 20
11.4316727557
 40
0.7659015623
100
AcDbArc
 50
277.9326478391
 51
279.2701572843
  0
ARC
  5
2AA
100
AcDbEntity
  8
0
100
AcDbCircle
 62
7
  6
CONTINUOUS
 10
9.8487247071
 20
10.012229824
 40
0.737024224
100
AcDbArc
 50
80.7036389832
 51
82.0935558933
  0
ARC
  5
2AB
100
AcDbEntity
  8
0
100
AcDbCircle
 62
7
  6
CONTINUOUS
 10
10.0160971255
 20
10.3437254899
 40
0.4283760566
100
AcDbArc
 50
75.5422148384
 51
75.8702229597
  0
ARC
  5
2AC
100
AcDbEntity
  8
0
100
AcDbCircle
 62
7
  6
CONTINUOUS
 10
10.0192560381
 20
10.3559910167
 40
0.4157102813
100
AcDbArc
 50
75.4139745122
 51
75.541743901
  0
ARC
  5
2AD
100
AcDbEntity
  8
0
100
AcDbCircle
 62
7
  6
CONTINUOUS
 10
10.0683321182
 20
10.9249759414
 40
0.2406638285
100
AcDbArc
 50
288.3663492081
 51
288.7492812101
  0
ARC
  5
2AE
100
AcDbEntity
  8
0
100
AcDbCircle
 62
7
  6
CONTINUOUS
 10
10.0717879757
 20
10.9147728583
 40
0.2298913727
100
AcDbArc
 50
288.7510464615
 51
289.0846652144
  0
ARC
  5
2AF
100
AcDbEntity
  8
0
100
AcDbCircle
 62
7
  6
CONTINUOUS
 10
9.7392131004
 20
10.8407191757
 40
0.1640460095
100
AcDbArc
 50
268.633937534
 51
271.366062466
  0
ARC
  5
2B0
100
AcDbEntity
  8
0
100
AcDbCircle
 62
7
  6
CONTINUOUS
 10
10.1577081754
 20
10.7130026082
 40
0.0304357932
100
AcDbArc
 50
46.0499890358
 51
47.7810070125
  0
ARC
  5
2B1
100
AcDbEntity
  8
0
100
AcDbCircle
 62
9
  6
CONTINUOUS
 10
10.2863649783
 20
10.7244791
 40
0.0128481221
100
AcDbArc
 50
355.9455432246
 51
359.9968872657
  0
ARC
  5
2B2
100
AcDbEntity
  8
0
100
AcDbCircle
 62
7
  6
CONTINUOUS
 10
9.739212978
 20
13.5958902677
 40
2.9387228185
100
AcDbArc
 50
269.3634736511
 51
270.6361547506
  0
ARC
  5
2B3
100
AcDbEntity
  8
0
100
AcDbCircle
 62
7
  6
CONTINUOUS
 10
9.739213778
 20
13.5853454722
 40
2.9147226715
100
AcDbArc
 50
269.9999866787
 51
270.2019866866
  0
ARC
  5
2B4
100
AcDbEntity
  8
0
100
AcDbCircle
 62
7
  6
CONTINUOUS
 10
9.7463979737
 20
13.3219768822
 40
2.6647048017
100
AcDbArc
 50
271.9966868514
 51
272.6535023741
  0
ARC
  5
2B5
100
AcDbEntity
  8
0
100
AcDbCircle
 62
7
  6
CONTINUOUS
 10
9.7392131004
 20
16.8401363658
 40
0.57
100
AcDbArc
 50
0.0
 51
180.0000000002
  0
ARC
  5
2B6
100
AcDbEntity
  8
0
100
AcDbCircle
 62
9
  6
CONTINUOUS
 10
12.8415218092
 20
2.2541324571
 40
2.2291451834
100
AcDbArc
 50
107.5541344196
 51
107.8703750398
  0
ARC
  5
2B7
100
AcDbEntity
  8
0
100
AcDbCircle
 62
9
  6
CONTINUOUS
 10
12.9467521513
 20
7.3275610911
 40
1.2498368734
100
AcDbArc
 50
247.7965288172
 51
248.5210267133
  0
ARC
  5
2B8
100
AcDbEntity
  8
0
100
AcDbCircle
 62
7
  6
CONTINUOUS
 10
11.6342131004
 20
4.403584488
 40
0.03
100
AcDbArc
 50
270.0
 51
360.0
  0
ARC
  5
2B9
100
AcDbEntity
  8
0
100
AcDbCircle
 62
7
  6
CONTINUOUS
 10
11.6342131004
 20
6.143584488
 40
0.03
100
AcDbArc
 50
0.0
 51
90.0
  0
ARC
  5
2BA
100
AcDbEntity
  8
0
100
AcDbCircle
 62
7
  6
CONTINUOUS
 10
12.8042081644
 20
6.0779410518
 40
0.0200045939
100
AcDbArc
 50
0.0076198199
 51
88.5389756848
  0
ARC
  5
2BB
100
AcDbEntity
  8
0
100
AcDbCircle
 62
7
  6
CONTINUOUS
 10
12.5482131004
 20
8.853584488
 40
0.02
100
AcDbArc
 50
90.0
 51
180.0
  0
ARC
  5
2BC
100
AcDbEntity
  8
0
100
AcDbCircle
 62
7
  6
CONTINUOUS
 10
13.0682131004
 20
8.853584488
 40
0.02
100
AcDbArc
 50
0.0
 51
90.0
  0
ARC
  5
2BD
100
AcDbEntity
  8
0
100
AcDbCircle
 62
7
  6
CONTINUOUS
 10
13.0682131004
 20
4.393584488
 40
0.02
100
AcDbArc
 50
270.0
 51
360.0
  0
ARC
  5
2BE
100
AcDbEntity
  8
0
100
AcDbCircle
 62
7
  6
CONTINUOUS
 10
12.5482131004
 20
4.393584488
 40
0.02
100
AcDbArc
 50
180.0
 51
270.0
  0
ARC
  5
2BF
100
AcDbEntity
  8
0
100
AcDbCircle
 62
7
  6
CONTINUOUS
 10
12.8042131004
 20
4.4694739546
 40
0.02
100
AcDbArc
 50
270.0
 51
360.0
  0
ARC
  5
2C0
100
AcDbEntity
  8
0
100
AcDbCircle
 62
7
  6
CONTINUOUS
 10
11.7242131004
 20
6.153584488
 40
0.02
100
AcDbArc
 50
90.0
 51
180.0
  0
ARC
  5
2C1
100
AcDbEntity
  8
0
100
AcDbCircle
 62
7
  6
CONTINUOUS
 10
11.7242131004
 20
4.393584488
 40
0.02
100
AcDbArc
 50
180.0
 51
270.0
  0
SPLINE
  5
2C2
100
AcDbEntity
  8
0
100
AcDbSpline
 62
7
  6
CONTINUOUS
 70
0
 71
3
 72
10
 73
6
 74
0
 42
0.0000001
 43
0.0000001
 44
0.0000000001
 40
0.0
 40
0.0
 40
0.0
 40
0.0
 40
0.224114705
 40
0.589638137
 40
1.0
 40
1.0
 40
1.0
 40
1.0
 10
10.1795614178
 20
10.7337041388
 30
0.0
 10
10.17935761
 20
10.733137756
 30
0.0
 10
10.1787089184
 20
10.7316866635
 30
0.0
 10
10.1772181624
 20
10.7294355771
 30
0.0
 10
10.1758078723
 20
10.7278915362
 30
0.0
 10
10.1750194522
 20
10.7271213651
 30
0.0
  0
SPLINE
  5
2C3
100
AcDbEntity
  8
0
100
AcDbSpline
 62
7
  6
CONTINUOUS
 70
0
 71
3
 72
11
 73
7
 74
0
 42
0.0000001
 43
0.0000001
 44
0.0000000001
 40
0.0
 40
0.0
 40
0.0
 40
0.0
 40
0.2297022036
 40
0.4680433431
 40
0.7227180023
 40
1.0
 40
1.0
 40
1.0
 40
1.0
 10
9.9852126271
 20
10.7373288225
 30
0.0
 10
9.9852126272
 20
10.7377036179
 30
0.0
 10
9.9851348327
 20
10.7384693061
 30
0.0
 10
9.9847895102
 20
10.7396035089
 30
0.0
 10
9.9842196035
 20
10.7407296738
 30
0.0
 10
9.9837164853
 20
10.7414406347
 30
0.0
 10
9.9834340939
 20
10.7417941138
 30
0.0
  0
LINE
  5
2C4
100
AcDbEntity
  8
0
100
AcDbLine
 62
7
  6
CONTINUOUS
 10
9.8350427053
 20
10.7715995287
 11
9.8338421703
 21
10.7716757819
  0
SPLINE
  5
2C5
100
AcDbEntity
  8
0
100
AcDbSpline
 62
7
  6
CONTINUOUS
 70
0
 71
3
 72
12
 73
8
 74
0
 42
0.0000001
 43
0.0000001
 44
0.0000000001
 40
0.0
 40
0.0
 40
0.0
 40
0.0
 40
0.108787478
 40
0.2193618094
 40
0.4519446628
 40
0.7094068116
 40
1.0
 40
1.0
 40
1.0
 40
1.0
 10
10.1842131004
 20
10.7244784019
 30
0.0
 10
10.1842131004
 20
10.7249154976
 30
0.0
 10
10.1841556308
 20
10.7257979343
 30
0.0
 10
10.1838076914
 20
10.7275843577
 30
0.0
 10
10.1829078378
 20
10.7298483493
 30
0.0
 10
10.1811705206
 20
10.7324789057
 30
0.0
 10
10.1796720386
 20
10.734104298
 30
0.0
 10
10.1788315442
 20
10.7349147235
 30
0.0
  0
SPLINE
  5
2C6
100
AcDbEntity
  8
0
100
AcDbSpline
 62
7
  6
CONTINUOUS
 70
0
 71
3
 72
14
 73
10
 74
0
 42
0.0000001
 43
0.0000001
 44
0.0000000001
 40
0.0
 40
0.0
 40
0.0
 40
0.0
 40
0.0895595374
 40
0.1886705998
 40
0.2977624212
 40
0.4171266227
 40
0.5469583493
 40
0.6873761252
 40
1.0
 40
1.0
 40
1.0
 40
1.0
 10
10.1781599973
 20
10.7355428053
 30
0.0
 10
10.177320941
 20
10.7363046387
 30
0.0
 10
10.1754686643
 20
10.7378172618
 30
0.0
 10
10.1723650655
 20
10.7399591623
 30
0.0
 10
10.1688030585
 20
10.7420842066
 30
0.0
 10
10.1647859911
 20
10.7441904374
 30
0.0
 10
10.160316914
 20
10.7462761979
 30
0.0
 10
10.1535138114
 20
10.7491296031
 30
0.0
 10
10.148114349
 20
10.7510701185
 30
0.0
 10
10.1443608988
 20
10.7523198851
 30
0.0
  0
SPLINE
  5
2C7
100
AcDbEntity
  8
0
100
AcDbSpline
 62
7
  6
CONTINUOUS
 70
0
 71
3
 72
9
 73
5
 74
0
 42
0.0000001
 43
0.0000001
 44
0.0000000001
 40
0.0
 40
0.0
 40
0.0
 40
0.0
 40
0.4781796905
 40
1.0
 40
1.0
 40
1.0
 40
1.0
 10
10.1443608988
 20
10.7523198851
 30
0.0
 10
10.1411431946
 20
10.7533912672
 30
0.0
 10
10.1343676288
 20
10.7554931552
 30
0.0
 10
10.1275273543
 20
10.7573711929
 30
0.0
 10
10.1239457406
 20
10.7583032141
 30
0.0
  0
SPLINE
  5
2C8
100
AcDbEntity
  8
0
100
AcDbSpline
 62
7
  6
CONTINUOUS
 70
0
 71
3
 72
10
 73
6
 74
0
 42
0.0000001
 43
0.0000001
 44
0.0000000001
 40
0.0
 40
0.0
 40
0.0
 40
0.0
 40
0.2283860152
 40
0.4714371303
 40
1.0
 40
1.0
 40
1.0
 40
1.0
 10
10.1206718723
 20
10.7591411471
 30
0.0
 10
10.117162392
 20
10.7600247366
 30
0.0
 10
10.1098955557
 20
10.7617600401
 30
0.0
 10
10.0944088967
 20
10.7651190591
 30
0.0
 10
10.0823880043
 20
10.7673715777
 30
0.0
 10
10.0741348411
 20
10.7687984707
 30
0.0
  0
SPLINE
  5
2C9
100
AcDbEntity
  8
0
100
AcDbSpline
 62
7
  6
CONTINUOUS
 70
0
 71
3
 72
9
 73
5
 74
0
 42
0.0000001
 43
0.0000001
 44
0.0000000001
 40
0.0
 40
0.0
 40
0.0
 40
0.0
 40
0.4814966837
 40
1.0
 40
1.0
 40
1.0
 40
1.0
 10
10.0617021753
 20
10.7708602069
 30
0.0
 10
10.0524071995
 20
10.7723389232
 30
0.0
 10
10.0330594695
 20
10.7751401467
 30
0.0
 10
10.01365353
 20
10.7774980815
 30
0.0
 10
10.0035809572
 20
10.7786233753
 30
0.0
  0
SPLINE
  5
2CA
100
AcDbEntity
  8
0
100
AcDbSpline
 62
7
  6
CONTINUOUS
 70
0
 71
3
 72
11
 73
7
 74
0
 42
0.0000001
 43
0.0000001
 44
0.0000000001
 40
0.0
 40
0.0
 40
0.0
 40
0.0
 40
0.2376115888
 40
0.4844038509
 40
0.7390114996
 40
1.0
 40
1.0
 40
1.0
 40
1.0
 10
9.9720478341
 20
10.781840453
 30
0.0
 10
9.9622370621
 20
10.7827515063
 30
0.0
 10
9.9422213755
 20
10.7844491993
 30
0.0
 10
9.9116516272
 20
10.7866003456
 30
0.0
 10
9.8800879659
 20
10.7883952027
 30
0.0
 10
9.8587280314
 20
10.7893382864
 30
0.0
 10
9.8479135318
 20
10.7897503526
 30
0.0
  0
SPLINE
  5
2CB
100
AcDbEntity
  8
0
100
AcDbSpline
 62
7
  6
CONTINUOUS
 70
0
 71
3
 72
11
 73
7
 74
0
 42
0.0000001
 43
0.0000001
 44
0.0000000001
 40
0.0
 40
0.0
 40
0.0
 40
0.0
 40
0.2609530115
 40
0.5155359019
 40
0.7623338827
 40
1.0
 40
1.0
 40
1.0
 40
1.0
 10
9.6296229093
 20
10.7897163053
 30
0.0
 10
9.6188870489
 20
10.7893036754
 30
0.0
 10
9.5976820481
 20
10.7883611244
 30
0.0
 10
9.5663459011
 20
10.7865721389
 30
0.0
 10
9.5359927971
 20
10.7844318104
 30
0.0
 10
9.51611734
 20
10.7827448626
 30
0.0
 10
9.5063742273
 20
10.7818400692
 30
0.0
  0
SPLINE
  5
2CC
100
AcDbEntity
  8
0
100
AcDbSpline
 62
7
  6
CONTINUOUS
 70
0
 71
3
 72
9
 73
5
 74
0
 42
0.0000001
 43
0.0000001
 44
0.0000000001
 40
0.0
 40
0.0
 40
0.0
 40
0.0
 40
0.5185030373
 40
1.0
 40
1.0
 40
1.0
 40
1.0
 10
9.4748590767
 20
10.7786249271
 30
0.0
 10
9.4647854486
 20
10.7774996062
 30
0.0
 10
9.4453774648
 20
10.7751415877
 30
0.0
 10
9.4260276934
 20
10.7723402307
 30
0.0
 10
9.4167317307
 20
10.7708614338
 30
0.0
  0
SPLINE
  5
2CD
100
AcDbEntity
  8
0
100
AcDbSpline
 62
7
  6
CONTINUOUS
 70
0
 71
3
 72
10
 73
6
 74
0
 42
0.0000001
 43
0.0000001
 44
0.0000000001
 40
0.0
 40
0.0
 40
0.0
 40
0.0
 40
0.5285464609
 40
0.771601729
 40
1.0
 40
1.0
 40
1.0
 40
1.0
 10
9.4043008917
 20
10.7688001217
 30
0.0
 10
9.3960504957
 20
10.767373801
 30
0.0
 10
9.3840334423
 20
10.7651221978
 30
0.0
 10
9.3685514126
 20
10.761764729
 30
0.0
 10
9.361286468
 20
10.7600302368
 30
0.0
 10
9.3577778253
 20
10.7591470632
 30
0.0
  0
SPLINE
  5
2CE
100
AcDbEntity
  8
0
100
AcDbSpline
 62
7
  6
CONTINUOUS
 70
0
 71
3
 72
9
 73
5
 74
0
 42
0.0000001
 43
0.0000001
 44
0.0000000001
 40
0.0
 40
0.0
 40
0.0
 40
0.0
 40
0.5218509148
 40
1.0
 40
1.0
 40
1.0
 40
1.0
 10
9.3545113373
 20
10.7583112478
 30
0.0
 10
9.3509233646
 20
10.7573778663
 30
0.0
 10
9.3440713686
 20
10.755497054
 30
0.0
 10
9.3372842619
 20
10.7533917266
 30
0.0
 10
9.3340613216
 20
10.7523185445
 30
0.0
  0
SPLINE
  5
2CF
100
AcDbEntity
  8
0
100
AcDbSpline
 62
7
  6
CONTINUOUS
 70
0
 71
3
 72
14
 73
10
 74
0
 42
0.0000001
 43
0.0000001
 44
0.0000000001
 40
0.0
 40
0.0
 40
0.0
 40
0.0
 40
0.3123139593
 40
0.4526582224
 40
0.5824706594
 40
0.7018682634
 40
0.8110425018
 40
0.9102794645
 40
1.0
 40
1.0
 40
1.0
 40
1.0
 10
9.3340613216
 20
10.7523185445
 30
0.0
 10
9.3303219155
 20
10.7510733886
 30
0.0
 10
9.3249417608
 20
10.7491402065
 30
0.0
 10
9.318161134
 20
10.7462988067
 30
0.0
 10
9.3137038969
 20
10.744221539
 30
0.0
 10
9.3096950352
 20
10.7421239311
 30
0.0
 10
9.3061375868
 20
10.7400076187
 30
0.0
 10
9.3030348886
 20
10.7378745431
 30
0.0
 10
9.3011811166
 20
10.7363685416
 30
0.0
 10
9.3003405095
 20
10.7356100345
 30
0.0
  0
SPLINE
  5
2D0
100
AcDbEntity
  8
0
100
AcDbSpline
 62
7
  6
CONTINUOUS
 70
0
 71
3
 72
12
 73
8
 74
0
 42
0.0000001
 43
0.0000001
 44
0.0000000001
 40
0.0
 40
0.0
 40
0.0
 40
0.0
 40
0.290491625
 40
0.5479320177
 40
0.7805583461
 40
0.8911701895
 40
1.0
 40
1.0
 40
1.0
 40
1.0
 10
9.299576111
 20
10.7348967807
 30
0.0
 10
9.2987384279
 20
10.7340876227
 30
0.0
 10
9.2972449451
 20
10.7324647313
 30
0.0
 10
9.2955136951
 20
10.7298386568
 30
0.0
 10
9.2946170841
 20
10.7275787886
 30
0.0
 10
9.2942703701
 20
10.7257956004
 30
0.0
 10
9.2942131004
 20
10.7249147329
 30
0.0
 10
9.2942131004
 20
10.7244784019
 30
0.0
  0
SPLINE
  5
2D1
100
AcDbEntity
  8
0
100
AcDbSpline
 62
7
  6
CONTINUOUS
 70
0
 71
3
 72
31
 73
27
 74
0
 42
0.0000001
 43
0.0000001
 44
0.0000000001
 40
0.0
 40
0.0
 40
0.0
 40
0.0
 40
0.0036092922
 40
0.0073099219
 40
0.0152937468
 40
0.0245064592
 40
0.0352928803
 40
0.0478600111
 40
0.062319119
 40
0.0787278309
 40
0.0971136347
 40
0.1174821637
 40
0.1398142233
 40
0.164079282
 40
0.1902411597
 40
0.218256445
 40
0.2480666777
 40
0.3128142339
 40
0.3839404632
 40
0.4608051225
 40
0.5427182274
 40
0.628906391
 40
0.7185718726
 40
0.8109063718
 40
0.9050555565
 40
1.0
 40
1.0
 40
1.0
 40
1.0
 10
10.0022125944
 20
10.7373288225
 30
0.0
 10
10.0022125959
 20
10.7370023236
 30
0.0
 10
10.0021579669
 20
10.7363398504
 30
0.0
 10
10.0018252211
 20
10.7349917738
 30
0.0
 10
10.0009574414
 20
10.7332842925
 30
0.0
 10
9.999317699
 20
10.7313367464
 30
0.0
 10
9.9970686006
 20
10.7294188765
 30
0.0
 10
9.9942116133
 20
10.7275271248
 30
0.0
 10
9.9907504193
 20
10.7256590546
 30
0.0
 10
9.986690176
 20
10.7238177268
 30
0.0
 10
9.9820379802
 20
10.7220072625
 30
0.0
 10
9.9768032199
 20
10.7202326603
 30
0.0
 10
9.9709981185
 20
10.7184975445
 30
0.0
 10
9.9646363979
 20
10.7168062707
 30
0.0
 10
9.9577325685
 20
10.7151633076
 30
0.0
 10
9.9503026898
 20
10.7135731617
 30
0.0
 10
9.9394153853
 20
10.7114696984
 30
0.0
 10
9.9246251219
 20
10.7090260192
 30
0.0
 10
9.9055540546
 20
10.7064334413
 30
0.0
 10
9.8848828819
 20
10.7041305031
 30
0.0
 10
9.8628110056
 20
10.7021426227
 30
0.0
 10
9.8395508291
 20
10.700487365
 30
0.0
 10
9.8153243206
 20
10.6991832471
 30
0.0
 10
9.7903603984
 20
10.6982417761
 30
0.0
 10
9.7649076336
 20
10.6976743457
 30
0.0
 10
9.7478018352
 20
10.6975472267
 30
0.0
 10
9.7392131004
 20
10.6975472267
 30
0.0
  0
SPLINE
  5
2D2
100
AcDbEntity
  8
0
100
AcDbSpline
 62
7
  6
CONTINUOUS
 70
0
 71
3
 72
9
 73
5
 74
0
 42
0.0000001
 43
0.0000001
 44
0.0000000001
 40
0.0
 40
0.0
 40
0.0
 40
0.0
 40
0.4677032185
 40
1.0
 40
1.0
 40
1.0
 40
1.0
 10
10.0480913918
 20
10.7131595856
 30
0.0
 10
10.0475733387
 20
10.7138269946
 30
0.0
 10
10.0463387372
 20
10.7151563984
 30
0.0
 10
10.0449472877
 20
10.716314309
 30
0.0
 10
10.0441805302
 20
10.7168945493
 30
0.0
  0
SPLINE
  5
2D3
100
AcDbEntity
  8
0
100
AcDbSpline
 62
7
  6
CONTINUOUS
 70
0
 71
3
 72
9
 73
5
 74
0
 42
0.0000001
 43
0.0000001
 44
0.0000000001
 40
0.0
 40
0.0
 40
0.0
 40
0.0
 40
0.2798221545
 40
1.0
 40
1.0
 40
1.0
 40
1.0
 10
9.3034067485
 20
10.7271213651
 30
0.0
 10
9.3028729513
 20
10.7276428069
 30
0.0
 10
9.3010417876
 20
10.7295748397
 30
0.0
 10
9.299531269
 20
10.731867663
 30
0.0
 10
9.2988760449
 20
10.7336729758
 30
0.0
  0
SPLINE
  5
2D4
100
AcDbEntity
  8
0
100
AcDbSpline
 62
7
  6
CONTINUOUS
 70
0
 71
3
 72
11
 73
7
 74
0
 42
0.0000001
 43
0.0000001
 44
0.0000000001
 40
0.0
 40
0.0
 40
0.0
 40
0.0
 40
0.2566306485
 40
0.505349378
 40
0.751984781
 40
1.0
 40
1.0
 40
1.0
 40
1.0
 10
9.1692216643
 20
12.9739386198
 30
0.0
 10
9.1692581536
 20
12.9752923519
 30
0.0
 10
9.1695636912
 20
12.977958097
 30
0.0
 10
9.1706941744
 20
12.9817799227
 30
0.0
 10
9.1723837572
 20
12.9853351433
 30
0.0
 10
9.1738120617
 20
12.9875287002
 30
0.0
 10
9.1745851068
 20
12.9885847569
 30
0.0
  0
SPLINE
  5
2D5
100
AcDbEntity
  8
0
100
AcDbSpline
 62
7
  6
CONTINUOUS
 70
0
 71
3
 72
9
 73
5
 74
0
 42
0.0000001
 43
0.0000001
 44
0.0000000001
 40
0.0
 40
0.0
 40
0.0
 40
0.0
 40
0.4931689535
 40
1.0
 40
1.0
 40
1.0
 40
1.0
 10
9.1745851068
 20
12.9885847569
 30
0.0
 10
9.175385578
 20
12.9896782805
 30
0.0
 10
9.1771362567
 20
12.9918043447
 30
0.0
 10
9.1790927575
 20
12.9937402052
 30
0.0
 10
9.1801239361
 20
12.9946763583
 30
0.0
  0
SPLINE
  5
2D6
100
AcDbEntity
  8
0
100
AcDbSpline
 62
7
  6
CONTINUOUS
 70
0
 71
3
 72
51
 73
47
 74
0
 42
0.0000001
 43
0.0000001
 44
0.0000000001
 40
0.0
 40
0.0
 40
0.0
 40
0.0
 40
0.0061428839
 40
0.0093998552
 40
0.0127968759
 40
0.0200461208
 40
0.0279542919
 40
0.0365729596
 40
0.0459389578
 40
0.0560597084
 40
0.0669342285
 40
0.0785591834
 40
0.0909258108
 40
0.1040191168
 40
0.1178228496
 40
0.1474857035
 40
0.1797275969
 40
0.2143328758
 40
0.2510562899
 40
0.2896347664
 40
0.329784706
 40
0.3712094039
 40
0.4136001105
 40
0.5000027449
 40
0.586405264
 40
0.6287958278
 40
0.6702203264
 40
0.7103700143
 40
0.7489481861
 40
0.7856712482
 40
0.820276129
 40
0.8525175847
 40
0.8821799621
 40
0.8959834459
 40
0.9090764975
 40
0.9214428652
 40
0.933067558
 40
0.9439418198
 40
0.9540623047
 40
0.9634280173
 40
0.9720464209
 40
0.9799543898
 40
0.9872034606
 40
0.9906003934
 40
0.9938572755
 40
1.0
 40
1.0
 40
1.0
 40
1.0
 10
9.1801931719
 20
12.9947390926
 30
0.0
 10
9.1819207641
 20
12.996301449
 30
0.0
 10
9.1847365364
 20
12.9985049884
 30
0.0
 10
9.188771781
 20
13.0012005244
 30
0.0
 10
9.1932771068
 20
13.003941305
 30
0.0
 10
9.1994936243
 20
13.0072486549
 30
0.0
 10
9.2077026235
 20
13.0109863443
 30
0.0
 10
9.2168338363
 20
13.0146032938
 30
0.0
 10
9.2268956095
 20
13.0181226447
 30
0.0
 10
9.2378884369
 20
13.0215489043
 30
0.0
 10
9.2498014598
 20
13.0248821239
 30
0.0
 10
9.2626203915
 20
13.028121341
 30
0.0
 10
9.2763275925
 20
13.0312645072
 30
0.0
 10
9.290902177
 20
13.0343080256
 30
0.0
 10
9.3119702489
 20
13.038324199
 30
0.0
 10
9.3402953692
 20
13.0430205415
 30
0.0
 10
9.3765437002
 20
13.0480691032
 30
0.0
 10
9.4155545617
 20
13.0526173945
 30
0.0
 10
9.4570379038
 20
13.0566333309
 30
0.0
 10
9.5006810597
 20
13.0600849668
 30
0.0
 10
9.546152937
 20
13.0629464134
 30
0.0
 10
9.5931063689
 20
13.0651955455
 30
0.0
 10
9.6576154145
 20
13.06736706
 30
0.0
 10
9.7392173299
 20
13.0684379085
 30
0.0
 10
9.8208191888
 20
13.0673668739
 30
0.0
 10
9.8853280558
 20
13.0651952111
 30
0.0
 10
9.9322812572
 20
13.062945971
 30
0.0
 10
9.9777528409
 20
13.0600844217
 30
0.0
 10
10.0213956435
 20
13.0566326859
 30
0.0
 10
10.0628785748
 20
13.0526166568
 30
0.0
 10
10.1018889727
 20
13.0480682777
 30
0.0
 10
10.1381367903
 20
13.0430196356
 30
0.0
 10
10.1664614528
 20
13.0383232281
 30
0.0
 10
10.1875291374
 20
13.0343070064
 30
0.0
 10
10.2021034197
 20
13.0312634563
 30
0.0
 10
10.2158103118
 20
13.0281202591
 30
0.0
 10
10.2286289302
 20
13.0248810096
 30
0.0
 10
10.2405416347
 20
13.0215477577
 30
0.0
 10
10.251534132
 20
13.0181214707
 30
0.0
 10
10.2615955732
 20
13.0146021063
 30
0.0
 10
10.2707264661
 20
13.0109851218
 30
0.0
 10
10.27893517
 20
13.0072473681
 30
0.0
 10
10.2851514575
 20
13.003939962
 30
0.0
 10
10.2896566169
 20
13.0011991636
 30
0.0
 10
10.2936916739
 20
12.9985035753
 30
0.0
 10
10.2965072695
 20
12.9962999585
 30
0.0
 10
10.2982347344
 20
12.9947375514
 30
0.0
  0
SPLINE
  5
2D7
100
AcDbEntity
  8
0
100
AcDbSpline
 62
7
  6
CONTINUOUS
 70
0
 71
3
 72
9
 73
5
 74
0
 42
0.0000001
 43
0.0000001
 44
0.0000000001
 40
0.0
 40
0.0
 40
0.0
 40
0.0
 40
0.5068277254
 40
1.0
 40
1.0
 40
1.0
 40
1.0
 10
10.2983039671
 20
12.9946748131
 30
0.0
 10
10.2993345162
 20
12.9937391318
 30
0.0
 10
10.3012898623
 20
12.9918042862
 30
0.0
 10
10.3030396289
 20
12.9896794649
 30
0.0
 10
10.3038397395
 20
12.9885865995
 30
0.0
  0
SPLINE
  5
2D8
100
AcDbEntity
  8
0
100
AcDbSpline
 62
7
  6
CONTINUOUS
 70
0
 71
3
 72
11
 73
7
 74
0
 42
0.0000001
 43
0.0000001
 44
0.0000000001
 40
0.0
 40
0.0
 40
0.0
 40
0.0
 40
0.2474614157
 40
0.4935945407
 40
0.7422711336
 40
1.0
 40
1.0
 40
1.0
 40
1.0
 10
10.3038397395
 20
12.9885865995
 30
0.0
 10
10.3046421689
 20
12.9874905668
 30
0.0
 10
10.3061205915
 20
12.9852101521
 30
0.0
 10
10.3078464073
 20
12.9815021304
 30
0.0
 10
10.3089610479
 20
12.9775038318
 30
0.0
 10
10.3092131004
 20
12.9747167292
 30
0.0
 10
10.3092131004
 20
12.9733019944
 30
0.0
  0
SPLINE
  5
2D9
100
AcDbEntity
  8
0
100
AcDbSpline
 62
7
  6
CONTINUOUS
 70
0
 71
3
 72
11
 73
7
 74
0
 42
0.0000001
 43
0.0000001
 44
0.0000000001
 40
0.0
 40
0.0
 40
0.0
 40
0.0
 40
0.2575659451
 40
0.5060413329
 40
0.7522182962
 40
1.0
 40
1.0
 40
1.0
 40
1.0
 10
10.3092131004
 20
10.7343633408
 30
0.0
 10
10.3092131004
 20
10.7329050844
 30
0.0
 10
10.3089450254
 20
10.7300320095
 30
0.0
 10
10.3077611836
 20
10.7259185089
 30
0.0
 10
10.305934085
 20
10.7221145735
 30
0.0
 10
10.3043751895
 20
10.7197822641
 30
0.0
 10
10.3035302856
 20
10.7186623727
 30
0.0
  0
SPLINE
  5
2DA
100
AcDbEntity
  8
0
100
AcDbSpline
 62
7
  6
CONTINUOUS
 70
0
 71
3
 72
57
 73
53
 74
0
 42
0.0000001
 43
0.0000001
 44
0.0000000001
 40
0.0
 40
0.0
 40
0.0
 40
0.0
 40
0.0058645454
 40
0.012093788
 40
0.0153997869
 40
0.0188524583
 40
0.0262380153
 40
0.0343219426
 40
0.0431614223
 40
0.0527962621
 40
0.0632338356
 40
0.074472791
 40
0.0865089716
 40
0.0993311471
 40
0.1129222812
 40
0.127264213
 40
0.1423363848
 40
0.1581121212
 40
0.1745631235
 40
0.2093718718
 40
0.2465002373
 40
0.2856628329
 40
0.3265495262
 40
0.3688353163
 40
0.4121801088
 40
0.4562342411
 40
0.5006412346
 40
0.5450411804
 40
0.589074286
 40
0.6323842022
 40
0.6746216983
 40
0.7154470293
 40
0.7545358974
 40
0.7915788931
 40
0.826291486
 40
0.8584118675
 40
0.8734279111
 40
0.8877118771
 40
0.9012435982
 40
0.9140049802
 40
0.925979169
 40
0.9371556557
 40
0.9475305479
 40
0.9571027105
 40
0.965881347
 40
0.9739085835
 40
0.9812423755
 40
0.9846713628
 40
0.9879556422
 40
0.9941496074
 40
0.9971047032
 40
1.0
 40
1.0
 40
1.0
 40
1.0
 10
10.3035302856
 20
10.7186623727
 30
0.0
 10
10.3021719802
 20
10.716861985
 30
0.0
 10
10.2990165655
 20
10.7134095322
 30
0.0
 10
10.2943990682
 20
10.7096765597
 30
0.0
 10
10.290273097
 20
10.7068593215
 30
0.0
 10
10.2856441315
 20
10.7039996146
 30
0.0
 10
10.2792269806
 20
10.7005537618
 30
0.0
 10
10.2707181235
 20
10.6966700346
 30
0.0
 10
10.2612154472
 20
10.6929165386
 30
0.0
 10
10.2507098041
 20
10.6892679827
 30
0.0
 10
10.2392009746
 20
10.6857197502
 30
0.0
 10
10.2267014031
 20
10.6822718505
 30
0.0
 10
10.2132276313
 20
10.6789254908
 30
0.0
 10
10.198800003
 20
10.6756833091
 30
0.0
 10
10.1834424841
 20
10.6725496337
 30
0.0
 10
10.1671815205
 20
10.6695291966
 30
0.0
 10
10.1500464295
 20
10.6666270821
 30
0.0
 10
10.1320698816
 20
10.6638478475
 30
0.0
 10
10.1065426975
 20
10.6602451084
 30
0.0
 10
10.0727998266
 20
10.6561184615
 30
0.0
 10
10.030288925
 20
10.6518193335
 30
0.0
 10
9.9853759402
 20
10.6481222239
 30
0.0
 10
9.9384280312
 20
10.6450561775
 30
0.0
 10
9.889831599
 20
10.6426477743
 30
0.0
 10
9.8399876195
 20
10.6409169673
 30
0.0
 10
9.789308586
 20
10.6398778193
 30
0.0
 10
9.7382142813
 20
10.6395400735
 30
0.0
 10
9.6871282513
 20
10.6399052881
 30
0.0
 10
9.6364739944
 20
10.6409716259
 30
0.0
 10
9.5866710431
 20
10.6427292421
 30
0.0
 10
9.5381315591
 20
10.6451636816
 30
0.0
 10
9.4912559512
 20
10.6482549299
 30
0.0
 10
9.4464300805
 20
10.6519761609
 30
0.0
 10
9.4040199019
 20
10.6562978219
 30
0.0
 10
9.364369443
 20
10.6611831233
 30
0.0
 10
9.3332277448
 20
10.6657892102
 30
0.0
 10
9.3099430234
 20
10.6697608005
 30
0.0
 10
9.2937516067
 20
10.6727903392
 30
0.0
 10
9.2784657848
 20
10.6759326292
 30
0.0
 10
9.2641118355
 20
10.6791830951
 30
0.0
 10
9.2507134585
 20
10.6825374472
 30
0.0
 10
9.2382907115
 20
10.6859932107
 30
0.0
 10
9.2268598834
 20
10.6895492737
 30
0.0
 10
9.2164327415
 20
10.6932056354
 30
0.0
 10
9.2070081377
 20
10.6969681963
 30
0.0
 10
9.1985760237
 20
10.7008634582
 30
0.0
 10
9.1922229779
 20
10.7043211602
 30
0.0
 10
9.1876443382
 20
10.7071914886
 30
0.0
 10
9.1835668348
 20
10.7100233459
 30
0.0
 10
9.1798671739
 20
10.7130793741
 30
0.0
 10
9.1766589243
 20
10.7164262606
 30
0.0
 10
9.1752441963
 20
10.7181803402
 30
0.0
 10
9.1745864613
 20
10.7190787357
 30
0.0
  0
SPLINE
  5
2DB
100
AcDbEntity
  8
0
100
AcDbSpline
 62
7
  6
CONTINUOUS
 70
0
 71
3
 72
11
 73
7
 74
0
 42
0.0000001
 43
0.0000001
 44
0.0000000001
 40
0.0
 40
0.0
 40
0.0
 40
0.0
 40
0.2474614157
 40
0.4935945407
 40
0.7422711336
 40
1.0
 40
1.0
 40
1.0
 40
1.0
 10
9.1745864613
 20
10.7190787357
 30
0.0
 10
9.1737840318
 20
10.7201747684
 30
0.0
 10
9.1723056093
 20
10.7224551832
 30
0.0
 10
9.1705797934
 20
10.7261632049
 30
0.0
 10
9.1694651528
 20
10.7301615034
 30
0.0
 10
9.1692131004
 20
10.7329486061
 30
0.0
 10
9.1692131004
 20
10.7343633408
 30
0.0
  0
LINE
  5
2DC
100
AcDbEntity
  8
0
100
AcDbLine
 62
7
  6
CONTINUOUS
 10
10.1453726956
 20
10.6981609349
 11
10.1430097892
 21
10.6960857743
  0
LINE
  5
2DD
100
AcDbEntity
  8
0
100
AcDbLine
 62
7
  6
CONTINUOUS
 10
9.4680088691
 20
10.7306981014
 11
9.4566591066
 21
10.727328742
  0
SPLINE
  5
2DE
100
AcDbEntity
  8
0
100
AcDbSpline
 62
7
  6
CONTINUOUS
 70
0
 71
3
 72
9
 73
5
 74
0
 42
0.0000001
 43
0.0000001
 44
0.0000000001
 40
0.0
 40
0.0
 40
0.0
 40
0.0
 40
0.5322967815
 40
1.0
 40
1.0
 40
1.0
 40
1.0
 10
9.4342456706
 20
10.7168945493
 30
0.0
 10
9.4334789131
 20
10.716314309
 30
0.0
 10
9.4320874635
 20
10.7151563984
 30
0.0
 10
9.4308528621
 20
10.7138269946
 30
0.0
 10
9.4303348089
 20
10.7131595856
 30
0.0
  0
LINE
  5
2DF
100
AcDbEntity
  8
0
100
AcDbLine
 62
7
  6
CONTINUOUS
 10
9.3354164115
 20
10.6960857743
 11
9.3330535051
 21
10.6981609349
  0
LINE
  5
2E0
100
AcDbEntity
  8
0
100
AcDbLine
 62
7
  6
CONTINUOUS
 10
9.3788537065
 20
10.6777786116
 11
9.367503944
 21
10.6811479711
  0
LINE
  5
2E1
100
AcDbEntity
  8
0
100
AcDbLine
 62
7
  6
CONTINUOUS
 10
10.1109222568
 20
10.6811479711
 11
10.0995724943
 21
10.6777786116
  0
LINE
  5
2E2
100
AcDbEntity
  8
0
100
AcDbLine
 62
7
  6
CONTINUOUS
 10
10.0217670942
 20
10.727328742
 11
10.0104173317
 21
10.7306981014
  0
SPLINE
  5
2E3
100
AcDbEntity
  8
0
100
AcDbSpline
 62
7
  6
CONTINUOUS
 70
0
 71
3
 72
31
 73
27
 74
0
 42
0.0000001
 43
0.0000001
 44
0.0000000001
 40
0.0
 40
0.0
 40
0.0
 40
0.0
 40
0.0949436738
 40
0.1890907694
 40
0.2814232212
 40
0.3710877203
 40
0.4572756186
 40
0.5391885009
 40
0.6160533619
 40
0.6871802799
 40
0.7519288943
 40
0.7817398127
 40
0.8097556222
 40
0.8359179717
 40
0.8601836163
 40
0.8825162456
 40
0.9028852017
 40
0.9212713119
 40
0.937680306
 40
0.9521396525
 40
0.9647069601
 40
0.9754934773
 40
0.9847062279
 40
0.9926900704
 40
0.996390706
 40
1.0
 40
1.0
 40
1.0
 40
1.0
 10
9.7392131004
 20
10.6975472267
 30
0.0
 10
9.7306244353
 20
10.6975472267
 30
0.0
 10
9.7135188956
 20
10.6976743309
 30
0.0
 10
9.6880665749
 20
10.698241752
 30
0.0
 10
9.6631031153
 20
10.6991831902
 30
0.0
 10
9.6388769039
 20
10.700487273
 30
0.0
 10
9.6156168574
 20
10.702142479
 30
0.0
 10
9.593545004
 20
10.704130324
 30
0.0
 10
9.5728737683
 20
10.7064332369
 30
0.0
 10
9.5538025199
 20
10.709025791
 30
0.0
 10
9.5390120366
 20
10.7114694865
 30
0.0
 10
9.5281245214
 20
10.7135729399
 30
0.0
 10
9.5206944911
 20
10.7151631048
 30
0.0
 10
9.5137905218
 20
10.7168060977
 30
0.0
 10
9.5074286533
 20
10.7184973871
 30
0.0
 10
9.5016234072
 20
10.7202325186
 30
0.0
 10
9.4963885303
 20
10.7220071444
 30
0.0
 10
9.4917362479
 20
10.7238176394
 30
0.0
 10
9.487675932
 20
10.7256589881
 30
0.0
 10
9.4842146767
 20
10.7275270772
 30
0.0
 10
9.481357643
 20
10.7294188428
 30
0.0
 10
9.4791085184
 20
10.731336726
 30
0.0
 10
9.4774687687
 20
10.7332842846
 30
0.0
 10
9.4766009897
 20
10.7349917722
 30
0.0
 10
9.4762682409
 20
10.7363398501
 30
0.0
 10
9.4762136078
 20
10.7370023235
 30
0.0
 10
9.4762136063
 20
10.7373288225
 30
0.0
  0
LINE
  5
2E4
100
AcDbEntity
  8
0
100
AcDbLine
 62
7
  6
CONTINUOUS
 10
9.6450220859
 20
10.7717033245
 11
9.6433647769
 21
10.7715983304
  0
SPLINE
  5
2E5
100
AcDbEntity
  8
0
100
AcDbSpline
 62
7
  6
CONTINUOUS
 70
0
 71
3
 72
11
 73
7
 74
0
 42
0.0000001
 43
0.0000001
 44
0.0000000001
 40
0.0
 40
0.0
 40
0.0
 40
0.0
 40
0.2772768686
 40
0.5319505691
 40
0.7702939301
 40
1.0
 40
1.0
 40
1.0
 40
1.0
 10
9.4949916593
 20
10.7417935481
 30
0.0
 10
9.4947093368
 20
10.74144011
 30
0.0
 10
9.494206342
 20
10.7407292313
 30
0.0
 10
9.4936365808
 20
10.739603209
 30
0.0
 10
9.4932913477
 20
10.738469154
 30
0.0
 10
9.4932135736
 20
10.737703569
 30
0.0
 10
9.4932135736
 20
10.7373288225
 30
0.0
  0
LINE
  5
2E6
100
AcDbEntity
  8
0
100
AcDbLine
 62
7
  6
CONTINUOUS
 10
9.3330535051
 20
10.6981609349
 11
9.3315055499
 21
10.699820738
  0
SPLINE
  5
2E7
100
AcDbEntity
  8
0
100
AcDbSpline
 62
9
  6
CONTINUOUS
 70
0
 71
3
 72
15
 73
11
 74
0
 42
0.0000001
 43
0.0000001
 44
0.0000000001
 40
0.0
 40
0.0
 40
0.0
 40
0.0
 40
0.1029559495
 40
0.2084227411
 40
0.3186758806
 40
0.4356995926
 40
0.5611458009
 40
0.6963475714
 40
0.8423609723
 40
1.0
 40
1.0
 40
1.0
 40
1.0
 10
10.3092131004
 20
12.9733019944
 30
0.0
 10
10.3092131004
 20
12.9739896
 30
0.0
 10
10.3091014164
 20
12.9753839632
 30
0.0
 10
10.3086029334
 20
12.9774609382
 30
0.0
 10
10.3077760941
 20
12.9795312851
 30
0.0
 10
10.3066242585
 20
12.9815927708
 30
0.0
 10
10.3051499851
 20
12.983645136
 30
0.0
 10
10.3033548863
 20
12.9856882374
 30
0.0
 10
10.3012400505
 20
12.9877216303
 30
0.0
 10
10.2996793229
 20
12.9890193023
 30
0.0
 10
10.2988501215
 20
12.989668026
 30
0.0
  0
SPLINE
  5
2E8
100
AcDbEntity
  8
0
100
AcDbSpline
 62
9
  6
CONTINUOUS
 70
0
 71
3
 72
51
 73
47
 74
0
 42
0.0000001
 43
0.0000001
 44
0.0000000001
 40
0.0
 40
0.0
 40
0.0
 40
0.0
 40
0.0055729769
 40
0.0118933099
 40
0.0189874573
 40
0.0268695371
 40
0.0355429263
 40
0.0450055945
 40
0.0552520891
 40
0.066272037
 40
0.0780509
 40
0.0905727629
 40
0.1038201813
 40
0.1177717628
 40
0.1476938984
 40
0.1801420969
 40
0.214890848
 40
0.2516972592
 40
0.2902988141
 40
0.3304191447
 40
0.3717691268
 40
0.4140494515
 40
0.4569538588
 40
0.5001705599
 40
0.5433856555
 40
0.586285138
 40
0.6285574196
 40
0.6698960804
 40
0.7100022009
 40
0.7485864092
 40
0.7853728809
 40
0.8200988668
 40
0.8525220105
 40
0.8824168143
 40
0.8963540771
 40
0.9095864949
 40
0.9220930773
 40
0.9338564558
 40
0.9448605027
 40
0.9550906412
 40
0.9645370265
 40
0.9731940972
 40
0.9810596569
 40
0.9881374246
 40
0.9944420339
 40
1.0
 40
1.0
 40
1.0
 40
1.0
 10
10.2988501215
 20
12.989668026
 30
0.0
 10
10.2971873979
 20
12.9909688537
 30
0.0
 10
10.2934743454
 20
12.9935360629
 30
0.0
 10
10.2872274872
 20
12.9971130644
 30
0.0
 10
10.2799698337
 20
13.0006472925
 30
0.0
 10
10.2717128721
 20
13.004131989
 30
0.0
 10
10.2624701869
 20
13.0075620898
 30
0.0
 10
10.2522577787
 20
13.0109308682
 30
0.0
 10
10.2410931529
 20
13.0142311276
 30
0.0
 10
10.2289965316
 20
13.0174566412
 30
0.0
 10
10.21599043
 20
13.0206017815
 30
0.0
 10
10.2020985443
 20
13.0236603176
 30
0.0
 10
10.1873461448
 20
13.0266259338
 30
0.0
 10
10.1660642673
 20
13.0305410979
 30
0.0
 10
10.137514325
 20
13.0351259147
 30
0.0
 10
10.1010534034
 20
13.0400576872
 30
0.0
 10
10.0619044466
 20
13.0445025586
 30
0.0
 10
10.0203582561
 20
13.0484252416
 30
0.0
 10
9.976722748
 20
13.0517961048
 30
0.0
 10
9.9313221221
 20
13.0545892719
 30
0.0
 10
9.884493595
 20
13.0567830051
 30
0.0
 10
9.8365851642
 20
13.0583614811
 30
0.0
 10
9.7879529419
 20
13.0593114957
 30
0.0
 10
9.7389583857
 20
13.0596272663
 30
0.0
 10
9.6899657374
 20
13.0593049001
 30
0.0
 10
9.6413391667
 20
13.0583482584
 30
0.0
 10
9.593440151
 20
13.0567634123
 30
0.0
 10
9.5466246573
 20
13.0545632466
 30
0.0
 10
9.5012406713
 20
13.051764096
 30
0.0
 10
9.4576251913
 20
13.0483872237
 30
0.0
 10
9.4161023617
 20
13.044459092
 30
0.0
 10
9.3769798422
 20
13.040008861
 30
0.0
 10
9.3405482879
 20
13.0350723147
 30
0.0
 10
9.3120245784
 20
13.0304834529
 30
0.0
 10
9.2907650557
 20
13.0265653738
 30
0.0
 10
9.2760303012
 20
13.0235976975
 30
0.0
 10
9.2621565784
 20
13.020537288
 30
0.0
 10
9.2491690697
 20
13.0173904603
 30
0.0
 10
9.2370915789
 20
13.0141633739
 30
0.0
 10
9.2259466014
 20
13.0108614919
 30
0.0
 10
9.2157541448
 20
13.0074914142
 30
0.0
 10
9.2065317063
 20
13.0040602045
 30
0.0
 10
9.1982954104
 20
13.0005744421
 30
0.0
 10
9.1910587227
 20
12.9970391694
 30
0.0
 10
9.184832856
 20
12.9934613665
 30
0.0
 10
9.1811344394
 20
12.9908933385
 30
0.0
 10
9.1794792582
 20
12.9895921079
 30
0.0
  0
SPLINE
  5
2E9
100
AcDbEntity
  8
0
100
AcDbSpline
 62
9
  6
CONTINUOUS
 70
0
 71
3
 72
13
 73
9
 74
0
 42
0.0000001
 43
0.0000001
 44
0.0000000001
 40
0.0
 40
0.0
 40
0.0
 40
0.0
 40
0.3020570219
 40
0.4372974765
 40
0.5631431683
 40
0.7912365275
 40
0.8971106625
 40
1.0
 40
1.0
 40
1.0
 40
1.0
 10
9.1794792582
 20
12.9895921079
 30
0.0
 10
9.1779533884
 20
12.9883925362
 30
0.0
 10
9.1758324238
 20
12.9865308448
 30
0.0
 10
9.1734246055
 20
12.9838232133
 30
0.0
 10
9.1715599057
 20
12.9812899808
 30
0.0
 10
9.1701809107
 20
12.9786373561
 30
0.0
 10
9.1694270872
 20
12.9759248361
 30
0.0
 10
9.1692597637
 20
12.9745877613
 30
0.0
 10
9.1692280953
 20
12.9739273797
 30
0.0
  0
SPLINE
  5
2EA
100
AcDbEntity
  8
0
100
AcDbSpline
 62
7
  6
CONTINUOUS
 70
0
 71
3
 72
10
 73
6
 74
0
 42
0.0000001
 43
0.0000001
 44
0.0000000001
 40
0.0
 40
0.0
 40
0.0
 40
0.0
 40
0.4489232556
 40
0.7101999861
 40
1.0
 40
1.0
 40
1.0
 40
1.0
 10
9.9846640422
 20
10.739789384
 30
0.0
 10
9.9842792074
 20
10.7389191936
 30
0.0
 10
9.9834024715
 20
10.737659485
 30
0.0
 10
9.9819097274
 20
10.7361553955
 30
0.0
 10
9.9810071843
 20
10.7354098147
 30
0.0
 10
9.9805189116
 20
10.7350371678
 30
0.0
  0
SPLINE
  5
2EB
100
AcDbEntity
  8
0
100
AcDbSpline
 62
7
  6
CONTINUOUS
 70
0
 71
3
 72
25
 73
21
 74
0
 42
0.0000001
 43
0.0000001
 44
0.0000000001
 40
0.0
 40
0.0
 40
0.0
 40
0.0
 40
0.0112749537
 40
0.0240440498
 40
0.0383527555
 40
0.0542257237
 40
0.071673991
 40
0.0906937231
 40
0.1112678462
 40
0.1333743022
 40
0.1820764813
 40
0.2365291304
 40
0.296381416
 40
0.3612443197
 40
0.43066726
 40
0.5041759803
 40
0.5812395328
 40
0.6613051145
 40
0.8281963146
 40
1.0
 40
1.0
 40
1.0
 40
1.0
 10
9.9805189116
 20
10.7350371678
 30
0.0
 10
9.9797871763
 20
10.7344787116
 30
0.0
 10
9.9781582728
 20
10.733376853
 30
0.0
 10
9.9754271129
 20
10.7318407103
 30
0.0
 10
9.9722638043
 20
10.7303229034
 30
0.0
 10
9.9686732976
 20
10.7288262476
 30
0.0
 10
9.9646607005
 20
10.7273537063
 30
0.0
 10
9.9602329256
 20
10.7259080597
 30
0.0
 10
9.9553982228
 20
10.7244915837
 30
0.0
 10
9.9481850664
 20
10.7225835245
 30
0.0
 10
9.9382092976
 20
10.7203186528
 30
0.0
 10
9.9251328418
 20
10.7178359158
 30
0.0
 10
9.9106869757
 20
10.7155273367
 30
0.0
 10
9.8949778015
 20
10.7134123786
 30
0.0
 10
9.8781196858
 20
10.7115056276
 30
0.0
 10
9.8602371145
 20
10.7098237177
 30
0.0
 10
9.8414624622
 20
10.7083776415
 30
0.0
 10
9.8150579639
 20
10.7067579886
 30
0.0
 10
9.7808917616
 20
10.7054167868
 30
0.0
 10
9.7532392619
 20
10.7050611301
 30
0.0
 10
9.7392131004
 20
10.7050611301
 30
0.0
  0
SPLINE
  5
2EC
100
AcDbEntity
  8
0
100
AcDbSpline
 62
7
  6
CONTINUOUS
 70
0
 71
3
 72
9
 73
5
 74
0
 42
0.0000001
 43
0.0000001
 44
0.0000000001
 40
0.0
 40
0.0
 40
0.0
 40
0.0
 40
0.5244787671
 40
1.0
 40
1.0
 40
1.0
 40
1.0
 10
10.1430097892
 20
10.7192622375
 30
0.0
 10
10.1437499319
 20
10.7186721533
 30
0.0
 10
10.1451190603
 20
10.7174925055
 30
0.0
 10
10.1463679284
 20
10.7161838095
 30
0.0
 10
10.1469206508
 20
10.7155272738
 30
0.0
  0
SPLINE
  5
2ED
100
AcDbEntity
  8
0
100
AcDbSpline
 62
9
  6
CONTINUOUS
 70
0
 71
3
 72
23
 73
19
 74
0
 42
0.0000001
 43
0.0000001
 44
0.0000000001
 40
0.0
 40
0.0
 40
0.0
 40
0.0
 40
0.0130442945
 40
0.0264343632
 40
0.0549947054
 40
0.0870602741
 40
0.1235618263
 40
0.1651140858
 40
0.2120991918
 40
0.2647536754
 40
0.3232221295
 40
0.3875755468
 40
0.457820686
 40
0.5339334606
 40
0.6158693122
 40
0.7035533846
 40
0.7968814591
 40
1.0
 40
1.0
 40
1.0
 40
1.0
 10
9.1792452553
 20
10.725386125
 30
0.0
 10
9.1792861291
 20
10.7259630344
 30
0.0
 10
9.1794485704
 20
10.7271279246
 30
0.0
 10
9.1800964842
 20
10.7294845525
 30
0.0
 10
9.1815496938
 20
10.732460552
 30
0.0
 10
9.1841734679
 20
10.7359005561
 30
0.0
 10
9.1876972448
 20
10.739301047
 30
0.0
 10
9.1921158993
 20
10.7426649779
 30
0.0
 10
9.1974242203
 20
10.7459957326
 30
0.0
 10
9.2036170151
 20
10.7492908507
 30
0.0
 10
9.2106873556
 20
10.7525460673
 30
0.0
 10
9.2186255762
 20
10.7557563381
 30
0.0
 10
9.2274192635
 20
10.7589171147
 30
0.0
 10
9.237054722
 20
10.7620229193
 30
0.0
 10
9.247517152
 20
10.7650678837
 30
0.0
 10
9.2587897796
 20
10.7680469263
 30
0.0
 10
9.2753479963
 20
10.7720383697
 30
0.0
 10
9.288215083
 20
10.7747389562
 30
0.0
 10
9.2970550794
 20
10.7764592744
 30
0.0
  0
SPLINE
  5
2EE
100
AcDbEntity
  8
0
100
AcDbSpline
 62
9
  6
CONTINUOUS
 70
0
 71
3
 72
27
 73
23
 74
0
 42
0.0000001
 43
0.0000001
 44
0.0000000001
 40
0.0
 40
0.0
 40
0.0
 40
0.0
 40
0.0231936709
 40
0.0478666701
 40
0.0739491434
 40
0.1013629104
 40
0.1598461589
 40
0.222601445
 40
0.2888495135
 40
0.3577596152
 40
0.4284643086
 40
0.500071642
 40
0.5716764307
 40
0.6423737534
 40
0.7112717752
 40
0.7775029586
 40
0.840237294
 40
0.8986960307
 40
0.9260959702
 40
0.9521642996
 40
0.9768221744
 40
1.0
 40
1.0
 40
1.0
 40
1.0
 10
9.2970550794
 20
10.7764592744
 30
0.0
 10
9.3037946208
 20
10.777770831
 30
0.0
 10
9.3177344773
 20
10.7803202663
 30
0.0
 10
9.3393409634
 20
10.7838450266
 30
0.0
 10
9.3622408235
 20
10.7871793781
 30
0.0
 10
9.3951147758
 20
10.7914495214
 30
0.0
 10
9.4388700251
 20
10.7961848901
 30
0.0
 10
9.4941794856
 20
10.8008466147
 30
0.0
 10
9.5526549913
 20
10.8045379249
 30
0.0
 10
9.6135410067
 20
10.807209841
 30
0.0
 10
9.6760509922
 20
10.8088264407
 30
0.0
 10
9.7393771594
 20
10.8093659198
 30
0.0
 10
9.8027010959
 20
10.8088207875
 30
0.0
 10
9.8652044273
 20
10.8071987443
 30
0.0
 10
9.9260794459
 20
10.8045215395
 30
0.0
 10
9.9845398216
 20
10.8008250427
 30
0.0
 10
10.0398303574
 20
10.7961585353
 30
0.0
 10
10.083567565
 20
10.7914195008
 30
0.0
 10
10.1164254488
 20
10.7871462599
 30
0.0
 10
10.1393121522
 20
10.7838100868
 30
0.0
 10
10.1609048083
 20
10.7802834781
 30
0.0
 10
10.1748351044
 20
10.7777327186
 30
0.0
 10
10.1815697477
 20
10.7764205494
 30
0.0
  0
SPLINE
  5
2EF
100
AcDbEntity
  8
0
100
AcDbSpline
 62
9
  6
CONTINUOUS
 70
0
 71
3
 72
23
 73
19
 74
0
 42
0.0000001
 43
0.0000001
 44
0.0000000001
 40
0.0
 40
0.0
 40
0.0
 40
0.0
 40
0.204874615
 40
0.2988574017
 40
0.3870435617
 40
0.4693268047
 40
0.5456284473
 40
0.6159055249
 40
0.68013822
 40
0.7383398756
 40
0.7905920246
 40
0.8370602828
 40
0.8780150865
 40
0.9138933216
 40
0.9453971655
 40
0.9735860596
 40
0.9869132164
 40
1.0
 40
1.0
 40
1.0
 40
1.0
 10
10.1815697477
 20
10.7764205494
 30
0.0
 10
10.1905328801
 20
10.7746741843
 30
0.0
 10
10.2035720601
 20
10.7719314733
 30
0.0
 10
10.2203396435
 20
10.7678704133
 30
0.0
 10
10.2317319111
 20
10.7648404491
 30
0.0
 10
10.242287285
 20
10.761743059
 30
0.0
 10
10.251988218
 20
10.7585833283
 30
0.0
 10
10.2608193796
 20
10.7553675033
 30
0.0
 10
10.2687667726
 20
10.7521013547
 30
0.0
 10
10.2758177201
 20
10.748789696
 30
0.0
 10
10.2819623704
 20
10.7454375664
 30
0.0
 10
10.2871939288
 20
10.7420492471
 30
0.0
 10
10.2915075728
 20
10.7386267027
 30
0.0
 10
10.2948978079
 20
10.7351650796
 30
0.0
 10
10.297358113
 20
10.731659314
 30
0.0
 10
10.2986379407
 20
10.7286301468
 30
0.0
 10
10.2991316607
 20
10.7262406088
 30
0.0
 10
10.2992131004
 20
10.7250617065
 30
0.0
 10
10.2992131004
 20
10.7244784019
 30
0.0
  0
SPLINE
  5
2F0
100
AcDbEntity
  8
0
100
AcDbSpline
 62
9
  6
CONTINUOUS
 70
0
 71
3
 72
21
 73
17
 74
0
 42
0.0000001
 43
0.0000001
 44
0.0000000001
 40
0.0
 40
0.0
 40
0.0
 40
0.0
 40
0.0328228301
 40
0.0672127211
 40
0.1041356114
 40
0.1443679025
 40
0.1885049422
 40
0.23699167
 40
0.2901479538
 40
0.348198779
 40
0.4113041674
 40
0.479577126
 40
0.5530961915
 40
0.6319060464
 40
0.8054050365
 40
1.0
 40
1.0
 40
1.0
 40
1.0
 10
10.2991809454
 20
10.7235706789
 30
0.0
 10
10.2991220078
 20
10.7227388103
 30
0.0
 10
10.2988328978
 20
10.7210434856
 30
0.0
 10
10.2979176001
 20
10.7185478861
 30
0.0
 10
10.2965240749
 20
10.7160679559
 30
0.0
 10
10.2946588251
 20
10.7136049432
 30
0.0
 10
10.2923253562
 20
10.711157545
 30
0.0
 10
10.2895254307
 20
10.7087259087
 30
0.0
 10
10.2862613179
 20
10.7063101108
 30
0.0
 10
10.2825355895
 20
10.7039107342
 30
0.0
 10
10.2783508604
 20
10.7015290929
 30
0.0
 10
10.2737099079
 20
10.6991667939
 30
0.0
 10
10.26861584
 20
10.6968256251
 30
0.0
 10
10.2609766482
 20
10.6936318795
 30
0.0
 10
10.2503024459
 20
10.6897419841
 30
0.0
 10
10.2413722283
 20
10.686953949
 30
0.0
 10
10.2366268204
 20
10.6855660026
 30
0.0
  0
SPLINE
  5
2F1
100
AcDbEntity
  8
0
100
AcDbSpline
 62
9
  6
CONTINUOUS
 70
0
 71
3
 72
33
 73
29
 74
0
 42
0.0000001
 43
0.0000001
 44
0.0000000001
 40
0.0
 40
0.0
 40
0.0
 40
0.0
 40
0.0194149838
 40
0.0409590818
 40
0.0645563148
 40
0.0901120741
 40
0.1175198024
 40
0.1466622838
 40
0.1774100191
 40
0.2096278321
 40
0.2431689512
 40
0.277882774
 40
0.3501870919
 40
0.4252194323
 40
0.5016013779
 40
0.5779271468
 40
0.6527921263
 40
0.7248213697
 40
0.7593590179
 40
0.7926993408
 40
0.8246928723
 40
0.8551940825
 40
0.8840691146
 40
0.9111900671
 40
0.9364414297
 40
0.9597185725
 40
0.9809292228
 40
1.0
 40
1.0
 40
1.0
 40
1.0
 10
10.2366268204
 20
10.6855660026
 30
0.0
 10
10.230388254
 20
10.6837413342
 30
0.0
 10
10.2171351791
 20
10.6802034011
 30
0.0
 10
10.1960648866
 20
10.6753765887
 30
0.0
 10
10.1728447865
 20
10.6707750698
 30
0.0
 10
10.1475834233
 20
10.6664204195
 30
0.0
 10
10.1203986615
 20
10.6623346741
 30
0.0
 10
10.0914182914
 20
10.6585382873
 30
0.0
 10
10.0607782541
 20
10.6550486011
 30
0.0
 10
10.0286230349
 20
10.6518840912
 30
0.0
 10
9.9951036744
 20
10.649058192
 30
0.0
 10
9.9481635685
 20
10.6457171146
 30
0.0
 10
9.8872930705
 20
10.6425147316
 30
0.0
 10
9.8124236716
 20
10.6402335764
 30
0.0
 10
9.7361766239
 20
10.6395100989
 30
0.0
 10
9.6599868811
 20
10.6403582115
 30
0.0
 10
9.585288289
 20
10.6427615124
 30
0.0
 10
9.5246304827
 20
10.6460641615
 30
0.0
 10
9.4779148803
 20
10.6494836056
 30
0.0
 10
9.4446022094
 20
10.6523643397
 30
0.0
 10
9.4126781543
 20
10.6555813665
 30
0.0
 10
9.3822926282
 20
10.6591209578
 30
0.0
 10
9.3535888774
 20
10.662964442
 30
0.0
 10
9.3267014986
 20
10.6670941906
 30
0.0
 10
9.3017568268
 20
10.6714895239
 30
0.0
 10
9.2788711291
 20
10.6761282008
 30
0.0
 10
9.258151314
 20
10.6809883737
 30
0.0
 10
9.245139703
 20
10.6845511343
 30
0.0
 10
9.2390250576
 20
10.6863883752
 30
0.0
  0
SPLINE
  5
2F2
100
AcDbEntity
  8
0
100
AcDbSpline
 62
9
  6
CONTINUOUS
 70
0
 71
3
 72
22
 73
18
 74
0
 42
0.0000001
 43
0.0000001
 44
0.0000000001
 40
0.0
 40
0.0
 40
0.0
 40
0.0
 40
0.195692015
 40
0.2854252088
 40
0.3697244934
 40
0.4485894825
 40
0.5220389698
 40
0.5901300589
 40
0.6529566191
 40
0.7106519965
 40
0.7634036151
 40
0.8114737231
 40
0.8552329099
 40
0.8951921994
 40
0.9320292454
 40
0.9666136824
 40
1.0
 40
1.0
 40
1.0
 40
1.0
 10
9.2390250576
 20
10.6863883752
 30
0.0
 10
9.2343873033
 20
10.687781861
 30
0.0
 10
9.2276589289
 20
10.6899409428
 30
0.0
 10
9.2190590973
 20
10.6930660508
 30
0.0
 10
9.2132385438
 20
10.6953677739
 30
0.0
 10
9.2078638266
 20
10.6976935414
 30
0.0
 10
9.2029395443
 20
10.7000418029
 30
0.0
 10
9.1984693767
 20
10.7024105698
 30
0.0
 10
9.1944562108
 20
10.7047980036
 30
0.0
 10
9.1909026653
 20
10.7072026179
 30
0.0
 10
9.1878111972
 20
10.7096232459
 30
0.0
 10
9.1851843168
 20
10.712059576
 30
0.0
 10
9.1830243403
 20
10.7145117993
 30
0.0
 10
9.181333384
 20
10.7169800662
 30
0.0
 10
9.1801158083
 20
10.7194655818
 30
0.0
 10
9.1793789985
 20
10.7219660602
 30
0.0
 10
9.1792131004
 20
10.7236522269
 30
0.0
 10
9.1792131004
 20
10.7244784019
 30
0.0
  0
LINE
  5
2F3
100
AcDbEntity
  8
0
100
AcDbLine
 62
7
  6
CONTINUOUS
 10
9.367503944
 20
10.7342000407
 11
9.3788537065
 21
10.7375694001
  0
SPLINE
  5
2F4
100
AcDbEntity
  8
0
100
AcDbSpline
 62
7
  6
CONTINUOUS
 70
0
 71
3
 72
9
 73
5
 74
0
 42
0.0000001
 43
0.0000001
 44
0.0000000001
 40
0.0
 40
0.0
 40
0.0
 40
0.0
 40
0.4755212329
 40
1.0
 40
1.0
 40
1.0
 40
1.0
 10
9.3315055499
 20
10.7155272738
 30
0.0
 10
9.3320582724
 20
10.7161838095
 30
0.0
 10
9.3333071404
 20
10.7174925055
 30
0.0
 10
9.3346762688
 20
10.7186721533
 30
0.0
 10
9.3354164115
 20
10.7192622375
 30
0.0
  0
SPLINE
  5
2F5
100
AcDbEntity
  8
0
100
AcDbSpline
 62
7
  6
CONTINUOUS
 70
0
 71
3
 72
20
 73
16
 74
0
 42
0.0000001
 43
0.0000001
 44
0.0000000001
 40
0.0
 40
0.0
 40
0.0
 40
0.0
 40
0.0360642303
 40
0.0731490207
 40
0.1121690044
 40
0.1539061567
 40
0.1989961611
 40
0.2479395502
 40
0.3011234007
 40
0.3588365634
 40
0.4212897927
 40
0.4886390826
 40
0.6384259048
 40
0.8088195507
 40
1.0
 40
1.0
 40
1.0
 40
1.0
 10
9.2942131004
 20
10.7244784019
 30
0.0
 10
9.2942131004
 20
10.7238989581
 30
0.0
 10
9.2943151065
 20
10.7227213529
 30
0.0
 10
9.2947696285
 20
10.7209697394
 30
0.0
 10
9.2955226087
 20
10.7192252253
 30
0.0
 10
9.2965704096
 20
10.7174897036
 30
0.0
 10
9.2979104932
 20
10.7157630906
 30
0.0
 10
9.2995413707
 20
10.7140453565
 30
0.0
 10
9.3014621883
 20
10.7123368299
 30
0.0
 10
9.3036716888
 20
10.710637819
 30
0.0
 10
9.3061682984
 20
10.70894857
 30
0.0
 10
9.3100162837
 20
10.7066274995
 30
0.0
 10
9.3155633793
 20
10.7037832814
 30
0.0
 10
9.3231139107
 20
10.7005335007
 30
0.0
 10
9.3285669019
 20
10.6985222963
 30
0.0
 10
9.3314697237
 20
10.6975178371
 30
0.0
  0
SPLINE
  5
2F6
100
AcDbEntity
  8
0
100
AcDbSpline
 62
7
  6
CONTINUOUS
 70
0
 71
3
 72
9
 73
5
 74
0
 42
0.0000001
 43
0.0000001
 44
0.0000000001
 40
0.0
 40
0.0
 40
0.0
 40
0.0
 40
0.4812852101
 40
1.0
 40
1.0
 40
1.0
 40
1.0
 10
9.3358882431
 20
10.696037747
 30
0.0
 10
9.3387037473
 20
10.6951241349
 30
0.0
 10
9.3445863245
 20
10.6933256281
 30
0.0
 10
9.350516804
 20
10.6916934019
 30
0.0
 10
9.3536024137
 20
10.6908831183
 30
0.0
  0
SPLINE
  5
2F7
100
AcDbEntity
  8
0
100
AcDbSpline
 62
7
  6
CONTINUOUS
 70
0
 71
3
 72
9
 73
5
 74
0
 42
0.0000001
 43
0.0000001
 44
0.0000000001
 40
0.0
 40
0.0
 40
0.0
 40
0.0
 40
0.5187563927
 40
1.0
 40
1.0
 40
1.0
 40
1.0
 10
10.1247729235
 20
10.6908697657
 30
0.0
 10
10.1278673718
 20
10.6916819426
 30
0.0
 10
10.1338143381
 20
10.6933180201
 30
0.0
 10
10.1397131894
 20
10.6951211722
 30
0.0
 10
10.1425361995
 20
10.6960371942
 30
0.0
  0
SPLINE
  5
2F8
100
AcDbEntity
  8
0
100
AcDbSpline
 62
7
  6
CONTINUOUS
 70
0
 71
3
 72
20
 73
16
 74
0
 42
0.0000001
 43
0.0000001
 44
0.0000000001
 40
0.0
 40
0.0
 40
0.0
 40
0.0
 40
0.1911805478
 40
0.3615734249
 40
0.5113608457
 40
0.5787107401
 40
0.6411645239
 40
0.698878028
 40
0.7520619356
 40
0.801005421
 40
0.8460955177
 40
0.887832632
 40
0.9268523472
 40
0.9639365861
 40
1.0
 40
1.0
 40
1.0
 40
1.0
 10
10.1469544035
 20
10.6975171302
 30
0.0
 10
10.1498573686
 20
10.6985216015
 30
0.0
 10
10.1553106215
 20
10.7005328201
 30
0.0
 10
10.1628615186
 20
10.7037826812
 30
0.0
 10
10.16840891
 20
10.7066269489
 30
0.0
 10
10.1722571317
 20
10.7089480728
 30
0.0
 10
10.1747539008
 20
10.7106373705
 30
0.0
 10
10.1769635366
 20
10.7123364367
 30
0.0
 10
10.178884453
 20
10.714045038
 30
0.0
 10
10.1805154219
 20
10.7157628367
 30
0.0
 10
10.1818555924
 20
10.7174895091
 30
0.0
 10
10.1829034714
 20
10.7192250855
 30
0.0
 10
10.1836565158
 20
10.7209696498
 30
0.0
 10
10.1841110822
 20
10.722721309
 30
0.0
 10
10.1842131004
 20
10.7238989452
 30
0.0
 10
10.1842131004
 20
10.7244784019
 30
0.0
  0
SPLINE
  5
2F9
100
AcDbEntity
  8
0
100
AcDbSpline
 62
9
  6
CONTINUOUS
 70
0
 71
3
 72
66
 73
62
 74
0
 42
0.0000001
 43
0.0000001
 44
0.0000000001
 40
0.0
 40
0.0
 40
0.0
 40
0.0
 40
0.0018127807
 40
0.0036904469
 40
0.0056723139
 40
0.0077916457
 40
0.0100754692
 40
0.0125451984
 40
0.01521756
 40
0.0181051979
 40
0.0212174898
 40
0.0245614882
 40
0.0319630546
 40
0.0403391799
 40
0.0496994818
 40
0.0600417451
 40
0.0713580465
 40
0.0836337225
 40
0.0968474962
 40
0.1109759242
 40
0.1259922743
 40
0.1418644494
 40
0.1585589654
 40
0.1942694167
 40
0.2328060358
 40
0.2738204848
 40
0.3169367634
 40
0.361755585
 40
0.4078614182
 40
0.4548240378
 40
0.5022051893
 40
0.5495620508
 40
0.5964520724
 40
0.6424377348
 40
0.6870900431
 40
0.7299952186
 40
0.7707561804
 40
0.8089996689
 40
0.827068685
 40
0.8443813914
 40
0.8608986935
 40
0.8765860617
 40
0.8914106127
 40
0.9053409014
 40
0.9183509418
 40
0.9304181419
 40
0.9415222163
 40
0.9516497214
 40
0.9607942897
 40
0.9689557861
 40
0.9761467756
 40
0.9793883926
 40
0.9824011756
 40
0.9851931627
 40
0.9877749984
 40
0.9901609418
 40
0.9923697327
 40
0.9944252134
 40
0.9963571522
 40
0.998201565
 40
1.0
 40
1.0
 40
1.0
 40
1.0
 10
9.1692458295
 20
10.7352872732
 30
0.0
 10
9.1692960271
 20
10.7359957825
 30
0.0
 10
9.1695170337
 20
10.737432117
 30
0.0
 10
9.1701924441
 20
10.739557613
 30
0.0
 10
9.1712110586
 20
10.7416749377
 30
0.0
 10
9.1725693658
 20
10.7437824294
 30
0.0
 10
9.1742650097
 20
10.745880171
 30
0.0
 10
9.1762965374
 20
10.7479680181
 30
0.0
 10
9.1786630313
 20
10.7500454509
 30
0.0
 10
9.181363096
 20
10.7521120142
 30
0.0
 10
9.1843949948
 20
10.7541673516
 30
0.0
 10
9.1890370093
 20
10.7569876942
 30
0.0
 10
9.195691149
 20
10.7604488773
 30
0.0
 10
9.2047132608
 20
10.7644129849
 30
0.0
 10
9.2150066469
 20
10.7683088112
 30
0.0
 10
9.226548025
 20
10.7721276099
 30
0.0
 10
9.2393123191
 20
10.7758587765
 30
0.0
 10
9.2532700362
 20
10.7794928562
 30
0.0
 10
9.2683881932
 20
10.7830217502
 30
0.0
 10
9.2846313583
 20
10.7864361789
 30
0.0
 10
9.3019612004
 20
10.789727218
 30
0.0
 10
9.3203362477
 20
10.7928878008
 30
0.0
 10
9.3467700941
 20
10.7970098922
 30
0.0
 10
9.382092634
 20
10.8017363763
 30
0.0
 10
9.4269888126
 20
10.8066598505
 30
0.0
 10
9.474867886
 20
10.8109036757
 30
0.0
 10
9.5252727536
 20
10.8144257259
 30
0.0
 10
9.5777222817
 20
10.8171919119
 30
0.0
 10
9.6317152162
 20
10.8191740381
 30
0.0
 10
9.6867357474
 20
10.8203530383
 30
0.0
 10
9.7422578401
 20
10.8207176827
 30
0.0
 10
9.7977508297
 20
10.8202634831
 30
0.0
 10
9.8526843262
 20
10.8189958035
 30
0.0
 10
9.9065331447
 20
10.8169267591
 30
0.0
 10
9.9587828296
 20
10.8140762304
 30
0.0
 10
10.0089341839
 20
10.810473409
 30
0.0
 10
10.0565080917
 20
10.8061526845
 30
0.0
 10
10.0943103447
 20
10.8019145686
 30
0.0
 10
10.1229146174
 20
10.7981679632
 30
0.0
 10
10.1430414113
 20
10.7952599792
 30
0.0
 10
10.1622024044
 20
10.7922070151
 30
0.0
 10
10.1803521209
 20
10.7890171526
 30
0.0
 10
10.1974473881
 20
10.7856984719
 30
0.0
 10
10.2134473068
 20
10.7822582428
 30
0.0
 10
10.228314158
 20
10.778705432
 30
0.0
 10
10.2420131602
 20
10.7750494065
 30
0.0
 10
10.2545120113
 20
10.7712983102
 30
0.0
 10
10.2657819498
 20
10.7674616467
 30
0.0
 10
10.2757987839
 20
10.7635500392
 30
0.0
 10
10.2845400651
 20
10.7595721874
 30
0.0
 10
10.2909543084
 20
10.7560983365
 30
0.0
 10
10.2954002255
 20
10.7532683421
 30
0.0
 10
10.298286854
 20
10.7512080045
 30
0.0
 10
10.3008410439
 20
10.7491367763
 30
0.0
 10
10.3030610985
 20
10.7470548957
 30
0.0
 10
10.304945607
 20
10.7449626851
 30
0.0
 10
10.3064935501
 20
10.7428605356
 30
0.0
 10
10.3077032078
 20
10.7407485569
 30
0.0
 10
10.3085718257
 20
10.7386269106
 30
0.0
 10
10.309095678
 20
10.7364979072
 30
0.0
 10
10.3092131004
 20
10.7350680052
 30
0.0
 10
10.3092131004
 20
10.7343633408
 30
0.0
  0
SPLINE
  5
2FA
100
AcDbEntity
  8
0
100
AcDbSpline
 62
7
  6
CONTINUOUS
 70
0
 71
3
 72
9
 73
5
 74
0
 42
0.0000001
 43
0.0000001
 44
0.0000000001
 40
0.0
 40
0.0
 40
0.0
 40
0.0
 40
0.4677032185
 40
1.0
 40
1.0
 40
1.0
 40
1.0
 10
9.4303348089
 20
10.7021884262
 30
0.0
 10
9.4308528621
 20
10.7015210171
 30
0.0
 10
9.4320874635
 20
10.7001916133
 30
0.0
 10
9.4334789131
 20
10.6990337027
 30
0.0
 10
9.4342456706
 20
10.6984534624
 30
0.0
  0
LINE
  5
2FB
100
AcDbEntity
  8
0
100
AcDbLine
 62
7
  6
CONTINUOUS
 10
9.4566591066
 20
10.6880192698
 11
9.4680088691
 21
10.6846499103
  0
SPLINE
  5
2FC
100
AcDbEntity
  8
0
100
AcDbSpline
 62
7
  6
CONTINUOUS
 70
0
 71
3
 72
30
 73
26
 74
0
 42
0.0000001
 43
0.0000001
 44
0.0000000001
 40
0.0
 40
0.0
 40
0.0
 40
0.0
 40
0.0036092949
 40
0.0073099261
 40
0.0152937458
 40
0.0245064506
 40
0.0352928873
 40
0.0478600333
 40
0.0623191316
 40
0.0787278448
 40
0.0971137008
 40
0.1174823032
 40
0.1398144164
 40
0.1640795265
 40
0.1902414711
 40
0.2480641486
 40
0.3128118324
 40
0.3839383409
 40
0.460803394
 40
0.5427169826
 40
0.6289055942
 40
0.7185714204
 40
0.8109061056
 40
0.9050553864
 40
1.0
 40
1.0
 40
1.0
 40
1.0
 10
9.4932135736
 20
10.7373288225
 30
0.0
 10
9.4932135736
 20
10.7370234287
 30
0.0
 10
9.4932646727
 20
10.7364037787
 30
0.0
 10
9.493575908
 20
10.7351428438
 30
0.0
 10
9.494387587
 20
10.7335457349
 30
0.0
 10
9.4959213301
 20
10.7317240768
 30
0.0
 10
9.4980250473
 20
10.7299301823
 30
0.0
 10
9.5006973554
 20
10.7281607148
 30
0.0
 10
9.5039348095
 20
10.7264133928
 30
0.0
 10
9.5077325939
 20
10.7246910846
 30
0.0
 10
9.5120840755
 20
10.72299765
 30
0.0
 10
9.5169804668
 20
10.7213377521
 30
0.0
 10
9.5224103336
 20
10.7197148076
 30
0.0
 10
9.528360825
 20
10.7181327735
 30
0.0
 10
9.5372722716
 20
10.716012514
 30
0.0
 10
9.5496132998
 20
10.7135284277
 30
0.0
 10
9.5657855804
 20
10.7108552549
 30
0.0
 10
9.5836242161
 20
10.7084305636
 30
0.0
 10
9.6029591841
 20
10.7062763836
 30
0.0
 10
9.6236044381
 20
10.7044170219
 30
0.0
 10
9.6453611418
 20
10.7028687455
 30
0.0
 10
9.668021697
 20
10.7016489277
 30
0.0
 10
9.6913719659
 20
10.700768313
 30
0.0
 10
9.7151794638
 20
10.7002375616
 30
0.0
 10
9.73117954
 20
10.7001186607
 30
0.0
 10
9.7392131004
 20
10.7001186607
 30
0.0
  0
SPLINE
  5
2FD
100
AcDbEntity
  8
0
100
AcDbSpline
 62
7
  6
CONTINUOUS
 70
0
 71
3
 72
11
 73
7
 74
0
 42
0.0000001
 43
0.0000001
 44
0.0000000001
 40
0.0
 40
0.0
 40
0.0
 40
0.0
 40
0.2141994963
 40
0.4443424502
 40
0.7032809584
 40
1.0
 40
1.0
 40
1.0
 40
1.0
 10
9.4762136063
 20
10.7373288225
 30
0.0
 10
9.4762136037
 20
10.7379038274
 30
0.0
 10
9.4763909858
 20
10.7391022625
 30
0.0
 10
9.4771615902
 20
10.7408450403
 30
0.0
 10
9.4784141898
 20
10.7425575235
 30
0.0
 10
9.4794840468
 20
10.7436051513
 30
0.0
 10
9.4800843331
 20
10.7441287024
 30
0.0
  0
LINE
  5
2FE
100
AcDbEntity
  8
0
100
AcDbLine
 62
7
  6
CONTINUOUS
 10
9.6411108081
 20
10.7742392298
 11
9.6429937933
 21
10.7743524675
  0
LINE
  5
2FF
100
AcDbEntity
  8
0
100
AcDbLine
 62
7
  6
CONTINUOUS
 10
9.6429937933
 20
10.7743524675
 11
9.6448102326
 21
10.7744593025
  0
LINE
  5
300
100
AcDbEntity
  8
0
100
AcDbLine
 62
7
  6
CONTINUOUS
 10
9.7380063796
 20
10.7771099968
 11
9.7392131004
 21
10.7771104182
  0
SPLINE
  5
301
100
AcDbEntity
  8
0
100
AcDbSpline
 62
7
  6
CONTINUOUS
 70
0
 71
3
 72
9
 73
5
 74
0
 42
0.0000001
 43
0.0000001
 44
0.0000000001
 40
0.0
 40
0.0
 40
0.0
 40
0.0
 40
0.5322967815
 40
1.0
 40
1.0
 40
1.0
 40
1.0
 10
10.0441805302
 20
10.6984534624
 30
0.0
 10
10.0449472877
 20
10.6990337027
 30
0.0
 10
10.0463387372
 20
10.7001916133
 30
0.0
 10
10.0475733387
 20
10.7015210171
 30
0.0
 10
10.0480913918
 20
10.7021884262
 30
0.0
  0
LINE
  5
302
100
AcDbEntity
  8
0
100
AcDbLine
 62
7
  6
CONTINUOUS
 10
10.1469206508
 20
10.699820738
 11
10.1453726956
 21
10.6981609349
  0
LINE
  5
303
100
AcDbEntity
  8
0
100
AcDbLine
 62
7
  6
CONTINUOUS
 10
10.0104173317
 20
10.6846499103
 11
10.0217670942
 21
10.6880192698
  0
LINE
  5
304
100
AcDbEntity
  8
0
100
AcDbLine
 62
7
  6
CONTINUOUS
 10
10.0995724943
 20
10.7375694001
 11
10.1109222568
 21
10.7342000407
  0
SPLINE
  5
305
100
AcDbEntity
  8
0
100
AcDbSpline
 62
7
  6
CONTINUOUS
 70
0
 71
3
 72
25
 73
21
 74
0
 42
0.0000001
 43
0.0000001
 44
0.0000000001
 40
0.0
 40
0.0
 40
0.0
 40
0.0
 40
0.171775708
 40
0.3386407557
 40
0.4186963609
 40
0.4957521417
 40
0.5692550632
 40
0.6386751011
 40
0.7035380907
 40
0.7633934455
 40
0.8178525278
 40
0.8665637916
 40
0.8886760177
 40
0.9092566402
 40
0.9282834783
 40
0.9457393667
 40
0.9616205329
 40
0.9759379146
 40
0.9887159968
 40
1.0
 40
1.0
 40
1.0
 40
1.0
 10
9.7392131004
 20
10.7050611301
 30
0.0
 10
9.7251903181
 20
10.7050611301
 30
0.0
 10
9.6975443977
 20
10.705416608
 30
0.0
 10
9.6633860827
 20
10.7067571645
 30
0.0
 10
9.6369871989
 20
10.7083760546
 30
0.0
 10
9.6182158964
 20
10.7098214332
 30
0.0
 10
9.600336016
 20
10.7115026048
 30
0.0
 10
9.583479848
 20
10.7134085168
 30
0.0
 10
9.5677717814
 20
10.7155225714
 30
0.0
 10
9.5533261389
 20
10.7178302526
 30
0.0
 10
9.5402490112
 20
10.7203120004
 30
0.0
 10
9.5302720963
 20
10.7225760421
 30
0.0
 10
9.5230575485
 20
10.7244833732
 30
0.0
 10
9.5182214649
 20
10.7258993579
 30
0.0
 10
9.5137920926
 20
10.7273445173
 30
0.0
 10
9.5097776882
 20
10.7288165895
 30
0.0
 10
9.5061851522
 20
10.7303127749
 30
0.0
 10
9.5030195899
 20
10.731830117
 30
0.0
 10
9.5002859594
 20
10.733365801
 30
0.0
 10
9.498655227
 20
10.7344672865
 30
0.0
 10
9.4979225124
 20
10.7350255581
 30
0.0
  0
SPLINE
  5
306
100
AcDbEntity
  8
0
100
AcDbSpline
 62
7
  6
CONTINUOUS
 70
0
 71
3
 72
10
 73
6
 74
0
 42
0.0000001
 43
0.0000001
 44
0.0000000001
 40
0.0
 40
0.0
 40
0.0
 40
0.0
 40
0.2899032072
 40
0.5512092476
 40
1.0
 40
1.0
 40
1.0
 40
1.0
 10
9.4979225124
 20
10.7350255581
 30
0.0
 10
9.4974323031
 20
10.7353990595
 30
0.0
 10
9.4965262438
 20
10.73614634
 30
0.0
 10
9.4950279772
 20
10.7376538649
 30
0.0
 10
9.4941480501
 20
10.7389168217
 30
0.0
 10
9.4937621727
 20
10.7397893575
 30
0.0
  0
SPLINE
  5
307
100
AcDbEntity
  8
0
100
AcDbSpline
 62
7
  6
CONTINUOUS
 70
0
 71
3
 72
30
 73
26
 74
0
 42
0.0000001
 43
0.0000001
 44
0.0000000001
 40
0.0
 40
0.0
 40
0.0
 40
0.0
 40
0.094943945
 40
0.1890912352
 40
0.2814238985
 40
0.3710887097
 40
0.4572770115
 40
0.5391903022
 40
0.6160554787
 40
0.687182602
 40
0.7519313127
 40
0.809755179
 40
0.8359175837
 40
0.8601833062
 40
0.8825160175
 40
0.9028850419
 40
0.9212712014
 40
0.9376802316
 40
0.9521396007
 40
0.9647069174
 40
0.9754934443
 40
0.98470621
 40
0.9926900632
 40
0.9963907022
 40
1.0
 40
1.0
 40
1.0
 40
1.0
 10
9.7392131004
 20
10.7001186607
 30
0.0
 10
9.7472466041
 20
10.7001186607
 30
0.0
 10
9.7632464554
 20
10.7002375483
 30
0.0
 10
9.7870535572
 20
10.7007682918
 30
0.0
 10
9.8104034014
 20
10.7016488765
 30
0.0
 10
9.8330636744
 20
10.7028686629
 30
0.0
 10
9.854820244
 20
10.7044168896
 30
0.0
 10
9.8754654598
 20
10.706276218
 30
0.0
 10
9.894800468
 20
10.7084303711
 30
0.0
 10
9.9126392576
 20
10.7108550403
 30
0.0
 10
9.9288117787
 20
10.7135282237
 30
0.0
 10
9.94115304
 20
10.7160123012
 30
0.0
 10
9.9500646727
 20
10.7181326054
 30
0.0
 10
9.9560153068
 20
10.7197146519
 30
0.0
 10
9.9614453141
 20
10.7213376089
 30
0.0
 10
9.9663418159
 20
10.7229975306
 30
0.0
 10
9.9706933796
 20
10.7246909975
 30
0.0
 10
9.9744912383
 20
10.7264133238
 30
0.0
 10
9.9777287572
 20
10.7281606608
 30
0.0
 10
9.980401109
 20
10.7299301448
 30
0.0
 10
9.982504847
 20
10.7317240571
 30
0.0
 10
9.9840386032
 20
10.7335457243
 30
0.0
 10
9.9848502894
 20
10.7351428394
 30
0.0
 10
9.9851615275
 20
10.7364037776
 30
0.0
 10
9.9852126271
 20
10.7370234285
 30
0.0
 10
9.9852126271
 20
10.7373288225
 30
0.0
  0
LINE
  5
308
100
AcDbEntity
  8
0
100
AcDbLine
 62
7
  6
CONTINUOUS
 10
9.7392131004
 20
10.7771104182
 11
9.7404196641
 21
10.777109997
  0
LINE
  5
309
100
AcDbEntity
  8
0
100
AcDbLine
 62
7
  6
CONTINUOUS
 10
9.8336114036
 20
10.7744595721
 11
9.8354182097
 21
10.7743533152
  0
LINE
  5
30A
100
AcDbEntity
  8
0
100
AcDbLine
 62
7
  6
CONTINUOUS
 10
9.8354182097
 20
10.7743533152
 11
9.8372892539
 21
10.7742408218
  0
SPLINE
  5
30B
100
AcDbEntity
  8
0
100
AcDbSpline
 62
7
  6
CONTINUOUS
 70
0
 71
3
 72
11
 73
7
 74
0
 42
0.0000001
 43
0.0000001
 44
0.0000000001
 40
0.0
 40
0.0
 40
0.0
 40
0.0
 40
0.2967216452
 40
0.555660504
 40
0.7858024218
 40
1.0
 40
1.0
 40
1.0
 40
1.0
 10
9.9983416404
 20
10.7441289019
 30
0.0
 10
9.9989419621
 20
10.7436053359
 30
0.0
 10
10.0000118796
 20
10.7425576791
 30
0.0
 10
10.0012645487
 20
10.7408451426
 30
0.0
 10
10.0020351946
 20
10.7391023134
 30
0.0
 10
10.0022125919
 20
10.7379038435
 30
0.0
 10
10.0022125944
 20
10.7373288225
 30
0.0
  0
SPLINE
  5
30C
100
AcDbEntity
  8
0
100
AcDbSpline
 62
7
  6
CONTINUOUS
 70
0
 71
3
 72
11
 73
7
 74
0
 42
0.0000001
 43
0.0000001
 44
0.0000000001
 40
0.0
 40
0.0
 40
0.0
 40
0.0
 40
0.2144233371
 40
0.4446926135
 40
0.7035756103
 40
1.0
 40
1.0
 40
1.0
 40
1.0
 10
10.3092112624
 20
13.0078992811
 30
0.0
 10
10.3092111829
 20
13.0066584456
 30
0.0
 10
10.308829787
 20
13.0040730459
 30
0.0
 10
10.3071734959
 20
13.0003123541
 30
0.0
 10
10.3044815511
 20
12.9966164376
 30
0.0
 10
10.302181834
 20
12.9943542972
 30
0.0
 10
10.3008916399
 20
12.9932238679
 30
0.0
  0
SPLINE
  5
30D
100
AcDbEntity
  8
0
100
AcDbSpline
 62
7
  6
CONTINUOUS
 70
0
 71
3
 72
11
 73
7
 74
0
 42
0.0000001
 43
0.0000001
 44
0.0000000001
 40
0.0
 40
0.0
 40
0.0
 40
0.0
 40
0.2959000816
 40
0.5546610718
 40
0.7851491837
 40
1.0
 40
1.0
 40
1.0
 40
1.0
 10
9.1773994827
 20
12.9933428779
 30
0.0
 10
9.1761295228
 20
12.9944649397
 30
0.0
 10
9.173865691
 20
12.9967107114
 30
0.0
 10
9.1712177819
 20
13.0003770346
 30
0.0
 10
9.1695893673
 20
13.0041064785
 30
0.0
 10
9.1692148595
 20
13.0066688111
 30
0.0
 10
9.1692149384
 20
13.0078992798
 30
0.0
  0
SPLINE
  5
30E
100
AcDbEntity
  8
0
100
AcDbSpline
 62
9
  6
CONTINUOUS
 70
0
 71
3
 72
26
 73
22
 74
0
 42
0.0000001
 43
0.0000001
 44
0.0000000001
 40
0.0
 40
0.0
 40
0.0
 40
0.0
 40
0.1890755594
 40
0.3711008184
 40
0.4572824362
 40
0.539192651
 40
0.6160702868
 40
0.6871967623
 40
0.7519540657
 40
0.8097713069
 40
0.8602028909
 40
0.882536831
 40
0.9029018423
 40
0.921288293
 40
0.9377007457
 40
0.9521624863
 40
0.9647281105
 40
0.9755137593
 40
0.9847274384
 40
0.9927123978
 40
1.0
 40
1.0
 40
1.0
 40
1.0
 10
9.7392131004
 20
13.4647838746
 30
0.0
 10
9.77627257
 20
13.4647838746
 30
0.0
 10
9.8490138044
 20
13.4637185116
 30
0.0
 10
9.9385691205
 20
13.4596962297
 30
0.0
 10
10.0070237801
 20
13.454827751
 30
0.0
 10
10.054848018
 20
13.4505178267
 30
0.0
 10
10.0996391148
 20
13.4455310828
 30
0.0
 10
10.1409652231
 20
13.4399102783
 30
0.0
 10
10.1784303393
 20
13.4337225563
 30
0.0
 10
10.2116792962
 20
13.4270223275
 30
0.0
 10
10.236534074
 20
13.4208560946
 30
0.0
 10
10.2540273003
 20
13.4156301006
 30
0.0
 10
10.2653687893
 20
13.4117831366
 30
0.0
 10
10.2754489427
 20
13.4078602866
 30
0.0
 10
10.2842479905
 20
13.403870881
 30
0.0
 10
10.2917489717
 20
13.3998241118
 30
0.0
 10
10.2979386397
 20
13.3957236347
 30
0.0
 10
10.3028111197
 20
13.3915689455
 30
0.0
 10
10.3063638428
 20
13.3873451475
 30
0.0
 10
10.3085696215
 20
13.383023099
 30
0.0
 10
10.309085632
 20
13.3800128835
 30
0.0
 10
10.309085632
 20
13.378584488
 30
0.0
  0
SPLINE
  5
30F
100
AcDbEntity
  8
0
100
AcDbSpline
 62
7
  6
CONTINUOUS
 70
0
 71
3
 72
26
 73
22
 74
0
 42
0.0000001
 43
0.0000001
 44
0.0000000001
 40
0.0
 40
0.0
 40
0.0
 40
0.0
 40
0.0072875612
 40
0.0152723533
 40
0.0244857536
 40
0.0352712172
 40
0.0478369205
 40
0.0622984425
 40
0.078710424
 40
0.0970963966
 40
0.1174611888
 40
0.1397949674
 40
0.1902250615
 40
0.2480405083
 40
0.3127948941
 40
0.3839194269
 40
0.4607975303
 40
0.5427084433
 40
0.6288914246
 40
0.8109218368
 40
1.0
 40
1.0
 40
1.0
 40
1.0
 10
9.1692149384
 20
13.0078992798
 30
0.0
 10
9.1692150299
 20
13.0093279823
 30
0.0
 10
9.1697311852
 20
13.0123387856
 30
0.0
 10
9.1719372606
 20
13.0166617696
 30
0.0
 10
9.1754905753
 20
13.0208865059
 30
0.0
 10
9.1803640541
 20
13.0250420971
 30
0.0
 10
9.1865551169
 20
13.0291433173
 30
0.0
 10
9.194057598
 20
13.0331909988
 30
0.0
 10
9.2028583299
 20
13.0371812995
 30
0.0
 10
9.2129404552
 20
13.0411050298
 30
0.0
 10
9.2242842896
 20
13.0449527824
 30
0.0
 10
9.2417810308
 20
13.0501797888
 30
0.0
 10
9.2666405673
 20
13.0563474808
 30
0.0
 10
9.2998956692
 20
13.0630489385
 30
0.0
 10
9.3373677094
 20
13.0692381019
 30
0.0
 10
9.3787020679
 20
13.0748601311
 30
0.0
 10
9.4235028908
 20
13.0798479448
 30
0.0
 10
9.4713381387
 20
13.0841592005
 30
0.0
 10
9.5398093033
 20
13.0890289168
 30
0.0
 10
9.6293861506
 20
13.0930522527
 30
0.0
 10
9.7021449474
 20
13.094117948
 30
0.0
 10
9.7392131004
 20
13.094117948
 30
0.0
  0
SPLINE
  5
310
100
AcDbEntity
  8
0
100
AcDbSpline
 62
9
  6
CONTINUOUS
 70
0
 71
3
 72
26
 73
22
 74
0
 42
0.0000001
 43
0.0000001
 44
0.0000000001
 40
0.0
 40
0.0
 40
0.0
 40
0.0
 40
0.0072876022
 40
0.0152725616
 40
0.0244862407
 40
0.0352718895
 40
0.0478375137
 40
0.0622992543
 40
0.078711707
 40
0.0970981577
 40
0.117463169
 40
0.1397971091
 40
0.1902286931
 40
0.2480459343
 40
0.3128032377
 40
0.3839297132
 40
0.460807349
 40
0.5427175638
 40
0.6288991816
 40
0.8109244406
 40
1.0
 40
1.0
 40
1.0
 40
1.0
 10
9.1693405687
 20
13.378584488
 30
0.0
 10
9.1693405687
 20
13.3800128835
 30
0.0
 10
9.1698565792
 20
13.383023099
 30
0.0
 10
9.1720623579
 20
13.3873451475
 30
0.0
 10
9.175615081
 20
13.3915689455
 30
0.0
 10
9.1804875611
 20
13.3957236347
 30
0.0
 10
9.186677229
 20
13.3998241118
 30
0.0
 10
9.1941782102
 20
13.403870881
 30
0.0
 10
9.2029772581
 20
13.4078602866
 30
0.0
 10
9.2130574114
 20
13.4117831366
 30
0.0
 10
9.2243989005
 20
13.4156301006
 30
0.0
 10
9.2418921267
 20
13.4208560946
 30
0.0
 10
9.2667469045
 20
13.4270223275
 30
0.0
 10
9.2999958614
 20
13.4337225563
 30
0.0
 10
9.3374609776
 20
13.4399102783
 30
0.0
 10
9.3787870859
 20
13.4455310828
 30
0.0
 10
9.4235781828
 20
13.4505178267
 30
0.0
 10
9.4714024206
 20
13.454827751
 30
0.0
 10
9.5398570803
 20
13.4596962297
 30
0.0
 10
9.6294123963
 20
13.4637185116
 30
0.0
 10
9.7021536307
 20
13.4647838746
 30
0.0
 10
9.7392131004
 20
13.4647838746
 30
0.0
  0
SPLINE
  5
311
100
AcDbEntity
  8
0
100
AcDbSpline
 62
7
  6
CONTINUOUS
 70
0
 71
3
 72
26
 73
22
 74
0
 42
0.0000001
 43
0.0000001
 44
0.0000000001
 40
0.0
 40
0.0
 40
0.0
 40
0.0
 40
0.1890781525
 40
0.3711044955
 40
0.4572862102
 40
0.5391965492
 40
0.6160734091
 40
0.6871978009
 40
0.7519526312
 40
0.8097688986
 40
0.8602010678
 40
0.8825350424
 40
0.9029002574
 40
0.9212872028
 40
0.9377001602
 40
0.9521621535
 40
0.9647277261
 40
0.9755135118
 40
0.9847273744
 40
0.9927124122
 40
1.0
 40
1.0
 40
1.0
 40
1.0
 10
9.7392131004
 20
13.094117948
 30
0.0
 10
9.7762812575
 20
13.094117948
 30
0.0
 10
9.849039266
 20
13.0930522782
 30
0.0
 10
9.938615087
 20
13.0890290749
 30
0.0
 10
10.007085102
 20
13.0841593848
 30
0.0
 10
10.0549197783
 20
13.0798484307
 30
0.0
 10
10.0997202233
 20
13.0748606129
 30
0.0
 10
10.1410544234
 20
13.0692387618
 30
0.0
 10
10.1785267299
 20
13.0630497826
 30
0.0
 10
10.2117824488
 20
13.0563480842
 30
0.0
 10
10.2366427006
 20
13.0501807242
 30
0.0
 10
10.2541399212
 20
13.0449534539
 30
0.0
 10
10.2654840362
 20
13.0411055599
 30
0.0
 10
10.275566656
 20
13.0371818165
 30
0.0
 10
10.2843679012
 20
13.0331915026
 30
0.0
 10
10.2918706902
 20
13.0291438186
 30
0.0
 10
10.2980616948
 20
13.0250422717
 30
0.0
 10
10.3029352964
 20
13.0208866493
 30
0.0
 10
10.3064889285
 20
13.0166619279
 30
0.0
 10
10.3086953077
 20
13.0123389191
 30
0.0
 10
10.3092113539
 20
13.009327989
 30
0.0
 10
10.3092112624
 20
13.0078992811
 30
0.0
  0
SPLINE
  5
312
100
AcDbEntity
  8
0
100
AcDbSpline
 62
9
  6
CONTINUOUS
 70
0
 71
3
 72
61
 73
57
 74
0
 42
0.0000001
 43
0.0000001
 44
0.0000000001
 40
0.0
 40
0.0
 40
0.0
 40
0.0
 40
0.0002252001
 40
0.0008923529
 40
0.0019942741
 40
0.0035237799
 40
0.0054736861
 40
0.0078368088
 40
0.0137739684
 40
0.0212683596
 40
0.0302153703
 40
0.0405009661
 40
0.0520111212
 40
0.0782742457
 40
0.1082188144
 40
0.1411246663
 40
0.1764329143
 40
0.213652828
 40
0.2524033085
 40
0.2923474095
 40
0.3332008324
 40
0.3538865183
 40
0.3746957088
 40
0.3955934142
 40
0.4165401611
 40
0.4375026094
 40
0.4583985937
 40
0.4792366336
 40
0.5000008133
 40
0.520767592
 40
0.5416043696
 40
0.5625007941
 40
0.5834645899
 40
0.6044119601
 40
0.6253097718
 40
0.6461188436
 40
0.6668043002
 40
0.707657241
 40
0.7476008213
 40
0.7863508565
 40
0.8235703666
 40
0.8588781695
 40
0.8917834645
 40
0.9217273348
 40
0.94798974
 40
0.9594995762
 40
0.969784903
 40
0.9787317101
 40
0.9862259787
 40
0.9921631033
 40
0.9945262327
 40
0.9964761552
 40
0.998005682
 40
0.9991076244
 40
0.9997747934
 40
1.0
 40
1.0
 40
1.0
 40
1.0
 10
10.7892124998
 20
4.373585331
 30
0.0
 10
10.7890819185
 20
4.3737047257
 30
0.0
 10
10.7885766812
 20
4.374190947
 30
0.0
 10
10.7874332277
 20
4.375262152
 30
0.0
 10
10.7855519887
 20
4.3770447783
 30
0.0
 10
10.7829352259
 20
4.3795163739
 30
0.0
 10
10.7796005788
 20
4.3826710437
 30
0.0
 10
10.7737505973
 20
4.3882059725
 30
0.0
 10
10.7647398171
 20
4.3967385855
 30
0.0
 10
10.75197864
 20
4.4088339412
 30
0.0
 10
10.7367492866
 20
4.4232916838
 30
0.0
 10
10.7192478577
 20
4.439938721
 30
0.0
 10
10.6919178908
 20
4.4659930902
 30
0.0
 10
10.6534824205
 20
4.502782958
 30
0.0
 10
10.603083372
 20
4.5513844292
 30
0.0
 10
10.5478240198
 20
4.6051827385
 30
0.0
 10
10.4888539844
 20
4.6633617397
 30
0.0
 10
10.4271367724
 20
4.7252913859
 30
0.0
 10
10.3636965906
 20
4.7906380467
 30
0.0
 10
10.2994556617
 20
4.8591691047
 30
0.0
 10
10.2465083204
 20
4.9188096364
 30
0.0
 10
10.2051263739
 20
4.9685537619
 30
0.0
 10
10.1748826203
 20
5.0071435443
 30
0.0
 10
10.1459542626
 20
5.046992788
 30
0.0
 10
10.119102214
 20
5.0884272548
 30
0.0
 10
10.0951553294
 20
5.1316374311
 30
0.0
 10
10.0756995841
 20
5.1770110425
 30
0.0
 10
10.0625219968
 20
5.2245203957
 30
0.0
 10
10.0578287934
 20
5.2735874732
 30
0.0
 10
10.0625137398
 20
5.3226557911
 30
0.0
 10
10.0757086372
 20
5.370162191
 30
0.0
 10
10.0951665695
 20
5.4155344401
 30
0.0
 10
10.1191098401
 20
5.4587488924
 30
0.0
 10
10.1459629078
 20
5.5001847555
 30
0.0
 10
10.1748929984
 20
5.5400333146
 30
0.0
 10
10.2051365155
 20
5.5786230164
 30
0.0
 10
10.2465170889
 20
5.6283674364
 30
0.0
 10
10.2994632533
 20
5.6880077371
 30
0.0
 10
10.3637034323
 20
5.7565379409
 30
0.0
 10
10.4271429107
 20
5.8218837842
 30
0.0
 10
10.4888594471
 20
5.8838126685
 30
0.0
 10
10.5478287294
 20
5.9419908605
 30
0.0
 10
10.6030871479
 20
5.9957882135
 30
0.0
 10
10.6534850952
 20
6.0443885916
 30
0.0
 10
10.6919195884
 20
6.0811775071
 30
0.0
 10
10.7192488145
 20
6.1072311649
 30
0.0
 10
10.7367497932
 20
6.123877773
 30
0.0
 10
10.7519788073
 20
6.1383351939
 30
0.0
 10
10.7647397779
 20
6.1504303548
 30
0.0
 10
10.7737504719
 20
6.1589628864
 30
0.0
 10
10.7796004468
 20
6.1644978084
 30
0.0
 10
10.7829351188
 20
6.1676525023
 30
0.0
 10
10.7855519162
 20
6.1701241284
 30
0.0
 10
10.7874331864
 20
6.1719067886
 30
0.0
 10
10.788576669
 20
6.1729780129
 30
0.0
 10
10.7890819152
 20
6.1734642508
 30
0.0
 10
10.789212502
 20
6.1735836471
 30
0.0
  0
SPLINE
  5
313
100
AcDbEntity
  8
0
100
AcDbSpline
 62
9
  6
CONTINUOUS
 70
0
 71
3
 72
103
 73
99
 74
0
 42
0.0000001
 43
0.0000001
 44
0.0000000001
 40
0.0
 40
0.0
 40
0.0
 40
0.0
 40
0.0000036599
 40
0.0000143083
 40
0.0000319404
 40
0.000056551
 40
0.000126687
 40
0.0002246741
 40
0.0003504704
 40
0.0005040337
 40
0.0006853219
 40
0.0008942931
 40
0.0013951157
 40
0.0020060542
 40
0.0027263378
 40
0.0035551374
 40
0.0044916234
 40
0.0055349666
 40
0.0079379574
 40
0.0107532737
 40
0.0139693506
 40
0.0175737491
 40
0.0215530928
 40
0.025893843
 40
0.0305815758
 40
0.0409387486
 40
0.0525079949
 40
0.0651759602
 40
0.0788345674
 40
0.0933830319
 40
0.1087291723
 40
0.1247901768
 40
0.1414900991
 40
0.1765465691
 40
0.2134420225
 40
0.2518120014
 40
0.2913648101
 40
0.3115102548
 40
0.3318677982
 40
0.3524147527
 40
0.3731315752
 40
0.3835481512
 40
0.3940009071
 40
0.4150032466
 40
0.4361237215
 40
0.4573436557
 40
0.4679883681
 40
0.4786486188
 40
0.4893199818
 40
0.4999967953
 40
0.5106740924
 40
0.5213455698
 40
0.5320051428
 40
0.5426499505
 40
0.5532745977
 40
0.5638767051
 40
0.5849967491
 40
0.6059993071
 40
0.626867464
 40
0.6475843864
 40
0.6681312749
 40
0.6884887395
 40
0.708634232
 40
0.7481873914
 40
0.7865577222
 40
0.8234534937
 40
0.8585100281
 40
0.8752099053
 40
0.8912708719
 40
0.9066170033
 40
0.9211654826
 40
0.9348240843
 40
0.947492046
 40
0.959061302
 40
0.9694184721
 40
0.9741061968
 40
0.97844694
 40
0.9824262755
 40
0.9860306678
 40
0.9892467444
 40
0.9920620599
 40
0.9944650552
 40
0.9955084005
 40
0.9964448826
 40
0.9972736752
 40
0.9979939519
 40
0.9986048866
 40
0.9991057087
 40
0.9993146795
 40
0.9994959674
 40
0.9996495303
 40
0.9997753262
 40
0.9998733131
 40
0.9999434489
 40
0.9999680595
 40
0.9999856916
 40
0.9999963401
 40
1.0
 40
1.0
 40
1.0
 40
1.0
 10
10.6892131004
 20
4.273584488
 30
0.0
 10
10.6892123371
 20
4.273587354
 30
0.0
 10
10.6892023085
 20
4.2735949471
 30
0.0
 10
10.6891879848
 20
4.2736158893
 30
0.0
 10
10.6891587923
 20
4.2736478075
 30
0.0
 10
10.6891004179
 20
4.2737174208
 30
0.0
 10
10.6889981395
 20
4.273835682
 30
0.0
 10
10.6888432818
 20
4.2740165475
 30
0.0
 10
10.688643867
 20
4.2742484116
 30
0.0
 10
10.688400517
 20
4.2745314698
 30
0.0
 10
10.6881130712
 20
4.2748655254
 30
0.0
 10
10.687641975
 20
4.2754127955
 30
0.0
 10
10.6869434408
 20
4.276223695
 30
0.0
 10
10.6859741108
 20
4.2773482135
 30
0.0
 10
10.6848311543
 20
4.2786739651
 30
0.0
 10
10.6835160364
 20
4.2801996125
 30
0.0
 10
10.6820302634
 20
4.2819237926
 30
0.0
 10
10.6797123627
 20
4.2846148856
 30
0.0
 10
10.6764023845
 20
4.2884609431
 30
0.0
 10
10.6719455519
 20
4.2936429887
 30
0.0
 10
10.6668550871
 20
4.2995642107
 30
0.0
 10
10.6611512249
 20
4.3062020575
 30
0.0
 10
10.6548560049
 20
4.3135334185
 30
0.0
 10
10.6479923561
 20
4.3215338247
 30
0.0
 10
10.637768891
 20
4.3334615846
 30
0.0
 10
10.6237446218
 20
4.3498466395
 30
0.0
 10
10.6055388183
 20
4.3711649484
 30
0.0
 10
10.5856292986
 20
4.3945464734
 30
0.0
 10
10.5641949633
 20
4.4198005023
 30
0.0
 10
10.5414058343
 20
4.446751235
 30
0.0
 10
10.5174208267
 20
4.4752401935
 30
0.0
 10
10.4923876605
 20
4.5051256648
 30
0.0
 10
10.457219317
 20
4.5473570951
 30
0.0
 10
10.4115282512
 20
4.6027966256
 30
0.0
 10
10.3552948999
 20
4.672300468
 30
0.0
 10
10.297688673
 20
4.7453723786
 30
0.0
 10
10.2496199158
 20
4.8086682436
 30
0.0
 10
10.2114440573
 20
4.8611244916
 30
0.0
 10
10.1830188066
 20
4.9016202506
 30
0.0
 10
10.1552292134
 20
4.9431150194
 30
0.0
 10
10.1329001361
 20
4.9785557631
 30
0.0
 10
10.1157271986
 20
5.0075548346
 30
0.0
 10
10.0990475296
 20
5.0371057932
 30
0.0
 10
10.079466066
 20
5.0749719832
 30
0.0
 10
10.0588762596
 20
5.1220404692
 30
0.0
 10
10.0451338274
 20
5.1628056238
 30
0.0
 10
10.0369284913
 20
5.1962949653
 30
0.0
 10
10.0323511057
 20
5.22181929
 30
0.0
 10
10.0295195396
 20
5.2476248773
 30
0.0
 10
10.0285781962
 20
5.2735838688
 30
0.0
 10
10.0295350924
 20
5.299541538
 30
0.0
 10
10.0323442405
 20
5.3253492932
 30
0.0
 10
10.0369200395
 20
5.3508739482
 30
0.0
 10
10.0430968272
 20
5.3760159774
 30
0.0
 10
10.0506530368
 20
5.4007262974
 30
0.0
 10
10.0623152192
 20
5.43301314
 30
0.0
 10
10.0794731006
 20
5.4721945736
 30
0.0
 10
10.102929157
 20
5.5175583009
 30
0.0
 10
10.1283791387
 20
5.5614478945
 30
0.0
 10
10.155226354
 20
5.604052789
 30
0.0
 10
10.1830188981
 20
5.6455459728
 30
0.0
 10
10.2114432867
 20
5.6860421011
 30
0.0
 10
10.2496193766
 20
5.7384985488
 30
0.0
 10
10.2976875215
 20
5.8017956157
 30
0.0
 10
10.3552944675
 20
5.8748680293
 30
0.0
 10
10.4115281201
 20
5.9443723889
 30
0.0
 10
10.4572194762
 20
5.9998120358
 30
0.0
 10
10.4923877979
 20
6.0420434642
 30
0.0
 10
10.5174209152
 20
6.0719288793
 30
0.0
 10
10.5414058968
 20
6.1004178257
 30
0.0
 10
10.5641950184
 20
6.127368565
 30
0.0
 10
10.5856293837
 20
6.1526225745
 30
0.0
 10
10.6055389182
 20
6.1760040874
 30
0.0
 10
10.6237446509
 20
6.1973224604
 30
0.0
 10
10.6377689067
 20
6.2137075257
 30
0.0
 10
10.6479923874
 20
6.2256352532
 30
0.0
 10
10.6548560418
 20
6.2336356297
 30
0.0
 10
10.6611512651
 20
6.240966965
 30
0.0
 10
10.6668551306
 20
6.2476047934
 30
0.0
 10
10.6719455979
 20
6.2535260055
 30
0.0
 10
10.6764024234
 20
6.2587080608
 30
0.0
 10
10.6797123921
 20
6.2625541326
 30
0.0
 10
10.6820302885
 20
6.2652452322
 30
0.0
 10
10.6835160582
 20
6.2669694057
 30
0.0
 10
10.6848311711
 20
6.2684950384
 30
0.0
 10
10.685974124
 20
6.2698207741
 30
0.0
 10
10.6869434544
 20
6.2709452803
 30
0.0
 10
10.6876419895
 20
6.271756174
 30
0.0
 10
10.6881130848
 20
6.2723034435
 30
0.0
 10
10.688400529
 20
6.2726374993
 30
0.0
 10
10.6886438768
 20
6.2729205582
 30
0.0
 10
10.6888432893
 20
6.2731524233
 30
0.0
 10
10.6889981443
 20
6.2733332902
 30
0.0
 10
10.6891004215
 20
6.2734515524
 30
0.0
 10
10.6891587934
 20
6.2735211669
 30
0.0
 10
10.689187987
 20
6.2735530854
 30
0.0
 10
10.689202307
 20
6.2735740287
 30
0.0
 10
10.6892123387
 20
6.2735816216
 30
0.0
 10
10.6892131004
 20
6.273584488
 30
0.0
  0
LINE
  5
314
100
AcDbEntity
  8
0
100
AcDbLine
 62
9
  6
CONTINUOUS
 10
12.4667131004
 20
6.173584488
 11
12.474442698
 21
6.1704025063
  0
SPLINE
  5
315
100
AcDbEntity
  8
0
100
AcDbSpline
 62
9
  6
CONTINUOUS
 70
0
 71
3
 72
11
 73
7
 74
0
 42
0.0000001
 43
0.0000001
 44
0.0000000001
 40
0.0
 40
0.0
 40
0.0
 40
0.0
 40
0.1611305114
 40
0.3944106254
 40
0.6810875752
 40
1.0
 40
1.0
 40
1.0
 40
1.0
 10
12.4891121911
 20
6.1645228815
 30
0.0
 10
12.5053050109
 20
6.1581549234
 30
0.0
 10
12.545270897
 20
6.1433923671
 30
0.0
 10
12.6156783139
 20
6.1219014833
 30
0.0
 10
12.7044468548
 20
6.1031023907
 30
0.0
 10
12.7697859309
 20
6.0971015248
 30
0.0
 10
12.8042131004
 20
6.0962260833
 30
0.0
  0
LINE
  5
316
100
AcDbEntity
  8
0
100
AcDbLine
 62
9
  6
CONTINUOUS
 10
12.1508574708
 20
4.373584488
 11
12.1574761714
 21
4.3757285105
  0
SPLINE
  5
317
100
AcDbEntity
  8
0
100
AcDbSpline
 62
9
  6
CONTINUOUS
 70
0
 71
3
 72
12
 73
8
 74
0
 42
0.0000001
 43
0.0000001
 44
0.0000000001
 40
0.0
 40
0.0
 40
0.0
 40
0.0
 40
0.1647408037
 40
0.4058414317
 40
0.544474234
 40
0.6913462807
 40
1.0
 40
1.0
 40
1.0
 40
1.0
 10
12.1691965536
 20
4.3794717239
 30
0.0
 10
12.1909024833
 20
4.3863352627
 30
0.0
 10
12.2446431534
 20
4.4024044363
 30
0.0
 10
12.3176694023
 20
4.4207253141
 30
0.0
 10
12.3891053582
 20
4.4347165078
 30
0.0
 10
12.4703146963
 20
4.4469006617
 30
0.0
 10
12.5333258215
 20
4.4511986357
 30
0.0
 10
12.5759781078
 20
4.4511987152
 30
0.0
  0
SPLINE
  5
318
100
AcDbEntity
  8
0
100
AcDbSpline
 62
9
  6
CONTINUOUS
 70
0
 71
3
 72
13
 73
9
 74
0
 42
0.0000001
 43
0.0000001
 44
0.0000000001
 40
0.0
 40
0.0
 40
0.0
 40
0.0
 40
0.1194687448
 40
0.2402754258
 40
0.3625176446
 40
0.4866863382
 40
0.7404013991
 40
1.0
 40
1.0
 40
1.0
 40
1.0
 10
12.8242131004
 20
6.0779437125
 30
0.0
 10
12.8242130998
 20
6.0791370492
 30
0.0
 10
12.8239485144
 20
6.0815441164
 30
0.0
 10
12.8228027016
 20
6.0850061328
 30
0.0
 10
12.8209291641
 20
6.0881914142
 30
0.0
 10
12.8175679828
 20
6.0919263613
 30
0.0
 10
12.8119796874
 20
6.0953034059
 30
0.0
 10
12.8068060253
 20
6.0962245994
 30
0.0
 10
12.8042129745
 20
6.0962245904
 30
0.0
  0
SPLINE
  5
319
100
AcDbEntity
  8
0
100
AcDbSpline
 62
9
  6
CONTINUOUS
 70
0
 71
3
 72
9
 73
5
 74
0
 42
0.0000001
 43
0.0000001
 44
0.0000000001
 40
0.0
 40
0.0
 40
0.0
 40
0.0
 40
0.2505022653
 40
1.0
 40
1.0
 40
1.0
 40
1.0
 10
12.8042131004
 20
4.4511987152
 30
0.0
 10
12.8048642006
 20
4.4511987152
 30
0.0
 10
12.8074618825
 20
4.4513172202
 30
0.0
 10
12.8100395541
 20
4.4518998664
 30
0.0
 10
12.8118620052
 20
4.4525881129
 30
0.0
  0
SPLINE
  5
31A
100
AcDbEntity
  8
0
100
AcDbSpline
 62
9
  6
CONTINUOUS
 70
0
 71
3
 72
9
 73
5
 74
0
 42
0.0000001
 43
0.0000001
 44
0.0000000001
 40
0.0
 40
0.0
 40
0.0
 40
0.0
 40
0.5086141648
 40
1.0
 40
1.0
 40
1.0
 40
1.0
 10
12.8118620052
 20
4.4525881129
 30
0.0
 10
12.8142335539
 20
4.4534837254
 30
0.0
 10
12.8186218363
 20
4.4561165166
 30
0.0
 10
12.8216811482
 20
4.4602493156
 30
0.0
 10
12.8226909521
 20
4.4624806097
 30
0.0
  0
SPLINE
  5
31B
100
AcDbEntity
  8
0
100
AcDbSpline
 62
9
  6
CONTINUOUS
 70
0
 71
3
 72
9
 73
5
 74
0
 42
0.0000001
 43
0.0000001
 44
0.0000000001
 40
0.0
 40
0.0
 40
0.0
 40
0.0
 40
0.5027904261
 40
1.0
 40
1.0
 40
1.0
 40
1.0
 10
12.8226909521
 20
4.4624806097
 30
0.0
 10
12.8231882973
 20
4.4635795593
 30
0.0
 10
12.8239490351
 20
4.4658757915
 30
0.0
 10
12.8242131004
 20
4.4682810923
 30
0.0
 10
12.8242131004
 20
4.4694739546
 30
0.0
  0
ELLIPSE
  5
31C
100
AcDbEntity
  8
0
100
AcDbEllipse
 62
7
  6
CONTINUOUS
 10
10.1397370471
 20
10.9565953687
 30
0.0
 11
0.6624868377
 21
0.3990333295
 31
0.0
 40
0.0855355287
 41
-1.9330899405
 42
-1.8785068487
  0
ELLIPSE
  5
31D
100
AcDbEntity
  8
0
100
AcDbEllipse
 62
7
  6
CONTINUOUS
 10
10.0570707042
 20
10.939384843
 30
0.0
 11
0.6120655954
 21
0.3486503976
 31
0.0
 40
0.2229739838
 41
-1.727173881
 42
-1.6711722249
  0
ELLIPSE
  5
31E
100
AcDbEntity
  8
0
100
AcDbEllipse
 62
7
  6
CONTINUOUS
 10
9.9432902444
 20
10.9268806642
 30
0.0
 11
0.5561347053
 21
0.2734000971
 31
0.0
 40
0.400608112
 41
-1.465017011
 42
-1.4051337663
  0
ELLIPSE
  5
31F
100
AcDbEntity
  8
0
100
AcDbEllipse
 62
7
  6
CONTINUOUS
 10
9.8095332918
 20
10.9203068283
 30
0.0
 11
0.5279029516
 21
0.1283813559
 31
0.0
 40
0.5981924693
 41
-1.0305441771
 42
-0.9559893954
  0
ELLIPSE
  5
320
100
AcDbEntity
  8
0
100
AcDbEllipse
 62
7
  6
CONTINUOUS
 10
9.7392131004
 20
10.699671192
 30
0.0
 11
0.308882166
 21
-0.2044288452
 31
0.0
 40
0.177238619
 41
1.5706894406
 42
1.6875653176
  0
ELLIPSE
  5
321
100
AcDbEntity
  8
0
100
AcDbEllipse
 62
7
  6
CONTINUOUS
 10
9.7392131004
 20
10.699671192
 30
0.0
 11
0.3109169343
 21
0.1969734434
 31
0.0
 40
0.0364896329
 41
1.2335241077
 42
1.3503999847
  0
ELLIPSE
  5
322
100
AcDbEntity
  8
0
100
AcDbEllipse
 62
7
  6
CONTINUOUS
 10
9.7392131004
 20
10.699671192
 30
0.0
 11
0.3041795843
 21
-0.2021427477
 31
0.0
 40
0.3204410998
 41
1.3495764726
 42
1.4664523496
  0
ELLIPSE
  5
323
100
AcDbEntity
  8
0
100
AcDbEllipse
 62
7
  6
CONTINUOUS
 10
9.7392131004
 20
10.699671192
 30
0.0
 11
0.2981473917
 21
-0.1884141255
 31
0.0
 40
0.4696165267
 41
1.1140964379
 42
1.1938739246
  0
ELLIPSE
  5
324
100
AcDbEntity
  8
0
100
AcDbEllipse
 62
7
  6
CONTINUOUS
 10
9.7392131004
 20
10.699671192
 30
0.0
 11
0.2952180798
 21
-0.1563987678
 31
0.0
 40
0.6254045512
 41
0.8313827002
 42
0.8896186708
  0
ELLIPSE
  5
325
100
AcDbEntity
  8
0
100
AcDbEllipse
 62
7
  6
CONTINUOUS
 10
9.7392131004
 20
10.699671192
 30
0.0
 11
0.3054801949
 21
-0.0763055456
 31
0.0
 40
0.7644786049
 41
0.3859700143
 42
0.434649033
  0
ELLIPSE
  5
326
100
AcDbEntity
  8
0
100
AcDbEllipse
 62
7
  6
CONTINUOUS
 10
9.7392131004
 20
10.699671192
 30
0.0
 11
0.3104106987
 21
-0.0402947799
 31
0.0
 40
0.474907773
 41
6.5420391142
 42
6.6589149912
  0
ELLIPSE
  5
327
100
AcDbEntity
  8
0
100
AcDbEllipse
 62
7
  6
CONTINUOUS
 10
9.7392131004
 20
10.699671192
 30
0.0
 11
0.3083357316
 21
-0.1066473937
 31
0.0
 40
0.3808919632
 41
0.6424315011
 42
0.7593073781
  0
ELLIPSE
  5
328
100
AcDbEntity
  8
0
100
AcDbEllipse
 62
7
  6
CONTINUOUS
 10
9.7392131004
 20
10.699671192
 30
0.0
 11
0.3087587247
 21
-0.1510123018
 31
0.0
 40
0.2468008202
 41
0.9457297314
 42
1.0626056084
  0
ELLIPSE
  5
329
100
AcDbEntity
  8
0
100
AcDbEllipse
 62
7
  6
CONTINUOUS
 10
9.7392131004
 20
10.699671192
 30
0.0
 11
0.3104293309
 21
-0.1797078234
 31
0.0
 40
0.1047902948
 41
1.2003501317
 42
1.3172260088
  0
ELLIPSE
  5
32A
100
AcDbEntity
  8
0
100
AcDbEllipse
 62
7
  6
CONTINUOUS
 10
9.7392131004
 20
10.699671192
 30
0.0
 11
0.3104293309
 21
0.1797078234
 31
0.0
 40
0.1047902948
 41
1.8243666448
 42
1.9412425218
  0
ELLIPSE
  5
32B
100
AcDbEntity
  8
0
100
AcDbEllipse
 62
7
  6
CONTINUOUS
 10
9.7392131004
 20
10.699671192
 30
0.0
 11
0.3087587247
 21
0.1510123018
 31
0.0
 40
0.2468008202
 41
2.0789870452
 42
2.1958629222
  0
ELLIPSE
  5
32C
100
AcDbEntity
  8
0
100
AcDbEllipse
 62
7
  6
CONTINUOUS
 10
9.7392131004
 20
10.699671192
 30
0.0
 11
0.3083357316
 21
0.1066473937
 31
0.0
 40
0.3808919632
 41
2.3822852755
 42
2.4991611525
  0
ELLIPSE
  5
32D
100
AcDbEntity
  8
0
100
AcDbEllipse
 62
7
  6
CONTINUOUS
 10
9.7392131004
 20
10.699671192
 30
0.0
 11
0.3104106987
 21
0.0402947799
 31
0.0
 40
0.474907773
 41
9.0490482767
 42
9.1659241538
  0
ELLIPSE
  5
32E
100
AcDbEntity
  8
0
100
AcDbEllipse
 62
7
  6
CONTINUOUS
 10
9.7392131004
 20
10.699671192
 30
0.0
 11
0.3054801949
 21
0.0763055456
 31
0.0
 40
0.7644786049
 41
2.7069436205
 42
2.7556226393
  0
ELLIPSE
  5
32F
100
AcDbEntity
  8
0
100
AcDbEllipse
 62
7
  6
CONTINUOUS
 10
9.7392131004
 20
10.699671192
 30
0.0
 11
0.2952180798
 21
0.1563987678
 31
0.0
 40
0.6254045512
 41
2.2519739828
 42
2.3102099534
  0
ELLIPSE
  5
330
100
AcDbEntity
  8
0
100
AcDbEllipse
 62
7
  6
CONTINUOUS
 10
9.7392131004
 20
10.699671192
 30
0.0
 11
0.2981473917
 21
0.1884141255
 31
0.0
 40
0.4696165267
 41
1.947718729
 42
2.0274962156
  0
ELLIPSE
  5
331
100
AcDbEntity
  8
0
100
AcDbEllipse
 62
7
  6
CONTINUOUS
 10
9.7392131004
 20
10.699671192
 30
0.0
 11
0.3041795843
 21
0.2021427477
 31
0.0
 40
0.3204410998
 41
1.675140304
 42
1.792016181
  0
ELLIPSE
  5
332
100
AcDbEntity
  8
0
100
AcDbEllipse
 62
7
  6
CONTINUOUS
 10
9.7392131004
 20
10.699671192
 30
0.0
 11
0.3109169343
 21
-0.1969734434
 31
0.0
 40
0.0364896329
 41
1.7911926689
 42
1.9080685459
  0
ELLIPSE
  5
333
100
AcDbEntity
  8
0
100
AcDbEllipse
 62
7
  6
CONTINUOUS
 10
9.7392131004
 20
10.699671192
 30
0.0
 11
0.308882166
 21
0.2044288452
 31
0.0
 40
0.177238619
 41
1.454027336
 42
1.570903213
  0
ELLIPSE
  5
334
100
AcDbEntity
  8
0
100
AcDbEllipse
 62
7
  6
CONTINUOUS
 10
10.1831973155
 20
10.976827555
 30
0.0
 11
0.690366739
 21
0.434719935
 31
0.0
 40
0.0281814881
 41
-2.3897594623
 42
-2.3065602587
  0
ELLIPSE
  5
335
100
AcDbEntity
  8
0
100
AcDbEllipse
 62
7
  6
CONTINUOUS
 10
9.2952288852
 20
10.9981009347
 30
0.0
 11
0.6876941071
 21
-0.4581635006
 31
0.0
 40
0.1351315396
 41
-0.994413967
 42
-0.9199796553
  0
ELLIPSE
  5
336
100
AcDbEntity
  8
0
100
AcDbEllipse
 62
7
  6
CONTINUOUS
 10
9.3386891536
 20
11.0183331211
 30
0.0
 11
0.6528303272
 21
-0.4693914787
 31
0.0
 40
0.2508682184
 41
-1.1310672455
 42
-1.0815196831
  0
ELLIPSE
  5
337
100
AcDbEntity
  8
0
100
AcDbEllipse
 62
7
  6
CONTINUOUS
 10
9.4213554966
 20
11.0355436468
 30
0.0
 11
0.5891460456
 21
-0.4678494283
 31
0.0
 40
0.3916518469
 41
-1.2804031582
 42
-1.2392220837
  0
ELLIPSE
  5
338
100
AcDbEntity
  8
0
100
AcDbEllipse
 62
7
  6
CONTINUOUS
 10
9.5351359564
 20
11.0480478256
 30
0.0
 11
-0.5025100868
 21
0.4545173491
 31
0.0
 40
0.5769452805
 41
-4.5694818448
 42
-4.5316524357
  0
ELLIPSE
  5
339
100
AcDbEntity
  8
0
100
AcDbEllipse
 62
7
  6
CONTINUOUS
 10
9.6688929089
 20
10.9203068283
 30
0.0
 11
0.5279029516
 21
-0.1283813559
 31
0.0
 40
0.5981924693
 41
-2.1856390561
 42
-2.1110484765
  0
ELLIPSE
  5
33A
100
AcDbEntity
  8
0
100
AcDbEllipse
 62
7
  6
CONTINUOUS
 10
9.5351359564
 20
10.9268806642
 30
0.0
 11
0.5561347053
 21
-0.2734000971
 31
0.0
 40
0.400608112
 41
-1.7364529461
 42
-1.6765756426
  0
ELLIPSE
  5
33B
100
AcDbEntity
  8
0
100
AcDbEllipse
 62
7
  6
CONTINUOUS
 10
9.4213554966
 20
10.939384843
 30
0.0
 11
0.6120655954
 21
-0.3486503976
 31
0.0
 40
0.2229739838
 41
-1.4704319166
 42
-1.4144187726
  0
ELLIPSE
  5
33C
100
AcDbEntity
  8
0
100
AcDbEllipse
 62
7
  6
CONTINUOUS
 10
9.3386891536
 20
10.9565953687
 30
0.0
 11
0.6624868377
 21
-0.3990333295
 31
0.0
 40
0.0855355287
 41
-1.2630789454
 42
-1.2085027131
  0
ELLIPSE
  5
33D
100
AcDbEntity
  8
0
100
AcDbEllipse
 62
7
  6
CONTINUOUS
 10
9.2952288852
 20
10.976827555
 30
0.0
 11
0.690366739
 21
-0.434719935
 31
0.0
 40
0.0281814881
 41
-0.8350323949
 42
-0.7518331913
  0
ELLIPSE
  5
33E
100
AcDbEntity
  8
0
100
AcDbEllipse
 62
7
  6
CONTINUOUS
 10
10.1831973155
 20
10.9981009347
 30
0.0
 11
0.6876941071
 21
0.4581635006
 31
0.0
 40
0.1351315396
 41
-2.2216129982
 42
-2.1471786866
  0
ELLIPSE
  5
33F
100
AcDbEntity
  8
0
100
AcDbEllipse
 62
7
  6
CONTINUOUS
 10
10.1397370471
 20
11.0183331211
 30
0.0
 11
0.6528303272
 21
0.4693914787
 31
0.0
 40
0.2508682184
 41
-2.0600729705
 42
-2.0105254081
  0
ELLIPSE
  5
340
100
AcDbEntity
  8
0
100
AcDbEllipse
 62
7
  6
CONTINUOUS
 10
10.0570707042
 20
11.0355436468
 30
0.0
 11
0.5891460456
 21
0.4678494283
 31
0.0
 40
0.3916518469
 41
-1.9023705699
 42
-1.8611894954
  0
ELLIPSE
  5
341
100
AcDbEntity
  8
0
100
AcDbEllipse
 62
7
  6
CONTINUOUS
 10
9.9432902444
 20
11.0480478256
 30
0.0
 11
0.5025100868
 21
0.4545173491
 31
0.0
 40
0.5769452805
 41
-1.7515328715
 42
-1.7137034623
  0
ELLIPSE
  5
342
100
AcDbEntity
  8
0
100
AcDbEllipse
 62
7
  6
CONTINUOUS
 10
9.2952288852
 20
10.9981009347
 30
0.0
 11
0.6876941071
 21
-0.4581635006
 31
0.0
 40
0.1351315396
 41
0.8593638837
 42
0.9130850118
  0
ELLIPSE
  5
343
100
AcDbEntity
  8
0
100
AcDbEllipse
 62
7
  6
CONTINUOUS
 10
10.1831973155
 20
10.976827555
 30
0.0
 11
0.690366739
 21
0.434719935
 31
0.0
 40
0.0281814881
 41
2.0599385281
 42
2.1140823059
  0
ELLIPSE
  5
344
100
AcDbEntity
  8
0
100
AcDbEllipse
 62
7
  6
CONTINUOUS
 10
9.6230227105
 20
10.7914192758
 30
0.0
 11
0.0249933227
 21
-0.0158338781
 31
0.0
 40
0.0364896329
 41
-1.2335241077
 42
1.3997965716
  0
ELLIPSE
  5
345
100
AcDbEntity
  8
0
100
AcDbEllipse
 62
7
  6
CONTINUOUS
 10
9.3386891536
 20
11.0183331211
 30
0.0
 11
0.6528303272
 21
-0.4693914787
 31
0.0
 40
0.2508682184
 41
0.697823856
 42
0.7516882425
  0
ELLIPSE
  5
346
100
AcDbEntity
  8
0
100
AcDbEllipse
 62
7
  6
CONTINUOUS
 10
9.7392131004
 20
10.699671192
 30
0.0
 11
0.3054801949
 21
0.0763055456
 31
0.0
 40
0.7644786049
 41
-0.305562503
 42
-0.2612616952
  0
ELLIPSE
  5
347
100
AcDbEntity
  8
0
100
AcDbEllipse
 62
7
  6
CONTINUOUS
 10
9.6688929089
 20
11.0546216614
 30
0.0
 11
-0.3838378633
 21
0.4458356529
 31
0.0
 40
0.8309556449
 41
-4.7093171815
 42
-4.6294253607
  0
ELLIPSE
  5
348
100
AcDbEntity
  8
0
100
AcDbEllipse
 62
7
  6
CONTINUOUS
 10
9.8095332918
 20
11.0546216614
 30
0.0
 11
0.3838378633
 21
0.4458356529
 31
0.0
 40
0.8309556449
 41
-3.4961704109
 42
-3.4331034856
  0
ELLIPSE
  5
349
100
AcDbEntity
  8
0
100
AcDbEllipse
 62
7
  6
CONTINUOUS
 10
9.4213554966
 20
11.0355436468
 30
0.0
 11
0.5891460456
 21
-0.4678494283
 31
0.0
 40
0.3916518469
 41
0.5401214553
 42
0.5948672649
  0
ELLIPSE
  5
34A
100
AcDbEntity
  8
0
100
AcDbEllipse
 62
7
  6
CONTINUOUS
 10
9.9432902444
 20
11.0480478256
 30
0.0
 11
0.5025100868
 21
0.4545173491
 31
0.0
 40
0.5769452805
 41
-3.5879650171
 42
-3.5308764105
  0
ELLIPSE
  5
34B
100
AcDbEntity
  8
0
100
AcDbEllipse
 62
7
  6
CONTINUOUS
 10
10.0570707042
 20
11.0355436468
 30
0.0
 11
0.5891460456
 21
0.4678494283
 31
0.0
 40
0.3916518469
 41
2.5467165899
 42
2.6014711983
  0
ELLIPSE
  5
34C
100
AcDbEntity
  8
0
100
AcDbEllipse
 62
7
  6
CONTINUOUS
 10
9.5351359564
 20
11.0480478256
 30
0.0
 11
-0.5025100868
 21
0.4545173491
 31
0.0
 40
0.5769452805
 41
-2.7523088966
 42
-2.6952134198
  0
ELLIPSE
  5
34D
100
AcDbEntity
  8
0
100
AcDbEllipse
 62
7
  6
CONTINUOUS
 10
10.1397370471
 20
11.0183331211
 30
0.0
 11
0.6528303272
 21
0.4693914787
 31
0.0
 40
0.2508682184
 41
2.389911426
 42
2.4437687976
  0
ELLIPSE
  5
34E
100
AcDbEntity
  8
0
100
AcDbEllipse
 62
7
  6
CONTINUOUS
 10
9.2952288852
 20
10.976827555
 30
0.0
 11
0.690366739
 21
-0.434719935
 31
0.0
 40
0.0281814881
 41
1.0275103477
 42
1.0816430464
  0
ELLIPSE
  5
34F
100
AcDbEntity
  8
0
100
AcDbEllipse
 62
7
  6
CONTINUOUS
 10
10.1831973155
 20
10.9981009347
 30
0.0
 11
0.6876941071
 21
0.4581635006
 31
0.0
 40
0.1351315396
 41
2.2285376025
 42
2.2822287699
  0
ELLIPSE
  5
350
100
AcDbEntity
  8
0
100
AcDbEllipse
 62
7
  6
CONTINUOUS
 10
9.7392131004
 20
10.7942028909
 30
0.0
 11
0.0248297561
 21
-0.0164331869
 31
0.0
 40
0.177238619
 41
-1.454027336
 42
1.1532684016
  0
ELLIPSE
  5
351
100
AcDbEntity
  8
0
100
AcDbEllipse
 62
7
  6
CONTINUOUS
 10
9.7392131004
 20
10.7942028909
 30
0.0
 11
0.0248297561
 21
0.0164331869
 31
0.0
 40
0.177238619
 41
8.2718845756
 42
10.8788052968
  0
ELLIPSE
  5
352
100
AcDbEntity
  8
0
100
AcDbEllipse
 62
7
  6
CONTINUOUS
 10
9.6688929089
 20
11.0546216614
 30
0.0
 11
-0.3838378633
 21
0.4458356529
 31
0.0
 40
0.8309556449
 41
-2.8500818216
 42
-2.787047333
  0
ELLIPSE
  5
353
100
AcDbEntity
  8
0
100
AcDbEllipse
 62
7
  6
CONTINUOUS
 10
9.6230227105
 20
10.7914192758
 30
0.0
 11
0.0244517351
 21
0.016249417
 31
0.0
 40
0.3204410998
 41
8.4705252904
 42
11.0999182647
  0
ELLIPSE
  5
354
100
AcDbEntity
  8
0
100
AcDbEllipse
 62
7
  6
CONTINUOUS
 10
9.5182058455
 20
10.7833409104
 30
0.0
 11
0.0239668321
 21
0.01514583
 31
0.0
 40
0.4696165267
 41
8.6237538434
 42
10.967661273
  0
ELLIPSE
  5
355
100
AcDbEntity
  8
0
100
AcDbEllipse
 62
7
  6
CONTINUOUS
 10
9.4350227105
 20
10.7707585611
 30
0.0
 11
0.0237313569
 21
0.0125722482
 31
0.0
 40
0.6254045512
 41
8.9683482491
 42
10.6801434258
  0
ELLIPSE
  5
356
100
AcDbEntity
  8
0
100
AcDbEllipse
 62
7
  6
CONTINUOUS
 10
9.8554034902
 20
10.7914192758
 30
0.0
 11
0.0249933227
 21
0.0158338781
 31
0.0
 40
0.0364896329
 41
8.025906256
 42
10.6583020684
  0
ELLIPSE
  5
357
100
AcDbEntity
  8
0
100
AcDbEllipse
 62
7
  6
CONTINUOUS
 10
9.8554034902
 20
10.7914192758
 30
0.0
 11
0.0244517351
 21
-0.016249417
 31
0.0
 40
0.3204410998
 41
4.6080450032
 42
7.2370715662
  0
ELLIPSE
  5
358
100
AcDbEntity
  8
0
100
AcDbEllipse
 62
7
  6
CONTINUOUS
 10
9.7392131004
 20
10.699671192
 30
0.0
 11
0.2952180798
 21
0.1563987678
 31
0.0
 40
0.6254045512
 41
-0.7509751889
 42
-0.6340993119
  0
ELLIPSE
  5
359
100
AcDbEntity
  8
0
100
AcDbEllipse
 62
7
  6
CONTINUOUS
 10
9.7392131004
 20
10.699671192
 30
0.0
 11
0.2981473917
 21
0.1884141255
 31
0.0
 40
0.4696165267
 41
-1.0336889266
 42
-0.9168130496
  0
ELLIPSE
  5
35A
100
AcDbEntity
  8
0
100
AcDbEllipse
 62
7
  6
CONTINUOUS
 10
9.8095332918
 20
11.0546216614
 30
0.0
 11
0.3838378633
 21
0.4458356529
 31
0.0
 40
0.8309556449
 41
-1.6537599465
 42
-1.5738157373
  0
ELLIPSE
  5
35B
100
AcDbEntity
  8
0
100
AcDbEllipse
 62
7
  6
CONTINUOUS
 10
9.7392131004
 20
10.699671192
 30
0.0
 11
0.3041795843
 21
0.2021427477
 31
0.0
 40
0.3204410998
 41
-1.2691689613
 42
-1.1522930843
  0
ELLIPSE
  5
35C
100
AcDbEntity
  8
0
100
AcDbEllipse
 62
7
  6
CONTINUOUS
 10
9.5182058455
 20
10.6913167346
 30
0.0
 11
0.0244517351
 21
-0.016249417
 31
0.0
 40
0.3204410998
 41
-0.8458418653
 42
0.600333522
  0
ELLIPSE
  5
35D
100
AcDbEntity
  8
0
100
AcDbEllipse
 62
7
  6
CONTINUOUS
 10
9.9602203552
 20
10.7833409104
 30
0.0
 11
0.0239668321
 21
-0.01514583
 31
0.0
 40
0.4696165267
 41
4.7403025244
 42
7.0845397884
  0
ELLIPSE
  5
35E
100
AcDbEntity
  8
0
100
AcDbEllipse
 62
7
  6
CONTINUOUS
 10
9.7392131004
 20
10.699671192
 30
0.0
 11
0.308882166
 21
0.2044288452
 31
0.0
 40
0.177238619
 41
-1.4902819292
 42
-1.3734060522
  0
ELLIPSE
  5
35F
100
AcDbEntity
  8
0
100
AcDbEllipse
 62
7
  6
CONTINUOUS
 10
9.7392131004
 20
10.699671192
 30
0.0
 11
0.3109169343
 21
-0.1969734434
 31
0.0
 40
0.0364896329
 41
-1.547683373
 42
-1.430807496
  0
ELLIPSE
  5
360
100
AcDbEntity
  8
0
100
AcDbEllipse
 62
7
  6
CONTINUOUS
 10
9.6230227105
 20
10.6832383691
 30
0.0
 11
0.0248297561
 21
-0.0164331869
 31
0.0
 40
0.177238619
 41
-1.3450397104
 42
1.1837696111
  0
ELLIPSE
  5
361
100
AcDbEntity
  8
0
100
AcDbEllipse
 62
7
  6
CONTINUOUS
 10
9.7392131004
 20
10.699671192
 30
0.0
 11
0.3109169343
 21
0.1969734434
 31
0.0
 40
0.0364896329
 41
-1.7107851576
 42
-1.5939092806
  0
ELLIPSE
  5
362
100
AcDbEntity
  8
0
100
AcDbEllipse
 62
7
  6
CONTINUOUS
 10
9.7392131004
 20
10.699671192
 30
0.0
 11
0.308882166
 21
-0.2044288452
 31
0.0
 40
0.177238619
 41
-1.7681866014
 42
-1.6513107244
  0
ELLIPSE
  5
363
100
AcDbEntity
  8
0
100
AcDbEllipse
 62
7
  6
CONTINUOUS
 10
9.7392131004
 20
10.699671192
 30
0.0
 11
0.3041795843
 21
-0.2021427477
 31
0.0
 40
0.3204410998
 41
-1.9892995693
 42
-1.8724236923
  0
ELLIPSE
  5
364
100
AcDbEntity
  8
0
100
AcDbEllipse
 62
7
  6
CONTINUOUS
 10
9.7392131004
 20
10.699671192
 30
0.0
 11
0.2981473917
 21
-0.1884141255
 31
0.0
 40
0.4696165267
 41
-2.224779604
 42
-2.107903727
  0
ELLIPSE
  5
365
100
AcDbEntity
  8
0
100
AcDbEllipse
 62
7
  6
CONTINUOUS
 10
9.7392131004
 20
10.699671192
 30
0.0
 11
0.2952180798
 21
-0.1563987678
 31
0.0
 40
0.6254045512
 41
-2.5074933417
 42
-2.3906174647
  0
ELLIPSE
  5
366
100
AcDbEntity
  8
0
100
AcDbEllipse
 62
7
  6
CONTINUOUS
 10
9.7392131004
 20
10.699671192
 30
0.0
 11
0.3054801949
 21
-0.0763055456
 31
0.0
 40
0.7644786049
 41
-2.8803309584
 42
-2.8360301506
  0
ELLIPSE
  5
367
100
AcDbEntity
  8
0
100
AcDbEllipse
 62
7
  6
CONTINUOUS
 10
10.0434034902
 20
10.7707585611
 30
0.0
 11
0.0237313569
 21
-0.0125722482
 31
0.0
 40
0.6254045512
 41
5.0278135155
 42
6.739614962
  0
ELLIPSE
  5
368
100
AcDbEntity
  8
0
100
AcDbEllipse
 62
7
  6
CONTINUOUS
 10
9.9602203552
 20
10.6913167346
 30
0.0
 11
0.0244517351
 21
0.016249417
 31
0.0
 40
0.3204410998
 41
8.8244450064
 42
10.2706198148
  0
ELLIPSE
  5
369
100
AcDbEntity
  8
0
100
AcDbEllipse
 62
7
  6
CONTINUOUS
 10
9.8554034902
 20
10.6832383691
 30
0.0
 11
0.0248297561
 21
0.0164331869
 31
0.0
 40
0.177238619
 41
8.2410090766
 42
10.7698176646
  0
ELLIPSE
  5
36A
100
AcDbEntity
  8
0
100
AcDbEllipse
 62
7
  6
CONTINUOUS
 10
9.7392131004
 20
10.6804547541
 30
0.0
 11
0.0249933227
 21
-0.0158338781
 31
0.0
 40
0.0364896329
 41
-1.3906037404
 42
1.5939092806
  0
ELLIPSE
  5
36B
100
AcDbEntity
  8
0
100
AcDbEllipse
 62
7
  6
CONTINUOUS
 10
9.7392131004
 20
10.6804547541
 30
0.0
 11
0.0249933227
 21
0.0158338781
 31
0.0
 40
0.0364896329
 41
7.8308686802
 42
10.8153817011
  0
ENDSEC
  0
SECTION
  2
OBJECTS
  0
DICTIONARY
  5
C
100
AcDbDictionary
280
0
281
1
  3
ACAD_GROUP
350
D
  3
ACAD_MLINESTYLE
350
17
  3
ACAD_LAYOUT
350
1A
  3
ACAD_PLOTSETTINGS
350
19
  3
ACAD_PLOTSTYLENAME
350
E
  0
DICTIONARY
  5
D
102
{ACAD_REACTORS
330
C
102
}
100
AcDbDictionary
280
0
281
1
  0
ACDBDICTIONARYWDFLT
  5
E
102
{ACAD_REACTORS
330
C
102
}
100
AcDbDictionary
281
1
  3
Normal
350
F
100
AcDbDictionaryWithDefault
340
F
  0
DICTIONARY
  5
17
102
{ACAD_REACTORS
330
C
102
}
100
AcDbDictionary
280
0
281
1
  3
Standard
350
18
  0
DICTIONARY
  5
19
102
{ACAD_REACTORS
330
C
102
}
100
AcDbDictionary
281
1
  0
DICTIONARY
  5
1A
102
{ACAD_REACTORS
330
C
102
}
100
AcDbDictionary
281
1
  3
Model
350
36C
  3
Layout1
350
36D
  0
ACDBPLACEHOLDER
  5
F
102
{ACAD_REACTORS
330
E
102
}
  0
MLINESTYLE
  5
18
102
{ACAD_REACTORS
330
17
102
}
100
AcDbMlineStyle
  2
STANDARD
 70
0
  3

 62
256
 51
90.0
 52
90.0
 71
2
 49
0.5
 62
256
  6
BYLAYER
 49
-0.5
 62
256
  6
BYLAYER
  0
LAYOUT
  5
36C
102
{ACAD_REACTORS
330
1A
102
}
100
AcDbPlotSettings
  1

  2
none_device
  4
ANSI_C_(22.00_x_17.00_Inches)
  6

 40
0.0
 41
0.0
 42
0.0
 43
0.0
 44
558.8
 45
431.8
 46
0.0
 47
0.0
 48
0.0
 49
0.0
140
0.0
141
0.0
142
1.0
143
1.0
 70
1024
 72
0
 73
0
 74
0
  7

 75
0
147
1.0
148
0.0
149
0.0
100
AcDbLayout
  1
Model
 70
0
 71
0
 10
0.0
 20
0.0
 11
22.0
 21
17.0
 12
0.0
 22
0.0
 32
0.0
 14
0.0
 24
0.0
 34
0.0
 15
0.0
 25
0.0
 35
0.0
146
0.0
 13
0.0
 23
0.0
 33
0.0
 16
1.0
 26
0.0
 36
0.0
 17
0.0
 27
1.0
 37
0.0
 76
0
330
202
345
0
346
0
  0
LAYOUT
  5
36D
102
{ACAD_REACTORS
330
1A
102
}
100
AcDbPlotSettings
  1

  2
none_device
  4
ANSI_C_(22.00_x_17.00_Inches)
  6

 40
0.0
 41
0.0
 42
0.0
 43
0.0
 44
558.8
 45
431.8
 46
0.0
 47
0.0
 48
0.0
 49
0.0
140
0.0
141
0.0
142
1.0
143
1.0
 70
0
 72
0
 73
0
 74
0
  7

 75
0
147
1.0
148
0.0
149
0.0
100
AcDbLayout
  1
Layout1
 70
0
 71
1
 10
0.0
 20
0.0
 11
22.0
 21
17.0
 12
0.0
 22
0.0
 32
0.0
 14
0.0
 24
0.0
 34
0.0
 15
0.0
 25
0.0
 35
0.0
146
0.0
 13
0.0
 23
0.0
 33
0.0
 16
1.0
 26
0.0
 36
0.0
 17
0.0
 27
1.0
 37
0.0
 76
0
330
203
345
0
346
0
  0
ENDSEC
  0
EOF
