999
DXF file: E:\BT Custom\CADOUTPUT\_RIGHT.dxf
999
Pro/ENGINEER 2018400 by Parametric Technology Corporation
  0
SECTION
  2
HEADER
  9
$ACADVER
  1
AC1018
  9
$DWGCODEPAGE
  3
ANSI_1252
  9
$EXTMAX
 10
22.0
 20
17.0
 30
0.0
  9
$EXTMIN
 10
0.0
 20
0.0
 30
0.0
  9
$LIMMIN
 10
0.0
 20
0.0
  9
$LIMMAX
 10
22.0
 20
17.0
  9
$VIEWCTR
 10
11.0
 20
8.5
  9
$VIEWSIZE
 40
17.0
  9
$CLAYER
  8
0
  9
$LTSCALE
 40
1.21
  9
$CELTYPE
  6
BYLAYER
  9
$DIMSCALE
 40
1.0
  9
$DIMASZ
 40
0.1
  9
$DIMEXO
 40
0.0625
  9
$DIMDLI
 40
0.836
  9
$DIMEXE
 40
0.125
  9
$DIMCEN
 40
0.198
  9
$DIMLFAC
 40
1.0
  9
$DIMBLK
  1
_FILLED
  9
$DIMALT
 70
1
  9
$DIMALTD
 70
2
  9
$DIMALTTD
 70
2
  9
$DIMALTF
 40
25.4
  9
$DIMTXT
 40
0.08
  9
$DIMTOL
 70
1
  9
$DIMLIM
 70
0
  9
$DIMTFAC
 40
1.0
  9
$DIMTP
 40
0.001
  9
$DIMTM
 40
0.001
  9
$DIMGAP
 40
0.09
  9
$DIMDSEP
 70
46
  9
$AUNITS
 70
0
  9
$PDMODE
 70
3
  9
$PDSIZE
 40
0.06
  9
$HANDSEED
  5
286
  9
$TILEMODE
 70
1
  9
$MEASUREMENT
 70
0
  9
$INSUNITS
 70
1
  0
ENDSEC
  0
SECTION
  2
CLASSES
  0
CLASS
  1
ACDBDICTIONARYWDFLT
  2
AcDbDictionaryWithDefault
  3
AutoCAD 2000
 90
0
 91
1
280
0
281
0
  0
CLASS
  1
ACDBPLACEHOLDER
  2
AcDbPlaceHolder
  3
AutoCAD 2000
 90
0
 91
1
280
0
281
0
  0
CLASS
  1
LAYOUT
  2
AcDbLayout
  3
AutoCAD 2000
 90
0
 91
0
280
0
281
0
  0
ENDSEC
  0
SECTION
  2
TABLES
  0
TABLE
  2
VPORT
  5
8
100
AcDbSymbolTable
 70
2
  0
VPORT
  5
1F4
100
AcDbSymbolTableRecord
100
AcDbViewportTableRecord
  2
*ACTIVE
 70
0
 10
0.0
 20
0.0
 11
1.0
 21
1.0
 12
11.0
 22
8.5
 13
0.0
 23
0.0
 14
1.0
 24
1.0
 15
0.0
 25
0.0
 16
0.0
 26
0.0
 36
1.0
 17
0.0
 27
0.0
 37
0.0
 40
17.0
 41
1.2941176471
 42
50.0
 43
0.0
 44
0.0
 50
0.0
 51
0.0
 71
0
 72
100
 73
1
 74
1
 75
0
 76
0
 77
0
 78
0
  0
ENDTAB
  0
TABLE
  2
LTYPE
  5
5
100
AcDbSymbolTable
 70
6
  0
LTYPE
  5
14
100
AcDbSymbolTableRecord
100
AcDbLinetypeTableRecord
  2
BYBLOCK
 70
0
  3

 72
65
 73
0
 40
0.0
  0
LTYPE
  5
15
100
AcDbSymbolTableRecord
100
AcDbLinetypeTableRecord
  2
BYLAYER
 70
0
  3

 72
65
 73
0
 40
0.0
  0
LTYPE
  5
16
100
AcDbSymbolTableRecord
100
AcDbLinetypeTableRecord
  2
CONTINUOUS
 70
64
  3
Solid line
 72
65
 73
0
 40
0.0
  0
LTYPE
  5
1F5
100
AcDbSymbolTableRecord
100
AcDbLinetypeTableRecord
  2
CENTER
 70
64
  3
____ _ ____ _ ____ _ ____ _ ____ _ ____ _ ____
 72
65
 73
4
 40
0.6
 49
0.375
 74
0
 49
-0.075
 74
0
 49
0.075
 74
0
 49
-0.075
 74
0
  0
LTYPE
  5
1F6
100
AcDbSymbolTableRecord
100
AcDbLinetypeTableRecord
  2
HIDDEN
 70
64
  3
- - - - - - - - - - - - - - - - - - - -
 72
65
 73
2
 40
0.2
 49
0.1
 74
0
 49
-0.1
 74
0
  0
LTYPE
  5
1F7
100
AcDbSymbolTableRecord
100
AcDbLinetypeTableRecord
  2
PHANTOM
 70
64
  3
_____ _ _ _____ _ _ _____ _ _ _____
 72
65
 73
6
 40
0.8
 49
0.45
 74
0
 49
-0.05
 74
0
 49
0.1
 74
0
 49
-0.05
 74
0
 49
0.1
 74
0
 49
-0.05
 74
0
  0
LTYPE
  5
1F8
100
AcDbSymbolTableRecord
100
AcDbLinetypeTableRecord
  2
DOT
 70
64
  3
. . . . . . . . . . . . . . . . . . . .
 72
65
 73
2
 40
0.2
 49
0.1
 74
0
 49
-0.1
 74
0
  0
LTYPE
  5
1F9
100
AcDbSymbolTableRecord
100
AcDbLinetypeTableRecord
  2
DASHED
 70
64
  3
- - - - - - - - - - - - - - - - - - - -
 72
65
 73
2
 40
0.2
 49
0.1
 74
0
 49
-0.1
 74
0
  0
ENDTAB
  0
TABLE
  2
LAYER
  5
2
100
AcDbSymbolTable
 70
36
  0
LAYER
  5
10
100
AcDbSymbolTableRecord
100
AcDbLayerTableRecord
  2
0
 70
0
 62
7
  6
CONTINUOUS
370
-3
390
F
  0
LAYER
  5
1FA
100
AcDbSymbolTableRecord
100
AcDbLayerTableRecord
  2
DEFAULT_1
 70
0
 62
7
  6
CENTER
370
-3
390
F
  0
LAYER
  5
1FB
100
AcDbSymbolTableRecord
100
AcDbLayerTableRecord
  2
DEFAULT_2
 70
0
 62
8
  6
HIDDEN
370
-3
390
F
  0
LAYER
  5
1FC
100
AcDbSymbolTableRecord
100
AcDbLayerTableRecord
  2
DEFAULT_3
 70
0
 62
7
  6
PHANTOM
370
-3
390
F
  0
LAYER
  5
1FD
100
AcDbSymbolTableRecord
100
AcDbLayerTableRecord
  2
ALL_FEATURES
 70
0
 62
7
  6
CONTINUOUS
370
-3
390
F
  0
LAYER
  5
1FE
100
AcDbSymbolTableRecord
100
AcDbLayerTableRecord
  2
AXES_FEATURES
 70
0
 62
7
  6
CONTINUOUS
370
-3
390
F
  0
LAYER
  5
1FF
100
AcDbSymbolTableRecord
100
AcDbLayerTableRecord
  2
DIMENSIONS
 70
0
 62
7
  6
CONTINUOUS
370
-3
390
F
  0
ENDTAB
  0
TABLE
  2
STYLE
  5
3
100
AcDbSymbolTable
 70
1
  0
STYLE
  5
11
100
AcDbSymbolTableRecord
100
AcDbTextStyleTableRecord
  2
STANDARD
 70
0
 40
0.0
 41
0.8
 50
0.0
 71
0
 42
0.2
  3
txt
  4

  0
STYLE
  5
200
100
AcDbSymbolTableRecord
100
AcDbTextStyleTableRecord
  2
TEXTSTYLE_1
 70
0
 40
0.0
 41
0.8
 50
0.0
 71
0
 42
0.2
  3
gdt
  4

  0
ENDTAB
  0
TABLE
  2
VIEW
  5
6
100
AcDbSymbolTable
 70
0
  0
ENDTAB
  0
TABLE
  2
UCS
  5
7
100
AcDbSymbolTable
 70
0
  0
ENDTAB
  0
TABLE
  2
APPID
  5
9
100
AcDbSymbolTable
 70
1
  0
APPID
  5
201
100
AcDbSymbolTableRecord
100
AcDbRegAppTableRecord
  2
ACAD
 70
0
  0
ENDTAB
  0
TABLE
  2
BLOCK_RECORD
  5
1
100
AcDbSymbolTable
 70
0
  0
BLOCK_RECORD
  5
202
100
AcDbSymbolTableRecord
100
AcDbBlockTableRecord
  2
*Model_Space
  0
BLOCK_RECORD
  5
203
100
AcDbSymbolTableRecord
100
AcDbBlockTableRecord
  2
*Paper_Space
  0
BLOCK_RECORD
  5
204
100
AcDbSymbolTableRecord
100
AcDbBlockTableRecord
  2
_FILLED
  0
ENDTAB
  0
TABLE
  2
DIMSTYLE
  5
A
100
AcDbSymbolTable
 70
1
100
AcDbDimStyleTable
 71
0
  0
DIMSTYLE
105
205
100
AcDbSymbolTableRecord
100
AcDbDimStyleTableRecord
  2
STANDARD
 70
0
  3

  4

 40
1.0
 41
0.1
 42
0.0625
 43
0.38
 44
0.125
 45
0.0
 46
0.0
 47
0.001
 48
0.001
140
0.08
141
0.09
142
0.0
143
25.4
144
1.0
145
0.0
146
1.0
147
0.09
 71
1.0
 72
0.0
 73
1
 74
1
 75
0
 76
0
 77
0
 78
4
 79
1
170
1
171
2
172
0
173
0
174
0
175
0
176
0
177
0
178
0
270
2
179
3
271
3
272
3
273
2
274
2
275
0
280
0
281
0
282
0
283
1
284
4
285
0
286
0
287
3
288
0
340
11
278
46
341
204
342
204
343
204
344
204
  0
ENDTAB
  0
ENDSEC
  0
SECTION
  2
BLOCKS
  0
BLOCK
  5
20
100
AcDbEntity
  8
0
100
AcDbBlockBegin
  2
*Model_Space
 70
0
 10
0.0
 20
0.0
 30
0.0
  3
*Model_Space
  1

  0
ENDBLK
  5
21
100
AcDbEntity
  8
0
100
AcDbBlockEnd
  0
BLOCK
  5
1C
100
AcDbEntity
  8
0
100
AcDbBlockBegin
  2
*Paper_Space
 70
0
 10
0.0
 20
0.0
 30
0.0
  3
*Paper_Space
  1

  0
ENDBLK
  5
1D
100
AcDbEntity
  8
0
100
AcDbBlockEnd
  0
BLOCK
  5
206
100
AcDbEntity
  8
0
100
AcDbBlockBegin
  2
_FILLED
 70
64
 10
0.0
 20
0.0
  3
_FILLED
  1

  0
SOLID
  5
207
100
AcDbEntity
  8
0
  6
BYBLOCK
 62
0
100
AcDbTrace
 10
0.0
 20
0.0
 11
-1.0
 21
0.2
 12
-1.0
 22
-0.2
 13
-1.0
 23
-0.2
  0
ENDBLK
  5
208
100
AcDbEntity
  8
0
  6
BYBLOCK
 62
0
100
AcDbBlockEnd
  0
ENDSEC
  0
SECTION
  2
ENTITIES
  0
LINE
  5
209
100
AcDbEntity
  8
0
100
AcDbLine
 62
7
  6
CONTINUOUS
 10
13.8257988071
 20
0.8758067899
 11
15.7257486925
 21
0.8758067899
  0
LINE
  5
20A
100
AcDbEntity
  8
0
100
AcDbLine
 62
7
  6
CONTINUOUS
 10
5.6977095402
 20
10.5628043103
 11
6.040315298
 21
12.8017429639
  0
LINE
  5
20B
100
AcDbEntity
  8
0
100
AcDbLine
 62
7
  6
CONTINUOUS
 10
6.0457354284
 20
12.836320969
 11
6.102458236
 21
13.2070061765
  0
LINE
  5
20C
100
AcDbEntity
  8
0
100
AcDbLine
 62
7
  6
CONTINUOUS
 10
14.5157737498
 20
4.1158067899
 11
15.0356960863
 21
4.1158067899
  0
LINE
  5
20D
100
AcDbEntity
  8
0
100
AcDbLine
 62
9
  6
CONTINUOUS
 10
14.4957737498
 20
4.1358067899
 11
15.0557737498
 21
4.1358067899
  0
LINE
  5
20E
100
AcDbEntity
  8
0
100
AcDbLine
 62
9
  6
CONTINUOUS
 10
14.4182737498
 20
4.2116962565
 11
14.4382737498
 21
4.2116962565
  0
LINE
  5
20F
100
AcDbEntity
  8
0
100
AcDbLine
 62
9
  6
CONTINUOUS
 10
15.1132737498
 20
4.2116962565
 11
15.1332737498
 21
4.2116962565
  0
LINE
  5
210
100
AcDbEntity
  8
0
100
AcDbLine
 62
7
  6
CONTINUOUS
 10
7.172366456
 20
12.6639221958
 11
7.2290892636
 21
13.0346074034
  0
LINE
  5
211
100
AcDbEntity
  8
0
100
AcDbLine
 62
7
  6
CONTINUOUS
 10
6.8245925711
 20
10.3903669752
 11
7.167198329
 21
12.6293056288
  0
LINE
  5
212
100
AcDbEntity
  8
0
100
AcDbLine
 62
9
  6
CONTINUOUS
 10
15.1332737498
 20
5.0283067899
 11
15.1132737498
 21
5.0283067899
  0
LINE
  5
213
100
AcDbEntity
  8
0
100
AcDbLine
 62
9
  6
CONTINUOUS
 10
14.4382737498
 20
5.0283067899
 11
14.4182737498
 21
5.0283067899
  0
LINE
  5
214
100
AcDbEntity
  8
0
100
AcDbLine
 62
9
  6
CONTINUOUS
 10
15.1327138708
 20
5.8201660069
 11
15.1127451928
 21
5.8201660069
  0
LINE
  5
215
100
AcDbEntity
  8
0
100
AcDbLine
 62
9
  6
CONTINUOUS
 10
14.4388023068
 20
5.8201660069
 11
14.4188336288
 21
5.8201660069
  0
LINE
  5
216
100
AcDbEntity
  8
0
100
AcDbLine
 62
9
  6
CONTINUOUS
 10
15.7257737498
 20
7.0958067899
 11
15.0557737498
 21
7.0958067899
  0
LINE
  5
217
100
AcDbEntity
  8
0
100
AcDbLine
 62
9
  6
CONTINUOUS
 10
14.4957737498
 20
7.0958067899
 11
13.8257737498
 21
7.0958067899
  0
LINE
  5
218
100
AcDbEntity
  8
0
100
AcDbLine
 62
7
  6
CONTINUOUS
 10
15.695749971
 20
7.1258067899
 11
15.0557737498
 21
7.1258067899
  0
LINE
  5
219
100
AcDbEntity
  8
0
100
AcDbLine
 62
7
  6
CONTINUOUS
 10
14.4957737498
 20
7.1258067899
 11
13.8557975287
 21
7.1258067899
  0
LINE
  5
21A
100
AcDbEntity
  8
0
100
AcDbLine
 62
7
  6
CONTINUOUS
 10
14.2057737498
 20
7.1458067899
 11
14.4957737498
 21
7.1458067899
  0
LINE
  5
21B
100
AcDbEntity
  8
0
100
AcDbLine
 62
7
  6
CONTINUOUS
 10
15.0557737498
 20
7.1458067899
 11
15.3457737498
 21
7.1458067899
  0
LINE
  5
21C
100
AcDbEntity
  8
0
100
AcDbLine
 62
9
  6
CONTINUOUS
 10
15.0557737498
 20
8.5958067899
 11
14.4957737498
 21
8.5958067899
  0
LINE
  5
21D
100
AcDbEntity
  8
0
100
AcDbLine
 62
7
  6
CONTINUOUS
 10
15.0357737498
 20
8.6158067899
 11
14.5157737498
 21
8.6158067899
  0
LINE
  5
21E
100
AcDbEntity
  8
0
100
AcDbLine
 62
7
  6
CONTINUOUS
 10
5.8540505923
 20
10.5115664863
 11
6.0485999069
 21
10.4817962577
  0
LINE
  5
21F
100
AcDbEntity
  8
0
100
AcDbLine
 62
7
  6
CONTINUOUS
 10
6.0616997372
 20
10.479791702
 11
6.1286227379
 21
10.4695510439
  0
LINE
  5
220
100
AcDbEntity
  8
0
100
AcDbLine
 62
7
  6
CONTINUOUS
 10
6.1813375809
 20
10.4614845394
 11
6.2212185895
 21
10.4553818875
  0
LINE
  5
221
100
AcDbEntity
  8
0
100
AcDbLine
 62
7
  6
CONTINUOUS
 10
6.2929154375
 20
10.4444107281
 11
6.3327964462
 21
10.4383080762
  0
LINE
  5
222
100
AcDbEntity
  8
0
100
AcDbLine
 62
7
  6
CONTINUOUS
 10
6.3855112891
 20
10.4302415717
 11
6.4524342898
 21
10.4200009135
  0
LINE
  5
223
100
AcDbEntity
  8
0
100
AcDbLine
 62
7
  6
CONTINUOUS
 10
6.4655341201
 20
10.4179963578
 11
6.6600834348
 21
10.3882261293
  0
LINE
  5
224
100
AcDbEntity
  8
0
100
AcDbLine
 62
7
  6
CONTINUOUS
 10
5.7060829102
 20
10.5514066041
 11
6.8131950241
 21
10.3819946445
  0
LINE
  5
225
100
AcDbEntity
  8
0
100
AcDbLine
 62
9
  6
CONTINUOUS
 10
5.6977095402
 20
10.5628043103
 11
6.8245925711
 21
10.3903669752
  0
LINE
  5
226
100
AcDbEntity
  8
0
100
AcDbLine
 62
9
  6
CONTINUOUS
 10
15.1332737498
 20
4.2116962565
 11
15.1413987498
 21
4.1934210171
  0
LINE
  5
227
100
AcDbEntity
  8
0
100
AcDbLine
 62
9
  6
CONTINUOUS
 10
14.4188336295
 20
5.8201660069
 11
14.41072134
 21
5.8384468923
  0
LINE
  5
228
100
AcDbEntity
  8
0
100
AcDbLine
 62
7
  6
CONTINUOUS
 10
13.8257737498
 20
0.8758067899
 11
13.8257737498
 21
7.0958067899
  0
LINE
  5
229
100
AcDbEntity
  8
0
100
AcDbLine
 62
9
  6
CONTINUOUS
 10
7.167198329
 20
12.6293056288
 11
6.040315298
 21
12.8017429639
  0
LINE
  5
22A
100
AcDbEntity
  8
0
100
AcDbLine
 62
7
  6
CONTINUOUS
 10
6.0517132192
 20
12.8101152373
 11
7.1588256242
 21
12.6407032331
  0
LINE
  5
22B
100
AcDbEntity
  8
0
100
AcDbLine
 62
7
  6
CONTINUOUS
 10
6.0456094267
 20
12.8363402499
 11
7.1724924577
 21
12.6639029148
  0
LINE
  5
22C
100
AcDbEntity
  8
0
100
AcDbLine
 62
7
  6
CONTINUOUS
 10
14.2059012182
 20
12.5038950356
 11
14.2059012182
 21
7.1458067899
  0
LINE
  5
22D
100
AcDbEntity
  8
0
100
AcDbLine
 62
9
  6
CONTINUOUS
 10
14.4182737498
 20
4.2116960279
 11
14.4182737498
 21
5.0283067899
  0
LINE
  5
22E
100
AcDbEntity
  8
0
100
AcDbLine
 62
9
  6
CONTINUOUS
 10
14.4188336288
 20
5.0483067899
 11
14.4188336288
 21
5.8201657766
  0
LINE
  5
22F
100
AcDbEntity
  8
0
100
AcDbLine
 62
7
  6
CONTINUOUS
 10
14.4382737498
 20
5.0283067899
 11
14.4382737498
 21
4.2116962565
  0
LINE
  5
230
100
AcDbEntity
  8
0
100
AcDbLine
 62
9
  6
CONTINUOUS
 10
14.4388023068
 20
5.8201660069
 11
14.4388023068
 21
5.0477397391
  0
LINE
  5
231
100
AcDbEntity
  8
0
100
AcDbLine
 62
7
  6
CONTINUOUS
 10
14.4957737498
 20
8.5958067899
 11
14.4957737498
 21
4.1358067899
  0
LINE
  5
232
100
AcDbEntity
  8
0
100
AcDbLine
 62
9
  6
CONTINUOUS
 10
15.3456462815
 20
12.5038950356
 11
14.2059012182
 21
12.5038950356
  0
LINE
  5
233
100
AcDbEntity
  8
0
100
AcDbLine
 62
9
  6
CONTINUOUS
 10
6.102458236
 20
13.2070061765
 11
7.2290892636
 21
13.0346074034
  0
LINE
  5
234
100
AcDbEntity
  8
0
100
AcDbLine
 62
9
  6
CONTINUOUS
 10
14.7757738624
 20
4.1158076329
 11
14.7757737908
 21
4.0158067896
  0
LINE
  5
235
100
AcDbEntity
  8
0
100
AcDbLine
 62
7
  6
CONTINUOUS
 10
15.0557737498
 20
8.5958067899
 11
15.0557737498
 21
4.1358067899
  0
LINE
  5
236
100
AcDbEntity
  8
0
100
AcDbLine
 62
9
  6
CONTINUOUS
 10
15.1127451928
 20
5.0477397391
 11
15.1127451928
 21
5.8201660069
  0
LINE
  5
237
100
AcDbEntity
  8
0
100
AcDbLine
 62
7
  6
CONTINUOUS
 10
15.1132737498
 20
4.2116962565
 11
15.1132737498
 21
5.0283067899
  0
LINE
  5
238
100
AcDbEntity
  8
0
100
AcDbLine
 62
9
  6
CONTINUOUS
 10
15.1327138708
 20
5.820166087
 11
15.1327138708
 21
5.0483067899
  0
LINE
  5
239
100
AcDbEntity
  8
0
100
AcDbLine
 62
9
  6
CONTINUOUS
 10
15.1332737498
 20
5.0283067899
 11
15.1332737498
 21
4.2116965413
  0
LINE
  5
23A
100
AcDbEntity
  8
0
100
AcDbLine
 62
7
  6
CONTINUOUS
 10
15.3456462815
 20
12.5038950356
 11
15.3456462815
 21
7.1458067899
  0
LINE
  5
23B
100
AcDbEntity
  8
0
100
AcDbLine
 62
7
  6
CONTINUOUS
 10
15.7257737498
 20
0.8758067899
 11
15.7257737498
 21
7.0958067899
  0
LINE
  5
23C
100
AcDbEntity
  8
0
100
AcDbLine
 62
9
  6
CONTINUOUS
 10
15.1408261464
 20
5.8384468981
 11
15.1327138708
 21
5.8201639109
  0
LINE
  5
23D
100
AcDbEntity
  8
0
100
AcDbLine
 62
9
  6
CONTINUOUS
 10
14.4101487498
 20
4.1934210171
 11
14.4182737498
 21
4.2116962565
  0
ARC
  5
23E
100
AcDbEntity
  8
0
100
AcDbCircle
 62
7
  6
CONTINUOUS
 10
10.6973101177
 20
12.5038950356
 40
4.6484636321
100
AcDbArc
 50
0.0
 51
171.3
  0
ARC
  5
23F
100
AcDbEntity
  8
0
100
AcDbCircle
 62
7
  6
CONTINUOUS
 10
10.6973101177
 20
12.5038950356
 40
3.5084636321
100
AcDbArc
 50
0.0
 51
171.3
  0
ARC
  5
240
100
AcDbEntity
  8
0
100
AcDbCircle
 62
7
  6
CONTINUOUS
 10
6.0502002369
 20
12.8002303557
 40
0.01
100
AcDbArc
 50
81.3
 51
171.3
  0
ARC
  5
241
100
AcDbEntity
  8
0
100
AcDbCircle
 62
7
  6
CONTINUOUS
 10
7.1573133901
 20
12.630818237
 40
0.01
100
AcDbArc
 50
351.3
 51
81.3
  0
ARC
  5
242
100
AcDbEntity
  8
0
100
AcDbCircle
 62
7
  6
CONTINUOUS
 10
6.8147076323
 20
10.3918795834
 40
0.01
100
AcDbArc
 50
261.3
 51
351.3
  0
ARC
  5
243
100
AcDbEntity
  8
0
100
AcDbCircle
 62
7
  6
CONTINUOUS
 10
5.707594479
 20
10.5612917021
 40
0.01
100
AcDbArc
 50
171.3
 51
261.3
  0
ARC
  5
244
100
AcDbEntity
  8
0
100
AcDbCircle
 62
7
  6
CONTINUOUS
 10
14.5157737498
 20
4.1358067899
 40
0.02
100
AcDbArc
 50
180.0
 51
270.0
  0
ARC
  5
245
100
AcDbEntity
  8
0
100
AcDbCircle
 62
7
  6
CONTINUOUS
 10
14.4182737498
 20
4.2116962565
 40
0.02
100
AcDbArc
 50
246.0305176822
 51
360.0
  0
ARC
  5
246
100
AcDbEntity
  8
0
100
AcDbCircle
 62
7
  6
CONTINUOUS
 10
13.8557737498
 20
7.0958067899
 40
0.03
100
AcDbArc
 50
90.0
 51
180.0
  0
ARC
  5
247
100
AcDbEntity
  8
0
100
AcDbCircle
 62
7
  6
CONTINUOUS
 10
14.7757737498
 20
5.0158067899
 40
0.9
100
AcDbArc
 50
108.1468539441
 51
251.8285914278
  0
ARC
  5
248
100
AcDbEntity
  8
0
100
AcDbCircle
 62
7
  6
CONTINUOUS
 10
14.7757737498
 20
5.0158067899
 40
0.9
100
AcDbArc
 50
288.1834887
 51
71.8628401976
  0
ARC
  5
249
100
AcDbEntity
  8
0
100
AcDbCircle
 62
9
  6
CONTINUOUS
 10
14.7757737498
 20
5.0158067899
 40
0.88
100
AcDbArc
 50
113.929601172
 51
246.0305237291
  0
ARC
  5
24A
100
AcDbEntity
  8
0
100
AcDbCircle
 62
9
  6
CONTINUOUS
 10
14.7757737498
 20
5.0158067899
 40
0.88
100
AcDbArc
 50
293.9694898502
 51
66.0704070244
  0
ARC
  5
24B
100
AcDbEntity
  8
0
100
AcDbCircle
 62
9
  6
CONTINUOUS
 10
14.7757737498
 20
5.0283067899
 40
0.3575
100
AcDbArc
 50
176.792967358
 51
180.0
  0
ARC
  5
24C
100
AcDbEntity
  8
0
100
AcDbCircle
 62
9
  6
CONTINUOUS
 10
14.7757737498
 20
5.0283067899
 40
0.3575
100
AcDbArc
 50
0.0
 51
3.207032642
  0
ARC
  5
24D
100
AcDbEntity
  8
0
100
AcDbCircle
 62
7
  6
CONTINUOUS
 10
14.7757737498
 20
5.0283067899
 40
0.3375
100
AcDbArc
 50
0.0
 51
33.7808056238
  0
ARC
  5
24E
100
AcDbEntity
  8
0
100
AcDbCircle
 62
7
  6
CONTINUOUS
 10
14.7757737498
 20
4.6033067899
 40
0.3375
100
AcDbArc
 50
180.0
 51
213.6620905689
  0
ARC
  5
24F
100
AcDbEntity
  8
0
100
AcDbCircle
 62
7
  6
CONTINUOUS
 10
14.7757737498
 20
4.6033067899
 40
0.3375
100
AcDbArc
 50
326.337732456
 51
360.0
  0
ARC
  5
250
100
AcDbEntity
  8
0
100
AcDbCircle
 62
7
  6
CONTINUOUS
 10
14.7757737498
 20
5.0283067899
 40
0.3375
100
AcDbArc
 50
146.2143755227
 51
180.0
  0
ARC
  5
251
100
AcDbEntity
  8
0
100
AcDbCircle
 62
7
  6
CONTINUOUS
 10
15.1332737498
 20
4.2116962565
 40
0.02
100
AcDbArc
 50
180.0
 51
293.9694823178
  0
ARC
  5
252
100
AcDbEntity
  8
0
100
AcDbCircle
 62
7
  6
CONTINUOUS
 10
15.0357737498
 20
4.1358067899
 40
0.02
100
AcDbArc
 50
270.0
 51
360.0
  0
ARC
  5
253
100
AcDbEntity
  8
0
100
AcDbCircle
 62
7
  6
CONTINUOUS
 10
15.6957737498
 20
7.0958067899
 40
0.03
100
AcDbArc
 50
0.0
 51
90.0
  0
ARC
  5
254
100
AcDbEntity
  8
0
100
AcDbCircle
 62
7
  6
CONTINUOUS
 10
15.0357737498
 20
8.5958067899
 40
0.02
100
AcDbArc
 50
0.0
 51
90.0
  0
ARC
  5
255
100
AcDbEntity
  8
0
100
AcDbCircle
 62
7
  6
CONTINUOUS
 10
14.5157737498
 20
8.5958067899
 40
0.02
100
AcDbArc
 50
90.0
 51
180.0
  0
LINE
  5
256
100
AcDbEntity
  8
0
100
AcDbLine
 62
7
  6
CONTINUOUS
 10
15.1127451928
 20
5.0477397492
 11
15.1126806362
 21
5.0483066379
  0
LINE
  5
257
100
AcDbEntity
  8
0
100
AcDbLine
 62
7
  6
CONTINUOUS
 10
14.4388668634
 20
5.0483066356
 11
14.4388023068
 21
5.0477397492
  0
SPLINE
  5
258
100
AcDbEntity
  8
0
100
AcDbSpline
 62
9
  6
CONTINUOUS
 70
0
 71
3
 72
22
 73
18
 74
0
 42
0.0000001
 43
0.0000001
 44
0.0000000001
 40
0.0
 40
0.0
 40
0.0
 40
0.0
 40
0.0030611375
 40
0.0078498089
 40
0.0145707576
 40
0.0232748761
 40
0.0466431119
 40
0.0778747883
 40
0.1168064513
 40
0.1632523969
 40
0.2170180715
 40
0.2779049384
 40
0.3457126023
 40
0.4202398705
 40
0.5887172945
 40
0.7822596135
 40
1.0
 40
1.0
 40
1.0
 40
1.0
 10
15.1132737498
 20
4.2116962615
 30
0.0
 10
15.11327374
 20
4.2116307651
 30
0.0
 10
15.1132004867
 20
4.2114694311
 30
0.0
 10
15.1130044352
 20
4.2112297179
 30
0.0
 10
15.1126912708
 20
4.2109285177
 30
0.0
 10
15.1120514912
 20
4.2104001601
 30
0.0
 10
15.1109455149
 20
4.2096151428
 30
0.0
 10
15.1092628436
 20
4.208532
 30
0.0
 10
15.1071235659
 20
4.2072471847
 30
0.0
 10
15.1045380114
 20
4.2057710934
 30
0.0
 10
15.1015151224
 20
4.2041145188
 30
0.0
 10
15.0980648275
 20
4.2022877752
 30
0.0
 10
15.0941969502
 20
4.2003011052
 30
0.0
 10
15.0882478689
 20
4.1973288117
 30
0.0
 10
15.0798272427
 20
4.1932853494
 30
0.0
 10
15.0685346526
 20
4.1881498721
 30
0.0
 10
15.0604452979
 20
4.1846835694
 30
0.0
 10
15.0561434065
 20
4.1828952543
 30
0.0
  0
SPLINE
  5
259
100
AcDbEntity
  8
0
100
AcDbSpline
 62
9
  6
CONTINUOUS
 70
0
 71
3
 72
22
 73
18
 74
0
 42
0.0000001
 43
0.0000001
 44
0.0000000001
 40
0.0
 40
0.0
 40
0.0
 40
0.0
 40
0.2177283295
 40
0.411266717
 40
0.5797447185
 40
0.6542731145
 40
0.7220823174
 40
0.7829710194
 40
0.8367387096
 40
0.8831867338
 40
0.9221204196
 40
0.9533539404
 40
0.9767237123
 40
0.9854284368
 40
0.9921498522
 40
0.9969388147
 40
1.0
 40
1.0
 40
1.0
 40
1.0
 10
14.4954071905
 20
4.182894084
 30
0.0
 10
14.491105309
 20
4.1846823669
 30
0.0
 10
14.4830158321
 20
4.1881486495
 30
0.0
 10
14.4717229131
 20
4.1932841283
 30
0.0
 10
14.4633018646
 20
4.1973276975
 30
0.0
 10
14.4573524035
 20
4.2003001417
 30
0.0
 10
14.4534842355
 20
4.2022869398
 30
0.0
 10
14.450033657
 20
4.204113818
 30
0.0
 10
14.4470104978
 20
4.2057705278
 30
0.0
 10
14.4444246928
 20
4.2072467492
 30
0.0
 10
14.4422851907
 20
4.2085316838
 30
0.0
 10
14.4406023274
 20
4.2096149295
 30
0.0
 10
14.4394962136
 20
4.2104000194
 30
0.0
 10
14.4388563446
 20
4.2109284218
 30
0.0
 10
14.4385431306
 20
4.2112296448
 30
0.0
 10
14.4383470451
 20
4.2114693711
 30
0.0
 10
14.4382737665
 20
4.2116307114
 30
0.0
 10
14.4382737498
 20
4.2116962121
 30
0.0
  0
SPLINE
  5
25A
100
AcDbEntity
  8
0
100
AcDbSpline
 62
9
  6
CONTINUOUS
 70
0
 71
3
 72
13
 73
9
 74
0
 42
0.0000001
 43
0.0000001
 44
0.0000000001
 40
0.0
 40
0.0
 40
0.0
 40
0.0
 40
0.037032526
 40
0.1012171101
 40
0.1915446467
 40
0.3070147483
 40
0.609426204
 40
1.0
 40
1.0
 40
1.0
 40
1.0
 10
14.4388024756
 20
5.8201661882
 30
0.0
 10
14.439474263
 20
5.8204819543
 30
0.0
 10
14.4413060547
 20
5.8213541904
 30
0.0
 10
14.4447842366
 20
5.8229801218
 30
0.0
 10
14.4497042145
 20
5.8252341359
 30
0.0
 10
14.459006381
 20
5.8293867142
 30
0.0
 10
14.4739127817
 20
5.8357463153
 30
0.0
 10
14.486817279
 20
5.840892297
 30
0.0
 10
14.494131144
 20
5.8436848443
 30
0.0
  0
SPLINE
  5
25B
100
AcDbEntity
  8
0
100
AcDbSpline
 62
9
  6
CONTINUOUS
 70
0
 71
3
 72
40
 73
36
 74
0
 42
0.0000001
 43
0.0000001
 44
0.0000000001
 40
0.0
 40
0.0
 40
0.0
 40
0.0
 40
0.0332078906
 40
0.0655927325
 40
0.0971728614
 40
0.1280172901
 40
0.1582258493
 40
0.187917
 40
0.2172238155
 40
0.2462969302
 40
0.3044648656
 40
0.3646978531
 40
0.396796984
 40
0.4307578023
 40
0.4482247071
 40
0.4656740095
 40
0.4828295478
 40
0.4995349591
 40
0.5157531329
 40
0.531530144
 40
0.5620593492
 40
0.6208246545
 40
0.6498406762
 40
0.6789236686
 40
0.708250274
 40
0.7379697039
 40
0.76821407
 40
0.7991010774
 40
0.8307291556
 40
0.8631647117
 40
0.8964222057
 40
0.9304377702
 40
0.9476897584
 40
0.9650608555
 40
1.0
 40
1.0
 40
1.0
 40
1.0
 10
15.0561254072
 20
5.9665867725
 30
0.0
 10
15.0843130285
 20
5.956432369
 30
0.0
 10
15.1389655638
 20
5.9333945766
 30
0.0
 10
15.2159451781
 20
5.8911463252
 30
0.0
 10
15.2866558786
 20
5.8427772768
 30
0.0
 10
15.3510342252
 20
5.7893033505
 30
0.0
 10
15.4091998062
 20
5.7315405102
 30
0.0
 10
15.4613545403
 20
5.6701211755
 30
0.0
 10
15.5077338351
 20
5.6054932379
 30
0.0
 10
15.5621739922
 20
5.5154254693
 30
0.0
 10
15.6176831146
 20
5.3939102339
 30
0.0
 10
15.6550339044
 20
5.2627905651
 30
0.0
 10
15.6735459518
 20
5.1502622473
 30
0.0
 10
15.6797026675
 20
5.0750541793
 30
0.0
 10
15.6808613171
 20
5.0129078139
 30
0.0
 10
15.6797405965
 20
4.965925785
 30
0.0
 10
15.6766647631
 20
4.9197213873
 30
0.0
 10
15.6718035715
 20
4.8747884399
 30
0.0
 10
15.6653005348
 20
4.8313215834
 30
0.0
 10
15.654744266
 20
4.7758927226
 30
0.0
 10
15.6316989116
 20
4.6838629636
 30
0.0
 10
15.5941457374
 20
4.5834344348
 30
0.0
 10
15.5462080883
 20
4.4894368635
 30
0.0
 10
15.5050421607
 20
4.4220553938
 30
0.0
 10
15.4583156803
 20
4.3576182344
 30
0.0
 10
15.4057969291
 20
4.2964078416
 30
0.0
 10
15.347254636
 20
4.2388890758
 30
0.0
 10
15.2824883082
 20
4.1857035943
 30
0.0
 10
15.2113900542
 20
4.137680247
 30
0.0
 10
15.1340224004
 20
4.0958434561
 30
0.0
 10
15.0507530057
 20
4.0613711621
 30
0.0
 10
14.9773965236
 20
4.0399217906
 30
0.0
 10
14.916685445
 20
4.0275574602
 30
0.0
 10
14.8545504691
 20
4.0185480718
 30
0.0
 10
14.8072965969
 20
4.0158110857
 30
0.0
 10
14.7757737498
 20
4.0158067899
 30
0.0
  0
SPLINE
  5
25C
100
AcDbEntity
  8
0
100
AcDbSpline
 62
9
  6
CONTINUOUS
 70
0
 71
3
 72
43
 73
39
 74
0
 42
0.0000001
 43
0.0000001
 44
0.0000000001
 40
0.0
 40
0.0
 40
0.0
 40
0.0
 40
0.0349350618
 40
0.0523040947
 40
0.0695540193
 40
0.1035655079
 40
0.1368190548
 40
0.169250758
 40
0.2008750501
 40
0.231758419
 40
0.261999239
 40
0.2917150116
 40
0.3210378858
 40
0.3501171541
 40
0.3791293793
 40
0.4082984551
 40
0.4379297558
 40
0.4684539605
 40
0.5004402354
 40
0.5342900829
 40
0.5691941159
 40
0.5778428035
 40
0.586396109
 40
0.603158914
 40
0.6194340936
 40
0.6352594217
 40
0.6658575609
 40
0.6955290889
 40
0.724716751
 40
0.7537318912
 40
0.7828018087
 40
0.8121053694
 40
0.841793116
 40
0.8719980276
 40
0.9028387327
 40
0.9344151152
 40
0.966796082
 40
1.0
 40
1.0
 40
1.0
 40
1.0
 10
14.7757737498
 20
4.0158067899
 30
0.0
 10
14.7442508532
 20
4.0158109156
 30
0.0
 10
14.6969969427
 20
4.0185481739
 30
0.0
 10
14.6348619364
 20
4.0275574805
 30
0.0
 10
14.5741509358
 20
4.0399218566
 30
0.0
 10
14.500794481
 20
4.061371085
 30
0.0
 10
14.4175252266
 20
4.0958435522
 30
0.0
 10
14.3401575157
 20
4.1376801109
 30
0.0
 10
14.2690593414
 20
4.1857035427
 30
0.0
 10
14.2042929624
 20
4.2388889372
 30
0.0
 10
14.1457506763
 20
4.2964077353
 30
0.0
 10
14.0932323579
 20
4.3576176413
 30
0.0
 10
14.0465057513
 20
4.4220554541
 30
0.0
 10
14.0053416619
 20
4.489431715
 30
0.0
 10
13.9695369853
 20
4.5596426423
 30
0.0
 10
13.9389341781
 20
4.6328106297
 30
0.0
 10
13.913470986
 20
4.70936254
 30
0.0
 10
13.8932401561
 20
4.7900882945
 30
0.0
 10
13.8786898203
 20
4.8759037371
 30
0.0
 10
13.8708031794
 20
4.9665633437
 30
0.0
 10
13.8706255832
 20
5.036502133
 30
0.0
 10
13.8730015779
 20
5.0834605506
 30
0.0
 10
13.8752055254
 20
5.1140307962
 30
0.0
 10
13.8790547963
 20
5.1513731152
 30
0.0
 10
13.8853622354
 20
5.1950228635
 30
0.0
 10
13.8956827277
 20
5.2506603585
 30
0.0
 10
13.9120667722
 20
5.3174144557
 30
0.0
 10
13.9372200213
 20
5.3941932471
 30
0.0
 10
13.9675039474
 20
5.4675543354
 30
0.0
 10
14.0029844367
 20
5.53794171
 30
0.0
 10
14.0438135567
 20
5.6054940162
 30
0.0
 10
14.0901917554
 20
5.6701195912
 30
0.0
 10
14.1423470401
 20
5.7315398464
 30
0.0
 10
14.2005124256
 20
5.7893025264
 30
0.0
 10
14.2648906063
 20
5.842776537
 30
0.0
 10
14.3356011612
 20
5.8911455854
 30
0.0
 10
14.4125806317
 20
5.93339393
 30
0.0
 10
14.4672330136
 20
5.9564319016
 30
0.0
 10
14.4954205835
 20
5.9665863411
 30
0.0
  0
LINE
  5
25D
100
AcDbEntity
  8
0
100
AcDbLine
 62
7
  6
CONTINUOUS
 10
15.1327138708
 20
5.0483071653
 11
15.1127451928
 21
5.0477397391
  0
SPLINE
  5
25E
100
AcDbEntity
  8
0
100
AcDbSpline
 62
9
  6
CONTINUOUS
 70
0
 71
3
 72
15
 73
11
 74
0
 42
0.0000001
 43
0.0000001
 44
0.0000000001
 40
0.0
 40
0.0
 40
0.0
 40
0.0
 40
0.1249041481
 40
0.2501753308
 40
0.3752417229
 40
0.5002754349
 40
0.6252508883
 40
0.750174568
 40
0.8752869969
 40
1.0
 40
1.0
 40
1.0
 40
1.0
 10
15.1127451928
 20
5.8201660069
 30
0.0
 10
15.1127474025
 20
5.8218156417
 30
0.0
 10
15.1131690078
 20
5.8251329069
 30
0.0
 10
15.1149891298
 20
5.8297944855
 30
0.0
 10
15.117906212
 20
5.8338677746
 30
0.0
 10
15.1217326522
 20
5.8370928921
 30
0.0
 10
15.1262283393
 20
5.8392867534
 30
0.0
 10
15.1311295307
 20
5.8403040312
 30
0.0
 10
15.1361223507
 20
5.8400759249
 30
0.0
 10
15.1393206088
 20
5.83911498
 30
0.0
 10
15.1408261464
 20
5.8384468981
 30
0.0
  0
LINE
  5
25F
100
AcDbEntity
  8
0
100
AcDbLine
 62
7
  6
CONTINUOUS
 10
14.4188336288
 20
5.0483071653
 11
14.4388023068
 21
5.0477397391
  0
SPLINE
  5
260
100
AcDbEntity
  8
0
100
AcDbSpline
 62
9
  6
CONTINUOUS
 70
0
 71
3
 72
9
 73
5
 74
0
 42
0.0000001
 43
0.0000001
 44
0.0000000001
 40
0.0
 40
0.0
 40
0.0
 40
0.0
 40
0.504812529
 40
1.0
 40
1.0
 40
1.0
 40
1.0
 10
14.4409179668
 20
4.5611421771
 30
0.0
 10
14.440051982
 20
4.5583449144
 30
0.0
 10
14.4387251093
 20
4.5526738505
 30
0.0
 10
14.4382737498
 20
4.5468646955
 30
0.0
 10
14.4382737498
 20
4.543992284
 30
0.0
  0
SPLINE
  5
261
100
AcDbEntity
  8
0
100
AcDbSpline
 62
9
  6
CONTINUOUS
 70
0
 71
3
 72
15
 73
11
 74
0
 42
0.0000001
 43
0.0000001
 44
0.0000000001
 40
0.0
 40
0.0
 40
0.0
 40
0.0
 40
0.1247102768
 40
0.24979935
 40
0.374717204
 40
0.499700231
 40
0.6247348823
 40
0.7497953191
 40
0.8750829489
 40
1.0
 40
1.0
 40
1.0
 40
1.0
 10
14.41072134
 20
5.8384468923
 30
0.0
 10
14.412226772
 20
5.8391149405
 30
0.0
 10
14.4154244549
 20
5.8400761369
 30
0.0
 10
14.420416634
 20
5.840303928
 30
0.0
 10
14.425317407
 20
5.8392873326
 30
0.0
 10
14.4298130398
 20
5.8370937598
 30
0.0
 10
14.4336397587
 20
5.8338693399
 30
0.0
 10
14.4365573634
 20
5.8297964322
 30
0.0
 10
14.4383774195
 20
5.825134789
 30
0.0
 10
14.4387999577
 20
5.8218174159
 30
0.0
 10
14.4388023067
 20
5.8201676854
 30
0.0
  0
SPLINE
  5
262
100
AcDbEntity
  8
0
100
AcDbSpline
 62
9
  6
CONTINUOUS
 70
0
 71
3
 72
9
 73
5
 74
0
 42
0.0000001
 43
0.0000001
 44
0.0000000001
 40
0.0
 40
0.0
 40
0.0
 40
0.0
 40
0.495187471
 40
1.0
 40
1.0
 40
1.0
 40
1.0
 10
15.1132737498
 20
4.543992284
 30
0.0
 10
15.1132737498
 20
4.5468646955
 30
0.0
 10
15.1128223904
 20
4.5526738505
 30
0.0
 10
15.1114955176
 20
4.5583449144
 30
0.0
 10
15.1106295328
 20
4.5611421771
 30
0.0
  0
SPLINE
  5
263
100
AcDbEntity
  8
0
100
AcDbSpline
 62
9
  6
CONTINUOUS
 70
0
 71
3
 72
13
 73
9
 74
0
 42
0.0000001
 43
0.0000001
 44
0.0000000001
 40
0.0
 40
0.0
 40
0.0
 40
0.0
 40
0.39056374
 40
0.6929768956
 40
0.8084502329
 40
0.8987810235
 40
0.9629677066
 40
1.0
 40
1.0
 40
1.0
 40
1.0
 10
15.0573923665
 20
5.8436941211
 30
0.0
 10
15.0647092537
 20
5.8409006659
 30
0.0
 10
15.0776192257
 20
5.8357528166
 30
0.0
 10
15.0925320113
 20
5.8293907762
 30
0.0
 10
15.1018383679
 20
5.8252364911
 30
0.0
 10
15.1067606336
 20
5.8229814989
 30
0.0
 10
15.1102403963
 20
5.8213548277
 30
0.0
 10
15.1120729958
 20
5.8204821827
 30
0.0
 10
15.1127450413
 20
5.8201662301
 30
0.0
  0
ELLIPSE
  5
264
100
AcDbEntity
  8
0
100
AcDbEllipse
 62
7
  6
CONTINUOUS
 10
6.7387566189
 20
10.6625291302
 30
0.0
 11
0.7498493085
 21
0.3383874802
 31
0.0
 40
0.0549449437
 41
-2.1674769265
 42
-2.1197320842
  0
ELLIPSE
  5
265
100
AcDbEntity
  8
0
100
AcDbEllipse
 62
7
  6
CONTINUOUS
 10
6.2303698571
 20
10.7403232366
 30
0.0
 11
-0.4616966797
 21
0.3067015583
 31
0.0
 40
0.7641869673
 41
1.1791537267
 42
1.226898569
  0
ELLIPSE
  5
266
100
AcDbEntity
  8
0
100
AcDbEllipse
 62
7
  6
CONTINUOUS
 10
6.0981519271
 20
10.760555423
 30
0.0
 11
-0.4767603229
 21
0.4336411964
 31
0.0
 40
0.5099348041
 41
1.5493468687
 42
1.5970917109
  0
ELLIPSE
  5
267
100
AcDbEntity
  8
0
100
AcDbEllipse
 62
7
  6
CONTINUOUS
 10
5.9856806382
 20
10.7777659487
 30
0.0
 11
0.5348672792
 21
-0.4932354612
 31
0.0
 40
0.3175215947
 41
-1.3776613243
 42
-1.3299164821
  0
ELLIPSE
  5
268
100
AcDbEntity
  8
0
100
AcDbEllipse
 62
7
  6
CONTINUOUS
 10
5.9039654635
 20
10.7902701275
 30
0.0
 11
0.5857303685
 21
-0.5294906033
 31
0.0
 40
0.1730990572
 41
-1.1940204575
 42
-1.1462756153
  0
ELLIPSE
  5
269
100
AcDbEntity
  8
0
100
AcDbEllipse
 62
7
  6
CONTINUOUS
 10
5.8610052539
 20
10.7968439633
 30
0.0
 11
0.6143447903
 21
-0.5471385116
 31
0.0
 40
0.0549449437
 41
-1.0218605693
 42
-0.9741157271
  0
ELLIPSE
  5
26A
100
AcDbEntity
  8
0
100
AcDbEllipse
 62
7
  6
CONTINUOUS
 10
6.2558424109
 20
10.4418934939
 30
0.0
 11
0.3267503821
 21
0.119684463
 31
0.0
 40
0.365809989
 41
2.0950792183
 42
2.1173952585
  0
ELLIPSE
  5
26B
100
AcDbEntity
  8
0
100
AcDbEllipse
 62
7
  6
CONTINUOUS
 10
6.2558424109
 20
10.4418934939
 30
0.0
 11
0.3334514417
 21
0.1411947394
 31
0.0
 40
0.2168892597
 41
1.7842091305
 42
1.8689301166
  0
ELLIPSE
  5
26C
100
AcDbEntity
  8
0
100
AcDbEllipse
 62
7
  6
CONTINUOUS
 10
6.2558424109
 20
10.4418934939
 30
0.0
 11
0.3373745998
 21
0.1508953478
 31
0.0
 40
0.0717446904
 41
1.5567527315
 42
1.6414737176
  0
ELLIPSE
  5
26D
100
AcDbEntity
  8
0
100
AcDbEllipse
 62
7
  6
CONTINUOUS
 10
6.2558424109
 20
10.4418934939
 30
0.0
 11
0.2768125846
 21
-0.2448791939
 31
0.0
 40
0.0717446904
 41
1.5001189359
 42
1.5848399221
  0
ELLIPSE
  5
26E
100
AcDbEntity
  8
0
100
AcDbEllipse
 62
7
  6
CONTINUOUS
 10
6.2558424109
 20
10.4418934939
 30
0.0
 11
0.2759698266
 21
-0.2344492978
 31
0.0
 40
0.2168892597
 41
1.272662537
 42
1.3583573712
  0
ELLIPSE
  5
26F
100
AcDbEntity
  8
0
100
AcDbEllipse
 62
7
  6
CONTINUOUS
 10
6.2558424109
 20
10.4418934939
 30
0.0
 11
0.2760078553
 21
-0.2119194345
 31
0.0
 40
0.365809989
 41
1.024197395
 42
1.0465134353
  0
ELLIPSE
  5
270
100
AcDbEntity
  8
0
100
AcDbEllipse
 62
7
  6
CONTINUOUS
 10
6.6957964093
 20
10.6691029661
 30
0.0
 11
0.7172668287
 21
0.3301040138
 31
0.0
 40
0.1730990572
 41
-1.9953170383
 42
-1.9475721961
  0
ELLIPSE
  5
271
100
AcDbEntity
  8
0
100
AcDbEllipse
 62
7
  6
CONTINUOUS
 10
6.6140812346
 20
10.6816071449
 30
0.0
 11
0.6578894513
 21
0.3107180336
 31
0.0
 40
0.3175215947
 41
-1.8116761715
 42
-1.7639313293
  0
ELLIPSE
  5
272
100
AcDbEntity
  8
0
100
AcDbEllipse
 62
7
  6
CONTINUOUS
 10
6.5016099457
 20
10.6988176706
 30
0.0
 11
0.5846203341
 21
0.2712271331
 31
0.0
 40
0.5099348041
 41
-1.5970917109
 42
-1.5493468687
  0
ELLIPSE
  5
273
100
AcDbEntity
  8
0
100
AcDbEllipse
 62
7
  6
CONTINUOUS
 10
6.3693920157
 20
10.7190498569
 30
0.0
 11
0.5322858683
 21
0.1546008549
 31
0.0
 40
0.7641869673
 41
-1.226898569
 42
-1.1791537267
  0
ELLIPSE
  5
274
100
AcDbEntity
  8
0
100
AcDbEllipse
 62
7
  6
CONTINUOUS
 10
6.5016099457
 20
10.6988176706
 30
0.0
 11
0.5846203341
 21
0.2712271331
 31
0.0
 40
0.5099348041
 41
2.859005215
 42
2.9067500572
  0
ELLIPSE
  5
275
100
AcDbEntity
  8
0
100
AcDbEllipse
 62
7
  6
CONTINUOUS
 10
6.0431405177
 20
10.512980863
 30
0.0
 11
0.0262661079
 21
0.0096209375
 31
0.0
 40
0.365809989
 41
3.0925232084
 42
4.2838652322
  0
ELLIPSE
  5
276
100
AcDbEntity
  8
0
100
AcDbEllipse
 62
7
  6
CONTINUOUS
 10
6.3764583282
 20
10.4619760707
 30
0.0
 11
0.0221840697
 21
-0.0188464066
 31
0.0
 40
0.2168892597
 41
-0.9737181431
 42
0.2975345929
  0
ELLIPSE
  5
277
100
AcDbEntity
  8
0
100
AcDbEllipse
 62
7
  6
CONTINUOUS
 10
5.9039654635
 20
10.7902701275
 30
0.0
 11
0.5857303685
 21
-0.5294906033
 31
0.0
 40
0.1730990572
 41
0.6330679238
 42
0.680812766
  0
ELLIPSE
  5
278
100
AcDbEntity
  8
0
100
AcDbEllipse
 62
7
  6
CONTINUOUS
 10
6.146751348
 20
10.4971261781
 30
0.0
 11
0.0268047783
 21
0.0113500594
 31
0.0
 40
0.2168892597
 41
2.8440580666
 42
4.1153078879
  0
ELLIPSE
  5
279
100
AcDbEntity
  8
0
100
AcDbEllipse
 62
7
  6
CONTINUOUS
 10
5.9856806382
 20
10.7777659487
 30
0.0
 11
0.5348672792
 21
-0.4932354612
 31
0.0
 40
0.3175215947
 41
0.449427057
 42
0.4971718992
  0
ELLIPSE
  5
27A
100
AcDbEntity
  8
0
100
AcDbEllipse
 62
7
  6
CONTINUOUS
 10
6.0981519271
 20
10.760555423
 30
0.0
 11
-0.4767603229
 21
0.4336411964
 31
0.0
 40
0.5099348041
 41
-2.9067500572
 42
-2.859005215
  0
ELLIPSE
  5
27B
100
AcDbEntity
  8
0
100
AcDbEllipse
 62
7
  6
CONTINUOUS
 10
6.6140812346
 20
10.6816071449
 30
0.0
 11
0.6578894513
 21
0.3107180336
 31
0.0
 40
0.3175215947
 41
2.6444207544
 42
2.6921655966
  0
ELLIPSE
  5
27C
100
AcDbEntity
  8
0
100
AcDbEllipse
 62
7
  6
CONTINUOUS
 10
6.2303698571
 20
10.7403232366
 30
0.0
 11
-0.4616966797
 21
0.3067015583
 31
0.0
 40
0.7641869673
 41
-3.2769431992
 42
-3.229198357
  0
ELLIPSE
  5
27D
100
AcDbEntity
  8
0
100
AcDbEllipse
 62
7
  6
CONTINUOUS
 10
6.6957964093
 20
10.6691029661
 30
0.0
 11
0.7172668287
 21
0.3301040138
 31
0.0
 40
0.1730990572
 41
2.4607798876
 42
2.5085247298
  0
ELLIPSE
  5
27E
100
AcDbEntity
  8
0
100
AcDbEllipse
 62
7
  6
CONTINUOUS
 10
6.2616048381
 20
10.4795511244
 30
0.0
 11
0.0222518155
 21
-0.0196848227
 31
0.0
 40
0.0717446904
 41
-0.7462617439
 42
0.5249909918
  0
ELLIPSE
  5
27F
100
AcDbEntity
  8
0
100
AcDbEllipse
 62
7
  6
CONTINUOUS
 10
6.2616048381
 20
10.4795511244
 30
0.0
 11
0.0271201447
 21
0.0121298511
 31
0.0
 40
0.0717446904
 41
8.8997869747
 42
10.1710367962
  0
ELLIPSE
  5
280
100
AcDbEntity
  8
0
100
AcDbEllipse
 62
7
  6
CONTINUOUS
 10
5.8610052539
 20
10.7968439633
 30
0.0
 11
0.6143447903
 21
-0.5471385116
 31
0.0
 40
0.0549449437
 41
0.8052278119
 42
0.8529726541
  0
ELLIPSE
  5
281
100
AcDbEntity
  8
0
100
AcDbEllipse
 62
7
  6
CONTINUOUS
 10
6.7387566189
 20
10.6625291302
 30
0.0
 11
0.7498493085
 21
0.3383874802
 31
0.0
 40
0.0549449437
 41
2.2886199994
 42
2.3363648417
  0
ELLIPSE
  5
282
100
AcDbEntity
  8
0
100
AcDbEllipse
 62
7
  6
CONTINUOUS
 10
6.3693920157
 20
10.7190498569
 30
0.0
 11
0.5322858683
 21
0.1546008549
 31
0.0
 40
0.7641869673
 41
-3.0539869502
 42
-3.006242108
  0
ELLIPSE
  5
283
100
AcDbEntity
  8
0
100
AcDbEllipse
 62
7
  6
CONTINUOUS
 10
6.4800691585
 20
10.4461213857
 30
0.0
 11
0.0221871266
 21
-0.0170353243
 31
0.0
 40
0.365809989
 41
5.1409151418
 42
6.3322547581
  0
ENDSEC
  0
SECTION
  2
OBJECTS
  0
DICTIONARY
  5
C
100
AcDbDictionary
280
0
281
1
  3
ACAD_GROUP
350
D
  3
ACAD_MLINESTYLE
350
17
  3
ACAD_LAYOUT
350
1A
  3
ACAD_PLOTSETTINGS
350
19
  3
ACAD_PLOTSTYLENAME
350
E
  0
DICTIONARY
  5
D
102
{ACAD_REACTORS
330
C
102
}
100
AcDbDictionary
280
0
281
1
  0
ACDBDICTIONARYWDFLT
  5
E
102
{ACAD_REACTORS
330
C
102
}
100
AcDbDictionary
281
1
  3
Normal
350
F
100
AcDbDictionaryWithDefault
340
F
  0
DICTIONARY
  5
17
102
{ACAD_REACTORS
330
C
102
}
100
AcDbDictionary
280
0
281
1
  3
Standard
350
18
  0
DICTIONARY
  5
19
102
{ACAD_REACTORS
330
C
102
}
100
AcDbDictionary
281
1
  0
DICTIONARY
  5
1A
102
{ACAD_REACTORS
330
C
102
}
100
AcDbDictionary
281
1
  3
Model
350
284
  3
Layout1
350
285
  0
ACDBPLACEHOLDER
  5
F
102
{ACAD_REACTORS
330
E
102
}
  0
MLINESTYLE
  5
18
102
{ACAD_REACTORS
330
17
102
}
100
AcDbMlineStyle
  2
STANDARD
 70
0
  3

 62
256
 51
90.0
 52
90.0
 71
2
 49
0.5
 62
256
  6
BYLAYER
 49
-0.5
 62
256
  6
BYLAYER
  0
LAYOUT
  5
284
102
{ACAD_REACTORS
330
1A
102
}
100
AcDbPlotSettings
  1

  2
none_device
  4
ANSI_C_(22.00_x_17.00_Inches)
  6

 40
0.0
 41
0.0
 42
0.0
 43
0.0
 44
558.8
 45
431.8
 46
0.0
 47
0.0
 48
0.0
 49
0.0
140
0.0
141
0.0
142
1.0
143
1.0
 70
1024
 72
0
 73
0
 74
0
  7

 75
0
147
1.0
148
0.0
149
0.0
100
AcDbLayout
  1
Model
 70
0
 71
0
 10
0.0
 20
0.0
 11
22.0
 21
17.0
 12
0.0
 22
0.0
 32
0.0
 14
0.0
 24
0.0
 34
0.0
 15
0.0
 25
0.0
 35
0.0
146
0.0
 13
0.0
 23
0.0
 33
0.0
 16
1.0
 26
0.0
 36
0.0
 17
0.0
 27
1.0
 37
0.0
 76
0
330
202
345
0
346
0
  0
LAYOUT
  5
285
102
{ACAD_REACTORS
330
1A
102
}
100
AcDbPlotSettings
  1

  2
none_device
  4
ANSI_C_(22.00_x_17.00_Inches)
  6

 40
0.0
 41
0.0
 42
0.0
 43
0.0
 44
558.8
 45
431.8
 46
0.0
 47
0.0
 48
0.0
 49
0.0
140
0.0
141
0.0
142
1.0
143
1.0
 70
0
 72
0
 73
0
 74
0
  7

 75
0
147
1.0
148
0.0
149
0.0
100
AcDbLayout
  1
Layout1
 70
0
 71
1
 10
0.0
 20
0.0
 11
22.0
 21
17.0
 12
0.0
 22
0.0
 32
0.0
 14
0.0
 24
0.0
 34
0.0
 15
0.0
 25
0.0
 35
0.0
146
0.0
 13
0.0
 23
0.0
 33
0.0
 16
1.0
 26
0.0
 36
0.0
 17
0.0
 27
1.0
 37
0.0
 76
0
330
203
345
0
346
0
  0
ENDSEC
  0
EOF
